  0
SECTION
  2
HEADER
  9
$ACADVER
  1
AC1009
  9
$DWGCODEPAGE
  3
ansi_1252
  9
$INSBASE
 10
0.0
 20
0.0
 30
0.0
  9
$EXTMIN
 10
0.0
 20
0.0
 30
0.0
  9
$EXTMAX
 10
1500.0
 20
1000.0
 30
0.0
  9
$LIMMIN
 10
0.0
 20
0.0
  9
$LIMMAX
 10
0.0
 20
0.0
  9
$ORTHOMODE
 70
     0
  9
$REGENMODE
 70
     1
  9
$FILLMODE
 70
     1
  9
$QTEXTMODE
 70
     0
  9
$MIRRTEXT
 70
     1
  9
$DRAGMODE
 70
     2
  9
$LTSCALE
 40
1.0
  9
$OSMODE
 70
    37
  9
$ATTMODE
 70
     1
  9
$TEXTSIZE
 40
5.0
  9
$TRACEWID
 40
1.0
  9
$TEXTSTYLE
  7
STANDARD
  9
$CLAYER
  8
0
  9
$CELTYPE
  6
BYLAYER
  9
$CECOLOR
 62
   256
  9
$DIMSCALE
 40
1.0
  9
$DIMASZ
 40
6.0
  9
$DIMEXO
 40
1.0
  9
$DIMDLI
 40
3.75
  9
$DIMRND
 40
0.0
  9
$DIMDLE
 40
0.0
  9
$DIMEXE
 40
1.0
  9
$DIMTP
 40
0.0
  9
$DIMTM
 40
0.0
  9
$DIMTXT
 40
5.0
  9
$DIMCEN
 40
2.5
  9
$DIMTSZ
 40
0.0
  9
$DIMTOL
 70
     0
  9
$DIMLIM
 70
     0
  9
$DIMTIH
 70
     1
  9
$DIMTOH
 70
     1
  9
$DIMSE1
 70
     0
  9
$DIMSE2
 70
     0
  9
$DIMTAD
 70
     1
  9
$DIMZIN
 70
     0
  9
$DIMBLK
  1

  9
$DIMASO
 70
     1
  9
$DIMSHO
 70
     1
  9
$DIMPOST
  1

  9
$DIMAPOST
  1

  9
$DIMALT
 70
     0
  9
$DIMALTD
 70
     3
  9
$DIMALTF
 40
0.0393700787
  9
$DIMLFAC
 40
1.0
  9
$DIMTOFL
 70
     1
  9
$DIMTVP
 40
0.0
  9
$DIMTIX
 70
     0
  9
$DIMSOXD
 70
     0
  9
$DIMSAH
 70
     0
  9
$DIMBLK1
  1

  9
$DIMBLK2
  1

  9
$DIMSTYLE
  2
ISO-25
  9
$DIMCLRD
 70
     0
  9
$DIMCLRE
 70
     0
  9
$DIMCLRT
 70
     0
  9
$DIMTFAC
 40
1.0
  9
$DIMGAP
 40
1.524
  9
$LUNITS
 70
     2
  9
$LUPREC
 70
     2
  9
$SKETCHINC
 40
1.0
  9
$FILLETRAD
 40
10.0
  9
$AUNITS
 70
     0
  9
$AUPREC
 70
     0
  9
$MENU
  1
.
  9
$ELEVATION
 40
0.0
  9
$PELEVATION
 40
0.0
  9
$THICKNESS
 40
0.0
  9
$LIMCHECK
 70
     0
  9
$CHAMFERA
 40
10.0
  9
$CHAMFERB
 40
10.0
  9
$SKPOLY
 70
     0
  9
$TDCREATE
 40
2455530.540086354
  9
$TDUPDATE
 40
2455530.540086366
  9
$TDINDWG
 40
0.0000000116
  9
$TDUSRTIMER
 40
0.0000000116
  9
$USRTIMER
 70
     1
  9
$ANGBASE
 50
0.0
  9
$ANGDIR
 70
     0
  9
$PDMODE
 70
     0
  9
$PDSIZE
 40
-1.0
  9
$PLINEWID
 40
0.0
  9
$COORDS
 70
     1
  9
$SPLFRAME
 70
     0
  9
$SPLINETYPE
 70
     6
  9
$SPLINESEGS
 70
     8
  9
$ATTDIA
 70
     0
  9
$ATTREQ
 70
     1
  9
$HANDLING
 70
     1
  9
$HANDSEED
  5
231
  9
$SURFTAB1
 70
     6
  9
$SURFTAB2
 70
     6
  9
$SURFTYPE
 70
     6
  9
$SURFU
 70
     6
  9
$SURFV
 70
     6
  9
$UCSNAME
  2

  9
$UCSORG
 10
0.0
 20
0.0
 30
0.0
  9
$UCSXDIR
 10
1.0
 20
0.0
 30
0.0
  9
$UCSYDIR
 10
0.0
 20
1.0
 30
0.0
  9
$PUCSNAME
  2

  9
$PUCSORG
 10
0.0
 20
0.0
 30
0.0
  9
$PUCSXDIR
 10
1.0
 20
0.0
 30
0.0
  9
$PUCSYDIR
 10
0.0
 20
1.0
 30
0.0
  9
$USERI1
 70
     0
  9
$USERI2
 70
     0
  9
$USERI3
 70
     0
  9
$USERI4
 70
     0
  9
$USERI5
 70
     0
  9
$USERR1
 40
0.0
  9
$USERR2
 40
0.0
  9
$USERR3
 40
0.0
  9
$USERR4
 40
0.0
  9
$USERR5
 40
0.0
  9
$WORLDVIEW
 70
     1
  9
$SHADEDGE
 70
     3
  9
$SHADEDIF
 70
    70
  9
$TILEMODE
 70
     1
  9
$MAXACTVP
 70
    64
  9
$PLIMCHECK
 70
     0
  9
$PEXTMIN
 10
1.0000000000E+20
 20
1.0000000000E+20
 30
1.0000000000E+20
  9
$PEXTMAX
 10
-1.0000000000E+20
 20
-1.0000000000E+20
 30
-1.0000000000E+20
  9
$PLIMMIN
 10
0.0
 20
0.0
  9
$PLIMMAX
 10
420.0
 20
297.0
  9
$UNITMODE
 70
     0
  9
$VISRETAIN
 70
     1
  9
$PLINEGEN
 70
     0
  9
$PSLTSCALE
 70
     1
  0
ENDSEC
  0
SECTION
  2
TABLES
  0
TABLE
  2
VPORT
 70
     1
  0
VPORT
  2
*ACTIVE
 70
     0
 10
0.0
 20
0.0
 11
1.0
 21
1.0
 12
750.0
 22
500.0
 13
0.0
 23
0.0
 14
10.0
 24
10.0
 15
10.0
 25
10.0
 16
0.0
 26
0.0
 36
1.0
 17
0.0
 27
0.0
 37
0.0
 40
1000.0
 41
1.5
 42
50.0
 43
0.0
 44
0.0
 50
0.0
 51
0.0
 71
     0
 72
  2000
 73
     1
 74
     3
 75
     0
 76
     0
 77
     0
 78
     0
  0
ENDTAB
  0
TABLE
  2
LTYPE
 70
     6
  0
LTYPE
  2
CONTINUOUS
 70
     0
  3
Solid line
 72
    65
 73
     0
 40
0.0
  0
LTYPE
  2
HIDDEN
 70
     0
  3
Hidden __ __ __ __ __ __ __ __ __ __ __ __ __ __
 72
    65
 73
     2
 40
1.905
 49
1.27
 49
-0.635
  0
LTYPE
  2
PHANTOM
 70
     0
  3
Phantom ______  __  __  ______  __  __  ______
 72
    65
 73
     6
 40
12.7
 49
6.35
 49
-1.27
 49
1.27
 49
-1.27
 49
1.27
 49
-1.27
  0
LTYPE
  2
CENTER
 70
     0
  3
Center ____ _ ____ _ ____ _ ____ _ ____ _ ____
 72
    65
 73
     4
 40
10.16
 49
6.35
 49
-1.27
 49
1.27
 49
-1.27
  0
LTYPE
  2
CENTERX2
 70
     0
  3
Center (2x) ________  __  ________  __  _____
 72
    65
 73
     4
 40
20.32
 49
12.7
 49
-2.54
 49
2.54
 49
-2.54
  0
LTYPE
  2
DOT2
 70
     0
  3
Dot (.5x) ........................................
 72
    65
 73
     2
 40
0.635
 49
0.0
 49
-0.635
  0
ENDTAB
  0
TABLE
  2
LAYER
 70
     2
  0
LAYER
  2
0
 70
     0
 62
     7
  6
CONTINUOUS
  0
LAYER
  2
TABLE_BL1
 70
     0
 62
   179
  6
CONTINUOUS
  0
ENDTAB
  0
TABLE
  2
STYLE
 70
     1
  0
STYLE
  2
STANDARD
 70
     0
 40
0.0
 41
1.0
 50
0.0
 71
     0
 42
2.5
  3
txt
  4

  0
ENDTAB
  0
TABLE
  2
VIEW
 70
     0
  0
ENDTAB
  0
TABLE
  2
UCS
 70
     0
  0
ENDTAB
  0
TABLE
  2
APPID
 70
     1
  0
APPID
  2
ACAD
 70
     0
  0
ENDTAB
  0
TABLE
  2
DIMSTYLE
 70
     1
  0
DIMSTYLE
  2
ISO-25
 70
     0
  3

  4

  5

  6

  7

 40
1.0
 41
2.5
 42
0.625
 43
3.75
 44
1.25
 45
0.0
 46
0.0
 47
0.0
 48
0.0
140
2.5
141
2.5
142
0.0
143
0.0393700787
144
1.0
145
0.0
146
1.0
147
0.625
 71
     0
 72
     0
 73
     0
 74
     0
 75
     0
 76
     0
 77
     1
 78
     8
170
     0
171
     3
172
     1
173
     0
174
     0
175
     0
176
     0
177
     0
178
     0
  0
ENDTAB
  0
ENDSEC
  0
SECTION
  2
BLOCKS
  0
BLOCK
  8
0
  2
$MODEL_SPACE
 70
     0
 10
0.0
 20
0.0
 30
0.0
  3
$MODEL_SPACE
  1

  0
ENDBLK
  5
21
  8
0
  0
BLOCK
 67
     1
  8
0
  2
$PAPER_SPACE
 70
     0
 10
0.0
 20
0.0
 30
0.0
  3
$PAPER_SPACE
  1

  0
ENDBLK
  5
1D
 67
     1
  8
0
  0
ENDSEC
  0
SECTION
  2
ENTITIES
  0
LINE
  5
30
  8
0
  6
CONTINUOUS
 62
     7
 10
950.7350240273
 20
260.6371199935
 30
0.0
 11
455.8350358529
 21
260.6371199935
 31
0.0
  0
ARC
  5
31
  8
0
  6
CONTINUOUS
 62
     7
 10
950.7350299401
 20
291.0988622754
 30
0.0
 40
30.4617363822511
 50
270.0
 51
0.0
  0
LINE
  5
32
  8
0
  6
CONTINUOUS
 62
     7
 10
981.1967526002
 20
606.0988610834
 30
0.0
 11
981.1967526002
 21
291.0988634675
 31
0.0
  0
ARC
  5
33
  8
0
  6
CONTINUOUS
 62
     7
 10
950.7350299401
 20
606.0988622754
 30
0.0
 40
30.46173638225116
 50
0.0
 51
90.0
  0
LINE
  5
34
  8
0
  6
CONTINUOUS
 62
     7
 10
455.8350358529
 20
636.5606045574
 30
0.0
 11
950.7350240273
 21
636.5606045574
 31
0.0
  0
ARC
  5
35
  8
0
  6
CONTINUOUS
 62
     7
 10
455.8350299401
 20
606.0988622754
 30
0.0
 40
30.46173638225116
 50
90.0
 51
180.0
  0
LINE
  5
36
  8
0
  6
CONTINUOUS
 62
     7
 10
425.3733072801
 20
291.0988634675
 30
0.0
 11
425.3733072801
 21
606.0988610834
 31
0.0
  0
ARC
  5
37
  8
0
  6
CONTINUOUS
 62
     7
 10
455.8350299401
 20
291.0988622754
 30
0.0
 40
30.4617363822511
 50
180.0
 51
270.0
  0
CIRCLE
  5
38
  8
0
  6
CONTINUOUS
 62
     7
 10
703.2850299401
 20
676.5588622754
 30
0.0
 40
17.50000000000011
  0
ARC
  5
39
  8
0
  6
CONTINUOUS
 62
     7
 10
989.2850299401
 20
712.5988622754
 30
0.0
 40
9.000000000000114
 50
0.0
 51
90.0
  0
LINE
  5
3A
  8
0
  6
CONTINUOUS
 62
     7
 10
998.2850168271
 20
252.5988674014
 30
0.0
 11
998.2850168271
 21
712.5988608449
 31
0.0
  0
ARC
  5
3B
  8
0
  6
CONTINUOUS
 62
     7
 10
989.2850299401
 20
252.5988622754
 30
0.0
 40
9.000000000000142
 50
270.0
 51
0.0
  0
LINE
  5
3C
  8
0
  6
CONTINUOUS
 62
     7
 10
417.2850165887
 20
243.5988640636
 30
0.0
 11
989.2850432916
 21
243.5988640636
 31
0.0
  0
ARC
  5
3D
  8
0
  6
CONTINUOUS
 62
     7
 10
417.2850299401
 20
252.5988622754
 30
0.0
 40
9.000000000000142
 50
180.0
 51
270.0
  0
LINE
  5
3E
  8
0
  6
CONTINUOUS
 62
     7
 10
408.2850430531
 20
712.5988608449
 30
0.0
 11
408.2850430531
 21
252.5988674014
 31
0.0
  0
ARC
  5
3F
  8
0
  6
CONTINUOUS
 62
     7
 10
417.2850299401
 20
712.5988622754
 30
0.0
 40
9.000000000000114
 50
90.0
 51
180.0
  0
LINE
  5
40
  8
0
  6
CONTINUOUS
 62
     7
 10
989.2850432916
 20
721.5988641828
 30
0.0
 11
417.2850165887
 21
721.5988641828
 31
0.0
  0
ARC
  5
41
  8
0
  6
CONTINUOUS
 62
     7
 10
455.8350299401
 20
606.0988622754
 30
0.0
 40
29.58499408867306
 50
90.0
 51
180.0
  0
LINE
  5
42
  8
0
  6
CONTINUOUS
 62
     7
 10
426.2500320001
 20
606.0988610834
 30
0.0
 11
425.3733072801
 21
606.0988610834
 31
0.0
  0
LINE
  5
43
  8
0
  6
CONTINUOUS
 62
     7
 10
455.8350358529
 20
636.5606045574
 30
0.0
 11
455.8350358529
 21
635.683850035
 31
0.0
  0
LINE
  5
44
  8
0
  6
CONTINUOUS
 62
     7
 10
426.2500320001
 20
606.0988610834
 30
0.0
 11
426.2500320001
 21
291.0988634675
 31
0.0
  0
LINE
  5
45
  8
0
  6
CONTINUOUS
 62
     7
 10
426.2500320001
 20
291.0988634675
 30
0.0
 11
425.3733072801
 21
291.0988634675
 31
0.0
  0
LINE
  5
46
  8
0
  6
CONTINUOUS
 62
     7
 10
407.2850261254
 20
712.5988608449
 30
0.0
 11
408.2850430531
 21
712.5988608449
 31
0.0
  0
ARC
  5
47
  8
0
  6
CONTINUOUS
 62
     7
 10
417.2850299401
 20
712.5988622754
 30
0.0
 40
10.0
 50
90.0
 51
180.0
  0
LINE
  5
48
  8
0
  6
CONTINUOUS
 62
     7
 10
417.2850165887
 20
721.5988641828
 30
0.0
 11
417.2850165887
 21
722.5988513082
 31
0.0
  0
LINE
  5
49
  8
0
  6
CONTINUOUS
 62
     7
 10
407.2850261254
 20
252.5988674014
 30
0.0
 11
407.2850261254
 21
712.5988608449
 31
0.0
  0
LINE
  5
4A
  8
0
  6
CONTINUOUS
 62
     7
 10
407.2850261254
 20
252.5988674014
 30
0.0
 11
408.2850430531
 21
252.5988674014
 31
0.0
  0
LINE
  5
4B
  8
0
  6
CONTINUOUS
 62
     7
 10
417.2850165887
 20
722.5988513082
 30
0.0
 11
989.2850432916
 21
722.5988513082
 31
0.0
  0
LINE
  5
4C
  8
0
  6
CONTINUOUS
 62
     7
 10
989.2850432916
 20
721.5988641828
 30
0.0
 11
989.2850432916
 21
722.5988513082
 31
0.0
  0
ARC
  5
4D
  8
0
  6
CONTINUOUS
 62
     7
 10
455.8350299401
 20
291.0988622754
 30
0.0
 40
29.58499408867294
 50
180.0
 51
270.0
  0
LINE
  5
4E
  8
0
  6
CONTINUOUS
 62
     7
 10
455.8350358529
 20
261.5138745159
 30
0.0
 11
455.8350358529
 21
260.6371199935
 31
0.0
  0
LINE
  5
4F
  8
0
  6
CONTINUOUS
 62
     7
 10
950.7350240273
 20
636.5606045574
 30
0.0
 11
950.7350240273
 21
635.683850035
 31
0.0
  0
LINE
  5
50
  8
0
  6
CONTINUOUS
 62
     7
 10
950.7350240273
 20
635.683850035
 30
0.0
 11
455.8350358529
 21
635.683850035
 31
0.0
  0
LINE
  5
51
  8
0
  6
CONTINUOUS
 62
     7
 10
998.2850168271
 20
252.5988674014
 30
0.0
 11
999.2850337548
 21
252.5988674014
 31
0.0
  0
ARC
  5
52
  8
0
  6
CONTINUOUS
 62
     7
 10
989.2850299401
 20
252.5988622754
 30
0.0
 40
10.00000000000003
 50
270.0
 51
0.0
  0
LINE
  5
53
  8
0
  6
CONTINUOUS
 62
     7
 10
989.2850432916
 20
242.598862037
 30
0.0
 11
989.2850432916
 21
243.5988640636
 31
0.0
  0
LINE
  5
54
  8
0
  6
CONTINUOUS
 62
     7
 10
998.2850168271
 20
712.5988608449
 30
0.0
 11
999.2850337548
 21
712.5988608449
 31
0.0
  0
LINE
  5
55
  8
0
  6
CONTINUOUS
 62
     7
 10
999.2850337548
 20
712.5988608449
 30
0.0
 11
999.2850337548
 21
252.5988674014
 31
0.0
  0
LINE
  5
56
  8
0
  6
CONTINUOUS
 62
     7
 10
989.2850432916
 20
242.598862037
 30
0.0
 11
417.2850165887
 21
242.598862037
 31
0.0
  0
LINE
  5
57
  8
0
  6
CONTINUOUS
 62
     7
 10
417.2850165887
 20
242.598862037
 30
0.0
 11
417.2850165887
 21
243.5988640636
 31
0.0
  0
ARC
  5
58
  8
0
  6
CONTINUOUS
 62
     7
 10
989.2850299401
 20
712.5988622754
 30
0.0
 40
10.0
 50
0.0
 51
90.0
  0
ARC
  5
59
  8
0
  6
CONTINUOUS
 62
     7
 10
417.2850299401
 20
252.5988622754
 30
0.0
 40
10.00000000000003
 50
180.0
 51
270.0
  0
LINE
  5
5A
  8
0
  6
CONTINUOUS
 62
     7
 10
981.1967526002
 20
606.0988610834
 30
0.0
 11
980.3200278802
 21
606.0988610834
 31
0.0
  0
ARC
  5
5B
  8
0
  6
CONTINUOUS
 62
     7
 10
950.7350299401
 20
606.0988622754
 30
0.0
 40
29.58499408867306
 50
0.0
 51
90.0
  0
LINE
  5
5C
  8
0
  6
CONTINUOUS
 62
     7
 10
455.8350358529
 20
261.5138745159
 30
0.0
 11
950.7350240273
 21
261.5138745159
 31
0.0
  0
LINE
  5
5D
  8
0
  6
CONTINUOUS
 62
     7
 10
950.7350240273
 20
261.5138745159
 30
0.0
 11
950.7350240273
 21
260.6371199935
 31
0.0
  0
LINE
  5
5E
  8
0
  6
CONTINUOUS
 62
     7
 10
981.1967526002
 20
291.0988634675
 30
0.0
 11
980.3200278802
 21
291.0988634675
 31
0.0
  0
LINE
  5
5F
  8
0
  6
CONTINUOUS
 62
     7
 10
980.3200278802
 20
291.0988634675
 30
0.0
 11
980.3200278802
 21
606.0988610834
 31
0.0
  0
ARC
  5
60
  8
0
  6
CONTINUOUS
 62
     7
 10
950.7350299401
 20
291.0988622754
 30
0.0
 40
29.58499408867294
 50
270.0
 51
0.0
  0
ARC
  5
61
  8
0
  6
CONTINUOUS
 62
     7
 10
950.7350299401
 20
291.0988622754
 30
0.0
 40
26.9270168091366
 50
270.0
 51
0.0
  0
LINE
  5
62
  8
0
  6
CONTINUOUS
 62
     7
 10
977.6620481534
 20
291.0988634675
 30
0.0
 11
980.3200278802
 21
291.0988634675
 31
0.0
  0
LINE
  5
63
  8
0
  6
CONTINUOUS
 62
     7
 10
950.7350240273
 20
264.1718393415
 30
0.0
 11
950.7350240273
 21
261.5138745159
 31
0.0
  0
LINE
  5
64
  8
0
  6
CONTINUOUS
 62
     7
 10
455.8350358529
 20
633.0258852094
 30
0.0
 11
950.7350240273
 21
633.0258852094
 31
0.0
  0
LINE
  5
65
  8
0
  6
CONTINUOUS
 62
     7
 10
455.8350358529
 20
633.0258852094
 30
0.0
 11
455.8350358529
 21
635.683850035
 31
0.0
  0
LINE
  5
66
  8
0
  6
CONTINUOUS
 62
     7
 10
950.7350240273
 20
633.0258852094
 30
0.0
 11
950.7350240273
 21
635.683850035
 31
0.0
  0
ARC
  5
67
  8
0
  6
CONTINUOUS
 62
     7
 10
455.8350299401
 20
606.0988622754
 30
0.0
 40
26.92701680913677
 50
90.0
 51
180.0
  0
LINE
  5
68
  8
0
  6
CONTINUOUS
 62
     7
 10
428.9080117268
 20
606.0988610834
 30
0.0
 11
426.2500320001
 21
606.0988610834
 31
0.0
  0
LINE
  5
69
  8
0
  6
CONTINUOUS
 62
     7
 10
950.7350240273
 20
264.1718393415
 30
0.0
 11
455.8350358529
 21
264.1718393415
 31
0.0
  0
LINE
  5
6A
  8
0
  6
CONTINUOUS
 62
     7
 10
455.8350358529
 20
264.1718393415
 30
0.0
 11
455.8350358529
 21
261.5138745159
 31
0.0
  0
ARC
  5
6B
  8
0
  6
CONTINUOUS
 62
     7
 10
950.7350299401
 20
606.0988622754
 30
0.0
 40
26.92701680913672
 50
0.0
 51
90.0
  0
LINE
  5
6C
  8
0
  6
CONTINUOUS
 62
     7
 10
977.6620481534
 20
606.0988610834
 30
0.0
 11
980.3200278802
 21
606.0988610834
 31
0.0
  0
LINE
  5
6D
  8
0
  6
CONTINUOUS
 62
     7
 10
977.6620481534
 20
606.0988610834
 30
0.0
 11
977.6620481534
 21
291.0988634675
 31
0.0
  0
ARC
  5
6E
  8
0
  6
CONTINUOUS
 62
     7
 10
455.8350299401
 20
291.0988622754
 30
0.0
 40
26.9270168091366
 50
180.0
 51
270.0
  0
LINE
  5
6F
  8
0
  6
CONTINUOUS
 62
     7
 10
428.9080117268
 20
291.0988634675
 30
0.0
 11
426.2500320001
 21
291.0988634675
 31
0.0
  0
LINE
  5
70
  8
0
  6
CONTINUOUS
 62
     7
 10
428.9080117268
 20
291.0988634675
 30
0.0
 11
428.9080117268
 21
606.0988610834
 31
0.0
  0
ARC
  5
71
  8
0
  6
CONTINUOUS
 62
     7
 10
950.7350299401
 20
291.0988622754
 30
0.0
 40
26.48864566234755
 50
270.0
 51
0.0
  0
LINE
  5
72
  8
0
  6
CONTINUOUS
 62
     7
 10
977.6620481534
 20
291.0988634675
 30
0.0
 11
977.2236857934
 21
291.0988634675
 31
0.0
  0
LINE
  5
73
  8
0
  6
CONTINUOUS
 62
     7
 10
950.7350240273
 20
264.6102166027
 30
0.0
 11
950.7350240273
 21
264.1718393415
 31
0.0
  0
LINE
  5
74
  8
0
  6
CONTINUOUS
 62
     7
 10
977.2236857934
 20
291.0988634675
 30
0.0
 11
977.2236857934
 21
606.0988610834
 31
0.0
  0
LINE
  5
75
  8
0
  6
CONTINUOUS
 62
     7
 10
977.6620481534
 20
606.0988610834
 30
0.0
 11
977.2236857934
 21
606.0988610834
 31
0.0
  0
ARC
  5
76
  8
0
  6
CONTINUOUS
 62
     7
 10
455.8350299401
 20
291.0988622754
 30
0.0
 40
26.48864566234755
 50
180.0
 51
270.0
  0
LINE
  5
77
  8
0
  6
CONTINUOUS
 62
     7
 10
455.8350358529
 20
264.6102166027
 30
0.0
 11
455.8350358529
 21
264.1718393415
 31
0.0
  0
LINE
  5
78
  8
0
  6
CONTINUOUS
 62
     7
 10
429.3463740868
 20
291.0988634675
 30
0.0
 11
428.9080117268
 21
291.0988634675
 31
0.0
  0
LINE
  5
79
  8
0
  6
CONTINUOUS
 62
     7
 10
429.3463740868
 20
606.0988610834
 30
0.0
 11
429.3463740868
 21
291.0988634675
 31
0.0
  0
LINE
  5
7A
  8
0
  6
CONTINUOUS
 62
     7
 10
429.3463740868
 20
606.0988610834
 30
0.0
 11
428.9080117268
 21
606.0988610834
 31
0.0
  0
LINE
  5
7B
  8
0
  6
CONTINUOUS
 62
     7
 10
950.7350240273
 20
633.0258852094
 30
0.0
 11
950.7350240273
 21
632.5875079482
 31
0.0
  0
LINE
  5
7C
  8
0
  6
CONTINUOUS
 62
     7
 10
950.7350240273
 20
632.5875079482
 30
0.0
 11
455.8350358529
 21
632.5875079482
 31
0.0
  0
LINE
  5
7D
  8
0
  6
CONTINUOUS
 62
     7
 10
455.8350358529
 20
633.0258852094
 30
0.0
 11
455.8350358529
 21
632.5875079482
 31
0.0
  0
LINE
  5
7E
  8
0
  6
CONTINUOUS
 62
     7
 10
455.8350358529
 20
264.6102166027
 30
0.0
 11
950.7350240273
 21
264.6102166027
 31
0.0
  0
ARC
  5
7F
  8
0
  6
CONTINUOUS
 62
     7
 10
950.7350299401
 20
606.0988622754
 30
0.0
 40
26.48864566234761
 50
0.0
 51
90.0
  0
ARC
  5
80
  8
0
  6
CONTINUOUS
 62
     7
 10
455.8350299401
 20
606.0988622754
 30
0.0
 40
26.48864566234772
 50
90.0
 51
180.0
  0
LINE
  5
81
  8
0
  6
CONTINUOUS
 62
     7
 10
502.7850333972
 20
631.1488604396
 30
0.0
 11
903.7850264831
 21
631.1488604396
 31
0.0
  0
ARC
  5
82
  8
0
  6
CONTINUOUS
 62
     7
 10
502.7850299401
 20
569.1488622754
 30
0.0
 40
62.00000000000023
 50
90.0
 51
180.0
  0
LINE
  5
83
  8
0
  6
CONTINUOUS
 62
     7
 10
440.785041861
 20
328.048863098
 30
0.0
 11
440.785041861
 21
569.1488614529
 31
0.0
  0
ARC
  5
84
  8
0
  6
CONTINUOUS
 62
     7
 10
502.7850299401
 20
328.0488622754
 30
0.0
 40
62.00000000000023
 50
180.0
 51
270.0
  0
LINE
  5
85
  8
0
  6
CONTINUOUS
 62
     7
 10
903.7850264831
 20
266.0488641113
 30
0.0
 11
502.7850333972
 21
266.0488641113
 31
0.0
  0
ARC
  5
86
  8
0
  6
CONTINUOUS
 62
     7
 10
903.7850299401
 20
328.0488622754
 30
0.0
 40
62.00000000000028
 50
270.0
 51
0.0
  0
LINE
  5
87
  8
0
  6
CONTINUOUS
 62
     7
 10
965.7850180192
 20
569.1488614529
 30
0.0
 11
965.7850180192
 21
328.048863098
 31
0.0
  0
ARC
  5
88
  8
0
  6
CONTINUOUS
 62
     7
 10
903.7850299401
 20
569.1488622754
 30
0.0
 40
62.00000000000023
 50
0.0
 51
90.0
  0
ARC
  5
89
  8
0
  6
CONTINUOUS
 62
     7
 10
502.7850299401
 20
569.1488622754
 30
0.0
 40
56.0
 50
90.0
 51
180.0
  0
LINE
  5
8A
  8
0
  6
CONTINUOUS
 62
     7
 10
446.7850242181
 20
569.1488614529
 30
0.0
 11
440.785041861
 21
569.1488614529
 31
0.0
  0
LINE
  5
8B
  8
0
  6
CONTINUOUS
 62
     7
 10
502.7850333972
 20
625.1488631814
 30
0.0
 11
502.7850333972
 21
631.1488604396
 31
0.0
  0
LINE
  5
8C
  8
0
  6
CONTINUOUS
 62
     7
 10
446.7850242181
 20
569.1488614529
 30
0.0
 11
446.7850242181
 21
328.048863098
 31
0.0
  0
LINE
  5
8D
  8
0
  6
CONTINUOUS
 62
     7
 10
446.7850242181
 20
328.048863098
 30
0.0
 11
440.785041861
 21
328.048863098
 31
0.0
  0
LINE
  5
8E
  8
0
  6
CONTINUOUS
 62
     7
 10
965.7850180192
 20
569.1488614529
 30
0.0
 11
959.7850356622
 21
569.1488614529
 31
0.0
  0
ARC
  5
8F
  8
0
  6
CONTINUOUS
 62
     7
 10
903.7850299401
 20
569.1488622754
 30
0.0
 40
56.00000000000011
 50
0.0
 51
90.0
  0
LINE
  5
90
  8
0
  6
CONTINUOUS
 62
     7
 10
903.7850264831
 20
631.1488604396
 30
0.0
 11
903.7850264831
 21
625.1488631814
 31
0.0
  0
LINE
  5
91
  8
0
  6
CONTINUOUS
 62
     7
 10
965.7850180192
 20
328.048863098
 30
0.0
 11
959.7850356622
 21
328.048863098
 31
0.0
  0
LINE
  5
92
  8
0
  6
CONTINUOUS
 62
     7
 10
959.7850356622
 20
328.048863098
 30
0.0
 11
959.7850356622
 21
569.1488614529
 31
0.0
  0
LINE
  5
93
  8
0
  6
CONTINUOUS
 62
     7
 10
903.7850264831
 20
625.1488631814
 30
0.0
 11
502.7850333972
 21
625.1488631814
 31
0.0
  0
LINE
  5
94
  8
0
  6
CONTINUOUS
 62
     7
 10
903.7850264831
 20
266.0488641113
 30
0.0
 11
903.7850264831
 21
272.0488613695
 31
0.0
  0
ARC
  5
95
  8
0
  6
CONTINUOUS
 62
     7
 10
903.7850299401
 20
328.0488622754
 30
0.0
 40
56.00000000000006
 50
270.0
 51
0.0
  0
LINE
  5
96
  8
0
  6
CONTINUOUS
 62
     7
 10
502.7850333972
 20
272.0488613695
 30
0.0
 11
903.7850264831
 21
272.0488613695
 31
0.0
  0
LINE
  5
97
  8
0
  6
CONTINUOUS
 62
     7
 10
502.7850333972
 20
272.0488613695
 30
0.0
 11
502.7850333972
 21
266.0488641113
 31
0.0
  0
ARC
  5
98
  8
0
  6
CONTINUOUS
 62
     7
 10
502.7850299401
 20
328.0488622754
 30
0.0
 40
56.0
 50
180.0
 51
270.0
  0
LINE
  5
99
  8
0
  6
CONTINUOUS
 62
     7
 10
903.2850329204
 20
623.4790688604
 30
0.0
 11
503.2850269599
 21
623.4790688604
 31
0.0
  0
LINE
  5
9A
  8
0
  6
CONTINUOUS
 62
     7
 10
503.2850269599
 20
623.4790688604
 30
0.0
 11
503.2850269599
 21
624.9733573049
 31
0.0
  0
LINE
  5
9B
  8
0
  6
CONTINUOUS
 62
     7
 10
503.2850269599
 20
624.9733573049
 30
0.0
 11
903.2850329204
 21
624.9733573049
 31
0.0
  0
LINE
  5
9C
  8
0
  6
CONTINUOUS
 62
     7
 10
903.2850329204
 20
623.4790688604
 30
0.0
 11
903.2850329204
 21
624.9733573049
 31
0.0
  0
LINE
  5
9D
  8
0
  6
CONTINUOUS
 62
     7
 10
903.2850329204
 20
272.224367246
 30
0.0
 11
503.2850269599
 21
272.224367246
 31
0.0
  0
ARC
  5
9E
  8
0
  6
CONTINUOUS
 62
     7
 10
903.2850299401
 20
328.5988622754
 30
0.0
 40
56.37449676102614
 50
270.0
 51
0.0
  0
LINE
  5
9F
  8
0
  6
CONTINUOUS
 62
     7
 10
959.6595380826
 20
568.5988595932
 30
0.0
 11
959.6595380826
 21
328.5988649577
 31
0.0
  0
ARC
  5
A0
  8
0
  6
CONTINUOUS
 62
     7
 10
903.2850299401
 20
568.5988622754
 30
0.0
 40
56.37449676102631
 50
0.0
 51
90.0
  0
ARC
  5
A1
  8
0
  6
CONTINUOUS
 62
     7
 10
503.2850299401
 20
568.5988622754
 30
0.0
 40
56.37449676102619
 50
90.0
 51
180.0
  0
LINE
  5
A2
  8
0
  6
CONTINUOUS
 62
     7
 10
446.9105217976
 20
328.5988649577
 30
0.0
 11
446.9105217976
 21
568.5988595932
 31
0.0
  0
ARC
  5
A3
  8
0
  6
CONTINUOUS
 62
     7
 10
503.2850299401
 20
328.5988622754
 30
0.0
 40
56.37449676102608
 50
180.0
 51
270.0
  0
LINE
  5
A4
  8
0
  6
CONTINUOUS
 62
     7
 10
448.4048400445
 20
568.5988595932
 30
0.0
 11
448.4048400445
 21
328.5988649577
 31
0.0
  0
LINE
  5
A5
  8
0
  6
CONTINUOUS
 62
     7
 10
446.9105217976
 20
328.5988649577
 30
0.0
 11
448.4048400445
 21
328.5988649577
 31
0.0
  0
LINE
  5
A6
  8
0
  6
CONTINUOUS
 62
     7
 10
448.4048400445
 20
568.5988595932
 30
0.0
 11
446.9105217976
 21
568.5988595932
 31
0.0
  0
LINE
  5
A7
  8
0
  6
CONTINUOUS
 62
     7
 10
958.1652198357
 20
328.5988649577
 30
0.0
 11
958.1652198357
 21
568.5988595932
 31
0.0
  0
LINE
  5
A8
  8
0
  6
CONTINUOUS
 62
     7
 10
958.1652198357
 20
568.5988595932
 30
0.0
 11
959.6595380826
 21
568.5988595932
 31
0.0
  0
LINE
  5
A9
  8
0
  6
CONTINUOUS
 62
     7
 10
959.6595380826
 20
328.5988649577
 30
0.0
 11
958.1652198357
 21
328.5988649577
 31
0.0
  0
ARC
  5
AA
  8
0
  6
CONTINUOUS
 62
     7
 10
503.2850299401
 20
568.5988622754
 30
0.0
 40
54.88020471388859
 50
90.0
 51
180.0
  0
ARC
  5
AB
  8
0
  6
CONTINUOUS
 62
     7
 10
903.2850299401
 20
568.5988622754
 30
0.0
 40
54.88020471388859
 50
0.0
 51
90.0
  0
LINE
  5
AC
  8
0
  6
CONTINUOUS
 62
     7
 10
503.2850269599
 20
272.224367246
 30
0.0
 11
503.2850269599
 21
273.7186556905
 31
0.0
  0
LINE
  5
AD
  8
0
  6
CONTINUOUS
 62
     7
 10
503.2850269599
 20
273.7186556905
 30
0.0
 11
903.2850329204
 21
273.7186556905
 31
0.0
  0
LINE
  5
AE
  8
0
  6
CONTINUOUS
 62
     7
 10
903.2850329204
 20
272.224367246
 30
0.0
 11
903.2850329204
 21
273.7186556905
 31
0.0
  0
ARC
  5
AF
  8
0
  6
CONTINUOUS
 62
     7
 10
503.2850299401
 20
328.5988622754
 30
0.0
 40
54.88020471388847
 50
180.0
 51
270.0
  0
ARC
  5
B0
  8
0
  6
CONTINUOUS
 62
     7
 10
903.2850299401
 20
328.5988622754
 30
0.0
 40
54.88020471388859
 50
270.0
 51
0.0
  0
LINE
  5
B1
  8
0
  6
CONTINUOUS
 62
     7
 10
903.2850329204
 20
273.9275699705
 30
0.0
 11
503.2850269599
 21
273.9275699705
 31
0.0
  0
LINE
  5
B2
  8
0
  6
CONTINUOUS
 62
     7
 10
903.2850329204
 20
273.7186556905
 30
0.0
 11
903.2850329204
 21
273.9275699705
 31
0.0
  0
LINE
  5
B3
  8
0
  6
CONTINUOUS
 62
     7
 10
503.2850269599
 20
273.7186556905
 30
0.0
 11
503.2850269599
 21
273.9275699705
 31
0.0
  0
ARC
  5
B4
  8
0
  6
CONTINUOUS
 62
     7
 10
903.2850299401
 20
328.5988622754
 30
0.0
 40
54.67129158923171
 50
270.0
 51
0.0
  0
LINE
  5
B5
  8
0
  6
CONTINUOUS
 62
     7
 10
958.1652198357
 20
328.5988649577
 30
0.0
 11
957.9563353581
 21
328.5988649577
 31
0.0
  0
ARC
  5
B6
  8
0
  6
CONTINUOUS
 62
     7
 10
503.2850299401
 20
568.5988622754
 30
0.0
 40
54.67129158923183
 50
90.0
 51
180.0
  0
LINE
  5
B7
  8
0
  6
CONTINUOUS
 62
     7
 10
448.4048400445
 20
568.5988595932
 30
0.0
 11
448.6137245221
 21
568.5988595932
 31
0.0
  0
LINE
  5
B8
  8
0
  6
CONTINUOUS
 62
     7
 10
503.2850269599
 20
623.4790688604
 30
0.0
 11
503.2850269599
 21
623.2701545804
 31
0.0
  0
LINE
  5
B9
  8
0
  6
CONTINUOUS
 62
     7
 10
503.2850269599
 20
623.2701545804
 30
0.0
 11
903.2850329204
 21
623.2701545804
 31
0.0
  0
LINE
  5
BA
  8
0
  6
CONTINUOUS
 62
     7
 10
903.2850329204
 20
623.4790688604
 30
0.0
 11
903.2850329204
 21
623.2701545804
 31
0.0
  0
ARC
  5
BB
  8
0
  6
CONTINUOUS
 62
     7
 10
903.2850299401
 20
568.5988622754
 30
0.0
 40
54.67129158923183
 50
0.0
 51
90.0
  0
LINE
  5
BC
  8
0
  6
CONTINUOUS
 62
     7
 10
958.1652198357
 20
568.5988595932
 30
0.0
 11
957.9563353581
 21
568.5988595932
 31
0.0
  0
ARC
  5
BD
  8
0
  6
CONTINUOUS
 62
     7
 10
503.2850299401
 20
328.5988622754
 30
0.0
 40
54.67129158923166
 50
180.0
 51
270.0
  0
LINE
  5
BE
  8
0
  6
CONTINUOUS
 62
     7
 10
448.4048400445
 20
328.5988649577
 30
0.0
 11
448.6137245221
 21
328.5988649577
 31
0.0
  0
LINE
  5
BF
  8
0
  6
CONTINUOUS
 62
     7
 10
957.9563353581
 20
568.5988595932
 30
0.0
 11
957.9563353581
 21
328.5988649577
 31
0.0
  0
LINE
  5
C0
  8
0
  6
CONTINUOUS
 62
     7
 10
448.6137245221
 20
328.5988649577
 30
0.0
 11
448.6137245221
 21
568.5988595932
 31
0.0
  0
LINE
  5
C1
  8
0
  6
CONTINUOUS
 62
     7
 10
903.2850329204
 20
622.000322327
 30
0.0
 11
503.2850269599
 21
622.000322327
 31
0.0
  0
LINE
  5
C2
  8
0
  6
CONTINUOUS
 62
     7
 10
503.2850269599
 20
622.000322327
 30
0.0
 11
503.2850269599
 21
623.2701545804
 31
0.0
  0
LINE
  5
C3
  8
0
  6
CONTINUOUS
 62
     7
 10
903.2850329204
 20
622.000322327
 30
0.0
 11
903.2850329204
 21
623.2701545804
 31
0.0
  0
ARC
  5
C4
  8
0
  6
CONTINUOUS
 62
     7
 10
903.2850299401
 20
568.5988622754
 30
0.0
 40
53.4014542124321
 50
0.0
 51
90.0
  0
LINE
  5
C5
  8
0
  6
CONTINUOUS
 62
     7
 10
956.6864882035
 20
568.5988595932
 30
0.0
 11
957.9563353581
 21
568.5988595932
 31
0.0
  0
LINE
  5
C6
  8
0
  6
CONTINUOUS
 62
     7
 10
956.6864882035
 20
328.5988649577
 30
0.0
 11
956.6864882035
 21
568.5988595932
 31
0.0
  0
LINE
  5
C7
  8
0
  6
CONTINUOUS
 62
     7
 10
957.9563353581
 20
328.5988649577
 30
0.0
 11
956.6864882035
 21
328.5988649577
 31
0.0
  0
LINE
  5
C8
  8
0
  6
CONTINUOUS
 62
     7
 10
449.8835716767
 20
568.5988595932
 30
0.0
 11
449.8835716767
 21
328.5988649577
 31
0.0
  0
LINE
  5
C9
  8
0
  6
CONTINUOUS
 62
     7
 10
448.6137245221
 20
328.5988649577
 30
0.0
 11
449.8835716767
 21
328.5988649577
 31
0.0
  0
LINE
  5
CA
  8
0
  6
CONTINUOUS
 62
     7
 10
449.8835716767
 20
568.5988595932
 30
0.0
 11
448.6137245221
 21
568.5988595932
 31
0.0
  0
ARC
  5
CB
  8
0
  6
CONTINUOUS
 62
     7
 10
503.2850299401
 20
568.5988622754
 30
0.0
 40
53.40145421243221
 50
90.0
 51
180.0
  0
LINE
  5
CC
  8
0
  6
CONTINUOUS
 62
     7
 10
503.2850269599
 20
273.9275699705
 30
0.0
 11
503.2850269599
 21
275.1974022239
 31
0.0
  0
LINE
  5
CD
  8
0
  6
CONTINUOUS
 62
     7
 10
503.2850269599
 20
275.1974022239
 30
0.0
 11
903.2850329204
 21
275.1974022239
 31
0.0
  0
LINE
  5
CE
  8
0
  6
CONTINUOUS
 62
     7
 10
903.2850329204
 20
273.9275699705
 30
0.0
 11
903.2850329204
 21
275.1974022239
 31
0.0
  0
ARC
  5
CF
  8
0
  6
CONTINUOUS
 62
     7
 10
903.2850299401
 20
328.5988622754
 30
0.0
 40
53.40145421243494
 50
270.0
 51
0.0
  0
ARC
  5
D0
  8
0
  6
CONTINUOUS
 62
     7
 10
503.2850299401
 20
328.5988622754
 30
0.0
 40
53.4014542124529
 50
180.0
 51
270.0
  0
ARC
  5
D1
  8
0
  6
CONTINUOUS
 62
     7
 10
503.2850299401
 20
328.5988622754
 30
0.0
 40
50.00000000000006
 50
180.0
 51
270.0
  0
LINE
  5
D2
  8
0
  6
CONTINUOUS
 62
     7
 10
503.2850269599
 20
275.1974022239
 30
0.0
 11
503.2850269599
 21
278.5988604873
 31
0.0
  0
LINE
  5
D3
  8
0
  6
CONTINUOUS
 62
     7
 10
449.8835716767
 20
328.5988649577
 30
0.0
 11
453.2850299401
 21
328.5988649577
 31
0.0
  0
LINE
  5
D4
  8
0
  6
CONTINUOUS
 62
     7
 10
453.2850299401
 20
568.5988595932
 30
0.0
 11
453.2850299401
 21
328.5988649577
 31
0.0
  0
LINE
  5
D5
  8
0
  6
CONTINUOUS
 62
     7
 10
453.2850299401
 20
568.5988595932
 30
0.0
 11
449.8835716767
 21
568.5988595932
 31
0.0
  0
ARC
  5
D6
  8
0
  6
CONTINUOUS
 62
     7
 10
903.2850299401
 20
328.5988622754
 30
0.0
 40
50.00000000000011
 50
270.0
 51
0.0
  0
LINE
  5
D7
  8
0
  6
CONTINUOUS
 62
     7
 10
956.6864882035
 20
328.5988649577
 30
0.0
 11
953.2850299401
 21
328.5988649577
 31
0.0
  0
LINE
  5
D8
  8
0
  6
CONTINUOUS
 62
     7
 10
903.2850329204
 20
275.1974022239
 30
0.0
 11
903.2850329204
 21
278.5988604873
 31
0.0
  0
LINE
  5
D9
  8
0
  6
CONTINUOUS
 62
     7
 10
503.2850269599
 20
278.5988604873
 30
0.0
 11
903.2850329204
 21
278.5988604873
 31
0.0
  0
LINE
  5
DA
  8
0
  6
CONTINUOUS
 62
     7
 10
903.2850329204
 20
618.5988640636
 30
0.0
 11
503.2850269599
 21
618.5988640636
 31
0.0
  0
LINE
  5
DB
  8
0
  6
CONTINUOUS
 62
     7
 10
503.2850269599
 20
618.5988640636
 30
0.0
 11
503.2850269599
 21
622.000322327
 31
0.0
  0
LINE
  5
DC
  8
0
  6
CONTINUOUS
 62
     7
 10
903.2850329204
 20
618.5988640636
 30
0.0
 11
903.2850329204
 21
622.000322327
 31
0.0
  0
LINE
  5
DD
  8
0
  6
CONTINUOUS
 62
     7
 10
953.2850299401
 20
328.5988649577
 30
0.0
 11
953.2850299401
 21
568.5988595932
 31
0.0
  0
LINE
  5
DE
  8
0
  6
CONTINUOUS
 62
     7
 10
953.2850299401
 20
568.5988595932
 30
0.0
 11
956.6864882035
 21
568.5988595932
 31
0.0
  0
ARC
  5
DF
  8
0
  6
CONTINUOUS
 62
     7
 10
903.2850299401
 20
568.5988622754
 30
0.0
 40
50.00000000000011
 50
0.0
 51
90.0
  0
ARC
  5
E0
  8
0
  6
CONTINUOUS
 62
     7
 10
503.2850299401
 20
568.5988622754
 30
0.0
 40
50.00000000000011
 50
90.0
 51
180.0
  0
LINE
  5
E1
  8
0
  6
CONTINUOUS
 62
     7
 10
953.2850299401
 20
568.5988595932
 30
0.0
 11
943.9621184392
 21
568.5988595932
 31
0.0
  0
ARC
  5
E2
  8
0
  6
CONTINUOUS
 62
     7
 10
903.3477992449
 20
568.6154103909
 30
0.0
 40
40.6143225665856
 50
359.9766513186
 51
90.0885462738
  0
LINE
  5
E3
  8
0
  6
CONTINUOUS
 62
     7
 10
903.2850329204
 20
618.5988640636
 30
0.0
 11
903.2850329204
 21
609.2296844572
 31
0.0
  0
LINE
  5
E4
  8
0
  6
CONTINUOUS
 62
     7
 10
953.2850299401
 20
328.5988649577
 30
0.0
 11
944.7079215569
 21
328.5988649577
 31
0.0
  0
POLYLINE
  5
E5
  8
0
  6
CONTINUOUS
 62
     7
 66
     1
 10
0.0
 20
0.0
 30
0.0
  0
VERTEX
  5
12D
  8
0
  6
CONTINUOUS
 62
     7
 10
943.9621184392
 20
568.5988595932
 30
0.0
  0
VERTEX
  5
12E
  8
0
  6
CONTINUOUS
 62
     7
 10
943.8648287578
 20
514.8633873313
 30
0.0
  0
VERTEX
  5
12F
  8
0
  6
CONTINUOUS
 62
     7
 10
943.925312571
 20
461.1256277412
 30
0.0
  0
VERTEX
  5
130
  8
0
  6
CONTINUOUS
 62
     7
 10
944.1412751002
 20
407.3283789903
 30
0.0
  0
VERTEX
  5
131
  8
0
  6
CONTINUOUS
 62
     7
 10
944.4984410329
 20
353.5652017444
 30
0.0
  0
VERTEX
  5
132
  8
0
  6
CONTINUOUS
 62
     7
 10
944.7079215569
 20
328.5988649577
 30
0.0
  0
SEQEND
  5
12C
  8
0
  6
CONTINUOUS
 62
     7
  0
LINE
  5
E6
  8
0
  6
CONTINUOUS
 62
     7
 10
503.2850269599
 20
618.5988640636
 30
0.0
 11
503.2850269599
 21
609.2296844572
 31
0.0
  0
ARC
  5
E7
  8
0
  6
CONTINUOUS
 62
     7
 10
503.2222219232
 20
568.6154491471
 30
0.0
 40
40.61428387023732
 50
89.9113990294
 51
180.0234033782
  0
LINE
  5
E8
  8
0
  6
CONTINUOUS
 62
     7
 10
453.2850299401
 20
568.5988595932
 30
0.0
 11
462.6079414411
 21
568.5988595932
 31
0.0
  0
POLYLINE
  5
E9
  8
0
  6
CONTINUOUS
 62
     7
 66
     1
 10
0.0
 20
0.0
 30
0.0
  0
VERTEX
  5
134
  8
0
  6
CONTINUOUS
 62
     7
 10
726.2120869381
 20
607.9789405912
 30
0.0
  0
VERTEX
  5
135
  8
0
  6
CONTINUOUS
 62
     7
 10
770.498937778
 20
608.1390237659
 30
0.0
  0
VERTEX
  5
136
  8
0
  6
CONTINUOUS
 62
     7
 10
814.7640291972
 20
608.4166323989
 30
0.0
  0
VERTEX
  5
137
  8
0
  6
CONTINUOUS
 62
     7
 10
859.0409521384
 20
608.7837672084
 30
0.0
  0
VERTEX
  5
138
  8
0
  6
CONTINUOUS
 62
     7
 10
903.2850329204
 20
609.2296844572
 30
0.0
  0
SEQEND
  5
133
  8
0
  6
CONTINUOUS
 62
     7
  0
LINE
  5
EA
  8
0
  6
CONTINUOUS
 62
     7
 10
680.3579729421
 20
607.9789405912
 30
0.0
 11
726.2120869381
 21
607.9789405912
 31
0.0
  0
POLYLINE
  5
EB
  8
0
  6
CONTINUOUS
 62
     7
 66
     1
 10
0.0
 20
0.0
 30
0.0
  0
VERTEX
  5
13A
  8
0
  6
CONTINUOUS
 62
     7
 10
503.2850269599
 20
609.2296844572
 30
0.0
  0
VERTEX
  5
13B
  8
0
  6
CONTINUOUS
 62
     7
 10
547.4924359841
 20
608.7841099351
 30
0.0
  0
VERTEX
  5
13C
  8
0
  6
CONTINUOUS
 62
     7
 10
591.7326424642
 20
608.4171688407
 30
0.0
  0
VERTEX
  5
13D
  8
0
  6
CONTINUOUS
 62
     7
 10
636.0344056411
 20
608.139217481
 30
0.0
  0
VERTEX
  5
13E
  8
0
  6
CONTINUOUS
 62
     7
 10
680.3579729421
 20
607.9789405912
 30
0.0
  0
SEQEND
  5
139
  8
0
  6
CONTINUOUS
 62
     7
  0
ARC
  5
EC
  8
0
  6
CONTINUOUS
 62
     7
 10
725.7850299029
 20
556.078172927
 30
0.0
 40
62.49628542058889
 50
88.1661135224
 51
91.8338864776
  0
LINE
  5
ED
  8
0
  6
CONTINUOUS
 62
     7
 10
723.7850305064
 20
618.5424482673
 30
0.0
 11
723.7850305064
 21
618.1598311513
 31
0.0
  0
ARC
  5
EE
  8
0
  6
CONTINUOUS
 62
     7
 10
725.7850299029
 20
638.1483955436
 30
0.0
 40
20.08837235944415
 50
264.2861631139
 51
275.7138368861
  0
LINE
  5
EF
  8
0
  6
CONTINUOUS
 62
     7
 10
727.7850292994
 20
618.1598311513
 30
0.0
 11
727.7850292994
 21
618.5424482673
 31
0.0
  0
ARC
  5
F0
  8
0
  6
CONTINUOUS
 62
     7
 10
717.7850299885
 20
556.0781553566
 30
0.0
 40
62.49630299694051
 50
88.1661136112
 51
91.8338863888
  0
LINE
  5
F1
  8
0
  6
CONTINUOUS
 62
     7
 10
715.7850301264
 20
618.5424482673
 30
0.0
 11
715.7850301264
 21
618.1598311513
 31
0.0
  0
ARC
  5
F2
  8
0
  6
CONTINUOUS
 62
     7
 10
717.7850299885
 20
638.1484032607
 30
0.0
 40
20.08838008449596
 50
264.2861639837
 51
275.7138360163
  0
LINE
  5
F3
  8
0
  6
CONTINUOUS
 62
     7
 10
719.7850298507
 20
618.1598311513
 30
0.0
 11
719.7850298507
 21
618.5424482673
 31
0.0
  0
ARC
  5
F4
  8
0
  6
CONTINUOUS
 62
     7
 10
709.7850300742
 20
556.0780671591
 30
0.0
 40
62.49639116416831
 50
88.1661157721
 51
91.8338842279
  0
LINE
  5
F5
  8
0
  6
CONTINUOUS
 62
     7
 10
707.7850297464
 20
618.5424482673
 30
0.0
 11
707.7850297464
 21
618.1598311513
 31
0.0
  0
ARC
  5
F6
  8
0
  6
CONTINUOUS
 62
     7
 10
709.7850300742
 20
638.1484304245
 30
0.0
 40
20.08840715969331
 50
264.2861703757
 51
275.7138296244
  0
LINE
  5
F7
  8
0
  6
CONTINUOUS
 62
     7
 10
711.7850304021
 20
618.1598311513
 30
0.0
 11
711.7850304021
 21
618.5424482673
 31
0.0
  0
ARC
  5
F8
  8
0
  6
CONTINUOUS
 62
     7
 10
680.7850299774
 20
556.078172927
 30
0.0
 40
62.49628542058889
 50
88.1661135224
 51
91.8338864776
  0
LINE
  5
F9
  8
0
  6
CONTINUOUS
 62
     7
 10
678.7850305809
 20
618.5424482673
 30
0.0
 11
678.7850305809
 21
618.1598311513
 31
0.0
  0
ARC
  5
FA
  8
0
  6
CONTINUOUS
 62
     7
 10
680.7850299774
 20
638.1483955436
 30
0.0
 40
20.08837235944415
 50
264.2861631139
 51
275.7138368861
  0
LINE
  5
FB
  8
0
  6
CONTINUOUS
 62
     7
 10
682.7850293739
 20
618.1598311513
 30
0.0
 11
682.7850293739
 21
618.5424482673
 31
0.0
  0
ARC
  5
FC
  8
0
  6
CONTINUOUS
 62
     7
 10
688.7850298917
 20
638.1484032607
 30
0.0
 40
20.08838008449596
 50
264.2861639837
 51
275.7138360163
  0
LINE
  5
FD
  8
0
  6
CONTINUOUS
 62
     7
 10
690.7850297539
 20
618.1598311513
 30
0.0
 11
690.7850297539
 21
618.5424482673
 31
0.0
  0
ARC
  5
FE
  8
0
  6
CONTINUOUS
 62
     7
 10
688.7850298917
 20
556.0781519531
 30
0.0
 40
62.49630639868981
 50
88.166113711
 51
91.833886289
  0
LINE
  5
FF
  8
0
  6
CONTINUOUS
 62
     7
 10
686.7850300295
 20
618.5424482673
 30
0.0
 11
686.7850300295
 21
618.1598311513
 31
0.0
  0
ARC
  5
100
  8
0
  6
CONTINUOUS
 62
     7
 10
696.785029806
 20
556.0780732325
 30
0.0
 40
62.49638509389988
 50
88.1661155939
 51
91.8338844061
  0
LINE
  5
101
  8
0
  6
CONTINUOUS
 62
     7
 10
694.7850294782
 20
618.5424482673
 30
0.0
 11
694.7850294782
 21
618.1598311513
 31
0.0
  0
ARC
  5
102
  8
0
  6
CONTINUOUS
 62
     7
 10
696.785029806
 20
638.1484201727
 30
0.0
 40
20.08839695888227
 50
264.2861674645
 51
275.7138325355
  0
LINE
  5
103
  8
0
  6
CONTINUOUS
 62
     7
 10
698.7850301338
 20
618.1598311513
 30
0.0
 11
698.7850301338
 21
618.5424482673
 31
0.0
  0
POLYLINE
  5
104
  8
0
  6
CONTINUOUS
 62
     7
 66
     1
 10
0.0
 20
0.0
 30
0.0
  0
VERTEX
  5
140
  8
0
  6
CONTINUOUS
 62
     7
 10
706.3850300292
 20
618.3963423818
 30
0.0
  0
VERTEX
  5
141
  8
0
  6
CONTINUOUS
 62
     7
 10
706.2102268355
 20
618.4187686294
 30
0.0
  0
VERTEX
  5
142
  8
0
  6
CONTINUOUS
 62
     7
 10
705.7054818979
 20
618.4375738948
 30
0.0
  0
VERTEX
  5
143
  8
0
  6
CONTINUOUS
 62
     7
 10
704.9277826117
 20
618.451178655
 30
0.0
  0
VERTEX
  5
144
  8
0
  6
CONTINUOUS
 62
     7
 10
703.9649643957
 20
618.4586888402
 30
0.0
  0
VERTEX
  5
145
  8
0
  6
CONTINUOUS
 62
     7
 10
702.9256154164
 20
618.4597021192
 30
0.0
  0
VERTEX
  5
146
  8
0
  6
CONTINUOUS
 62
     7
 10
701.9268523108
 20
618.4541886896
 30
0.0
  0
VERTEX
  5
147
  8
0
  6
CONTINUOUS
 62
     7
 10
701.0811726468
 20
618.4424316734
 30
0.0
  0
VERTEX
  5
148
  8
0
  6
CONTINUOUS
 62
     7
 10
700.4838398097
 20
618.4251165241
 30
0.0
  0
VERTEX
  5
149
  8
0
  6
CONTINUOUS
 62
     7
 10
700.2022069318
 20
618.4035992473
 30
0.0
  0
VERTEX
  5
14A
  8
0
  6
CONTINUOUS
 62
     7
 10
700.2227391021
 20
618.3962529748
 30
0.0
  0
SEQEND
  5
13F
  8
0
  6
CONTINUOUS
 62
     7
  0
LINE
  5
105
  8
0
  6
CONTINUOUS
 62
     7
 10
453.2850299401
 20
328.5988649577
 30
0.0
 11
461.8621383233
 21
328.5988649577
 31
0.0
  0
ARC
  5
106
  8
0
  6
CONTINUOUS
 62
     7
 10
503.2209844962
 20
328.5415405113
 30
0.0
 40
41.35888589949123
 50
179.9205865966
 51
270.0887200964
  0
LINE
  5
107
  8
0
  6
CONTINUOUS
 62
     7
 10
503.2850269599
 20
278.5988604873
 30
0.0
 11
503.2850269599
 21
287.1827041953
 31
0.0
  0
POLYLINE
  5
108
  8
0
  6
CONTINUOUS
 62
     7
 66
     1
 10
0.0
 20
0.0
 30
0.0
  0
VERTEX
  5
14C
  8
0
  6
CONTINUOUS
 62
     7
 10
461.8621383233
 20
328.5988649577
 30
0.0
  0
VERTEX
  5
14D
  8
0
  6
CONTINUOUS
 62
     7
 10
462.3189483209
 20
388.498377636
 30
0.0
  0
VERTEX
  5
14E
  8
0
  6
CONTINUOUS
 62
     7
 10
462.6074497027
 20
448.4465602718
 30
0.0
  0
VERTEX
  5
14F
  8
0
  6
CONTINUOUS
 62
     7
 10
462.7060357852
 20
508.5226936489
 30
0.0
  0
VERTEX
  5
150
  8
0
  6
CONTINUOUS
 62
     7
 10
462.6079414411
 20
568.5988595932
 30
0.0
  0
SEQEND
  5
14B
  8
0
  6
CONTINUOUS
 62
     7
  0
LINE
  5
109
  8
0
  6
CONTINUOUS
 62
     7
 10
903.2850329204
 20
278.5988604873
 30
0.0
 11
903.2850329204
 21
287.1827041953
 31
0.0
  0
ARC
  5
10A
  8
0
  6
CONTINUOUS
 62
     7
 10
903.3490806025
 20
328.541535292
 30
0.0
 40
41.35888068825921
 50
269.9112726631
 51
0.0794206439
  0
POLYLINE
  5
10B
  8
0
  6
CONTINUOUS
 62
     7
 66
     1
 10
0.0
 20
0.0
 30
0.0
  0
VERTEX
  5
152
  8
0
  6
CONTINUOUS
 62
     7
 10
903.2850329204
 20
287.1827041953
 30
0.0
  0
VERTEX
  5
153
  8
0
  6
CONTINUOUS
 62
     7
 10
857.6626245303
 20
287.5923967212
 30
0.0
  0
VERTEX
  5
154
  8
0
  6
CONTINUOUS
 62
     7
 10
812.0028142257
 20
287.911490187
 30
0.0
  0
VERTEX
  5
155
  8
0
  6
CONTINUOUS
 62
     7
 10
766.3188714905
 20
288.128540501
 30
0.0
  0
VERTEX
  5
156
  8
0
  6
CONTINUOUS
 62
     7
 10
720.5163732542
 20
288.2317757457
 30
0.0
  0
VERTEX
  5
157
  8
0
  6
CONTINUOUS
 62
     7
 10
674.705811627
 20
288.2168894857
 30
0.0
  0
VERTEX
  5
158
  8
0
  6
CONTINUOUS
 62
     7
 10
628.9063755793
 20
288.0848055929
 30
0.0
  0
VERTEX
  5
159
  8
0
  6
CONTINUOUS
 62
     7
 10
566.0784755273
 20
287.7237057537
 30
0.0
  0
VERTEX
  5
15A
  8
0
  6
CONTINUOUS
 62
     7
 10
503.2850269599
 20
287.1827041953
 30
0.0
  0
SEQEND
  5
151
  8
0
  6
CONTINUOUS
 62
     7
  0
POLYLINE
  5
10C
  8
0
  6
CONTINUOUS
 62
     7
 66
     1
 10
0.0
 20
0.0
 30
0.0
  0
VERTEX
  5
15C
  8
0
  6
CONTINUOUS
 62
     7
 10
501.0705951972
 20
319.7389697879
 30
0.0
  0
VERTEX
  5
15D
  8
0
  6
CONTINUOUS
 62
     7
 10
501.1311684174
 20
316.0877531618
 30
0.0
  0
VERTEX
  5
15E
  8
0
  6
CONTINUOUS
 62
     7
 10
501.2154940886
 20
312.4995684474
 30
0.0
  0
VERTEX
  5
15F
  8
0
  6
CONTINUOUS
 62
     7
 10
501.3226036353
 20
309.0139633268
 30
0.0
  0
VERTEX
  5
160
  8
0
  6
CONTINUOUS
 62
     7
 10
501.4513645692
 20
305.6693529933
 30
0.0
  0
VERTEX
  5
161
  8
0
  6
CONTINUOUS
 62
     7
 10
501.6003165765
 20
302.5025731176
 30
0.0
  0
VERTEX
  5
162
  8
0
  6
CONTINUOUS
 62
     7
 10
501.7678354306
 20
299.5485520214
 30
0.0
  0
VERTEX
  5
163
  8
0
  6
CONTINUOUS
 62
     7
 10
501.9520882888
 20
296.8398189395
 30
0.0
  0
VERTEX
  5
164
  8
0
  6
CONTINUOUS
 62
     7
 10
502.1510187907
 20
294.4062507003
 30
0.0
  0
VERTEX
  5
165
  8
0
  6
CONTINUOUS
 62
     7
 10
502.3624513669
 20
292.2746395915
 30
0.0
  0
VERTEX
  5
166
  8
0
  6
CONTINUOUS
 62
     7
 10
502.584046535
 20
290.4684996456
 30
0.0
  0
VERTEX
  5
167
  8
0
  6
CONTINUOUS
 62
     7
 10
502.8133754058
 20
289.0077388137
 30
0.0
  0
VERTEX
  5
168
  8
0
  6
CONTINUOUS
 62
     7
 10
503.0478898806
 20
287.9084205478
 30
0.0
  0
VERTEX
  5
169
  8
0
  6
CONTINUOUS
 62
     7
 10
503.2850269599
 20
287.1827041953
 30
0.0
  0
SEQEND
  5
15B
  8
0
  6
CONTINUOUS
 62
     7
  0
POLYLINE
  5
10D
  8
0
  6
CONTINUOUS
 62
     7
 66
     1
 10
0.0
 20
0.0
 30
0.0
  0
VERTEX
  5
16B
  8
0
  6
CONTINUOUS
 62
     7
 10
501.0705951972
 20
319.7389697879
 30
0.0
  0
VERTEX
  5
16C
  8
0
  6
CONTINUOUS
 62
     7
 10
564.5064924283
 20
320.1855724901
 30
0.0
  0
VERTEX
  5
16D
  8
0
  6
CONTINUOUS
 62
     7
 10
628.0216340346
 20
320.4581445306
 30
0.0
  0
VERTEX
  5
16E
  8
0
  6
CONTINUOUS
 62
     7
 10
674.2364213241
 20
320.5513214916
 30
0.0
  0
VERTEX
  5
16F
  8
0
  6
CONTINUOUS
 62
     7
 10
720.4613097383
 20
320.5615585893
 30
0.0
  0
VERTEX
  5
170
  8
0
  6
CONTINUOUS
 62
     7
 10
766.6789804025
 20
320.4898989051
 30
0.0
  0
VERTEX
  5
171
  8
0
  6
CONTINUOUS
 62
     7
 10
812.9788104815
 20
320.3310078233
 30
0.0
  0
VERTEX
  5
172
  8
0
  6
CONTINUOUS
 62
     7
 10
859.2564676328
 20
320.0802659839
 30
0.0
  0
VERTEX
  5
173
  8
0
  6
CONTINUOUS
 62
     7
 10
905.499464683
 20
319.7389697879
 30
0.0
  0
SEQEND
  5
16A
  8
0
  6
CONTINUOUS
 62
     7
  0
POLYLINE
  5
10E
  8
0
  6
CONTINUOUS
 62
     7
 66
     1
 10
0.0
 20
0.0
 30
0.0
  0
VERTEX
  5
175
  8
0
  6
CONTINUOUS
 62
     7
 10
903.2850329204
 20
287.1827041953
 30
0.0
  0
VERTEX
  5
176
  8
0
  6
CONTINUOUS
 62
     7
 10
903.5221699996
 20
287.9084205478
 30
0.0
  0
VERTEX
  5
177
  8
0
  6
CONTINUOUS
 62
     7
 10
903.7566844745
 20
289.0077388137
 30
0.0
  0
VERTEX
  5
178
  8
0
  6
CONTINUOUS
 62
     7
 10
903.9860133452
 20
290.4684996456
 30
0.0
  0
VERTEX
  5
179
  8
0
  6
CONTINUOUS
 62
     7
 10
904.2076085133
 20
292.2746395915
 30
0.0
  0
VERTEX
  5
17A
  8
0
  6
CONTINUOUS
 62
     7
 10
904.4190410895
 20
294.4062507003
 30
0.0
  0
VERTEX
  5
17B
  8
0
  6
CONTINUOUS
 62
     7
 10
904.6179715915
 20
296.8398189395
 30
0.0
  0
VERTEX
  5
17C
  8
0
  6
CONTINUOUS
 62
     7
 10
904.8022244496
 20
299.5485520214
 30
0.0
  0
VERTEX
  5
17D
  8
0
  6
CONTINUOUS
 62
     7
 10
904.9697433038
 20
302.5025731176
 30
0.0
  0
VERTEX
  5
17E
  8
0
  6
CONTINUOUS
 62
     7
 10
905.1186953111
 20
305.6693529933
 30
0.0
  0
VERTEX
  5
17F
  8
0
  6
CONTINUOUS
 62
     7
 10
905.2474562449
 20
309.0139633268
 30
0.0
  0
VERTEX
  5
180
  8
0
  6
CONTINUOUS
 62
     7
 10
905.3545657916
 20
312.4995684474
 30
0.0
  0
VERTEX
  5
181
  8
0
  6
CONTINUOUS
 62
     7
 10
905.4388914628
 20
316.0877531618
 30
0.0
  0
VERTEX
  5
182
  8
0
  6
CONTINUOUS
 62
     7
 10
905.499464683
 20
319.7389697879
 30
0.0
  0
SEQEND
  5
174
  8
0
  6
CONTINUOUS
 62
     7
  0
POLYLINE
  5
10F
  8
0
  6
CONTINUOUS
 62
     7
 66
     1
 10
0.0
 20
0.0
 30
0.0
  0
VERTEX
  5
184
  8
0
  6
CONTINUOUS
 62
     7
 10
494.7910372538
 20
569.3002348989
 30
0.0
  0
VERTEX
  5
185
  8
0
  6
CONTINUOUS
 62
     7
 10
494.8616538567
 20
514.9347564429
 30
0.0
  0
VERTEX
  5
186
  8
0
  6
CONTINUOUS
 62
     7
 10
494.8177252335
 20
460.5671862363
 30
0.0
  0
VERTEX
  5
187
  8
0
  6
CONTINUOUS
 62
     7
 10
494.6562562508
 20
406.1452267915
 30
0.0
  0
VERTEX
  5
188
  8
0
  6
CONTINUOUS
 62
     7
 10
494.3716589732
 20
351.7545616477
 30
0.0
  0
VERTEX
  5
189
  8
0
  6
CONTINUOUS
 62
     7
 10
494.198030643
 20
326.6066095084
 30
0.0
  0
SEQEND
  5
183
  8
0
  6
CONTINUOUS
 62
     7
  0
POLYLINE
  5
110
  8
0
  6
CONTINUOUS
 62
     7
 66
     1
 10
0.0
 20
0.0
 30
0.0
  0
VERTEX
  5
18B
  8
0
  6
CONTINUOUS
 62
     7
 10
494.198030643
 20
326.6066095084
 30
0.0
  0
VERTEX
  5
18C
  8
0
  6
CONTINUOUS
 62
     7
 10
490.5662153287
 20
326.6621759385
 30
0.0
  0
VERTEX
  5
18D
  8
0
  6
CONTINUOUS
 62
     7
 10
486.9990412517
 20
326.7388945669
 30
0.0
  0
VERTEX
  5
18E
  8
0
  6
CONTINUOUS
 62
     7
 10
483.5354600472
 20
326.835923478
 30
0.0
  0
VERTEX
  5
18F
  8
0
  6
CONTINUOUS
 62
     7
 10
480.2132908626
 20
326.9521972388
 30
0.0
  0
VERTEX
  5
190
  8
0
  6
CONTINUOUS
 62
     7
 10
477.0688180251
 20
327.0864492505
 30
0.0
  0
VERTEX
  5
191
  8
0
  6
CONTINUOUS
 62
     7
 10
474.1363589091
 20
327.2372191995
 30
0.0
  0
VERTEX
  5
192
  8
0
  6
CONTINUOUS
 62
     7
 10
471.4479510112
 20
327.4028605073
 30
0.0
  0
VERTEX
  5
193
  8
0
  6
CONTINUOUS
 62
     7
 10
469.0329347176
 20
327.5815552324
 30
0.0
  0
VERTEX
  5
194
  8
0
  6
CONTINUOUS
 62
     7
 10
466.9176850839
 20
327.7713587731
 30
0.0
  0
VERTEX
  5
195
  8
0
  6
CONTINUOUS
 62
     7
 10
465.1252989097
 20
327.9701924175
 30
0.0
  0
VERTEX
  5
196
  8
0
  6
CONTINUOUS
 62
     7
 10
463.6753414197
 20
328.1758954972
 30
0.0
  0
VERTEX
  5
197
  8
0
  6
CONTINUOUS
 62
     7
 10
462.5836525483
 20
328.3862179368
 30
0.0
  0
VERTEX
  5
198
  8
0
  6
CONTINUOUS
 62
     7
 10
461.8621383233
 20
328.5988649577
 30
0.0
  0
SEQEND
  5
18A
  8
0
  6
CONTINUOUS
 62
     7
  0
POLYLINE
  5
111
  8
0
  6
CONTINUOUS
 62
     7
 66
     1
 10
0.0
 20
0.0
 30
0.0
  0
VERTEX
  5
19A
  8
0
  6
CONTINUOUS
 62
     7
 10
494.7910372538
 20
569.3002348989
 30
0.0
  0
VERTEX
  5
19B
  8
0
  6
CONTINUOUS
 62
     7
 10
491.1868635936
 20
569.2800810784
 30
0.0
  0
VERTEX
  5
19C
  8
0
  6
CONTINUOUS
 62
     7
 10
487.6473907752
 20
569.2526033371
 30
0.0
  0
VERTEX
  5
19D
  8
0
  6
CONTINUOUS
 62
     7
 10
484.2107210679
 20
569.2180922478
 30
0.0
  0
VERTEX
  5
19E
  8
0
  6
CONTINUOUS
 62
     7
 10
480.9138093514
 20
569.1769128889
 30
0.0
  0
VERTEX
  5
19F
  8
0
  6
CONTINUOUS
 62
     7
 10
477.7921501918
 20
569.1295197457
 30
0.0
  0
VERTEX
  5
1A0
  8
0
  6
CONTINUOUS
 62
     7
 10
474.8793308062
 20
569.0764120072
 30
0.0
  0
VERTEX
  5
1A1
  8
0
  6
CONTINUOUS
 62
     7
 10
472.2066883368
 20
569.0181708187
 30
0.0
  0
VERTEX
  5
1A2
  8
0
  6
CONTINUOUS
 62
     7
 10
469.8029820247
 20
568.9554071277
 30
0.0
  0
VERTEX
  5
1A3
  8
0
  6
CONTINUOUS
 62
     7
 10
467.6940951867
 20
568.8888138383
 30
0.0
  0
VERTEX
  5
1A4
  8
0
  6
CONTINUOUS
 62
     7
 10
465.9026924891
 20
568.8191062063
 30
0.0
  0
VERTEX
  5
1A5
  8
0
  6
CONTINUOUS
 62
     7
 10
464.4480560346
 20
568.747021839
 30
0.0
  0
VERTEX
  5
1A6
  8
0
  6
CONTINUOUS
 62
     7
 10
463.3458618445
 20
568.6733430475
 30
0.0
  0
VERTEX
  5
1A7
  8
0
  6
CONTINUOUS
 62
     7
 10
462.6079414411
 20
568.5988595932
 30
0.0
  0
SEQEND
  5
199
  8
0
  6
CONTINUOUS
 62
     7
  0
POLYLINE
  5
112
  8
0
  6
CONTINUOUS
 62
     7
 66
     1
 10
0.0
 20
0.0
 30
0.0
  0
VERTEX
  5
1A9
  8
0
  6
CONTINUOUS
 62
     7
 10
944.7079215569
 20
328.5988649577
 30
0.0
  0
VERTEX
  5
1AA
  8
0
  6
CONTINUOUS
 62
     7
 10
943.9864073319
 20
328.3862179368
 30
0.0
  0
VERTEX
  5
1AB
  8
0
  6
CONTINUOUS
 62
     7
 10
942.8947184606
 20
328.1758954972
 30
0.0
  0
VERTEX
  5
1AC
  8
0
  6
CONTINUOUS
 62
     7
 10
941.4447609706
 20
327.9701924175
 30
0.0
  0
VERTEX
  5
1AD
  8
0
  6
CONTINUOUS
 62
     7
 10
939.6523747964
 20
327.7713587731
 30
0.0
  0
VERTEX
  5
1AE
  8
0
  6
CONTINUOUS
 62
     7
 10
937.5371251626
 20
327.5815552324
 30
0.0
  0
VERTEX
  5
1AF
  8
0
  6
CONTINUOUS
 62
     7
 10
935.1221088691
 20
327.4028605073
 30
0.0
  0
VERTEX
  5
1B0
  8
0
  6
CONTINUOUS
 62
     7
 10
932.4337009711
 20
327.2372191995
 30
0.0
  0
VERTEX
  5
1B1
  8
0
  6
CONTINUOUS
 62
     7
 10
929.5012418551
 20
327.0864492505
 30
0.0
  0
VERTEX
  5
1B2
  8
0
  6
CONTINUOUS
 62
     7
 10
926.3567690177
 20
326.9521972388
 30
0.0
  0
VERTEX
  5
1B3
  8
0
  6
CONTINUOUS
 62
     7
 10
923.034599833
 20
326.835923478
 30
0.0
  0
VERTEX
  5
1B4
  8
0
  6
CONTINUOUS
 62
     7
 10
919.5710186286
 20
326.7388945669
 30
0.0
  0
VERTEX
  5
1B5
  8
0
  6
CONTINUOUS
 62
     7
 10
916.0038445516
 20
326.6621759385
 30
0.0
  0
VERTEX
  5
1B6
  8
0
  6
CONTINUOUS
 62
     7
 10
912.3720292373
 20
326.6066095084
 30
0.0
  0
SEQEND
  5
1A8
  8
0
  6
CONTINUOUS
 62
     7
  0
POLYLINE
  5
113
  8
0
  6
CONTINUOUS
 62
     7
 66
     1
 10
0.0
 20
0.0
 30
0.0
  0
VERTEX
  5
1B8
  8
0
  6
CONTINUOUS
 62
     7
 10
912.3720292373
 20
326.6066095084
 30
0.0
  0
VERTEX
  5
1B9
  8
0
  6
CONTINUOUS
 62
     7
 10
912.197938971
 20
351.8279349655
 30
0.0
  0
VERTEX
  5
1BA
  8
0
  6
CONTINUOUS
 62
     7
 10
911.9138483329
 20
406.1310967654
 30
0.0
  0
VERTEX
  5
1BB
  8
0
  6
CONTINUOUS
 62
     7
 10
911.7525134606
 20
460.4654532149
 30
0.0
  0
VERTEX
  5
1BC
  8
0
  6
CONTINUOUS
 62
     7
 10
911.7083911223
 20
514.883876428
 30
0.0
  0
VERTEX
  5
1BD
  8
0
  6
CONTINUOUS
 62
     7
 10
911.7790226264
 20
569.3002348989
 30
0.0
  0
SEQEND
  5
1B7
  8
0
  6
CONTINUOUS
 62
     7
  0
POLYLINE
  5
114
  8
0
  6
CONTINUOUS
 62
     7
 66
     1
 10
0.0
 20
0.0
 30
0.0
  0
VERTEX
  5
1BF
  8
0
  6
CONTINUOUS
 62
     7
 10
943.9621184392
 20
568.5988595932
 30
0.0
  0
VERTEX
  5
1C0
  8
0
  6
CONTINUOUS
 62
     7
 10
943.2241980357
 20
568.6733430475
 30
0.0
  0
VERTEX
  5
1C1
  8
0
  6
CONTINUOUS
 62
     7
 10
942.1220038457
 20
568.747021839
 30
0.0
  0
VERTEX
  5
1C2
  8
0
  6
CONTINUOUS
 62
     7
 10
940.6673673911
 20
568.8191062063
 30
0.0
  0
VERTEX
  5
1C3
  8
0
  6
CONTINUOUS
 62
     7
 10
938.8759646935
 20
568.8888138383
 30
0.0
  0
VERTEX
  5
1C4
  8
0
  6
CONTINUOUS
 62
     7
 10
936.7670778556
 20
568.9554071277
 30
0.0
  0
VERTEX
  5
1C5
  8
0
  6
CONTINUOUS
 62
     7
 10
934.3633715434
 20
569.0181708187
 30
0.0
  0
VERTEX
  5
1C6
  8
0
  6
CONTINUOUS
 62
     7
 10
931.690729074
 20
569.0764120072
 30
0.0
  0
VERTEX
  5
1C7
  8
0
  6
CONTINUOUS
 62
     7
 10
928.7779096885
 20
569.1295197457
 30
0.0
  0
VERTEX
  5
1C8
  8
0
  6
CONTINUOUS
 62
     7
 10
925.6562505288
 20
569.1769128889
 30
0.0
  0
VERTEX
  5
1C9
  8
0
  6
CONTINUOUS
 62
     7
 10
922.3593388123
 20
569.2180922478
 30
0.0
  0
VERTEX
  5
1CA
  8
0
  6
CONTINUOUS
 62
     7
 10
918.922669105
 20
569.2526033371
 30
0.0
  0
VERTEX
  5
1CB
  8
0
  6
CONTINUOUS
 62
     7
 10
915.3831962867
 20
569.2800810784
 30
0.0
  0
VERTEX
  5
1CC
  8
0
  6
CONTINUOUS
 62
     7
 10
911.7790226264
 20
569.3002348989
 30
0.0
  0
SEQEND
  5
1BE
  8
0
  6
CONTINUOUS
 62
     7
  0
ARC
  5
115
  8
0
  6
CONTINUOUS
 62
     7
 10
905.5535431855
 20
326.5574188254
 30
0.0
 40
6.818663487885463
 50
269.5455850779
 51
0.4133424355
  0
ARC
  5
116
  8
0
  6
CONTINUOUS
 62
     7
 10
501.0165034778
 20
326.557405599
 30
0.0
 40
6.818650366754661
 50
179.5865456275
 51
270.4545268591
  0
POLYLINE
  5
117
  8
0
  6
CONTINUOUS
 62
     7
 66
     1
 10
0.0
 20
0.0
 30
0.0
  0
VERTEX
  5
1CE
  8
0
  6
CONTINUOUS
 62
     7
 10
903.2850329204
 20
609.2296844572
 30
0.0
  0
VERTEX
  5
1CF
  8
0
  6
CONTINUOUS
 62
     7
 10
903.5406325383
 20
608.4594881385
 30
0.0
  0
VERTEX
  5
1D0
  8
0
  6
CONTINUOUS
 62
     7
 10
903.7933115287
 20
607.2997903675
 30
0.0
  0
VERTEX
  5
1D1
  8
0
  6
CONTINUOUS
 62
     7
 10
904.0401194615
 20
605.7639425844
 30
0.0
  0
VERTEX
  5
1D2
  8
0
  6
CONTINUOUS
 62
     7
 10
904.2782400174
 20
603.8696473688
 30
0.0
  0
VERTEX
  5
1D3
  8
0
  6
CONTINUOUS
 62
     7
 10
904.5049164815
 20
601.6387200206
 30
0.0
  0
VERTEX
  5
1D4
  8
0
  6
CONTINUOUS
 62
     7
 10
904.7175411506
 20
599.0968352407
 30
0.0
  0
VERTEX
  5
1D5
  8
0
  6
CONTINUOUS
 62
     7
 10
904.9136702342
 20
596.2732738107
 30
0.0
  0
VERTEX
  5
1D6
  8
0
  6
CONTINUOUS
 62
     7
 10
905.0910387559
 20
593.2005649656
 30
0.0
  0
VERTEX
  5
1D7
  8
0
  6
CONTINUOUS
 62
     7
 10
905.2476201577
 20
589.9140989631
 30
0.0
  0
VERTEX
  5
1D8
  8
0
  6
CONTINUOUS
 62
     7
 10
905.3815815968
 20
586.4517098516
 30
0.0
  0
VERTEX
  5
1D9
  8
0
  6
CONTINUOUS
 62
     7
 10
905.4914031548
 20
582.8532880395
 30
0.0
  0
VERTEX
  5
1DA
  8
0
  6
CONTINUOUS
 62
     7
 10
905.575818233
 20
579.1602587551
 30
0.0
  0
VERTEX
  5
1DB
  8
0
  6
CONTINUOUS
 62
     7
 10
905.6338582559
 20
575.4151797145
 30
0.0
  0
SEQEND
  5
1CD
  8
0
  6
CONTINUOUS
 62
     7
  0
POLYLINE
  5
118
  8
0
  6
CONTINUOUS
 62
     7
 66
     1
 10
0.0
 20
0.0
 30
0.0
  0
VERTEX
  5
1DD
  8
0
  6
CONTINUOUS
 62
     7
 10
905.6338582559
 20
575.4151797145
 30
0.0
  0
VERTEX
  5
1DE
  8
0
  6
CONTINUOUS
 62
     7
 10
860.9369311852
 20
575.0301635116
 30
0.0
  0
VERTEX
  5
1DF
  8
0
  6
CONTINUOUS
 62
     7
 10
816.2095088882
 20
574.7482335418
 30
0.0
  0
VERTEX
  5
1E0
  8
0
  6
CONTINUOUS
 62
     7
 10
771.4243147893
 20
574.606627807
 30
0.0
  0
VERTEX
  5
1E1
  8
0
  6
CONTINUOUS
 62
     7
 10
726.6192630304
 20
574.5951837152
 30
0.0
  0
SEQEND
  5
1DC
  8
0
  6
CONTINUOUS
 62
     7
  0
POLYLINE
  5
119
  8
0
  6
CONTINUOUS
 62
     7
 66
     1
 10
0.0
 20
0.0
 30
0.0
  0
VERTEX
  5
1E3
  8
0
  6
CONTINUOUS
 62
     7
 10
726.2120869381
 20
607.9789405912
 30
0.0
  0
VERTEX
  5
1E4
  8
0
  6
CONTINUOUS
 62
     7
 10
726.2559056653
 20
607.1860796064
 30
0.0
  0
VERTEX
  5
1E5
  8
0
  6
CONTINUOUS
 62
     7
 10
726.2992345167
 20
606.0162043422
 30
0.0
  0
VERTEX
  5
1E6
  8
0
  6
CONTINUOUS
 62
     7
 10
726.3415892048
 20
604.4823980182
 30
0.0
  0
VERTEX
  5
1E7
  8
0
  6
CONTINUOUS
 62
     7
 10
726.3824984802
 20
602.6017820686
 30
0.0
  0
VERTEX
  5
1E8
  8
0
  6
CONTINUOUS
 62
     7
 10
726.4215022696
 20
600.3953969329
 30
0.0
  0
VERTEX
  5
1E9
  8
0
  6
CONTINUOUS
 62
     7
 10
726.4581665767
 20
597.8878593295
 30
0.0
  0
VERTEX
  5
1EA
  8
0
  6
CONTINUOUS
 62
     7
 10
726.4920816196
 20
595.1072132438
 30
0.0
  0
VERTEX
  5
1EB
  8
0
  6
CONTINUOUS
 62
     7
 10
726.5228692813
 20
592.0845275968
 30
0.0
  0
VERTEX
  5
1EC
  8
0
  6
CONTINUOUS
 62
     7
 10
726.5501831098
 20
588.8535535186
 30
0.0
  0
VERTEX
  5
1ED
  8
0
  6
CONTINUOUS
 62
     7
 10
726.5737194939
 20
585.4503965228
 30
0.0
  0
VERTEX
  5
1EE
  8
0
  6
CONTINUOUS
 62
     7
 10
726.5932158006
 20
581.913099274
 30
0.0
  0
VERTEX
  5
1EF
  8
0
  6
CONTINUOUS
 62
     7
 10
726.6084541006
 20
578.2811647504
 30
0.0
  0
VERTEX
  5
1F0
  8
0
  6
CONTINUOUS
 62
     7
 10
726.6192630304
 20
574.5951837152
 30
0.0
  0
SEQEND
  5
1E2
  8
0
  6
CONTINUOUS
 62
     7
  0
POLYLINE
  5
11A
  8
0
  6
CONTINUOUS
 62
     7
 66
     1
 10
0.0
 20
0.0
 30
0.0
  0
VERTEX
  5
1F2
  8
0
  6
CONTINUOUS
 62
     7
 10
679.9507968498
 20
574.5951837152
 30
0.0
  0
VERTEX
  5
1F3
  8
0
  6
CONTINUOUS
 62
     7
 10
635.1804051919
 20
574.6065682023
 30
0.0
  0
VERTEX
  5
1F4
  8
0
  6
CONTINUOUS
 62
     7
 10
590.429833941
 20
574.7478908151
 30
0.0
  0
VERTEX
  5
1F5
  8
0
  6
CONTINUOUS
 62
     7
 10
545.6677589936
 20
575.0298952907
 30
0.0
  0
VERTEX
  5
1F6
  8
0
  6
CONTINUOUS
 62
     7
 10
500.9362016244
 20
575.4151797145
 30
0.0
  0
SEQEND
  5
1F1
  8
0
  6
CONTINUOUS
 62
     7
  0
POLYLINE
  5
11B
  8
0
  6
CONTINUOUS
 62
     7
 66
     1
 10
0.0
 20
0.0
 30
0.0
  0
VERTEX
  5
1F8
  8
0
  6
CONTINUOUS
 62
     7
 10
500.9362016244
 20
575.4151797145
 30
0.0
  0
VERTEX
  5
1F9
  8
0
  6
CONTINUOUS
 62
     7
 10
500.9942416472
 20
579.1602587551
 30
0.0
  0
VERTEX
  5
1FA
  8
0
  6
CONTINUOUS
 62
     7
 10
501.0786567254
 20
582.8532880395
 30
0.0
  0
VERTEX
  5
1FB
  8
0
  6
CONTINUOUS
 62
     7
 10
501.1884782834
 20
586.4517098516
 30
0.0
  0
VERTEX
  5
1FC
  8
0
  6
CONTINUOUS
 62
     7
 10
501.3224397225
 20
589.9140989631
 30
0.0
  0
VERTEX
  5
1FD
  8
0
  6
CONTINUOUS
 62
     7
 10
501.4790211244
 20
593.2005649656
 30
0.0
  0
VERTEX
  5
1FE
  8
0
  6
CONTINUOUS
 62
     7
 10
501.656389646
 20
596.2732738107
 30
0.0
  0
VERTEX
  5
1FF
  8
0
  6
CONTINUOUS
 62
     7
 10
501.8525187297
 20
599.0968352407
 30
0.0
  0
VERTEX
  5
200
  8
0
  6
CONTINUOUS
 62
     7
 10
502.0651433988
 20
601.6387200206
 30
0.0
  0
VERTEX
  5
201
  8
0
  6
CONTINUOUS
 62
     7
 10
502.2918198628
 20
603.8696473688
 30
0.0
  0
VERTEX
  5
202
  8
0
  6
CONTINUOUS
 62
     7
 10
502.5299404187
 20
605.7639425844
 30
0.0
  0
VERTEX
  5
203
  8
0
  6
CONTINUOUS
 62
     7
 10
502.7767483516
 20
607.2997903675
 30
0.0
  0
VERTEX
  5
204
  8
0
  6
CONTINUOUS
 62
     7
 10
503.0294273419
 20
608.4594881385
 30
0.0
  0
VERTEX
  5
205
  8
0
  6
CONTINUOUS
 62
     7
 10
503.2850269599
 20
609.2296844572
 30
0.0
  0
SEQEND
  5
1F7
  8
0
  6
CONTINUOUS
 62
     7
  0
POLYLINE
  5
11C
  8
0
  6
CONTINUOUS
 62
     7
 66
     1
 10
0.0
 20
0.0
 30
0.0
  0
VERTEX
  5
207
  8
0
  6
CONTINUOUS
 62
     7
 10
679.9507968498
 20
574.5951837152
 30
0.0
  0
VERTEX
  5
208
  8
0
  6
CONTINUOUS
 62
     7
 10
679.9616057796
 20
578.2811647504
 30
0.0
  0
VERTEX
  5
209
  8
0
  6
CONTINUOUS
 62
     7
 10
679.9768440796
 20
581.913099274
 30
0.0
  0
VERTEX
  5
20A
  8
0
  6
CONTINUOUS
 62
     7
 10
679.9963403864
 20
585.4503965228
 30
0.0
  0
VERTEX
  5
20B
  8
0
  6
CONTINUOUS
 62
     7
 10
680.0198767705
 20
588.8535535186
 30
0.0
  0
VERTEX
  5
20C
  8
0
  6
CONTINUOUS
 62
     7
 10
680.047190599
 20
592.0845275968
 30
0.0
  0
VERTEX
  5
20D
  8
0
  6
CONTINUOUS
 62
     7
 10
680.0779782606
 20
595.1072132438
 30
0.0
  0
VERTEX
  5
20E
  8
0
  6
CONTINUOUS
 62
     7
 10
680.1118933035
 20
597.8878593295
 30
0.0
  0
VERTEX
  5
20F
  8
0
  6
CONTINUOUS
 62
     7
 10
680.1485576106
 20
600.3953969329
 30
0.0
  0
VERTEX
  5
210
  8
0
  6
CONTINUOUS
 62
     7
 10
680.1875614
 20
602.6017820686
 30
0.0
  0
VERTEX
  5
211
  8
0
  6
CONTINUOUS
 62
     7
 10
680.2284706755
 20
604.4823980182
 30
0.0
  0
VERTEX
  5
212
  8
0
  6
CONTINUOUS
 62
     7
 10
680.2708253635
 20
606.0162043422
 30
0.0
  0
VERTEX
  5
213
  8
0
  6
CONTINUOUS
 62
     7
 10
680.314154215
 20
607.1860796064
 30
0.0
  0
VERTEX
  5
214
  8
0
  6
CONTINUOUS
 62
     7
 10
680.3579729421
 20
607.9789405912
 30
0.0
  0
SEQEND
  5
206
  8
0
  6
CONTINUOUS
 62
     7
  0
ARC
  5
11D
  8
0
  6
CONTINUOUS
 62
     7
 10
905.68392484
 20
569.3202546818
 30
0.0
 40
6.095130664528601
 50
359.8118086073
 51
90.4706439259
  0
ARC
  5
11E
  8
0
  6
CONTINUOUS
 62
     7
 10
500.8863204781
 20
569.3200683275
 30
0.0
 40
6.095315492173145
 50
89.5311135146
 51
180.1864339522
  0
LINE
  5
11F
  8
0
  6
CONTINUOUS
 62
     7
 10
726.6192630304
 20
574.5951837152
 30
0.0
 11
709.6016419491
 21
574.6384566873
 31
0.0
  0
POLYLINE
  5
120
  8
0
  6
CONTINUOUS
 62
     7
 66
     1
 10
0.0
 20
0.0
 30
0.0
  0
VERTEX
  5
216
  8
0
  6
CONTINUOUS
 62
     7
 10
696.9684179312
 20
574.6384566873
 30
0.0
  0
VERTEX
  5
217
  8
0
  6
CONTINUOUS
 62
     7
 10
703.2600995025
 20
574.9211317151
 30
0.0
  0
VERTEX
  5
218
  8
0
  6
CONTINUOUS
 62
     7
 10
709.6016419491
 20
574.6384566873
 30
0.0
  0
SEQEND
  5
215
  8
0
  6
CONTINUOUS
 62
     7
  0
LINE
  5
121
  8
0
  6
CONTINUOUS
 62
     7
 10
696.9684179312
 20
574.6384566873
 30
0.0
 11
679.9507968498
 21
574.5951837152
 31
0.0
  0
ARC
  5
122
  8
0
  6
CONTINUOUS
 62
     7
 10
703.2850299401
 20
508.5988622754
 30
0.0
 40
69.99999999999999
 50
109.4720015612
 51
70.5279984388
  0
POLYLINE
  5
123
  8
0
  6
CONTINUOUS
 62
     7
 66
     1
 10
0.0
 20
0.0
 30
0.0
  0
VERTEX
  5
21A
  8
0
  6
CONTINUOUS
 62
     7
 10
709.537681043
 20
573.9697372764
 30
0.0
  0
VERTEX
  5
21B
  8
0
  6
CONTINUOUS
 62
     7
 10
703.3140620951
 20
574.2732739299
 30
0.0
  0
VERTEX
  5
21C
  8
0
  6
CONTINUOUS
 62
     7
 10
697.0323788373
 20
573.9697372764
 30
0.0
  0
SEQEND
  5
219
  8
0
  6
CONTINUOUS
 62
     7
  0
POLYLINE
  5
124
  8
0
  6
CONTINUOUS
 62
     7
 66
     1
 10
0.0
 20
0.0
 30
0.0
  0
VERTEX
  5
21E
  8
0
  6
CONTINUOUS
 62
     7
 10
696.9684179312
 20
574.6384566873
 30
0.0
  0
VERTEX
  5
21F
  8
0
  6
CONTINUOUS
 62
     7
 10
696.9765092617
 20
574.5538627952
 30
0.0
  0
VERTEX
  5
220
  8
0
  6
CONTINUOUS
 62
     7
 10
696.9845856911
 20
574.4694179147
 30
0.0
  0
VERTEX
  5
221
  8
0
  6
CONTINUOUS
 62
     7
 10
696.9926416313
 20
574.3851965516
 30
0.0
  0
VERTEX
  5
222
  8
0
  6
CONTINUOUS
 62
     7
 10
697.0006696319
 20
574.3012583106
 30
0.0
  0
VERTEX
  5
223
  8
0
  6
CONTINUOUS
 62
     7
 10
697.0086641049
 20
574.2176776975
 30
0.0
  0
VERTEX
  5
224
  8
0
  6
CONTINUOUS
 62
     7
 10
697.0166180653
 20
574.134529218
 30
0.0
  0
VERTEX
  5
225
  8
0
  6
CONTINUOUS
 62
     7
 10
697.024524994
 20
574.0518575757
 30
0.0
  0
VERTEX
  5
226
  8
0
  6
CONTINUOUS
 62
     7
 10
697.0323788373
 20
573.9697372764
 30
0.0
  0
SEQEND
  5
21D
  8
0
  6
CONTINUOUS
 62
     7
  0
POLYLINE
  5
125
  8
0
  6
CONTINUOUS
 62
     7
 66
     1
 10
0.0
 20
0.0
 30
0.0
  0
VERTEX
  5
228
  8
0
  6
CONTINUOUS
 62
     7
 10
709.537681043
 20
573.9697372764
 30
0.0
  0
VERTEX
  5
229
  8
0
  6
CONTINUOUS
 62
     7
 10
709.5455348862
 20
574.0518575757
 30
0.0
  0
VERTEX
  5
22A
  8
0
  6
CONTINUOUS
 62
     7
 10
709.5534418149
 20
574.134529218
 30
0.0
  0
VERTEX
  5
22B
  8
0
  6
CONTINUOUS
 62
     7
 10
709.5613957753
 20
574.2176776975
 30
0.0
  0
VERTEX
  5
22C
  8
0
  6
CONTINUOUS
 62
     7
 10
709.5693902483
 20
574.3012583106
 30
0.0
  0
VERTEX
  5
22D
  8
0
  6
CONTINUOUS
 62
     7
 10
709.5774182489
 20
574.3851965516
 30
0.0
  0
VERTEX
  5
22E
  8
0
  6
CONTINUOUS
 62
     7
 10
709.5854741892
 20
574.4694179147
 30
0.0
  0
VERTEX
  5
22F
  8
0
  6
CONTINUOUS
 62
     7
 10
709.5935506186
 20
574.5538627952
 30
0.0
  0
VERTEX
  5
230
  8
0
  6
CONTINUOUS
 62
     7
 10
709.6016419491
 20
574.6384566873
 30
0.0
  0
SEQEND
  5
227
  8
0
  6
CONTINUOUS
 62
     7
  0
CIRCLE
  5
126
  8
0
  6
CONTINUOUS
 62
     7
 10
703.2850299401
 20
508.5988622754
 30
0.0
 40
58.61177143234625
  0
ARC
  5
127
  8
0
  6
CONTINUOUS
 62
     7
 10
703.2850299401
 20
508.5988622754
 30
0.0
 40
65.66922975937997
 50
95.4636553582
 51
84.5363446418
  0
ARC
  5
128
  8
0
  6
CONTINUOUS
 62
     7
 10
703.2850299401
 20
508.5988622754
 30
0.0
 40
66.34098840458013
 50
95.4636553582
 51
84.5363446418
  0
CIRCLE
  5
129
  8
0
  6
CONTINUOUS
 62
     7
 10
703.2850299401
 20
508.5988622754
 30
0.0
 40
57.50000000000011
  0
CIRCLE
  5
12A
  8
0
  6
CONTINUOUS
 62
     7
 10
703.2850299401
 20
508.5988622754
 30
0.0
 40
56.58715574274765
  0
CIRCLE
  5
12B
  8
0
  6
CONTINUOUS
 62
     7
 10
703.2850299401
 20
508.5988622754
 30
0.0
 40
45.0
  0
ENDSEC
  0
EOF
