  0
SECTION
  2
HEADER
  9
$ACADVER
  1
AC1015
  9
$ACADMAINTVER
 70
     6
  9
$DWGCODEPAGE
  3
ANSI_1252
  9
$INSBASE
 10
0.0
 20
0.0
 30
0.0
  9
$EXTMIN
 10
0.0
 20
0.0
 30
0.0
  9
$EXTMAX
 10
1200.0
 20
900.0
 30
0.0
  9
$LIMMIN
 10
0.0
 20
0.0
  9
$LIMMAX
 10
1200.0
 20
900.0
  9
$ORTHOMODE
 70
     0
  9
$REGENMODE
 70
     1
  9
$FILLMODE
 70
     1
  9
$QTEXTMODE
 70
     0
  9
$MIRRTEXT
 70
     1
  9
$LTSCALE
 40
1.0
  9
$ATTMODE
 70
     1
  9
$TEXTSIZE
 40
5.0
  9
$TRACEWID
 40
1.0
  9
$TEXTSTYLE
  7
Standard
  9
$CLAYER
  8
0
  9
$CELTYPE
  6
ByLayer
  9
$CECOLOR
 62
   256
  9
$CELTSCALE
 40
1.0
  9
$DISPSILH
 70
     0
  9
$DIMSCALE
 40
1.0
  9
$DIMASZ
 40
6.0
  9
$DIMEXO
 40
1.0
  9
$DIMDLI
 40
3.75
  9
$DIMRND
 40
0.0
  9
$DIMDLE
 40
0.0
  9
$DIMEXE
 40
1.0
  9
$DIMTP
 40
0.0
  9
$DIMTM
 40
0.0
  9
$DIMTXT
 40
5.0
  9
$DIMCEN
 40
2.5
  9
$DIMTSZ
 40
0.0
  9
$DIMTOL
 70
     0
  9
$DIMLIM
 70
     0
  9
$DIMTIH
 70
     1
  9
$DIMTOH
 70
     1
  9
$DIMSE1
 70
     0
  9
$DIMSE2
 70
     0
  9
$DIMTAD
 70
     1
  9
$DIMZIN
 70
     0
  9
$DIMBLK
  1

  9
$DIMASO
 70
     1
  9
$DIMSHO
 70
     1
  9
$DIMPOST
  1

  9
$DIMAPOST
  1

  9
$DIMALT
 70
     0
  9
$DIMALTD
 70
     3
  9
$DIMALTF
 40
0.0393700787401575
  9
$DIMLFAC
 40
1.0
  9
$DIMTOFL
 70
     1
  9
$DIMTVP
 40
0.0
  9
$DIMTIX
 70
     0
  9
$DIMSOXD
 70
     0
  9
$DIMSAH
 70
     0
  9
$DIMBLK1
  1

  9
$DIMBLK2
  1

  9
$DIMSTYLE
  2
ISO-25
  9
$DIMCLRD
 70
     0
  9
$DIMCLRE
 70
     0
  9
$DIMCLRT
 70
     0
  9
$DIMTFAC
 40
1.0
  9
$DIMGAP
 40
1.524
  9
$DIMJUST
 70
     0
  9
$DIMSD1
 70
     0
  9
$DIMSD2
 70
     0
  9
$DIMTOLJ
 70
     0
  9
$DIMTZIN
 70
     0
  9
$DIMALTZ
 70
     0
  9
$DIMALTTZ
 70
     0
  9
$DIMUPT
 70
     0
  9
$DIMDEC
 70
     2
  9
$DIMTDEC
 70
     2
  9
$DIMALTU
 70
     2
  9
$DIMALTTD
 70
     3
  9
$DIMTXSTY
  7
Standard
  9
$DIMAUNIT
 70
     0
  9
$DIMADEC
 70
     2
  9
$DIMALTRND
 40
0.0
  9
$DIMAZIN
 70
     0
  9
$DIMDSEP
 70
    44
  9
$DIMATFIT
 70
     3
  9
$DIMFRAC
 70
     0
  9
$DIMLDRBLK
  1

  9
$DIMLUNIT
 70
     2
  9
$DIMLWD
 70
    -2
  9
$DIMLWE
 70
    -2
  9
$DIMTMOVE
 70
     0
  9
$LUNITS
 70
     2
  9
$LUPREC
 70
     2
  9
$SKETCHINC
 40
1.0
  9
$FILLETRAD
 40
10.0
  9
$AUNITS
 70
     0
  9
$AUPREC
 70
     2
  9
$MENU
  1
.
  9
$ELEVATION
 40
0.0
  9
$PELEVATION
 40
0.0
  9
$THICKNESS
 40
0.0
  9
$LIMCHECK
 70
     0
  9
$CHAMFERA
 40
10.0
  9
$CHAMFERB
 40
10.0
  9
$CHAMFERC
 40
20.0
  9
$CHAMFERD
 40
0.0
  9
$SKPOLY
 70
     0
  9
$TDCREATE
 40
2456338.378198056
  9
$TDUCREATE
 40
2456338.294864722
  9
$TDUPDATE
 40
2457758.356481886
  9
$TDUUPDATE
 40
2457758.273148553
  9
$TDINDWG
 40
0.000123669
  9
$TDUSRTIMER
 40
2457758.273025162
  9
$USRTIMER
 70
     1
  9
$ANGBASE
 50
0.0
  9
$ANGDIR
 70
     0
  9
$PDMODE
 70
     0
  9
$PDSIZE
 40
-1.0
  9
$PLINEWID
 40
0.0
  9
$SPLFRAME
 70
     0
  9
$SPLINETYPE
 70
     6
  9
$SPLINESEGS
 70
     8
  9
$HANDSEED
  5
200
  9
$SURFTAB1
 70
     6
  9
$SURFTAB2
 70
     6
  9
$SURFTYPE
 70
     6
  9
$SURFU
 70
     6
  9
$SURFV
 70
     6
  9
$UCSBASE
  2

  9
$UCSNAME
  2

  9
$UCSORG
 10
0.0
 20
0.0
 30
0.0
  9
$UCSXDIR
 10
1.0
 20
0.0
 30
0.0
  9
$UCSYDIR
 10
0.0
 20
1.0
 30
0.0
  9
$UCSORTHOREF
  2

  9
$UCSORTHOVIEW
 70
     0
  9
$UCSORGTOP
 10
0.0
 20
0.0
 30
0.0
  9
$UCSORGBOTTOM
 10
0.0
 20
0.0
 30
0.0
  9
$UCSORGLEFT
 10
0.0
 20
0.0
 30
0.0
  9
$UCSORGRIGHT
 10
0.0
 20
0.0
 30
0.0
  9
$UCSORGFRONT
 10
0.0
 20
0.0
 30
0.0
  9
$UCSORGBACK
 10
0.0
 20
0.0
 30
0.0
  9
$PUCSBASE
  2

  9
$PUCSNAME
  2

  9
$PUCSORG
 10
0.0
 20
0.0
 30
0.0
  9
$PUCSXDIR
 10
1.0
 20
0.0
 30
0.0
  9
$PUCSYDIR
 10
0.0
 20
1.0
 30
0.0
  9
$PUCSORTHOREF
  2

  9
$PUCSORTHOVIEW
 70
     0
  9
$PUCSORGTOP
 10
0.0
 20
0.0
 30
0.0
  9
$PUCSORGBOTTOM
 10
0.0
 20
0.0
 30
0.0
  9
$PUCSORGLEFT
 10
0.0
 20
0.0
 30
0.0
  9
$PUCSORGRIGHT
 10
0.0
 20
0.0
 30
0.0
  9
$PUCSORGFRONT
 10
0.0
 20
0.0
 30
0.0
  9
$PUCSORGBACK
 10
0.0
 20
0.0
 30
0.0
  9
$USERI1
 70
     0
  9
$USERI2
 70
     0
  9
$USERI3
 70
     0
  9
$USERI4
 70
     0
  9
$USERI5
 70
     0
  9
$USERR1
 40
0.0
  9
$USERR2
 40
0.0
  9
$USERR3
 40
0.0
  9
$USERR4
 40
0.0
  9
$USERR5
 40
0.0
  9
$WORLDVIEW
 70
     1
  9
$SHADEDGE
 70
     3
  9
$SHADEDIF
 70
    70
  9
$TILEMODE
 70
     1
  9
$MAXACTVP
 70
    64
  9
$PINSBASE
 10
0.0
 20
0.0
 30
0.0
  9
$PLIMCHECK
 70
     0
  9
$PEXTMIN
 10
1.000000000000000E+20
 20
1.000000000000000E+20
 30
1.000000000000000E+20
  9
$PEXTMAX
 10
-1.000000000000000E+20
 20
-1.000000000000000E+20
 30
-1.000000000000000E+20
  9
$PLIMMIN
 10
0.0
 20
0.0
  9
$PLIMMAX
 10
0.0
 20
0.0
  9
$UNITMODE
 70
     0
  9
$VISRETAIN
 70
     1
  9
$PLINEGEN
 70
     0
  9
$PSLTSCALE
 70
     1
  9
$TREEDEPTH
 70
  3020
  9
$CMLSTYLE
  2
Standard
  9
$CMLJUST
 70
     0
  9
$CMLSCALE
 40
20.0
  9
$PROXYGRAPHICS
 70
     1
  9
$MEASUREMENT
 70
     1
  9
$CELWEIGHT
370
    -1
  9
$ENDCAPS
280
     0
  9
$JOINSTYLE
280
     0
  9
$LWDISPLAY
290
     1
  9
$INSUNITS
 70
     4
  9
$HYPERLINKBASE
  1

  9
$STYLESHEET
  1

  9
$XEDIT
290
     1
  9
$CEPSNTYPE
380
     0
  9
$PSTYLEMODE
290
     1
  9
$FINGERPRINTGUID
  2
{1B46E301-494A-4994-9551-738D5DEAC859}
  9
$VERSIONGUID
  2
{FAEB1C32-E019-11D5-929B-00C0DF256EC4}
  9
$EXTNAMES
290
     1
  9
$PSVPSCALE
 40
0.0
  9
$OLESTARTUP
290
     0
  0
ENDSEC
  0
SECTION
  2
CLASSES
  0
CLASS
  1
ACDBDICTIONARYWDFLT
  2
AcDbDictionaryWithDefault
  3
ObjectDBX Classes
 90
        0
280
     0
281
     0
  0
CLASS
  1
VISUALSTYLE
  2
AcDbVisualStyle
  3
ObjectDBX Classes
 90
     4095
280
     0
281
     0
  0
CLASS
  1
MATERIAL
  2
AcDbMaterial
  3
ObjectDBX Classes
 90
     1153
280
     0
281
     0
  0
CLASS
  1
ACDBPLACEHOLDER
  2
AcDbPlaceHolder
  3
ObjectDBX Classes
 90
        0
280
     0
281
     0
  0
CLASS
  1
LAYOUT
  2
AcDbLayout
  3
ObjectDBX Classes
 90
        0
280
     0
281
     0
  0
CLASS
  1
SCALE
  2
AcDbScale
  3
ObjectDBX Classes
 90
     1153
280
     0
281
     0
  0
CLASS
  1
TABLESTYLE
  2
AcDbTableStyle
  3
ObjectDBX Classes
 90
     4095
280
     0
281
     0
  0
CLASS
  1
SUN
  2
AcDbSun
  3
SCENEOE
 90
     1153
280
     0
281
     0
  0
CLASS
  1
RASTERVARIABLES
  2
AcDbRasterVariables
  3
ISM
 90
        0
280
     0
281
     0
  0
ENDSEC
  0
SECTION
  2
TABLES
  0
TABLE
  2
VPORT
  5
8
330
0
100
AcDbSymbolTable
 70
     1
  0
VPORT
  5
29
330
8
100
AcDbSymbolTableRecord
100
AcDbViewportTableRecord
  2
*Active
 70
     0
 10
0.0
 20
0.0
 11
1.0
 21
1.0
 12
600.0
 22
450.0
 13
0.0
 23
0.0
 14
10.0
 24
10.0
 15
10.0
 25
10.0
 16
0.0
 26
0.0
 36
1.0
 17
0.0
 27
0.0
 37
0.0
 40
900.0
 41
1.333333333333333
 42
50.0
 43
0.0
 44
0.0
 50
0.0
 51
0.0
 71
     0
 72
  2000
 73
     1
 74
     3
 75
     0
 76
     0
 77
     0
 78
     0
281
     0
 65
     1
110
0.0
120
0.0
130
0.0
111
1.0
121
0.0
131
0.0
112
0.0
122
1.0
132
0.0
 79
     0
146
0.0
  0
ENDTAB
  0
TABLE
  2
LTYPE
  5
5
330
0
100
AcDbSymbolTable
 70
     6
  0
LTYPE
  5
14
330
5
100
AcDbSymbolTableRecord
100
AcDbLinetypeTableRecord
  2
ByBlock
 70
     0
  3

 72
    65
 73
     0
 40
0.0
  0
LTYPE
  5
15
330
5
100
AcDbSymbolTableRecord
100
AcDbLinetypeTableRecord
  2
ByLayer
 70
     0
  3

 72
    65
 73
     0
 40
0.0
  0
LTYPE
  5
16
330
5
100
AcDbSymbolTableRecord
100
AcDbLinetypeTableRecord
  2
Continuous
 70
     0
  3
Solid line
 72
    65
 73
     0
 40
0.0
  0
LTYPE
  5
3F
330
5
100
AcDbSymbolTableRecord
100
AcDbLinetypeTableRecord
  2
HIDDEN
 70
     0
  3
Hidden __ __ __ __ __ __ __ __ __ __ __ __ __ __
 72
    65
 73
     2
 40
1.905
 49
1.27
 74
     0
 49
-0.635
 74
     0
  0
LTYPE
  5
40
330
5
100
AcDbSymbolTableRecord
100
AcDbLinetypeTableRecord
  2
PHANTOM
 70
     0
  3
Phantom ______  __  __  ______  __  __  ______
 72
    65
 73
     6
 40
12.7
 49
6.35
 74
     0
 49
-1.27
 74
     0
 49
1.27
 74
     0
 49
-1.27
 74
     0
 49
1.27
 74
     0
 49
-1.27
 74
     0
  0
LTYPE
  5
41
330
5
100
AcDbSymbolTableRecord
100
AcDbLinetypeTableRecord
  2
CENTER
 70
     0
  3
Center ____ _ ____ _ ____ _ ____ _ ____ _ ____
 72
    65
 73
     4
 40
10.16
 49
6.35
 74
     0
 49
-1.27
 74
     0
 49
1.27
 74
     0
 49
-1.27
 74
     0
  0
LTYPE
  5
42
330
5
100
AcDbSymbolTableRecord
100
AcDbLinetypeTableRecord
  2
CENTERX2
 70
     0
  3
Center (2x) ________  __  ________  __  _____
 72
    65
 73
     4
 40
20.32
 49
12.7
 74
     0
 49
-2.54
 74
     0
 49
2.54
 74
     0
 49
-2.54
 74
     0
  0
LTYPE
  5
43
330
5
100
AcDbSymbolTableRecord
100
AcDbLinetypeTableRecord
  2
DOT2
 70
     0
  3
Dot (.5x) ........................................
 72
    65
 73
     2
 40
0.635
 49
0.0
 74
     0
 49
-0.635
 74
     0
  0
ENDTAB
  0
TABLE
  2
LAYER
  5
2
330
0
100
AcDbSymbolTable
 70
     2
  0
LAYER
  5
10
330
2
100
AcDbSymbolTableRecord
100
AcDbLayerTableRecord
  2
0
 70
     0
 62
     7
  6
Continuous
370
    -3
390
F
  0
LAYER
  5
44
330
2
100
AcDbSymbolTableRecord
100
AcDbLayerTableRecord
  2
TABLE_BL1
 70
     0
 62
   179
  6
Continuous
370
    -3
390
F
  0
ENDTAB
  0
TABLE
  2
STYLE
  5
3
330
0
100
AcDbSymbolTable
 70
     2
  0
STYLE
  5
11
330
3
100
AcDbSymbolTableRecord
100
AcDbTextStyleTableRecord
  2
Standard
 70
     0
 40
0.0
 41
1.0
 50
0.0
 71
     0
 42
5.0
  3
txt
  4

  0
STYLE
  5
5C
330
3
100
AcDbSymbolTableRecord
100
AcDbTextStyleTableRecord
  2
SLDTEXTSTYLE0
 70
     0
 40
0.0
 41
0.605
 50
0.0
 71
     0
 42
0.2
  3
TXT
  4

  0
ENDTAB
  0
TABLE
  2
VIEW
  5
6
330
0
100
AcDbSymbolTable
 70
     0
  0
ENDTAB
  0
TABLE
  2
UCS
  5
7
330
0
100
AcDbSymbolTable
 70
     0
  0
ENDTAB
  0
TABLE
  2
APPID
  5
9
330
0
100
AcDbSymbolTable
 70
     1
  0
APPID
  5
12
330
9
100
AcDbSymbolTableRecord
100
AcDbRegAppTableRecord
  2
ACAD
 70
     0
  0
ENDTAB
  0
TABLE
  2
DIMSTYLE
  5
A
330
0
100
AcDbSymbolTable
 70
     1
100
AcDbDimStyleTable
  0
DIMSTYLE
105
27
330
A
100
AcDbSymbolTableRecord
100
AcDbDimStyleTableRecord
  2
ISO-25
 70
     0
 41
2.5
 42
0.625
 43
3.75
 44
1.25
 73
     0
 74
     0
 77
     1
 78
     8
140
2.5
141
2.5
143
0.03937007874016
147
0.625
171
     3
172
     1
178
     0
271
     2
272
     2
274
     3
278
    44
283
     0
284
     8
340
11
  0
ENDTAB
  0
TABLE
  2
BLOCK_RECORD
  5
1
330
0
100
AcDbSymbolTable
 70
    12
  0
BLOCK_RECORD
  5
1F
330
1
100
AcDbSymbolTableRecord
100
AcDbBlockTableRecord
  2
*Model_Space
340
22
  0
BLOCK_RECORD
  5
1B
330
1
100
AcDbSymbolTableRecord
100
AcDbBlockTableRecord
  2
*Paper_Space
340
1E
  0
BLOCK_RECORD
  5
23
330
1
100
AcDbSymbolTableRecord
100
AcDbBlockTableRecord
  2
*Paper_Space0
340
26
  0
BLOCK_RECORD
  5
45
330
1
100
AcDbSymbolTableRecord
100
AcDbBlockTableRecord
  2
Yleistoleranssit
340
0
  0
BLOCK_RECORD
  5
59
330
1
100
AcDbSymbolTableRecord
100
AcDbBlockTableRecord
  2
SW_NOTE_0
340
0
102
{BLKREFS
331
69
102
}
  0
BLOCK_RECORD
  5
6A
330
1
100
AcDbSymbolTableRecord
100
AcDbBlockTableRecord
  2
SW_NOTE_1
340
0
102
{BLKREFS
331
72
102
}
  0
BLOCK_RECORD
  5
73
330
1
100
AcDbSymbolTableRecord
100
AcDbBlockTableRecord
  2
SW_NOTE_2
340
0
102
{BLKREFS
331
78
102
}
  0
BLOCK_RECORD
  5
7A
330
1
100
AcDbSymbolTableRecord
100
AcDbBlockTableRecord
  2
SW_NOTE_3
340
0
102
{BLKREFS
331
89
102
}
  0
BLOCK_RECORD
  5
8A
330
1
100
AcDbSymbolTableRecord
100
AcDbBlockTableRecord
  2
SW_NOTE_4
340
0
102
{BLKREFS
331
99
102
}
  0
BLOCK_RECORD
  5
9A
330
1
100
AcDbSymbolTableRecord
100
AcDbBlockTableRecord
  2
SW_NOTE_5
340
0
102
{BLKREFS
331
A5
102
}
  0
BLOCK_RECORD
  5
A6
330
1
100
AcDbSymbolTableRecord
100
AcDbBlockTableRecord
  2
SW_NOTE_6
340
0
102
{BLKREFS
331
B1
102
}
  0
BLOCK_RECORD
  5
B2
330
1
100
AcDbSymbolTableRecord
100
AcDbBlockTableRecord
  2
SW_NOTE_7
340
0
102
{BLKREFS
331
BD
102
}
  0
BLOCK_RECORD
  5
BE
330
1
100
AcDbSymbolTableRecord
100
AcDbBlockTableRecord
  2
SW_NOTE_8
340
0
102
{BLKREFS
331
C9
102
}
  0
BLOCK_RECORD
  5
CA
330
1
100
AcDbSymbolTableRecord
100
AcDbBlockTableRecord
  2
SW_NOTE_9
340
0
102
{BLKREFS
331
D4
102
}
  0
ENDTAB
  0
ENDSEC
  0
SECTION
  2
BLOCKS
  0
BLOCK
  5
20
330
1F
100
AcDbEntity
  8
0
100
AcDbBlockBegin
  2
*Model_Space
 70
     0
 10
0.0
 20
0.0
 30
0.0
  3
*Model_Space
  1
*Model_Space
  0
ENDBLK
  5
21
330
1F
100
AcDbEntity
  8
0
100
AcDbBlockEnd
  0
BLOCK
  5
1C
330
1B
100
AcDbEntity
 67
     1
  8
0
100
AcDbBlockBegin
  2
*Paper_Space
 70
     0
 10
0.0
 20
0.0
 30
0.0
  3
*Paper_Space
  1
*Paper_Space
  0
ENDBLK
  5
1D
330
1B
100
AcDbEntity
 67
     1
  8
0
100
AcDbBlockEnd
  0
BLOCK
  5
24
330
23
100
AcDbEntity
  8
0
100
AcDbBlockBegin
  2
*Paper_Space0
 70
     0
 10
0.0
 20
0.0
 30
0.0
  3
*Paper_Space0
  1
*Paper_Space0
  0
ENDBLK
  5
25
330
23
100
AcDbEntity
  8
0
100
AcDbBlockEnd
  0
BLOCK
  5
46
330
45
100
AcDbEntity
  8
0
100
AcDbBlockBegin
  2
Yleistoleranssit
 70
     0
 10
0.0
 20
0.0
 30
0.0
  3
Yleistoleranssit
  1
Yleistoleranssit
  0
LINE
  5
48
330
45
100
AcDbEntity
  8
0
  6
Continuous
 62
     7
370
     0
100
AcDbLine
 10
-128.0
 20
20.3216674369395
 30
0.0
 11
0.0
 21
20.3216674369395
 31
0.0
  0
LINE
  5
49
330
45
100
AcDbEntity
  8
0
  6
Continuous
 62
     7
370
     0
100
AcDbLine
 10
-128.0
 20
0.0
 30
0.0
 11
0.0
 21
0.0
 31
0.0
  0
LINE
  5
4A
330
45
100
AcDbEntity
  8
0
  6
Continuous
 62
     7
370
     0
100
AcDbLine
 10
-128.0
 20
0.0
 30
0.0
 11
-128.0
 21
29.3217161765533
 31
0.0
  0
LINE
  5
4B
330
45
100
AcDbEntity
  8
0
  6
Continuous
 62
     7
370
     0
100
AcDbLine
 10
-128.0
 20
29.3217161765533
 30
0.0
 11
0.0
 21
29.3217161765533
 31
0.0
  0
LINE
  5
4C
330
45
100
AcDbEntity
  8
0
  6
Continuous
 62
     7
370
     0
100
AcDbLine
 10
0.0
 20
0.0
 30
0.0
 11
0.0
 21
29.3217161765533
 31
0.0
  0
LINE
  5
4D
330
45
100
AcDbEntity
  8
0
  6
Continuous
 62
     7
370
     0
100
AcDbLine
 10
-90.0
 20
29.3217161765533
 30
0.0
 11
-90.0
 21
0.0
 31
0.0
  0
LINE
  5
4E
330
45
100
AcDbEntity
  8
0
  6
Continuous
 62
     7
370
     0
100
AcDbLine
 10
-80.35846527125837
 20
29.3217161765533
 30
0.0
 11
-80.35846527125837
 21
0.0
 31
0.0
  0
LINE
  5
4F
330
45
100
AcDbEntity
  8
0
  6
Continuous
 62
     7
370
     0
100
AcDbLine
 10
-69.44920276909968
 20
29.3217161765533
 30
0.0
 11
-69.44920276909968
 21
0.0
 31
0.0
  0
LINE
  5
50
330
45
100
AcDbEntity
  8
0
  6
Continuous
 62
     7
370
     0
100
AcDbLine
 10
-58.76960895119699
 20
29.3217161765533
 30
0.0
 11
-58.76960895119699
 21
0.0
 31
0.0
  0
LINE
  5
51
330
45
100
AcDbEntity
  8
0
  6
Continuous
 62
     7
370
     0
100
AcDbLine
 10
-47.7455121069103
 20
29.3217161765533
 30
0.0
 11
-47.7455121069103
 21
0.0
 31
0.0
  0
LINE
  5
52
330
45
100
AcDbEntity
  8
0
  6
Continuous
 62
     7
370
     0
100
AcDbLine
 10
-36.60658092049568
 20
29.3217161765533
 30
0.0
 11
-36.60658092049568
 21
0.0
 31
0.0
  0
LINE
  5
53
330
45
100
AcDbEntity
  8
0
  6
Continuous
 62
     7
370
     0
100
AcDbLine
 10
-24.77864368131311
 20
29.3217161765533
 30
0.0
 11
-24.77864368131311
 21
0.0
 31
0.0
  0
LINE
  5
54
330
45
100
AcDbEntity
  8
0
  6
Continuous
 62
     7
370
     0
100
AcDbLine
 10
-12.95070644213053
 20
29.3217161765533
 30
0.0
 11
-12.95070644213053
 21
0.0
 31
0.0
  0
LINE
  5
55
330
45
100
AcDbEntity
  8
0
  6
Continuous
 62
     7
370
     0
100
AcDbLine
 10
0.0
 20
14.50972099221878
 30
0.0
 11
-107.7846503106451
 21
14.50972099221878
 31
0.0
  0
LINE
  5
56
330
45
100
AcDbEntity
  8
0
  6
Continuous
 62
     7
370
     0
100
AcDbLine
 10
0.0
 20
10.97489696491011
 30
0.0
 11
-107.7846503106451
 21
10.97489696491008
 31
0.0
  0
LINE
  5
57
330
45
100
AcDbEntity
  8
0
  6
Continuous
 62
     7
370
     0
100
AcDbLine
 10
0.0
 20
7.382273231563818
 30
0.0
 11
-128.0
 21
7.382273231563791
 31
0.0
  0
LINE
  5
58
330
45
100
AcDbEntity
  8
0
  6
Continuous
 62
     7
370
     0
100
AcDbLine
 10
0.0
 20
3.87319888736512
 30
0.0
 11
-107.7846503106451
 21
3.873198887365092
 31
0.0
  0
INSERT
  5
69
330
45
100
AcDbEntity
  8
0
  6
Continuous
 62
     7
370
     0
100
AcDbBlockReference
  2
SW_NOTE_0
 10
-88.89342403353773
 20
25.23533252512787
 30
0.0
  0
INSERT
  5
72
330
45
100
AcDbEntity
  8
0
  6
Continuous
 62
     7
370
     0
100
AcDbBlockReference
  2
SW_NOTE_1
 10
-107.3133833052766
 20
14.6653564215458
 30
0.0
  0
INSERT
  5
78
330
45
100
AcDbEntity
  8
0
  6
Continuous
 62
     7
370
     0
100
AcDbBlockReference
  2
SW_NOTE_2
 10
-127.0419636585391
 20
14.6653559558844
 30
0.0
  0
MTEXT
  5
79
330
45
100
AcDbEntity
  8
0
  6
Continuous
 62
     7
370
     0
100
AcDbMText
 10
-127.2347267983281
 20
27.0028750836024
 30
0.0
 40
2.5
 41
0.0
 71
     1
 72
     1
  1
YLEISTOLERANSSIT
  7
SLDTEXTSTYLE0
 73
     1
 44
1.0
  0
INSERT
  5
89
330
45
100
AcDbEntity
  8
0
  6
Continuous
 62
     7
370
     0
100
AcDbBlockReference
  2
SW_NOTE_3
 10
-78.04776805326102
 20
25.23533205946658
 30
0.0
  0
INSERT
  5
99
330
45
100
AcDbEntity
  8
0
  6
Continuous
 62
     7
370
     0
100
AcDbBlockReference
  2
SW_NOTE_4
 10
-66.7605496266333
 20
25.23533205946658
 30
0.0
  0
INSERT
  5
A5
330
45
100
AcDbEntity
  8
0
  6
Continuous
 62
     7
370
     0
100
AcDbBlockReference
  2
SW_NOTE_5
 10
-56.73185874405453
 20
25.23533205946658
 30
0.0
  0
INSERT
  5
B1
330
45
100
AcDbEntity
  8
0
  6
Continuous
 62
     7
370
     0
100
AcDbBlockReference
  2
SW_NOTE_6
 10
-45.87215391116062
 20
25.23533205946658
 30
0.0
  0
INSERT
  5
BD
330
45
100
AcDbEntity
  8
0
  6
Continuous
 62
     7
370
     0
100
AcDbBlockReference
  2
SW_NOTE_7
 10
-34.78509547874237
 20
25.2353315938053
 30
0.0
  0
INSERT
  5
C9
330
45
100
AcDbEntity
  8
0
  6
Continuous
 62
     7
370
     0
100
AcDbBlockReference
  2
SW_NOTE_8
 10
-22.9284213191655
 20
25.2353315938053
 30
0.0
  0
INSERT
  5
D4
330
45
100
AcDbEntity
  8
0
  6
Continuous
 62
     7
370
     0
100
AcDbBlockReference
  2
SW_NOTE_9
 10
-11.10524575847433
 20
25.23533252512787
 30
0.0
  0
ENDBLK
  5
47
330
45
100
AcDbEntity
  8
0
100
AcDbBlockEnd
  0
BLOCK
  5
5A
330
59
100
AcDbEntity
  8
0
100
AcDbBlockBegin
  2
SW_NOTE_0
 70
     0
 10
0.0
 20
0.0
 30
0.0
  3
SW_NOTE_0
  1
SW_NOTE_0
  0
MTEXT
  5
5D
330
59
100
AcDbEntity
  8
0
  6
Continuous
 62
     0
370
     0
100
AcDbMText
 10
1.500000000000001
 20
2.578135479543931
 30
0.0
 40
2.0
 41
0.0
 71
     1
 72
     1
  1
>0,5
  7
SLDTEXTSTYLE0
 73
     1
 44
1.0
  0
MTEXT
  5
5E
330
59
100
AcDbEntity
  8
0
  6
Continuous
 62
     0
370
     0
100
AcDbMText
 10
0.0
 20
-0.9218646284894876
 30
0.0
 40
2.0
 41
0.0
 71
     1
 72
     1
  1
=<3
  7
SLDTEXTSTYLE0
 73
     1
 44
1.0
  0
MTEXT
  5
5F
330
59
100
AcDbEntity
  8
0
  6
Continuous
 62
     0
370
     0
100
AcDbMText
 10
0.0
 20
-7.921864844556325
 30
0.0
 40
2.0
 41
0.0
 71
     1
 72
     1
  1
%%p
  7
SLDTEXTSTYLE0
 73
     1
 44
1.0
  0
MTEXT
  5
60
330
59
100
AcDbEntity
  8
0
  6
Continuous
 62
     0
370
     0
100
AcDbMText
 10
1.841666758991778
 20
-7.921864844556325
 30
0.0
 40
2.0
 41
0.0
 71
     1
 72
     1
  1
0,05
  7
SLDTEXTSTYLE0
 73
     1
 44
1.0
  0
MTEXT
  5
61
330
59
100
AcDbEntity
  8
0
  6
Continuous
 62
     0
370
     0
100
AcDbMText
 10
0.0
 20
-11.42186495258974
 30
0.0
 40
2.0
 41
0.0
 71
     1
 72
     1
  1
%%p
  7
SLDTEXTSTYLE0
 73
     1
 44
1.0
  0
MTEXT
  5
62
330
59
100
AcDbEntity
  8
0
  6
Continuous
 62
     0
370
     0
100
AcDbMText
 10
1.841666758991778
 20
-11.42186495258974
 30
0.0
 40
2.0
 41
0.0
 71
     1
 72
     1
  1
0,1
  7
SLDTEXTSTYLE0
 73
     1
 44
1.0
  0
MTEXT
  5
63
330
59
100
AcDbEntity
  8
0
  6
Continuous
 62
     0
370
     0
100
AcDbMText
 10
0.0
 20
-14.92186506062316
 30
0.0
 40
2.0
 41
0.0
 71
     1
 72
     1
  1
%%p
  7
SLDTEXTSTYLE0
 73
     1
 44
1.0
  0
MTEXT
  5
64
330
59
100
AcDbEntity
  8
0
  6
Continuous
 62
     0
370
     0
100
AcDbMText
 10
1.841666758991778
 20
-14.92186506062316
 30
0.0
 40
2.0
 41
0.0
 71
     1
 72
     1
  1
0,2
  7
SLDTEXTSTYLE0
 73
     1
 44
1.0
  0
MTEXT
  5
65
330
59
100
AcDbEntity
  8
0
  6
Continuous
 62
     0
370
     0
100
AcDbMText
 10
0.0
 20
-18.42186516865658
 30
0.0
 40
2.0
 41
0.0
 71
     1
 72
     1
  1
%%p
  7
SLDTEXTSTYLE0
 73
     1
 44
1.0
  0
MTEXT
  5
66
330
59
100
AcDbEntity
  8
0
  6
Continuous
 62
     0
370
     0
100
AcDbMText
 10
1.841666758991778
 20
-18.42186516865658
 30
0.0
 40
2.0
 41
0.0
 71
     1
 72
     1
  1
0,2
  7
SLDTEXTSTYLE0
 73
     1
 44
1.0
  0
MTEXT
  5
67
330
59
100
AcDbEntity
  8
0
  6
Continuous
 62
     0
370
     0
100
AcDbMText
 10
0.0
 20
-21.92186527669
 30
0.0
 40
2.0
 41
0.0
 71
     1
 72
     1
  1
%%p
  7
SLDTEXTSTYLE0
 73
     1
 44
1.0
  0
MTEXT
  5
68
330
59
100
AcDbEntity
  8
0
  6
Continuous
 62
     0
370
     0
100
AcDbMText
 10
1.841666758991778
 20
-21.92186527669
 30
0.0
 40
2.0
 41
0.0
 71
     1
 72
     1
  1
0,4
  7
SLDTEXTSTYLE0
 73
     1
 44
1.0
  0
ENDBLK
  5
5B
330
59
100
AcDbEntity
  8
0
100
AcDbBlockEnd
  0
BLOCK
  5
6B
330
6A
100
AcDbEntity
  8
0
100
AcDbBlockBegin
  2
SW_NOTE_1
 70
     0
 10
0.0
 20
0.0
 30
0.0
  3
SW_NOTE_1
  1
SW_NOTE_1
  0
MTEXT
  5
6D
330
6A
100
AcDbEntity
  8
0
  6
Continuous
 62
     0
370
     0
100
AcDbMText
 10
0.0
 20
2.578135479543931
 30
0.0
 40
2.0
 41
0.0
 71
     1
 72
     1
  1
ISO-2768-f
  7
SLDTEXTSTYLE0
 73
     1
 44
1.0
  0
MTEXT
  5
6E
330
6A
100
AcDbEntity
  8
0
  6
Continuous
 62
     0
370
     0
100
AcDbMText
 10
0.0
 20
-0.9218646284894876
 30
0.0
 40
2.0
 41
0.0
 71
     1
 72
     1
  1
ISO-2768-m
  7
SLDTEXTSTYLE0
 73
     1
 44
1.0
  0
MTEXT
  5
6F
330
6A
100
AcDbEntity
  8
0
  6
Continuous
 62
     0
370
     0
100
AcDbMText
 10
0.0
 20
-4.421864736522906
 30
0.0
 40
2.0
 41
0.0
 71
     1
 72
     1
  1
ISO-2768-c
  7
SLDTEXTSTYLE0
 73
     1
 44
1.0
  0
MTEXT
  5
70
330
6A
100
AcDbEntity
  8
0
  6
Continuous
 62
     0
370
     0
100
AcDbMText
 10
0.0
 20
-7.921864844556325
 30
0.0
 40
2.0
 41
0.0
 71
     1
 72
     1
  1
ISO-2768-f/m
  7
SLDTEXTSTYLE0
 73
     1
 44
1.0
  0
MTEXT
  5
71
330
6A
100
AcDbEntity
  8
0
  6
Continuous
 62
     0
370
     0
100
AcDbMText
 10
0.0
 20
-11.42186495258974
 30
0.0
 40
2.0
 41
0.0
 71
     1
 72
     1
  1
ISO-2768-c
  7
SLDTEXTSTYLE0
 73
     1
 44
1.0
  0
ENDBLK
  5
6C
330
6A
100
AcDbEntity
  8
0
100
AcDbBlockEnd
  0
BLOCK
  5
74
330
73
100
AcDbEntity
  8
0
100
AcDbBlockBegin
  2
SW_NOTE_2
 70
     0
 10
0.0
 20
0.0
 30
0.0
  3
SW_NOTE_2
  1
SW_NOTE_2
  0
MTEXT
  5
76
330
73
100
AcDbEntity
  8
0
  6
Continuous
 62
     0
370
     0
100
AcDbMText
 10
0.0
 20
2.578135479543931
 30
0.0
 40
2.0
 41
0.0
 71
     1
 72
     1
  1
Pituusmitat
  7
SLDTEXTSTYLE0
 73
     1
 44
1.0
  0
MTEXT
  5
77
330
73
100
AcDbEntity
  8
0
  6
Continuous
 62
     0
370
     0
100
AcDbMText
 10
0.0
 20
-7.921864844556325
 30
0.0
 40
2.0
 41
0.0
 71
     1
 72
     1
  1
Säteet, viisteet
  7
SLDTEXTSTYLE0
 73
     1
 44
1.0
  0
ENDBLK
  5
75
330
73
100
AcDbEntity
  8
0
100
AcDbBlockEnd
  0
BLOCK
  5
7B
330
7A
100
AcDbEntity
  8
0
100
AcDbBlockBegin
  2
SW_NOTE_3
 70
     0
 10
0.0
 20
0.0
 30
0.0
  3
SW_NOTE_3
  1
SW_NOTE_3
  0
MTEXT
  5
7D
330
7A
100
AcDbEntity
  8
0
  6
Continuous
 62
     0
370
     0
100
AcDbMText
 10
1.500000000000001
 20
2.578135479543931
 30
0.0
 40
2.0
 41
0.0
 71
     1
 72
     1
  1
>3
  7
SLDTEXTSTYLE0
 73
     1
 44
1.0
  0
MTEXT
  5
7E
330
7A
100
AcDbEntity
  8
0
  6
Continuous
 62
     0
370
     0
100
AcDbMText
 10
0.0
 20
-0.9218646284894876
 30
0.0
 40
2.0
 41
0.0
 71
     1
 72
     1
  1
=<6
  7
SLDTEXTSTYLE0
 73
     1
 44
1.0
  0
MTEXT
  5
7F
330
7A
100
AcDbEntity
  8
0
  6
Continuous
 62
     0
370
     0
100
AcDbMText
 10
0.0
 20
-7.921864844556325
 30
0.0
 40
2.0
 41
0.0
 71
     1
 72
     1
  1
%%p
  7
SLDTEXTSTYLE0
 73
     1
 44
1.0
  0
MTEXT
  5
80
330
7A
100
AcDbEntity
  8
0
  6
Continuous
 62
     0
370
     0
100
AcDbMText
 10
1.841666758991778
 20
-7.921864844556325
 30
0.0
 40
2.0
 41
0.0
 71
     1
 72
     1
  1
0,05
  7
SLDTEXTSTYLE0
 73
     1
 44
1.0
  0
MTEXT
  5
81
330
7A
100
AcDbEntity
  8
0
  6
Continuous
 62
     0
370
     0
100
AcDbMText
 10
0.0
 20
-11.42186495258974
 30
0.0
 40
2.0
 41
0.0
 71
     1
 72
     1
  1
%%p
  7
SLDTEXTSTYLE0
 73
     1
 44
1.0
  0
MTEXT
  5
82
330
7A
100
AcDbEntity
  8
0
  6
Continuous
 62
     0
370
     0
100
AcDbMText
 10
1.841666758991778
 20
-11.42186495258974
 30
0.0
 40
2.0
 41
0.0
 71
     1
 72
     1
  1
0,1
  7
SLDTEXTSTYLE0
 73
     1
 44
1.0
  0
MTEXT
  5
83
330
7A
100
AcDbEntity
  8
0
  6
Continuous
 62
     0
370
     0
100
AcDbMText
 10
0.0
 20
-14.92186506062316
 30
0.0
 40
2.0
 41
0.0
 71
     1
 72
     1
  1
%%p
  7
SLDTEXTSTYLE0
 73
     1
 44
1.0
  0
MTEXT
  5
84
330
7A
100
AcDbEntity
  8
0
  6
Continuous
 62
     0
370
     0
100
AcDbMText
 10
1.841666758991778
 20
-14.92186506062316
 30
0.0
 40
2.0
 41
0.0
 71
     1
 72
     1
  1
0,3
  7
SLDTEXTSTYLE0
 73
     1
 44
1.0
  0
MTEXT
  5
85
330
7A
100
AcDbEntity
  8
0
  6
Continuous
 62
     0
370
     0
100
AcDbMText
 10
0.0
 20
-18.42186516865658
 30
0.0
 40
2.0
 41
0.0
 71
     1
 72
     1
  1
%%p
  7
SLDTEXTSTYLE0
 73
     1
 44
1.0
  0
MTEXT
  5
86
330
7A
100
AcDbEntity
  8
0
  6
Continuous
 62
     0
370
     0
100
AcDbMText
 10
1.841666758991778
 20
-18.42186516865658
 30
0.0
 40
2.0
 41
0.0
 71
     1
 72
     1
  1
0,5
  7
SLDTEXTSTYLE0
 73
     1
 44
1.0
  0
MTEXT
  5
87
330
7A
100
AcDbEntity
  8
0
  6
Continuous
 62
     0
370
     0
100
AcDbMText
 10
0.0
 20
-21.92186527669
 30
0.0
 40
2.0
 41
0.0
 71
     1
 72
     1
  1
%%p
  7
SLDTEXTSTYLE0
 73
     1
 44
1.0
  0
MTEXT
  5
88
330
7A
100
AcDbEntity
  8
0
  6
Continuous
 62
     0
370
     0
100
AcDbMText
 10
1.841666758991778
 20
-21.92186527669
 30
0.0
 40
2.0
 41
0.0
 71
     1
 72
     1
  1
1
  7
SLDTEXTSTYLE0
 73
     1
 44
1.0
  0
ENDBLK
  5
7C
330
7A
100
AcDbEntity
  8
0
100
AcDbBlockEnd
  0
BLOCK
  5
8B
330
8A
100
AcDbEntity
  8
0
100
AcDbBlockBegin
  2
SW_NOTE_4
 70
     0
 10
0.0
 20
0.0
 30
0.0
  3
SW_NOTE_4
  1
SW_NOTE_4
  0
MTEXT
  5
8D
330
8A
100
AcDbEntity
  8
0
  6
Continuous
 62
     0
370
     0
100
AcDbMText
 10
1.500000000000001
 20
2.578135479543931
 30
0.0
 40
2.0
 41
0.0
 71
     1
 72
     1
  1
>6
  7
SLDTEXTSTYLE0
 73
     1
 44
1.0
  0
MTEXT
  5
8E
330
8A
100
AcDbEntity
  8
0
  6
Continuous
 62
     0
370
     0
100
AcDbMText
 10
0.0
 20
-0.9218646284894876
 30
0.0
 40
2.0
 41
0.0
 71
     1
 72
     1
  1
=<30
  7
SLDTEXTSTYLE0
 73
     1
 44
1.0
  0
MTEXT
  5
8F
330
8A
100
AcDbEntity
  8
0
  6
Continuous
 62
     0
370
     0
100
AcDbMText
 10
0.0
 20
-7.921864844556325
 30
0.0
 40
2.0
 41
0.0
 71
     1
 72
     1
  1
%%p
  7
SLDTEXTSTYLE0
 73
     1
 44
1.0
  0
MTEXT
  5
90
330
8A
100
AcDbEntity
  8
0
  6
Continuous
 62
     0
370
     0
100
AcDbMText
 10
1.841666758991778
 20
-7.921864844556325
 30
0.0
 40
2.0
 41
0.0
 71
     1
 72
     1
  1
0,1
  7
SLDTEXTSTYLE0
 73
     1
 44
1.0
  0
MTEXT
  5
91
330
8A
100
AcDbEntity
  8
0
  6
Continuous
 62
     0
370
     0
100
AcDbMText
 10
0.0
 20
-11.42186495258974
 30
0.0
 40
2.0
 41
0.0
 71
     1
 72
     1
  1
%%p
  7
SLDTEXTSTYLE0
 73
     1
 44
1.0
  0
MTEXT
  5
92
330
8A
100
AcDbEntity
  8
0
  6
Continuous
 62
     0
370
     0
100
AcDbMText
 10
1.841666758991778
 20
-11.42186495258974
 30
0.0
 40
2.0
 41
0.0
 71
     1
 72
     1
  1
0,2
  7
SLDTEXTSTYLE0
 73
     1
 44
1.0
  0
MTEXT
  5
93
330
8A
100
AcDbEntity
  8
0
  6
Continuous
 62
     0
370
     0
100
AcDbMText
 10
0.0
 20
-14.92186506062316
 30
0.0
 40
2.0
 41
0.0
 71
     1
 72
     1
  1
%%p
  7
SLDTEXTSTYLE0
 73
     1
 44
1.0
  0
MTEXT
  5
94
330
8A
100
AcDbEntity
  8
0
  6
Continuous
 62
     0
370
     0
100
AcDbMText
 10
1.841666758991778
 20
-14.92186506062316
 30
0.0
 40
2.0
 41
0.0
 71
     1
 72
     1
  1
0,5
  7
SLDTEXTSTYLE0
 73
     1
 44
1.0
  0
MTEXT
  5
95
330
8A
100
AcDbEntity
  8
0
  6
Continuous
 62
     0
370
     0
100
AcDbMText
 10
0.0
 20
-18.42186516865658
 30
0.0
 40
2.0
 41
0.0
 71
     1
 72
     1
  1
%%p
  7
SLDTEXTSTYLE0
 73
     1
 44
1.0
  0
MTEXT
  5
96
330
8A
100
AcDbEntity
  8
0
  6
Continuous
 62
     0
370
     0
100
AcDbMText
 10
1.841666758991778
 20
-18.42186516865658
 30
0.0
 40
2.0
 41
0.0
 71
     1
 72
     1
  1
1
  7
SLDTEXTSTYLE0
 73
     1
 44
1.0
  0
MTEXT
  5
97
330
8A
100
AcDbEntity
  8
0
  6
Continuous
 62
     0
370
     0
100
AcDbMText
 10
0.0
 20
-21.92186527669
 30
0.0
 40
2.0
 41
0.0
 71
     1
 72
     1
  1
%%p
  7
SLDTEXTSTYLE0
 73
     1
 44
1.0
  0
MTEXT
  5
98
330
8A
100
AcDbEntity
  8
0
  6
Continuous
 62
     0
370
     0
100
AcDbMText
 10
1.841666758991778
 20
-21.92186527669
 30
0.0
 40
2.0
 41
0.0
 71
     1
 72
     1
  1
2
  7
SLDTEXTSTYLE0
 73
     1
 44
1.0
  0
ENDBLK
  5
8C
330
8A
100
AcDbEntity
  8
0
100
AcDbBlockEnd
  0
BLOCK
  5
9B
330
9A
100
AcDbEntity
  8
0
100
AcDbBlockBegin
  2
SW_NOTE_5
 70
     0
 10
0.0
 20
0.0
 30
0.0
  3
SW_NOTE_5
  1
SW_NOTE_5
  0
MTEXT
  5
9D
330
9A
100
AcDbEntity
  8
0
  6
Continuous
 62
     0
370
     0
100
AcDbMText
 10
1.500000000000001
 20
2.578135479543931
 30
0.0
 40
2.0
 41
0.0
 71
     1
 72
     1
  1
>30
  7
SLDTEXTSTYLE0
 73
     1
 44
1.0
  0
MTEXT
  5
9E
330
9A
100
AcDbEntity
  8
0
  6
Continuous
 62
     0
370
     0
100
AcDbMText
 10
0.0
 20
-0.9218646284894876
 30
0.0
 40
2.0
 41
0.0
 71
     1
 72
     1
  1
=<120
  7
SLDTEXTSTYLE0
 73
     1
 44
1.0
  0
MTEXT
  5
9F
330
9A
100
AcDbEntity
  8
0
  6
Continuous
 62
     0
370
     0
100
AcDbMText
 10
0.0
 20
-7.921864844556325
 30
0.0
 40
2.0
 41
0.0
 71
     1
 72
     1
  1
%%p
  7
SLDTEXTSTYLE0
 73
     1
 44
1.0
  0
MTEXT
  5
A0
330
9A
100
AcDbEntity
  8
0
  6
Continuous
 62
     0
370
     0
100
AcDbMText
 10
1.841666758991778
 20
-7.921864844556325
 30
0.0
 40
2.0
 41
0.0
 71
     1
 72
     1
  1
0,15
  7
SLDTEXTSTYLE0
 73
     1
 44
1.0
  0
MTEXT
  5
A1
330
9A
100
AcDbEntity
  8
0
  6
Continuous
 62
     0
370
     0
100
AcDbMText
 10
0.0
 20
-11.42186495258974
 30
0.0
 40
2.0
 41
0.0
 71
     1
 72
     1
  1
%%p
  7
SLDTEXTSTYLE0
 73
     1
 44
1.0
  0
MTEXT
  5
A2
330
9A
100
AcDbEntity
  8
0
  6
Continuous
 62
     0
370
     0
100
AcDbMText
 10
1.841666758991778
 20
-11.42186495258974
 30
0.0
 40
2.0
 41
0.0
 71
     1
 72
     1
  1
0,3
  7
SLDTEXTSTYLE0
 73
     1
 44
1.0
  0
MTEXT
  5
A3
330
9A
100
AcDbEntity
  8
0
  6
Continuous
 62
     0
370
     0
100
AcDbMText
 10
0.0
 20
-14.92186506062316
 30
0.0
 40
2.0
 41
0.0
 71
     1
 72
     1
  1
%%p
  7
SLDTEXTSTYLE0
 73
     1
 44
1.0
  0
MTEXT
  5
A4
330
9A
100
AcDbEntity
  8
0
  6
Continuous
 62
     0
370
     0
100
AcDbMText
 10
1.841666758991778
 20
-14.92186506062316
 30
0.0
 40
2.0
 41
0.0
 71
     1
 72
     1
  1
0,8
  7
SLDTEXTSTYLE0
 73
     1
 44
1.0
  0
ENDBLK
  5
9C
330
9A
100
AcDbEntity
  8
0
100
AcDbBlockEnd
  0
BLOCK
  5
A7
330
A6
100
AcDbEntity
  8
0
100
AcDbBlockBegin
  2
SW_NOTE_6
 70
     0
 10
0.0
 20
0.0
 30
0.0
  3
SW_NOTE_6
  1
SW_NOTE_6
  0
MTEXT
  5
A9
330
A6
100
AcDbEntity
  8
0
  6
Continuous
 62
     0
370
     0
100
AcDbMText
 10
1.500000000000001
 20
2.578135479543931
 30
0.0
 40
2.0
 41
0.0
 71
     1
 72
     1
  1
>120
  7
SLDTEXTSTYLE0
 73
     1
 44
1.0
  0
MTEXT
  5
AA
330
A6
100
AcDbEntity
  8
0
  6
Continuous
 62
     0
370
     0
100
AcDbMText
 10
0.0
 20
-0.9218646284894876
 30
0.0
 40
2.0
 41
0.0
 71
     1
 72
     1
  1
=<400
  7
SLDTEXTSTYLE0
 73
     1
 44
1.0
  0
MTEXT
  5
AB
330
A6
100
AcDbEntity
  8
0
  6
Continuous
 62
     0
370
     0
100
AcDbMText
 10
0.0
 20
-7.921864844556325
 30
0.0
 40
2.0
 41
0.0
 71
     1
 72
     1
  1
%%p
  7
SLDTEXTSTYLE0
 73
     1
 44
1.0
  0
MTEXT
  5
AC
330
A6
100
AcDbEntity
  8
0
  6
Continuous
 62
     0
370
     0
100
AcDbMText
 10
1.841666758991778
 20
-7.921864844556325
 30
0.0
 40
2.0
 41
0.0
 71
     1
 72
     1
  1
0,2
  7
SLDTEXTSTYLE0
 73
     1
 44
1.0
  0
MTEXT
  5
AD
330
A6
100
AcDbEntity
  8
0
  6
Continuous
 62
     0
370
     0
100
AcDbMText
 10
0.0
 20
-11.42186495258974
 30
0.0
 40
2.0
 41
0.0
 71
     1
 72
     1
  1
%%p
  7
SLDTEXTSTYLE0
 73
     1
 44
1.0
  0
MTEXT
  5
AE
330
A6
100
AcDbEntity
  8
0
  6
Continuous
 62
     0
370
     0
100
AcDbMText
 10
1.841666758991778
 20
-11.42186495258974
 30
0.0
 40
2.0
 41
0.0
 71
     1
 72
     1
  1
0,5
  7
SLDTEXTSTYLE0
 73
     1
 44
1.0
  0
MTEXT
  5
AF
330
A6
100
AcDbEntity
  8
0
  6
Continuous
 62
     0
370
     0
100
AcDbMText
 10
0.0
 20
-14.92186506062316
 30
0.0
 40
2.0
 41
0.0
 71
     1
 72
     1
  1
%%p
  7
SLDTEXTSTYLE0
 73
     1
 44
1.0
  0
MTEXT
  5
B0
330
A6
100
AcDbEntity
  8
0
  6
Continuous
 62
     0
370
     0
100
AcDbMText
 10
1.841666758991778
 20
-14.92186506062316
 30
0.0
 40
2.0
 41
0.0
 71
     1
 72
     1
  1
1,2
  7
SLDTEXTSTYLE0
 73
     1
 44
1.0
  0
ENDBLK
  5
A8
330
A6
100
AcDbEntity
  8
0
100
AcDbBlockEnd
  0
BLOCK
  5
B3
330
B2
100
AcDbEntity
  8
0
100
AcDbBlockBegin
  2
SW_NOTE_7
 70
     0
 10
0.0
 20
0.0
 30
0.0
  3
SW_NOTE_7
  1
SW_NOTE_7
  0
MTEXT
  5
B5
330
B2
100
AcDbEntity
  8
0
  6
Continuous
 62
     0
370
     0
100
AcDbMText
 10
1.500000000000001
 20
2.578135479543931
 30
0.0
 40
2.0
 41
0.0
 71
     1
 72
     1
  1
>400
  7
SLDTEXTSTYLE0
 73
     1
 44
1.0
  0
MTEXT
  5
B6
330
B2
100
AcDbEntity
  8
0
  6
Continuous
 62
     0
370
     0
100
AcDbMText
 10
0.0
 20
-0.9218646284894876
 30
0.0
 40
2.0
 41
0.0
 71
     1
 72
     1
  1
=<1000
  7
SLDTEXTSTYLE0
 73
     1
 44
1.0
  0
MTEXT
  5
B7
330
B2
100
AcDbEntity
  8
0
  6
Continuous
 62
     0
370
     0
100
AcDbMText
 10
0.0
 20
-7.921864844556325
 30
0.0
 40
2.0
 41
0.0
 71
     1
 72
     1
  1
%%p
  7
SLDTEXTSTYLE0
 73
     1
 44
1.0
  0
MTEXT
  5
B8
330
B2
100
AcDbEntity
  8
0
  6
Continuous
 62
     0
370
     0
100
AcDbMText
 10
1.841666758991778
 20
-7.921864844556325
 30
0.0
 40
2.0
 41
0.0
 71
     1
 72
     1
  1
0,3
  7
SLDTEXTSTYLE0
 73
     1
 44
1.0
  0
MTEXT
  5
B9
330
B2
100
AcDbEntity
  8
0
  6
Continuous
 62
     0
370
     0
100
AcDbMText
 10
0.0
 20
-11.42186495258974
 30
0.0
 40
2.0
 41
0.0
 71
     1
 72
     1
  1
%%p
  7
SLDTEXTSTYLE0
 73
     1
 44
1.0
  0
MTEXT
  5
BA
330
B2
100
AcDbEntity
  8
0
  6
Continuous
 62
     0
370
     0
100
AcDbMText
 10
1.841666758991778
 20
-11.42186495258974
 30
0.0
 40
2.0
 41
0.0
 71
     1
 72
     1
  1
0,8
  7
SLDTEXTSTYLE0
 73
     1
 44
1.0
  0
MTEXT
  5
BB
330
B2
100
AcDbEntity
  8
0
  6
Continuous
 62
     0
370
     0
100
AcDbMText
 10
0.0
 20
-14.92186506062316
 30
0.0
 40
2.0
 41
0.0
 71
     1
 72
     1
  1
%%p
  7
SLDTEXTSTYLE0
 73
     1
 44
1.0
  0
MTEXT
  5
BC
330
B2
100
AcDbEntity
  8
0
  6
Continuous
 62
     0
370
     0
100
AcDbMText
 10
1.841666758991778
 20
-14.92186506062316
 30
0.0
 40
2.0
 41
0.0
 71
     1
 72
     1
  1
1,2
  7
SLDTEXTSTYLE0
 73
     1
 44
1.0
  0
ENDBLK
  5
B4
330
B2
100
AcDbEntity
  8
0
100
AcDbBlockEnd
  0
BLOCK
  5
BF
330
BE
100
AcDbEntity
  8
0
100
AcDbBlockBegin
  2
SW_NOTE_8
 70
     0
 10
0.0
 20
0.0
 30
0.0
  3
SW_NOTE_8
  1
SW_NOTE_8
  0
MTEXT
  5
C1
330
BE
100
AcDbEntity
  8
0
  6
Continuous
 62
     0
370
     0
100
AcDbMText
 10
1.500000000000001
 20
2.578135479543931
 30
0.0
 40
2.0
 41
0.0
 71
     1
 72
     1
  1
>1000
  7
SLDTEXTSTYLE0
 73
     1
 44
1.0
  0
MTEXT
  5
C2
330
BE
100
AcDbEntity
  8
0
  6
Continuous
 62
     0
370
     0
100
AcDbMText
 10
0.0
 20
-0.9218646284894876
 30
0.0
 40
2.0
 41
0.0
 71
     1
 72
     1
  1
=<2000
  7
SLDTEXTSTYLE0
 73
     1
 44
1.0
  0
MTEXT
  5
C3
330
BE
100
AcDbEntity
  8
0
  6
Continuous
 62
     0
370
     0
100
AcDbMText
 10
0.0
 20
-7.921864844556325
 30
0.0
 40
2.0
 41
0.0
 71
     1
 72
     1
  1
%%p
  7
SLDTEXTSTYLE0
 73
     1
 44
1.0
  0
MTEXT
  5
C4
330
BE
100
AcDbEntity
  8
0
  6
Continuous
 62
     0
370
     0
100
AcDbMText
 10
1.841666758991778
 20
-7.921864844556325
 30
0.0
 40
2.0
 41
0.0
 71
     1
 72
     1
  1
0,5
  7
SLDTEXTSTYLE0
 73
     1
 44
1.0
  0
MTEXT
  5
C5
330
BE
100
AcDbEntity
  8
0
  6
Continuous
 62
     0
370
     0
100
AcDbMText
 10
0.0
 20
-11.42186495258974
 30
0.0
 40
2.0
 41
0.0
 71
     1
 72
     1
  1
%%p
  7
SLDTEXTSTYLE0
 73
     1
 44
1.0
  0
MTEXT
  5
C6
330
BE
100
AcDbEntity
  8
0
  6
Continuous
 62
     0
370
     0
100
AcDbMText
 10
1.841666758991778
 20
-11.42186495258974
 30
0.0
 40
2.0
 41
0.0
 71
     1
 72
     1
  1
1,2
  7
SLDTEXTSTYLE0
 73
     1
 44
1.0
  0
MTEXT
  5
C7
330
BE
100
AcDbEntity
  8
0
  6
Continuous
 62
     0
370
     0
100
AcDbMText
 10
0.0
 20
-14.92186506062316
 30
0.0
 40
2.0
 41
0.0
 71
     1
 72
     1
  1
%%p
  7
SLDTEXTSTYLE0
 73
     1
 44
1.0
  0
MTEXT
  5
C8
330
BE
100
AcDbEntity
  8
0
  6
Continuous
 62
     0
370
     0
100
AcDbMText
 10
1.841666758991778
 20
-14.92186506062316
 30
0.0
 40
2.0
 41
0.0
 71
     1
 72
     1
  1
3
  7
SLDTEXTSTYLE0
 73
     1
 44
1.0
  0
ENDBLK
  5
C0
330
BE
100
AcDbEntity
  8
0
100
AcDbBlockEnd
  0
BLOCK
  5
CB
330
CA
100
AcDbEntity
  8
0
100
AcDbBlockBegin
  2
SW_NOTE_9
 70
     0
 10
0.0
 20
0.0
 30
0.0
  3
SW_NOTE_9
  1
SW_NOTE_9
  0
MTEXT
  5
CD
330
CA
100
AcDbEntity
  8
0
  6
Continuous
 62
     0
370
     0
100
AcDbMText
 10
1.5
 20
2.578135479543931
 30
0.0
 40
2.0
 41
0.0
 71
     1
 72
     1
  1
>2000
  7
SLDTEXTSTYLE0
 73
     1
 44
1.0
  0
MTEXT
  5
CE
330
CA
100
AcDbEntity
  8
0
  6
Continuous
 62
     0
370
     0
100
AcDbMText
 10
0.0
 20
-0.9218646284894876
 30
0.0
 40
2.0
 41
0.0
 71
     1
 72
     1
  1
=<4000
  7
SLDTEXTSTYLE0
 73
     1
 44
1.0
  0
MTEXT
  5
CF
330
CA
100
AcDbEntity
  8
0
  6
Continuous
 62
     0
370
     0
100
AcDbMText
 10
2.999999999999999
 20
-7.921864844556325
 30
0.0
 40
2.0
 41
0.0
 71
     1
 72
     1
  1
-
  7
SLDTEXTSTYLE0
 73
     1
 44
1.0
  0
MTEXT
  5
D0
330
CA
100
AcDbEntity
  8
0
  6
Continuous
 62
     0
370
     0
100
AcDbMText
 10
0.0
 20
-11.42186495258974
 30
0.0
 40
2.0
 41
0.0
 71
     1
 72
     1
  1
%%p
  7
SLDTEXTSTYLE0
 73
     1
 44
1.0
  0
MTEXT
  5
D1
330
CA
100
AcDbEntity
  8
0
  6
Continuous
 62
     0
370
     0
100
AcDbMText
 10
1.841666758991778
 20
-11.42186495258974
 30
0.0
 40
2.0
 41
0.0
 71
     1
 72
     1
  1
2,0
  7
SLDTEXTSTYLE0
 73
     1
 44
1.0
  0
MTEXT
  5
D2
330
CA
100
AcDbEntity
  8
0
  6
Continuous
 62
     0
370
     0
100
AcDbMText
 10
0.0
 20
-14.92186506062316
 30
0.0
 40
2.0
 41
0.0
 71
     1
 72
     1
  1
%%p
  7
SLDTEXTSTYLE0
 73
     1
 44
1.0
  0
MTEXT
  5
D3
330
CA
100
AcDbEntity
  8
0
  6
Continuous
 62
     0
370
     0
100
AcDbMText
 10
1.841666758991778
 20
-14.92186506062316
 30
0.0
 40
2.0
 41
0.0
 71
     1
 72
     1
  1
4
  7
SLDTEXTSTYLE0
 73
     1
 44
1.0
  0
ENDBLK
  5
CC
330
CA
100
AcDbEntity
  8
0
100
AcDbBlockEnd
  0
ENDSEC
  0
SECTION
  2
ENTITIES
  0
LWPOLYLINE
  5
D5
330
1F
100
AcDbEntity
  8
0
  6
Continuous
 62
     7
100
AcDbPolyline
 90
       17
 70
   128
 43
0.0
 10
788.7242303160479
 20
593.8552190939472
 10
788.4102740226698
 20
593.8633469797486
 10
787.8966138876467
 20
593.8691848849886
 10
787.261450010195
 20
593.8718440415154
 10
786.6014803328819
 20
593.8709196168527
 10
786.0171792564383
 20
593.8665523462759
 10
785.5975013230504
 20
593.8594071071406
 10
785.4063386936863
 20
593.8505716973335
 10
785.4727941457734
 20
593.8413912279045
 10
785.7867504391514
 20
593.8332633421031
 10
786.3004105741745
 20
593.8274254368631
 10
786.9355744516263
 20
593.8247662803363
 10
787.5955441289393
 20
593.825690704999
 10
788.1798452053829
 20
593.8300579755759
 10
788.5995231387708
 20
593.8372032147112
 10
788.790685768135
 20
593.8460386245182
 10
788.7242303160479
 20
593.8552190939472
  0
SPLINE
  5
D6
330
1F
100
AcDbEntity
  8
0
  6
Continuous
 62
     7
370
    15
100
AcDbSpline
210
0.0
220
0.0
230
1.0
 70
     8
 71
     3
 72
     9
 73
     5
 74
     0
 42
0.000000001
 43
0.00000001
 40
0.0
 40
0.0
 40
0.0
 40
0.0
 40
0.4431190986033878
 40
0.9999999999999999
 40
0.9999999999999999
 40
0.9999999999999999
 40
0.9999999999999999
 10
811.2454572513743
 20
593.9914613023742
 30
0.0
 10
811.2772728567414
 20
593.9904472055734
 30
0.0
 10
811.3490720761104
 20
593.9881586632741
 30
0.0
 10
811.3455645014801
 20
593.9880833990752
 30
0.0
 10
811.3436112001582
 20
593.9880414858802
 30
0.0
  0
SPLINE
  5
D7
330
1F
100
AcDbEntity
  8
0
  6
Continuous
 62
     7
370
    15
100
AcDbSpline
210
0.0
220
0.0
230
1.0
 70
     8
 71
     3
 72
    10
 73
     6
 74
     0
 42
0.000000001
 43
0.00000001
 40
0.0
 40
0.0
 40
0.0
 40
0.0
 40
0.247946965418022
 40
0.8922817124006549
 40
1.0
 40
1.0
 40
1.0
 40
1.0
 10
762.8451147869273
 20
593.9875348463996
 30
0.0
 10
762.8464662428207
 20
593.9875967586455
 30
0.0
 10
762.8513296997164
 20
593.9878195609884
 30
0.0
 10
762.9032610463543
 20
593.9911047580259
 30
0.0
 10
762.9909797769951
 20
593.9932023224728
 30
0.0
 10
763.0035439327403
 20
593.9935027614578
 30
0.0
  0
LINE
  5
D8
330
1F
100
AcDbEntity
  8
0
  6
Continuous
 62
     7
370
    15
100
AcDbLine
 10
812.5985124900981
 20
594.0569593564018
 30
0.0
 11
761.5985134437724
 21
594.0569593564018
 31
0.0
  0
ARC
  5
D9
330
1F
100
AcDbEntity
  8
0
  6
Continuous
 62
     7
370
    15
100
AcDbCircle
 10
813.0985398852353
 20
558.100041580897
 30
0.0
 40
35.96039437089499
100
AcDbArc
 50
87.60939014961052
 51
90.79672048043508
  0
LINE
  5
DA
330
1F
100
AcDbEntity
  8
0
  6
Continuous
 62
     7
370
    15
100
AcDbLine
 10
814.5985165432139
 20
594.7289942756637
 30
0.0
 11
814.5985165432139
 21
594.0291388884528
 31
0.0
  0
LINE
  5
DB
330
1F
100
AcDbEntity
  8
0
  6
Continuous
 62
     7
370
    15
100
AcDbLine
 10
814.5985165432139
 20
593.667472805117
 30
0.0
 11
814.5985165432139
 21
594.0291388884528
 31
0.0
  0
ARC
  5
DC
330
1F
100
AcDbEntity
  8
0
  6
Continuous
 62
     7
370
    15
100
AcDbCircle
 10
813.0982306521375
 20
629.6091678032544
 30
0.0
 40
35.97299399680407
100
AcDbArc
 50
269.2040511675676
 51
272.3902650057404
  0
LINE
  5
DD
330
1F
100
AcDbEntity
  8
0
  6
Continuous
 62
     7
370
    15
100
AcDbLine
 10
761.5985134437724
 20
593.6396448865875
 30
0.0
 11
812.5985124900981
 21
593.6396448865875
 31
0.0
  0
ARC
  5
DE
330
1F
100
AcDbEntity
  8
0
  6
Continuous
 62
     7
370
    15
100
AcDbCircle
 10
761.0987925406071
 20
629.6089707973887
 30
0.0
 40
35.9727970480264
100
AcDbArc
 50
267.6097262698534
 51
270.7959575568412
  0
LINE
  5
DF
330
1F
100
AcDbEntity
  8
0
  6
Continuous
 62
     7
370
    15
100
AcDbLine
 10
759.5985093906565
 20
594.0291388884528
 30
0.0
 11
759.5985093906565
 21
593.667472805117
 31
0.0
  0
ARC
  5
E0
330
1F
100
AcDbEntity
  8
0
  6
Continuous
 62
     7
370
    15
100
AcDbCircle
 10
761.0984833094468
 20
558.1002385002189
 30
0.0
 40
35.96019750869966
100
AcDbArc
 50
89.20327079287863
 51
92.39061857707541
  0
ELLIPSE
  5
E1
330
1F
100
AcDbEntity
  8
0
  6
Continuous
 62
     7
370
    15
100
AcDbEllipse
 10
766.1336508528331
 20
593.7235999833317
 30
0.0
 11
3.500533148153636
 21
1.483439302774059E-5
 31
0.0
210
0.0
220
0.0
230
1.0
 40
0.0139104406134396
 41
3.141592594640422
 42
4.712084334940515
  0
LINE
  5
E2
330
1F
100
AcDbEntity
  8
0
  6
Continuous
 62
     7
370
    15
100
AcDbLine
 10
808.0644467666789
 20
593.6749084845527
 30
0.0
 11
766.1325866177722
 21
593.6749084845527
 31
0.0
  0
ELLIPSE
  5
E3
330
1F
100
AcDbEntity
  8
0
  6
Continuous
 62
     7
370
    15
100
AcDbEllipse
 10
808.0633736089883
 20
593.7235999833317
 30
0.0
 11
3.500533148153636
 21
-1.483439314142743E-5
 31
0.0
210
0.0
220
0.0
230
1.0
 40
0.0139104406134396
 41
4.712693625828864
 42
6.283185366131294
  0
LINE
  5
E4
330
1F
100
AcDbEntity
  8
0
  6
Continuous
 62
     7
370
    15
100
AcDbLine
 10
811.563909967248
 20
593.9730285659774
 30
0.0
 11
811.563909967248
 21
593.7235831275924
 31
0.0
  0
ELLIPSE
  5
E5
330
1F
100
AcDbEntity
  8
0
  6
Continuous
 62
     7
370
    15
100
AcDbEllipse
 10
808.0633736089884
 20
593.9730103385201
 30
0.0
 11
3.500533148153636
 21
1.483439302774059E-5
 31
0.0
210
0.0
220
0.0
230
1.0
 40
0.0139104406134396
 41
0.3555307419005967
 42
1.570491681350755
  0
LINE
  5
E6
330
1F
100
AcDbEntity
  8
0
  6
Continuous
 62
     7
370
    15
100
AcDbLine
 10
766.1325866177722
 20
594.0217032090171
 30
0.0
 11
808.0644467666789
 21
594.0217032090171
 31
0.0
  0
ELLIPSE
  5
E7
330
1F
100
AcDbEntity
  8
0
  6
Continuous
 62
     7
370
    15
100
AcDbEllipse
 10
766.1336508528331
 20
593.9730103385201
 30
0.0
 11
3.500533148153636
 21
-1.483439302774059E-5
 31
0.0
210
0.0
220
0.0
230
1.0
 40
0.0139104406134396
 41
1.571100972239071
 42
2.727974655526916
  0
LINE
  5
E8
330
1F
100
AcDbEntity
  8
0
  6
Continuous
 62
     7
370
    15
100
AcDbLine
 10
762.6331159666224
 20
593.7235831275924
 30
0.0
 11
762.6331159666224
 21
593.9730285659774
 31
0.0
  0
LINE
  5
E9
330
1F
100
AcDbEntity
  8
0
  6
Continuous
 62
     7
370
    15
100
AcDbLine
 10
759.5985093906565
 20
594.0291388884528
 30
0.0
 11
759.5985093906565
 21
594.7289942756637
 31
0.0
  0
LWPOLYLINE
  5
EA
330
1F
100
AcDbEntity
  8
0
  6
Continuous
 62
     7
370
    15
100
AcDbPolyline
 90
        9
 70
   128
 43
0.0
 10
808.5985192850276
 20
593.9398809329017
 10
803.2320597961589
 20
593.9454614177688
 10
797.8582763865634
 20
593.9494474783882
 10
792.4796128466769
 20
593.9518391147598
 10
787.0985129669352
 20
593.9526363268836
 10
781.7174130871936
 20
593.9518391147598
 10
776.3387495473071
 20
593.9494474783882
 10
770.9649661377116
 20
593.9454614177688
 10
765.5985140994235
 20
593.9398809329017
  0
ARC
  5
EB
330
1F
100
AcDbEntity
  8
0
  6
Continuous
 62
     7
370
    15
100
AcDbCircle
 10
808.5985705303508
 20
594.9396456816088
 30
0.0
 40
0.9997647500204585
100
AcDbArc
 50
269.9970631683697
 51
293.0892835212377
  0
LINE
  5
EC
330
1F
100
AcDbEntity
  8
0
  6
Continuous
 62
     7
370
    15
100
AcDbLine
 10
765.5985140994235
 20
593.9398809329017
 30
0.0
 11
765.5985140994235
 21
593.7567233100875
 31
0.0
  0
LINE
  5
ED
330
1F
100
AcDbEntity
  8
0
  6
Continuous
 62
     7
370
    15
100
AcDbLine
 10
808.5985192850276
 20
593.7567233100875
 30
0.0
 11
808.5985192850276
 21
593.9398809329017
 31
0.0
  0
LWPOLYLINE
  5
EE
330
1F
100
AcDbEntity
  8
0
  6
Continuous
 62
     7
370
    15
100
AcDbPolyline
 90
        9
 70
   128
 43
0.0
 10
765.5985140994235
 20
593.7567233100875
 10
770.9649661377116
 20
593.751150275801
 10
776.3387495473071
 20
593.7471642151817
 10
781.7174130871936
 20
593.7447725788101
 10
787.0985129669352
 20
593.7439753666862
 10
792.4796128466769
 20
593.7447725788101
 10
797.8582763865634
 20
593.7471642151817
 10
803.2320597961589
 20
593.751150275801
 10
808.5985192850276
 20
593.7567233100875
  0
ARC
  5
EF
330
1F
100
AcDbEntity
  8
0
  6
Continuous
 62
     7
370
    15
100
AcDbCircle
 10
808.5985103677931
 20
594.7567850038582
 30
0.0
 40
1.000061693810524
100
AcDbArc
 50
270.0005108883829
 51
312.4360103534227
  0
LINE
  5
F0
330
1F
100
AcDbEntity
  8
0
  6
Continuous
 62
     7
370
    15
100
AcDbLine
 10
1076.869339664285
 20
564.1197367564185
 30
0.0
 11
1076.869339664285
 21
564.602132047747
 31
0.0
  0
LINE
  5
F1
330
1F
100
AcDbEntity
  8
0
  6
Continuous
 62
     7
370
    15
100
AcDbLine
 10
1076.168508251016
 20
563.6741771355613
 30
0.0
 11
1076.869339664285
 21
564.1197367564185
 31
0.0
  0
LINE
  5
F2
330
1F
100
AcDbEntity
  8
0
  6
Continuous
 62
     7
370
    15
100
AcDbLine
 10
1076.869339664285
 20
564.602132047747
 30
0.0
 11
1076.168508251016
 21
564.602132047747
 31
0.0
  0
ELLIPSE
  5
F3
330
1F
100
AcDbEntity
  8
0
  6
Continuous
 62
     7
370
    15
100
AcDbEllipse
 10
1069.545519374176
 20
559.4635341000178
 30
0.0
 11
7.837202391755228
 21
7.313111706627865
 31
0.0
210
0.0
220
0.0
230
1.0
 40
0.245347556323502
 41
5.455338089995624
 42
5.632854447923957
  0
LINE
  5
F4
330
1F
100
AcDbEntity
  8
0
  6
Continuous
 62
     7
370
    15
100
AcDbLine
 10
1076.869339664285
 20
540.602135564421
 30
0.0
 11
1076.869339664285
 21
541.0845308557494
 31
0.0
  0
LINE
  5
F5
330
1F
100
AcDbEntity
  8
0
  6
Continuous
 62
     7
370
    15
100
AcDbLine
 10
1076.168508251016
 20
541.5300904766067
 30
0.0
 11
1076.869339664285
 21
541.0845308557494
 31
0.0
  0
LINE
  5
F6
330
1F
100
AcDbEntity
  8
0
  6
Continuous
 62
     7
370
    15
100
AcDbLine
 10
1076.869339664285
 20
540.602135564421
 30
0.0
 11
1076.168508251016
 21
540.602135564421
 31
0.0
  0
ELLIPSE
  5
F7
330
1F
100
AcDbEntity
  8
0
  6
Continuous
 62
     7
370
    15
100
AcDbEllipse
 10
1069.545519374178
 20
545.7407306737132
 30
0.0
 11
7.83720239175659
 21
-7.31311170662616
 31
0.0
210
0.0
220
0.0
230
1.0
 40
0.2453475563235079
 41
0.6503308592557645
 42
0.8278472171845448
  0
ARC
  5
F8
330
1F
100
AcDbEntity
  8
0
  6
Continuous
 62
     7
370
    15
100
AcDbCircle
 10
562.1685217661797
 20
569.8015902574135
 30
0.0
 40
26.49999999999989
100
AcDbArc
 50
90.0
 51
180.0000000000011
  0
ARC
  5
F9
330
1F
100
AcDbEntity
  8
0
  6
Continuous
 62
     7
370
    15
100
AcDbCircle
 10
1012.16852176618
 20
569.8015902574135
 30
0.0
 40
25.00000000000023
100
AcDbArc
 50
0.0
 51
90.0
  0
LINE
  5
FA
330
1F
100
AcDbEntity
  8
0
  6
Continuous
 62
     7
370
    15
100
AcDbLine
 10
1012.168527562921
 20
596.3015883222564
 30
0.0
 11
1012.168527562921
 21
594.8015927330001
 31
0.0
  0
LINE
  5
FB
330
1F
100
AcDbEntity
  8
0
  6
Continuous
 62
     7
370
    15
100
AcDbLine
 10
537.1685186222239
 20
569.8015867725356
 30
0.0
 11
537.1685186222239
 21
279.8015876666054
 31
0.0
  0
LINE
  5
FC
330
1F
100
AcDbEntity
  8
0
  6
Continuous
 62
     7
370
    15
100
AcDbLine
 10
537.1685186222239
 20
279.8015876666054
 30
0.0
 11
535.6685230329676
 21
279.8015876666054
 31
0.0
  0
LINE
  5
FD
330
1F
100
AcDbEntity
  8
0
  6
Continuous
 62
     7
370
    15
100
AcDbLine
 10
537.1685186222239
 20
569.8015867725356
 30
0.0
 11
535.6685230329676
 21
569.8015867725356
 31
0.0
  0
LINE
  5
FE
330
1F
100
AcDbEntity
  8
0
  6
Continuous
 62
     7
370
    15
100
AcDbLine
 10
1012.168527562921
 20
594.8015927330001
 30
0.0
 11
562.1685245826884
 21
594.8015927330001
 31
0.0
  0
LINE
  5
FF
330
1F
100
AcDbEntity
  8
0
  6
Continuous
 62
     7
370
    15
100
AcDbLine
 10
562.1685245826884
 20
596.3015883222564
 30
0.0
 11
562.1685245826884
 21
594.8015927330001
 31
0.0
  0
ARC
  5
100
330
1F
100
AcDbEntity
  8
0
  6
Continuous
 62
     7
370
    15
100
AcDbCircle
 10
1012.16852176618
 20
279.8015902574134
 30
0.0
 40
24.99999999999997
100
AcDbArc
 50
270.0000000000008
 51
285.0131226947781
  0
ARC
  5
101
330
1F
100
AcDbEntity
  8
0
  6
Continuous
 62
     7
370
    15
100
AcDbCircle
 10
1012.16852176618
 20
279.8015902574134
 30
0.0
 40
25.00000000000023
100
AcDbArc
 50
313.0960854391973
 51
0.0000000000001303
  0
LINE
  5
102
330
1F
100
AcDbEntity
  8
0
  6
Continuous
 62
     7
370
    15
100
AcDbLine
 10
562.1685245826884
 20
254.8015966073021
 30
0.0
 11
1012.168527562921
 21
254.8015966073021
 31
0.0
  0
ARC
  5
103
330
1F
100
AcDbEntity
  8
0
  6
Continuous
 62
     7
370
    15
100
AcDbCircle
 10
562.1685217661797
 20
279.8015902574134
 30
0.0
 40
25.0
100
AcDbArc
 50
180.0
 51
270.0000000000008
  0
LINE
  5
104
330
1F
100
AcDbEntity
  8
0
  6
Continuous
 62
     7
370
    15
100
AcDbLine
 10
1037.168533523385
 20
279.8015876666054
 30
0.0
 11
1037.168533523385
 21
569.8015867725356
 31
0.0
  0
ARC
  5
105
330
1F
100
AcDbEntity
  8
0
  6
Continuous
 62
     7
370
    15
100
AcDbCircle
 10
562.1685217661797
 20
569.8015902574135
 30
0.0
 40
24.99999999999989
100
AcDbArc
 50
90.0
 51
180.0000000000011
  0
LINE
  5
106
330
1F
100
AcDbEntity
  8
0
  6
Continuous
 62
     7
370
    15
100
AcDbLine
 10
1037.168533523385
 20
569.8015867725356
 30
0.0
 11
1028.08284850866
 21
569.8015867725356
 31
0.0
  0
LINE
  5
107
330
1F
100
AcDbEntity
  8
0
  6
Continuous
 62
     7
370
    15
100
AcDbLine
 10
1037.168533523385
 20
279.8015876666054
 30
0.0
 11
1028.843731601541
 21
279.8015876666054
 31
0.0
  0
LINE
  5
108
330
1F
100
AcDbEntity
  8
0
  6
Continuous
 62
     7
370
    15
100
AcDbLine
 10
1028.843731601541
 20
279.8015876666054
 30
0.0
 11
1028.826446254556
 21
279.8015876666054
 31
0.0
  0
SPLINE
  5
109
330
1F
100
AcDbEntity
  8
0
  6
Continuous
 62
     7
370
    15
100
AcDbSpline
210
0.0
220
0.0
230
1.0
 70
     8
 71
     3
 72
    13
 73
     9
 74
     0
 42
0.000000001
 43
0.00000001
 40
0.0
 40
0.0
 40
0.0
 40
0.0
 40
0.1924273737322312
 40
0.3848540751794516
 40
0.5775806965675998
 40
0.770308684717007
 40
0.8851481842148647
 40
1.0
 40
1.0
 40
1.0
 40
1.0
 10
1027.943582256143
 20
569.7784676209434
 30
0.0
 10
1027.874190575591
 20
551.1722395045856
 30
0.0
 10
1027.735407456924
 20
513.9598482765937
 30
0.0
 10
1027.739342323606
 20
458.0916076959421
 30
0.0
 10
1027.905978081627
 20
402.2075496952186
 30
0.0
 10
1028.191011438253
 20
353.8541150967562
 30
0.0
 10
1028.509823321442
 20
313.0541985064055
 30
0.0
 10
1028.720901504107
 20
290.8864656538467
 30
0.0
 10
1028.826446254556
 20
279.8020048991188
 30
0.0
  0
LINE
  5
10A
330
1F
100
AcDbEntity
  8
0
  6
Continuous
 62
     7
370
    15
100
AcDbLine
 10
1028.08284850866
 20
569.8015867725356
 30
0.0
 11
1027.943582256143
 21
569.7784676209434
 31
0.0
  0
LINE
  5
10B
330
1F
100
AcDbEntity
  8
0
  6
Continuous
 62
     7
370
    15
100
AcDbLine
 10
562.1685245826884
 20
254.8015966073021
 30
0.0
 11
562.1685245826884
 21
263.1263687268242
 31
0.0
  0
SPLINE
  5
10C
330
1F
100
AcDbEntity
  8
0
  6
Continuous
 62
     7
370
    15
100
AcDbSpline
210
0.0
220
0.0
230
1.0
 70
     8
 71
     3
 72
    17
 73
    13
 74
     0
 42
0.000000001
 43
0.00000001
 40
0.0
 40
0.0
 40
0.0
 40
0.0
 40
0.1085136399363857
 40
0.21703292983571
 40
0.3255447544987951
 40
0.4343233123841785
 40
0.5431104261644422
 40
0.6518887845702442
 40
0.7388885586378022
 40
0.8258886045387975
 40
0.9129442221196354
 40
1.0
 40
1.0
 40
1.0
 40
1.0
 10
1012.168527562921
 20
263.1263687268242
 30
0.0
 10
995.9160272474367
 20
263.2941069452734
 30
0.0
 10
963.4101804000439
 20
263.6295921157717
 30
0.0
 10
914.5934966340658
 20
264.0127199499018
 30
0.0
 10
865.7056470089203
 20
264.291600176514
 30
0.0
 10
816.7521996024319
 20
264.4398837793067
 30
0.0
 10
767.7494905558586
 20
264.4544160372551
 30
0.0
 10
722.0226946719804
 20
264.3415137087565
 30
0.0
 10
679.5841139322547
 20
264.1335603622927
 30
0.0
 10
640.426015793775
 20
263.865882407662
 30
0.0
 10
601.2821106249445
 20
263.5338381033187
 30
0.0
 10
575.2063945991697
 20
263.262191935688
 30
0.0
 10
562.1685245826884
 20
263.1263687268242
 30
0.0
  0
LINE
  5
10D
330
1F
100
AcDbEntity
  8
0
  6
Continuous
 62
     7
370
    15
100
AcDbLine
 10
1012.168527562921
 20
254.8015966073021
 30
0.0
 11
1012.168527562921
 21
263.1263687268242
 31
0.0
  0
LINE
  5
10E
330
1F
100
AcDbEntity
  8
0
  6
Continuous
 62
     7
370
    15
100
AcDbLine
 10
562.1685245826884
 20
594.8015927330001
 30
0.0
 11
562.1685245826884
 21
585.7159226194366
 31
0.0
  0
SPLINE
  5
10F
330
1F
100
AcDbEntity
  8
0
  6
Continuous
 62
     7
370
    15
100
AcDbSpline
210
0.0
220
0.0
230
1.0
 70
     8
 71
     3
 72
    15
 73
    11
 74
     0
 42
0.000000001
 43
0.00000001
 40
0.0
 40
0.0
 40
0.0
 40
0.0
 40
0.127705216684045
 40
0.2500053124268055
 40
0.3758495593773611
 40
0.5000006204168788
 40
0.6241482729156459
 40
0.7499930587998211
 40
0.8722929617357721
 40
0.9999999999999999
 40
0.9999999999999999
 40
0.9999999999999999
 40
0.9999999999999999
 10
546.2541887357875
 20
569.8015867725356
 30
0.0
 10
546.336605630522
 20
570.8517987716288
 30
0.0
 10
546.497951126441
 20
572.907772566319
 30
0.0
 10
547.4820677196628
 20
575.8830415542695
 30
0.0
 10
548.9585859701442
 20
578.6100965633867
 30
0.0
 10
550.9509714409387
 20
581.0191224708293
 30
0.0
 10
553.3599979999693
 20
583.0115118049175
 30
0.0
 10
556.0870269603186
 20
584.48802592626
 30
0.0
 10
559.0623094078376
 20
585.472158917361
 30
0.0
 10
561.1182972631856
 20
585.6335048585888
 30
0.0
 10
562.1685245826884
 20
585.7159226194366
 30
0.0
  0
LINE
  5
110
330
1F
100
AcDbEntity
  8
0
  6
Continuous
 62
     7
370
    15
100
AcDbLine
 10
537.1685186222239
 20
569.8015867725356
 30
0.0
 11
546.2541887357875
 21
569.8015867725356
 31
0.0
  0
SPLINE
  5
111
330
1F
100
AcDbEntity
  8
0
  6
Continuous
 62
     7
370
    15
100
AcDbSpline
210
0.0
220
0.0
230
1.0
 70
     8
 71
     3
 72
    15
 73
    11
 74
     0
 42
0.000000001
 43
0.00000001
 40
0.0
 40
0.0
 40
0.0
 40
0.0
 40
0.1277046612599873
 40
0.2500056396199467
 40
0.3758496573363435
 40
0.5000005202737203
 40
0.6241480148113125
 40
0.7499931194530445
 40
0.8722929636692008
 40
1.0
 40
1.0
 40
1.0
 40
1.0
 10
1012.168527562921
 20
585.7159226194366
 30
0.0
 10
1013.21873415304
 20
585.6335042602606
 30
0.0
 10
1015.274708991433
 20
585.4721549845262
 30
0.0
 10
1018.249982760378
 20
584.4880506618255
 30
0.0
 10
1020.977036990597
 20
583.0115242481198
 30
0.0
 10
1023.386057956345
 20
581.0191406782088
 30
0.0
 10
1025.378433811815
 20
578.6101065187006
 30
0.0
 10
1026.854971920196
 20
575.8830904899327
 30
0.0
 10
1027.839090646631
 20
572.907800324036
 30
0.0
 10
1028.000432709954
 20
570.8518137012964
 30
0.0
 10
1028.08284850866
 20
569.8015867725356
 30
0.0
  0
LINE
  5
112
330
1F
100
AcDbEntity
  8
0
  6
Continuous
 62
     7
370
    15
100
AcDbLine
 10
1012.168527562921
 20
594.8015927330001
 30
0.0
 11
1012.168527562921
 21
585.7159226194366
 31
0.0
  0
SPLINE
  5
113
330
1F
100
AcDbEntity
  8
0
  6
Continuous
 62
     7
370
    15
100
AcDbSpline
210
0.0
220
0.0
230
1.0
 70
     8
 71
     3
 72
    11
 73
     7
 74
     0
 42
0.000000001
 43
0.00000001
 40
0.0
 40
0.0
 40
0.0
 40
0.0
 40
0.2498568134377912
 40
0.4997219629394829
 40
0.7498606656498373
 40
0.9999999999999999
 40
0.9999999999999999
 40
0.9999999999999999
 40
0.9999999999999999
 10
810.0955793455287
 20
584.181661810015
 30
0.0
 10
826.945319617683
 20
584.2345926371712
 30
0.0
 10
860.6453623260156
 20
584.3404560574343
 30
0.0
 10
911.1752667234548
 20
584.7005226833419
 30
0.0
 10
961.6933298229407
 20
585.1455599179866
 30
0.0
 10
995.3434474876332
 20
585.5258015589251
 30
0.0
 10
1012.168527562921
 20
585.7159226194366
 30
0.0
  0
LINE
  5
114
330
1F
100
AcDbEntity
  8
0
  6
Continuous
 62
     7
370
    15
100
AcDbLine
 10
764.2414653494998
 20
584.181661810015
 30
0.0
 11
810.0955793455287
 21
584.181661810015
 31
0.0
  0
SPLINE
  5
115
330
1F
100
AcDbEntity
  8
0
  6
Continuous
 62
     7
370
    15
100
AcDbSpline
210
0.0
220
0.0
230
1.0
 70
     8
 71
     3
 72
    11
 73
     7
 74
     0
 42
0.000000001
 43
0.00000001
 40
0.0
 40
0.0
 40
0.0
 40
0.0
 40
0.2498820425616886
 40
0.4997634530024073
 40
0.7498858864317183
 40
1.0
 40
1.0
 40
1.0
 40
1.0
 10
562.1685245826884
 20
585.7159226194366
 30
0.0
 10
578.9762923597165
 20
585.5259870369547
 30
0.0
 10
612.5917853955414
 20
585.1461163524667
 30
0.0
 10
663.0924470455783
 20
584.7010761561271
 30
0.0
 10
713.6396334982454
 20
584.3406693997898
 30
0.0
 10
747.3743750895097
 20
584.2346637522498
 30
0.0
 10
764.2414653494998
 20
584.181661810015
 30
0.0
  0
LINE
  5
116
330
1F
100
AcDbEntity
  8
0
  6
Continuous
 62
     7
370
    15
100
AcDbLine
 10
537.1685186222239
 20
279.8015876666054
 30
0.0
 11
545.4933056429072
 21
279.8015876666054
 31
0.0
  0
SPLINE
  5
117
330
1F
100
AcDbEntity
  8
0
  6
Continuous
 62
     7
370
    15
100
AcDbSpline
210
0.0
220
0.0
230
1.0
 70
     8
 71
     3
 72
    15
 73
    11
 74
     0
 42
0.000000001
 43
0.00000001
 40
0.0
 40
0.0
 40
0.0
 40
0.0
 40
0.1277065689969893
 40
0.2500047355201401
 40
0.3758464371594474
 40
0.5000006673511788
 40
0.624151605232357
 40
0.7499938254740195
 40
0.8722917078264797
 40
1.0
 40
1.0
 40
1.0
 40
1.0
 10
562.1685245826884
 20
263.1263687268242
 30
0.0
 10
561.066881179782
 20
263.2109390331328
 30
0.0
 10
558.910249224635
 20
263.3764980738903
 30
0.0
 10
555.7898950187889
 20
264.4050821300987
 30
0.0
 10
552.9305797900497
 20
265.9509298987821
 30
0.0
 10
550.4054535142744
 20
268.0385056432419
 30
0.0
 10
548.3178634411223
 20
270.5636249949171
 30
0.0
 10
546.7720209222726
 20
273.4229139532066
 30
0.0
 10
545.7434291073306
 20
276.5432843556548
 30
0.0
 10
545.5778743933529
 20
278.6999291708087
 30
0.0
 10
545.4933056429072
 20
279.8015876666054
 30
0.0
  0
LINE
  5
118
330
1F
100
AcDbEntity
  8
0
  6
Continuous
 62
     7
370
    15
100
AcDbLine
 10
546.3934698894664
 20
569.7784676209434
 30
0.0
 11
546.2541887357875
 21
569.8015867725356
 31
0.0
  0
SPLINE
  5
119
330
1F
100
AcDbEntity
  8
0
  6
Continuous
 62
     7
370
    15
100
AcDbSpline
210
0.0
220
0.0
230
1.0
 70
     8
 71
     3
 72
    13
 73
     9
 74
     0
 42
0.000000001
 43
0.00000001
 40
0.0
 40
0.0
 40
0.0
 40
0.0
 40
0.1664630624629561
 40
0.3329351012406419
 40
0.4993956256710892
 40
0.6662593453342508
 40
0.8331357359880055
 40
1.0
 40
1.0
 40
1.0
 40
1.0
 10
545.5106058910533
 20
279.8020048991188
 30
0.0
 10
545.6609652716245
 20
295.8690098234586
 30
0.0
 10
545.9616921407104
 20
328.0038860655039
 30
0.0
 10
546.2892696068263
 20
376.2579753901039
 30
0.0
 10
546.5125400765781
 20
424.5771930750951
 30
0.0
 10
546.6049431159597
 20
472.9540619690019
 30
0.0
 10
546.5786295971002
 20
521.37498366483
 30
0.0
 10
546.4551882969096
 20
553.644363810524
 30
0.0
 10
546.3934698894664
 20
569.7784676209434
 30
0.0
  0
LINE
  5
11A
330
1F
100
AcDbEntity
  8
0
  6
Continuous
 62
     7
370
    15
100
AcDbLine
 10
545.4933056429072
 20
279.8015876666054
 30
0.0
 11
545.5106058910533
 21
279.8015876666054
 31
0.0
  0
SPLINE
  5
11B
330
1F
100
AcDbEntity
  8
0
  6
Continuous
 62
     7
370
    15
100
AcDbSpline
210
0.0
220
0.0
230
1.0
 70
     8
 71
     3
 72
    15
 73
    11
 74
     0
 42
0.000000001
 43
0.00000001
 40
0.0
 40
0.0
 40
0.0
 40
0.0
 40
0.1277066192054994
 40
0.2500042024721555
 40
0.3758464674578047
 40
0.5000007377068622
 40
0.6241513522627727
 40
0.7499941136817915
 40
0.872291666622465
 40
1.0
 40
1.0
 40
1.0
 40
1.0
 10
1028.843731601541
 20
279.8015876666054
 30
0.0
 10
1028.759158179976
 20
278.6999453618853
 30
0.0
 10
1028.593593458741
 20
276.5433210027524
 30
0.0
 10
1027.565056369692
 20
273.4229517150898
 30
0.0
 10
1026.019181805341
 20
270.5636496433491
 30
0.0
 10
1023.931615516879
 20
268.0385159754091
 30
0.0
 10
1021.40648270008
 20
265.9509367149036
 30
0.0
 10
1018.547190769262
 20
264.4051097376552
 30
0.0
 10
1015.426829925856
 20
263.3764849927325
 30
0.0
 10
1013.270186814049
 20
263.2109351259804
 30
0.0
 10
1012.168527562921
 20
263.1263687268242
 30
0.0
  0
SPLINE
  5
11C
330
1F
100
AcDbEntity
  8
0
  6
Continuous
 62
     7
370
    15
100
AcDbSpline
210
0.0
220
0.0
230
1.0
 70
     8
 71
     3
 72
    21
 73
    17
 74
     0
 42
0.000000001
 43
0.00000001
 40
0.0
 40
0.0
 40
0.0
 40
0.0
 40
0.1176894559260386
 40
0.239530494151953
 40
0.3666526004623352
 40
0.5000591391043597
 40
0.5569847296879749
 40
0.6176003440209088
 40
0.681944474342275
 40
0.7500484545635087
 40
0.7780370420633491
 40
0.8114944818782612
 40
0.8504211056203438
 40
0.8948154261012332
 40
0.9446759972016215
 40
1.0
 40
1.0
 40
1.0
 40
1.0
 10
562.1607536271258
 20
263.1596579209312
 30
0.0
 10
562.1553364590994
 20
263.5656475121586
 30
0.0
 10
562.1443110284517
 20
264.3919482766752
 30
0.0
 10
562.9598068153014
 20
266.970254390285
 30
0.0
 10
564.3939747950919
 20
270.5168183883657
 30
0.0
 10
566.0852076984759
 20
274.1267538123082
 30
0.0
 10
567.6584249472347
 20
277.2331039459627
 30
0.0
 10
568.889516509458
 20
279.5884151733581
 30
0.0
 10
570.2835882268198
 20
282.1856290965463
 30
0.0
 10
571.5065588094445
 20
284.4153601961838
 30
0.0
 10
572.5312589426569
 20
286.2444472425079
 30
0.0
 10
573.3409654078895
 20
287.6752795022324
 30
0.0
 10
574.2970289685034
 20
289.358835542309
 30
0.0
 10
575.402706932827
 20
291.3003543147127
 30
0.0
 10
576.6594426277404
 20
293.5018635026352
 30
0.0
 10
577.5570737095995
 20
295.0621998441656
 30
0.0
 10
578.0292013481303
 20
295.8828910246834
 30
0.0
  0
SPLINE
  5
11D
330
1F
100
AcDbEntity
  8
0
  6
Continuous
 62
     7
370
    15
100
AcDbSpline
210
0.0
220
0.0
230
1.0
 70
     8
 71
     3
 72
    17
 73
    13
 74
     0
 42
0.000000001
 43
0.00000001
 40
0.0
 40
0.0
 40
0.0
 40
0.0
 40
0.0836332883594697
 40
0.1672664754891001
 40
0.2509370720343205
 40
0.3346075126299518
 40
0.4453868016442292
 40
0.5561730698655574
 40
0.6669523745101488
 40
0.7779656554875961
 40
0.8889852578485153
 40
1.0
 40
1.0
 40
1.0
 40
1.0
 10
578.0292013481303
 20
295.8828910246834
 30
0.0
 10
589.6753939447126
 20
295.9787322022203
 30
0.0
 10
612.9677650413108
 20
296.1704144412878
 30
0.0
 10
647.9379016014415
 20
296.3941902603595
 30
0.0
 10
682.9287381953593
 20
296.5673262557095
 30
0.0
 10
721.7198792511243
 20
296.6986938092758
 30
0.0
 10
764.3071475650622
 20
296.7738537363509
 30
0.0
 10
810.6823871188355
 20
296.7730384613274
 30
0.0
 10
857.0845331457137
 20
296.6910093825859
 30
0.0
 10
903.5009906641598
 20
296.5182380103302
 30
0.0
 10
949.926779517509
 20
296.2573960641535
 30
0.0
 10
980.8477193182658
 20
296.0077242161137
 30
0.0
 10
996.3078507974787
 20
295.8828910246834
 30
0.0
  0
SPLINE
  5
11E
330
1F
100
AcDbEntity
  8
0
  6
Continuous
 62
     7
370
    15
100
AcDbSpline
210
0.0
220
0.0
230
1.0
 70
     8
 71
     3
 72
    25
 73
    21
 74
     0
 42
0.000000001
 43
0.00000001
 40
0.0
 40
0.0
 40
0.0
 40
0.0
 40
0.0629848560600624
 40
0.1261681496301219
 40
0.1875325947646032
 40
0.2501812649560986
 40
0.3329283318068386
 40
0.4160528032792453
 40
0.5003501903156202
 40
0.5610452735876431
 40
0.624762782398567
 40
0.6851980580444922
 40
0.7501900166697698
 40
0.7824192583024268
 40
0.8172692400205126
 40
0.8547415485470264
 40
0.8904512899082893
 40
0.9270535966122927
 40
0.9565486948473612
 40
1.0
 40
1.0
 40
1.0
 40
1.0
 10
1012.176276166741
 20
263.1596579209312
 30
0.0
 10
1012.196055883316
 20
263.3513588873265
 30
0.0
 10
1012.235677633631
 20
263.7353647853368
 30
0.0
 10
1012.068991966214
 20
264.6734999010556
 30
0.0
 10
1011.740581252298
 20
265.8560777729323
 30
0.0
 10
1011.192753521816
 20
267.4412546390108
 30
0.0
 10
1010.363662950789
 20
269.5143842464305
 30
0.0
 10
1009.196173607574
 20
272.1284580157473
 30
0.0
 10
1007.922226498764
 20
274.7771087261174
 30
0.0
 10
1006.611473671146
 20
277.3684762087179
 30
0.0
 10
1005.353254427033
 20
279.773124927794
 30
0.0
 10
1003.978783268401
 20
282.3250912717544
 30
0.0
 10
1002.772486391023
 20
284.5173472950676
 30
0.0
 10
1001.728642068628
 20
286.3861135445543
 30
0.0
 10
1000.886487857669
 20
287.8818366656951
 30
0.0
 10
1000.00147389966
 20
289.4433870203252
 30
0.0
 10
999.088475707973
 20
291.0437427644539
 30
0.0
 10
998.2321215948248
 20
292.538730025643
 30
0.0
 10
997.3032645906308
 20
294.155369370066
 30
0.0
 10
996.679439113278
 20
295.2380065891229
 30
0.0
 10
996.3078507974787
 20
295.8828910246834
 30
0.0
  0
LINE
  5
11F
330
1F
100
AcDbEntity
  8
0
  6
Continuous
 62
     7
370
    15
100
AcDbLine
 10
1012.168527562921
 20
263.1263687268242
 30
0.0
 11
1012.176276166741
 21
263.1596579209312
 31
0.0
  0
LINE
  5
120
330
1F
100
AcDbEntity
  8
0
  6
Continuous
 62
     7
370
    15
100
AcDbLine
 10
562.1685245826884
 20
263.1263687268242
 30
0.0
 11
562.1607536271258
 21
263.1596579209312
 31
0.0
  0
SPLINE
  5
121
330
1F
100
AcDbEntity
  8
0
  6
Continuous
 62
     7
370
    15
100
AcDbSpline
210
0.0
220
0.0
230
1.0
 70
     8
 71
     3
 72
    21
 73
    17
 74
     0
 42
0.000000001
 43
0.00000001
 40
0.0
 40
0.0
 40
0.0
 40
0.0
 40
0.1173306998637273
 40
0.2389927399497508
 40
0.3661992858431999
 40
0.5000241769380389
 40
0.5568694805190229
 40
0.6174584568600062
 40
0.681832228324188
 40
0.7500249359051382
 40
0.7780635421590386
 40
0.8115510226493461
 40
0.8504883156906883
 40
0.8948757416052779
 40
0.944713228448366
 40
1.0
 40
1.0
 40
1.0
 40
1.0
 10
546.3934698894664
 20
569.7784676209434
 30
0.0
 10
546.7991284179816
 20
569.6812539400132
 30
0.0
 10
547.6254206273222
 20
569.4832378709615
 30
0.0
 10
550.1847236976824
 20
568.333646361466
 30
0.0
 10
553.6991881421527
 20
566.5564874359338
 30
0.0
 10
557.2668574731117
 20
564.5956831953713
 30
0.0
 10
560.329958516987
 20
562.8250947456398
 30
0.0
 10
562.6461031764394
 20
561.4606793048257
 30
0.0
 10
565.2002766407635
 20
559.932888692832
 30
0.0
 10
567.3930423895617
 20
558.6062124901679
 30
0.0
 10
569.1917110171097
 20
557.5025859125634
 30
0.0
 10
570.5980537921457
 20
556.6346129915273
 30
0.0
 10
572.2518136613285
 20
555.6146949269955
 30
0.0
 10
574.1584258890484
 20
554.4412478687972
 30
0.0
 10
576.3201834790221
 20
553.1140167904994
 30
0.0
 10
577.8530320642201
 20
552.1727653544249
 30
0.0
 10
578.6591851905032
 20
551.677743996714
 30
0.0
  0
SPLINE
  5
122
330
1F
100
AcDbEntity
  8
0
  6
Continuous
 62
     7
370
    15
100
AcDbSpline
210
0.0
220
0.0
230
1.0
 70
     8
 71
     3
 72
    12
 73
     8
 74
     0
 42
0.000000001
 43
0.00000001
 40
0.0
 40
0.0
 40
0.0
 40
0.0
 40
0.2020939383393462
 40
0.4041876309227078
 40
0.6065198889369834
 40
0.8088531065030891
 40
1.0
 40
1.0
 40
1.0
 40
1.0
 10
578.6591851905032
 20
551.677743996714
 30
0.0
 10
578.693887313436
 20
534.4402465406885
 30
0.0
 10
578.7632915171021
 20
499.9652725902664
 30
0.0
 10
578.736186165142
 20
448.2221873215208
 30
0.0
 10
578.6111541249492
 20
396.4723138887896
 30
0.0
 10
578.3841891648196
 20
345.6775486716102
 30
0.0
 10
578.145266493702
 20
312.1635178991072
 30
0.0
 10
578.0292013481303
 20
295.8828910246834
 30
0.0
  0
SPLINE
  5
123
330
1F
100
AcDbEntity
  8
0
  6
Continuous
 62
     7
370
    15
100
AcDbSpline
210
0.0
220
0.0
230
1.0
 70
     8
 71
     3
 72
    24
 73
    20
 74
     0
 42
0.000000001
 43
0.00000001
 40
0.0
 40
0.0
 40
0.0
 40
0.0
 40
0.0629857009913075
 40
0.1261699913202598
 40
0.1875346793375735
 40
0.2501838970344192
 40
0.3329309011573565
 40
0.4160556116884296
 40
0.5003528402599784
 40
0.5610479360033888
 40
0.6247657337602003
 40
0.6852014376877782
 40
0.7501934294471466
 40
0.7880497944787193
 40
0.8294723959828555
 40
0.874462273167061
 40
0.9141731216385718
 40
0.9514476907250866
 40
1.0
 40
1.0
 40
1.0
 40
1.0
 10
545.5106058910533
 20
279.8020048991188
 30
0.0
 10
545.6955882495422
 20
279.7890147544001
 30
0.0
 10
546.0661362024529
 20
279.7629935079805
 30
0.0
 10
546.9846773799158
 20
279.9495459371572
 30
0.0
 10
548.1482546162315
 20
280.2972137603748
 30
0.0
 10
549.7132940660205
 20
280.8655977994856
 30
0.0
 10
551.7654560675829
 20
281.7160869003928
 30
0.0
 10
554.3584601579248
 20
282.905283181737
 30
0.0
 10
556.9898442805238
 20
284.1970892832834
 30
0.0
 10
559.5670213518448
 20
285.5226206181094
 30
0.0
 10
561.9603675966998
 20
286.7927266862966
 30
0.0
 10
564.5020769650356
 20
288.1780463410875
 30
0.0
 10
566.7648463374595
 20
289.4356045366807
 30
0.0
 10
568.8023631673623
 20
290.5844729607203
 30
0.0
 10
570.5805539140106
 20
291.5950216561751
 30
0.0
 10
572.4069400471884
 20
292.6399402993393
 30
0.0
 10
574.189832447595
 20
293.6656782368624
 30
0.0
 10
576.0372978933498
 20
294.7311210729997
 30
0.0
 10
577.3095101944377
 20
295.4667470377214
 30
0.0
 10
578.0292013481303
 20
295.8828910246834
 30
0.0
  0
SPLINE
  5
124
330
1F
100
AcDbEntity
  8
0
  6
Continuous
 62
     7
370
    15
100
AcDbSpline
210
0.0
220
0.0
230
1.0
 70
     8
 71
     3
 72
    12
 73
     8
 74
     0
 42
0.000000001
 43
0.00000001
 40
0.0
 40
0.0
 40
0.0
 40
0.0
 40
0.1912926657862609
 40
0.3933533893376298
 40
0.5954132027548532
 40
0.7977064729128354
 40
1.0
 40
1.0
 40
1.0
 40
1.0
 10
996.3078507974787
 20
295.8828910246834
 30
0.0
 10
996.1916982531867
 20
312.1759366844299
 30
0.0
 10
995.952854820326
 20
345.6791800343607
 30
0.0
 10
995.7260443697171
 20
396.4399099188312
 30
0.0
 10
995.6009765599796
 20
448.1602962256414
 30
0.0
 10
995.5736513220664
 20
499.9141952783962
 30
0.0
 10
995.6431234289997
 20
534.4232204523934
 30
0.0
 10
995.6778595045253
 20
551.677743996714
 30
0.0
  0
SPLINE
  5
125
330
1F
100
AcDbEntity
  8
0
  6
Continuous
 62
     7
370
    15
100
AcDbSpline
210
0.0
220
0.0
230
1.0
 70
     8
 71
     3
 72
    22
 73
    18
 74
     0
 42
0.000000001
 43
0.00000001
 40
0.0
 40
0.0
 40
0.0
 40
0.0
 40
0.1050840990349999
 40
0.1883658261056445
 40
0.2498378988110044
 40
0.2957364756967332
 40
0.3399263204271123
 40
0.3824175447042406
 40
0.423219794084651
 40
0.462345396446508
 40
0.4998072241035617
 40
0.5676701248289687
 40
0.6337553856442032
 40
0.6981825740466205
 40
0.761082179878527
 40
0.882709190093331
 40
1.0
 40
1.0
 40
1.0
 40
1.0
 10
995.6778595045253
 20
551.677743996714
 30
0.0
 10
997.2098231596285
 20
552.6178756062343
 30
0.0
 10
999.9559056031886
 20
554.3030845855333
 30
0.0
 10
1003.518074871469
 20
556.4979899474855
 30
0.0
 10
1006.176725817428
 20
558.1389216394485
 30
0.0
 10
1008.254098604035
 20
559.3986291900699
 30
0.0
 10
1010.035584514443
 20
560.4712660787171
 30
0.0
 10
1011.710952960608
 20
561.4704562613587
 30
0.0
 10
1013.279856705605
 20
562.3970765861803
 30
0.0
 10
1014.743317848045
 20
563.2512876932151
 30
0.0
 10
1016.490376324768
 20
564.2564985306537
 30
0.0
 10
1018.468930678022
 20
565.3642877801944
 30
0.0
 10
1020.58731268186
 20
566.5076354206362
 30
0.0
 10
1022.464646302349
 20
567.4809552446992
 30
0.0
 10
1024.59730119386
 20
568.5326564106416
 30
0.0
 10
1026.713085755388
 20
569.4840597658434
 30
0.0
 10
1027.538409784186
 20
569.6815262982
 30
0.0
 10
1027.943582256143
 20
569.7784676209434
 30
0.0
  0
SPLINE
  5
126
330
1F
100
AcDbEntity
  8
0
  6
Continuous
 62
     7
370
    15
100
AcDbSpline
210
0.0
220
0.0
230
1.0
 70
     8
 71
     3
 72
    21
 73
    17
 74
     0
 42
0.000000001
 43
0.00000001
 40
0.0
 40
0.0
 40
0.0
 40
0.0
 40
0.1176881464908504
 40
0.2395276037947445
 40
0.3666496612703859
 40
0.5000591940418164
 40
0.5569842511356291
 40
0.6175993370195049
 40
0.6819432821603545
 40
0.7500474403381802
 40
0.7780629984580366
 40
0.8115362369266618
 40
0.8504679494524264
 40
0.8948568757887726
 40
0.9447019284762105
 40
1.0
 40
1.0
 40
1.0
 40
1.0
 10
1028.826446254556
 20
279.8020048991188
 30
0.0
 10
1028.433011705954
 20
279.8092519916499
 30
0.0
 10
1027.632264668239
 20
279.8240018093692
 30
0.0
 10
1025.090830298388
 20
280.6769081958492
 30
0.0
 10
1021.579041893289
 20
282.1466924753897
 30
0.0
 10
1017.993978947112
 20
283.8637102114704
 30
0.0
 10
1014.904670122012
 20
285.454716263967
 30
0.0
 10
1012.560606302388
 20
286.6976014039589
 30
0.0
 10
1009.973946200074
 20
288.1028160012165
 30
0.0
 10
1007.751458879387
 20
289.3341436483789
 30
0.0
 10
1005.927178382361
 20
290.3650329423896
 30
0.0
 10
1004.499494138698
 20
291.1793011441143
 30
0.0
 10
1002.819712203248
 20
292.1399249313375
 30
0.0
 10
1000.882333938334
 20
293.2498673686292
 30
0.0
 10
998.6851710658476
 20
294.5104123341777
 30
0.0
 10
997.1272240615145
 20
295.4098490204477
 30
0.0
 10
996.3078507974787
 20
295.8828910246834
 30
0.0
  0
LINE
  5
127
330
1F
100
AcDbEntity
  8
0
  6
Continuous
 62
     7
370
    15
100
AcDbLine
 10
562.113725562398
 20
585.4265718713744
 30
0.0
 11
562.1685245826884
 21
585.7159226194366
 31
0.0
  0
LWPOLYLINE
  5
128
330
1F
100
AcDbEntity
  8
0
  6
Continuous
 62
     7
370
    15
100
AcDbPolyline
 90
       14
 70
   128
 43
0.0
 10
763.8342911198779
 20
550.7979049340232
 10
763.8450944617434
 20
554.4838934198364
 10
763.8603383496447
 20
558.1158204928382
 10
763.8798290684863
 20
561.6531251922592
 10
763.903365452592
 20
565.0562747374519
 10
763.9306867316409
 20
568.2872488156303
 10
763.9614725306674
 20
571.3099493638023
 10
763.9953875735446
 20
574.0905954495414
 10
764.032051880662
 20
576.5981181517585
 10
764.0710556700869
 20
578.8045181885703
 10
764.111959357564
 20
580.6851192370399
 10
764.1543159082576
 20
582.2189330116256
 10
764.1976484850093
 20
583.3888008252128
 10
764.2414653494998
 20
584.181661810015
  0
SPLINE
  5
129
330
1F
100
AcDbEntity
  8
0
  6
Continuous
 62
     7
370
    15
100
AcDbSpline
210
0.0
220
0.0
230
1.0
 70
     8
 71
     3
 72
    11
 73
     7
 74
     0
 42
0.000000001
 43
0.00000001
 40
0.0
 40
0.0
 40
0.0
 40
0.0
 40
0.2498869794991844
 40
0.4997796419223971
 40
0.7498894854094121
 40
0.9999999999999999
 40
0.9999999999999999
 40
0.9999999999999999
 40
0.9999999999999999
 10
763.8342911198779
 20
550.7979049340232
 30
0.0
 10
748.3954902562795
 20
550.793236870859
 30
0.0
 10
717.517537420223
 20
550.7839006383696
 30
0.0
 10
671.214955166354
 20
550.9416798604224
 30
0.0
 10
624.9216542946475
 20
551.2471768756091
 30
0.0
 10
594.0800220177591
 20
551.5342214946445
 30
0.0
 10
578.6591851905032
 20
551.677743996714
 30
0.0
  0
SPLINE
  5
12A
330
1F
100
AcDbEntity
  8
0
  6
Continuous
 62
     7
370
    15
100
AcDbSpline
210
0.0
220
0.0
230
1.0
 70
     8
 71
     3
 72
    22
 73
    18
 74
     0
 42
0.000000001
 43
0.00000001
 40
0.0
 40
0.0
 40
0.0
 40
0.0
 40
0.1051959377759125
 40
0.18847820286781
 40
0.2498267540083321
 40
0.2957276349640959
 40
0.339920476815151
 40
0.3824137685337157
 40
0.4232175418643023
 40
0.462342820054514
 40
0.4998024359901713
 40
0.5676520640157414
 40
0.6337314639846253
 40
0.6981592955495937
 40
0.7610628065465835
 40
0.8827021649658207
 40
1.0
 40
1.0
 40
1.0
 40
1.0
 10
578.6591851905032
 20
551.677743996714
 30
0.0
 10
577.7352160902258
 20
553.225196845709
 30
0.0
 10
576.0797525884258
 20
555.9977481263732
 30
0.0
 10
573.9509774654608
 20
559.6180360634908
 30
0.0
 10
572.3713214810775
 20
562.3295597221165
 30
0.0
 10
571.1673361697189
 20
564.4555577146078
 30
0.0
 10
570.147279009808
 20
566.2859210759007
 30
0.0
 10
569.2030604345858
 20
568.0127215716417
 30
0.0
 10
568.3332761456297
 20
569.6350769400057
 30
0.0
 10
567.5372388111034
 20
571.1534440362339
 30
0.0
 10
566.6079959476473
 20
572.9722739169273
 30
0.0
 10
565.597349527349
 20
575.043124806015
 30
0.0
 10
564.5760505861446
 20
577.2784174719206
 30
0.0
 10
563.7302158334924
 20
579.2790068321509
 30
0.0
 10
562.8521720838233
 20
581.5807081907046
 30
0.0
 10
562.1264589900825
 20
583.9177664941086
 30
0.0
 10
562.1179183098275
 20
584.9297661389552
 30
0.0
 10
562.113725562398
 20
585.4265718713744
 30
0.0
  0
SPLINE
  5
12B
330
1F
100
AcDbEntity
  8
0
  6
Continuous
 62
     7
370
    15
100
AcDbSpline
210
0.0
220
0.0
230
1.0
 70
     8
 71
     3
 72
    23
 73
    19
 74
     0
 42
0.000000001
 43
0.00000001
 40
0.0
 40
0.0
 40
0.0
 40
0.0
 40
0.0487440940503165
 40
0.0858467633939529
 40
0.1255375037484817
 40
0.1705682715455687
 40
0.2119985064737777
 40
0.2498290073766621
 40
0.3354593255746554
 40
0.4180680630747478
 40
0.4996513524511381
 40
0.5839594100285683
 40
0.6670939577953524
 40
0.7497851041119448
 40
0.8123915039273208
 40
0.8737047533322168
 40
0.9369780334669658
 40
1.0
 40
1.0
 40
1.0
 40
1.0
 10
995.6778595045253
 20
551.677743996714
 30
0.0
 10
996.1077271163264
 20
552.3944926083939
 30
0.0
 10
996.8647981806262
 20
553.6568106323234
 30
0.0
 10
997.9604212658019
 20
555.4952816052574
 30
0.0
 10
999.0136798702264
 20
557.2711622235934
 30
0.0
 10
1000.0880968833
 20
559.0980530497148
 30
0.0
 10
1001.12709141412
 20
560.8819585997798
 30
0.0
 10
1002.47674764158
 20
563.2246216882418
 30
0.0
 10
1004.098439057109
 20
566.1010203517244
 30
0.0
 10
1005.925969710757
 20
569.4637676583069
 30
0.0
 10
1007.57682600945
 20
572.6509180843863
 30
0.0
 10
1009.030350403345
 20
575.638826730935
 30
0.0
 10
1010.257116185164
 20
578.3751239629429
 30
0.0
 10
1011.134780246598
 20
580.5813237953624
 30
0.0
 10
1011.720498402089
 20
582.3019357037604
 30
0.0
 10
1012.078205879113
 20
583.6186811083921
 30
0.0
 10
1012.268712665998
 20
584.6997109339399
 30
0.0
 10
1012.23842028348
 20
585.1846065217969
 30
0.0
 10
1012.223304231469
 20
585.4265718713744
 30
0.0
  0
SPLINE
  5
12C
330
1F
100
AcDbEntity
  8
0
  6
Continuous
 62
     7
370
    15
100
AcDbSpline
210
0.0
220
0.0
230
1.0
 70
     8
 71
     3
 72
    11
 73
     7
 74
     0
 42
0.000000001
 43
0.00000001
 40
0.0
 40
0.0
 40
0.0
 40
0.0
 40
0.2499060229526995
 40
0.4998114887352306
 40
0.749908579105033
 40
1.0
 40
1.0
 40
1.0
 40
1.0
 10
995.6778595045253
 20
551.677743996714
 30
0.0
 10
980.2696339848884
 20
551.5343293306566
 30
0.0
 10
949.4532172985428
 20
551.2475003182877
 30
0.0
 10
903.1725746128185
 20
550.9419626096059
 30
0.0
 10
856.8573977518237
 20
550.7839313681964
 30
0.0
 10
825.9541848747374
 20
550.7932471139446
 30
0.0
 10
810.5027535751506
 20
550.7979049340232
 30
0.0
  0
LWPOLYLINE
  5
12D
330
1F
100
AcDbEntity
  8
0
  6
Continuous
 62
     7
370
    15
100
AcDbPolyline
 90
       14
 70
   128
 43
0.0
 10
810.5027535751506
 20
550.7979049340232
 10
810.491950233285
 20
554.4838934198364
 10
810.4767063453837
 20
558.1158204928382
 10
810.4572156265422
 20
561.6531251922592
 10
810.4336717918559
 20
565.0562747374519
 10
810.4063579633876
 20
568.2872488156303
 10
810.3755721643611
 20
571.3099493638023
 10
810.3416571214839
 20
574.0905954495414
 10
810.305000264947
 20
576.5981181517585
 10
810.2659890249415
 20
578.8045181885703
 10
810.2250853374644
 20
580.6851192370399
 10
810.1827213361903
 20
582.2189330116256
 10
810.1394036605998
 20
583.3888008252128
 10
810.0955793455287
 20
584.181661810015
  0
LINE
  5
12E
330
1F
100
AcDbEntity
  8
0
  6
Continuous
 62
     7
370
    15
100
AcDbLine
 10
1012.223304231469
 20
585.4265718713744
 30
0.0
 11
1012.168527562921
 21
585.7159226194366
 31
0.0
  0
SPLINE
  5
12F
330
1F
100
AcDbEntity
  8
0
  6
Continuous
 62
     7
370
    15
100
AcDbSpline
210
0.0
220
0.0
230
1.0
 70
     8
 71
     3
 72
    15
 73
    11
 74
     0
 42
0.000000001
 43
0.00000001
 40
0.0
 40
0.0
 40
0.0
 40
0.0
 40
0.1250176830790607
 40
0.2500243779074954
 40
0.3750142518780532
 40
0.4999996838291265
 40
0.6249855348653327
 40
0.7499773601229561
 40
0.8749790121908567
 40
0.9999999999999999
 40
0.9999999999999999
 40
0.9999999999999999
 40
0.9999999999999999
 10
545.5106058910533
 20
279.8020048991188
 30
0.0
 10
545.5930709150066
 20
278.7267625392287
 30
0.0
 10
545.7579937147678
 20
276.5763723263394
 30
0.0
 10
546.7784047313089
 20
273.4685210284308
 30
0.0
 10
548.3320746378353
 20
270.5957035427412
 30
0.0
 10
550.4194143435665
 20
268.0693683883212
 30
0.0
 10
552.9471564048932
 20
265.9827965152606
 30
0.0
 10
555.8219125412171
 20
264.4292353798641
 30
0.0
 10
558.9321997099746
 20
263.4083245070784
 30
0.0
 10
561.0845135043232
 20
263.2425510563967
 30
0.0
 10
562.1607536271258
 20
263.1596579209312
 30
0.0
  0
SPLINE
  5
130
330
1F
100
AcDbEntity
  8
0
  6
Continuous
 62
     7
370
    15
100
AcDbSpline
210
0.0
220
0.0
230
1.0
 70
     8
 71
     3
 72
    15
 73
    11
 74
     0
 42
0.000000001
 43
0.00000001
 40
0.0
 40
0.0
 40
0.0
 40
0.0
 40
0.1250211657101918
 40
0.250023034675918
 40
0.3750146099454451
 40
0.5000003210651423
 40
0.6249854254139933
 40
0.7499753580031027
 40
0.8749823740288185
 40
1.0
 40
1.0
 40
1.0
 40
1.0
 10
1028.826446254556
 20
279.8020048991188
 30
0.0
 10
1028.743973499438
 20
278.7267319995163
 30
0.0
 10
1028.579040718692
 20
276.5763521663404
 30
0.0
 10
1027.558620003961
 20
273.4685022318614
 30
0.0
 10
1026.004976543466
 20
270.5956931100121
 30
0.0
 10
1023.91760666129
 20
268.0693680840641
 30
0.0
 10
1021.389902289177
 20
265.9827788877254
 30
0.0
 10
1018.515108918866
 20
264.4292313696651
 30
0.0
 10
1015.404823236308
 20
263.4083017155512
 30
0.0
 10
1013.252488968462
 20
263.2425415305154
 30
0.0
 10
1012.176276166741
 20
263.1596579209312
 30
0.0
  0
SPLINE
  5
131
330
1F
100
AcDbEntity
  8
0
  6
Continuous
 62
     7
370
    15
100
AcDbSpline
210
0.0
220
0.0
230
1.0
 70
     8
 71
     3
 72
    15
 73
    11
 74
     0
 42
0.000000001
 43
0.00000001
 40
0.0
 40
0.0
 40
0.0
 40
0.0
 40
0.1251300540311569
 40
0.2501413419273106
 40
0.3750908209177595
 40
0.4999988735736369
 40
0.6249085074605827
 40
0.7498599862627121
 40
0.874871127774189
 40
1.0
 40
1.0
 40
1.0
 40
1.0
 10
1027.943582256143
 20
569.7784676209434
 30
0.0
 10
1027.857681745344
 20
570.7832831940773
 30
0.0
 10
1027.685962255491
 20
572.791960628122
 30
0.0
 10
1026.711267716746
 20
575.6968431785887
 30
0.0
 10
1025.235922312797
 20
578.3819065123514
 30
0.0
 10
1023.268794395617
 20
580.7505392983833
 30
0.0
 10
1020.887751836872
 20
582.7101323163406
 30
0.0
 10
1018.185883840916
 20
584.1830732833823
 30
0.0
 10
1015.260620438622
 20
585.1602355328074
 30
0.0
 10
1013.236060593135
 20
585.3377652398517
 30
0.0
 10
1012.223304231469
 20
585.4265718713744
 30
0.0
  0
SPLINE
  5
132
330
1F
100
AcDbEntity
  8
0
  6
Continuous
 62
     7
370
    15
100
AcDbSpline
210
0.0
220
0.0
230
1.0
 70
     8
 71
     3
 72
    15
 73
    11
 74
     0
 42
0.000000001
 43
0.00000001
 40
0.0
 40
0.0
 40
0.0
 40
0.0
 40
0.1251282392243534
 40
0.2501402143265902
 40
0.3750907268697075
 40
0.5000005902779441
 40
0.6249090348628574
 40
0.7498584460013117
 40
0.8748697617647675
 40
1.0
 40
1.0
 40
1.0
 40
1.0
 10
546.3934698894664
 20
569.7784676209434
 30
0.0
 10
546.479365973435
 20
570.7832681761862
 30
0.0
 10
546.6510783301896
 20
572.7919356664498
 30
0.0
 10
547.6257709480818
 20
575.6968156287107
 30
0.0
 10
549.1011233966153
 20
578.3819058742481
 30
0.0
 10
551.0682628750501
 20
580.7505448935134
 30
0.0
 10
553.4492970275385
 20
582.7101237360703
 30
0.0
 10
556.1511317075837
 20
584.1830669822828
 30
0.0
 10
559.0763891550451
 20
585.1602308515002
 30
0.0
 10
561.1009592524385
 20
585.3377633972009
 30
0.0
 10
562.113725562398
 20
585.4265718713744
 30
0.0
  0
LINE
  5
133
330
1F
100
AcDbEntity
  8
0
  6
Continuous
 62
     7
370
    15
100
AcDbLine
 10
810.5027535751506
 20
550.7979049340232
 30
0.0
 11
793.4851357534571
 21
550.8411779061302
 31
0.0
  0
SPLINE
  5
134
330
1F
100
AcDbEntity
  8
0
  6
Continuous
 62
     7
370
    15
100
AcDbSpline
210
0.0
220
0.0
230
1.0
 70
     8
 71
     3
 72
     9
 73
     5
 74
     0
 42
0.000000001
 43
0.00000001
 40
0.0
 40
0.0
 40
0.0
 40
0.0
 40
0.4980303107304638
 40
1.0
 40
1.0
 40
1.0
 40
1.0
 10
780.8519089415713
 20
550.8411779061302
 30
0.0
 10
782.9491273799687
 20
550.9821494041319
 30
0.0
 10
787.1601530810377
 20
551.2652074730167
 30
0.0
 10
791.3712784570068
 20
550.9828918111789
 30
0.0
 10
793.4851357534571
 20
550.8411779061302
 30
0.0
  0
LINE
  5
135
330
1F
100
AcDbEntity
  8
0
  6
Continuous
 62
     7
370
    15
100
AcDbLine
 10
780.8519089415713
 20
550.8411779061302
 30
0.0
 11
763.8342911198779
 21
550.7979049340232
 31
0.0
  0
ARC
  5
136
330
1F
100
AcDbEntity
  8
0
  6
Continuous
 62
     7
370
    15
100
AcDbCircle
 10
787.1685217661797
 20
484.8015902574134
 30
0.0
 40
70.00000000000003
100
AcDbArc
 50
109.4720015611984
 51
70.52799843878284
  0
SPLINE
  5
137
330
1F
100
AcDbEntity
  8
0
  6
Continuous
 62
     7
370
    15
100
AcDbSpline
210
0.0
220
0.0
230
1.0
 70
     8
 71
     3
 72
     9
 73
     5
 74
     0
 42
0.000000001
 43
0.00000001
 40
0.0
 40
0.0
 40
0.0
 40
0.0
 40
0.4976839474767445
 40
0.9999999999999999
 40
0.9999999999999999
 40
0.9999999999999999
 40
0.9999999999999999
 10
793.4211725190326
 20
550.172473396395
 30
0.0
 10
791.3466441285368
 20
550.3237714990182
 30
0.0
 10
787.1782790425949
 20
550.6277758845127
 30
0.0
 10
783.0097774439594
 20
550.3247088385652
 30
0.0
 10
780.9158721759959
 20
550.172473396395
 30
0.0
  0
LWPOLYLINE
  5
138
330
1F
100
AcDbEntity
  8
0
  6
Continuous
 62
     7
370
    15
100
AcDbPolyline
 90
        9
 70
   128
 43
0.0
 10
780.8519089415713
 20
550.8411779061302
 10
780.8600002720996
 20
550.7565840140327
 10
780.8680767014666
 20
550.6721465841277
 10
780.8761307790919
 20
550.5879177704795
 10
780.8841625049754
 20
550.5039869800552
 10
780.8921569779559
 20
550.4204063669189
 10
780.9001067474528
 20
550.3372504368766
 10
780.9080192640467
 20
550.2545862451537
 10
780.9158721759959
 20
550.172473396395
  0
LWPOLYLINE
  5
139
330
1F
100
AcDbEntity
  8
0
  6
Continuous
 62
     7
370
    15
100
AcDbPolyline
 90
        9
 70
   128
 43
0.0
 10
793.4211725190326
 20
550.172473396395
 10
793.4290254309817
 20
550.2545862451537
 10
793.436930496995
 20
550.3372504368766
 10
793.4448877170726
 20
550.4204063669189
 10
793.4528821900531
 20
550.5039869800552
 10
793.460906465356
 20
550.5879177704795
 10
793.4689679935618
 20
550.6721465841277
 10
793.4770444229289
 20
550.7565840140327
 10
793.4851357534571
 20
550.8411779061302
  0
CIRCLE
  5
13A
330
1F
100
AcDbEntity
  8
0
  6
Continuous
 62
     7
370
    15
100
AcDbCircle
 10
787.1685217661797
 20
484.8015902574134
 30
0.0
 40
58.61177143234625
  0
ARC
  5
13B
330
1F
100
AcDbEntity
  8
0
  6
Continuous
 62
     7
370
    15
100
AcDbCircle
 10
787.1685217661797
 20
484.8015902574134
 30
0.0
 40
65.66922975938013
100
AcDbArc
 50
95.46365535823762
 51
84.53634464176338
  0
ARC
  5
13C
330
1F
100
AcDbEntity
  8
0
  6
Continuous
 62
     7
370
    15
100
AcDbCircle
 10
787.1685217661797
 20
484.8015902574134
 30
0.0
 40
66.3409884045801
100
AcDbArc
 50
95.46365535823762
 51
84.53634464176338
  0
CIRCLE
  5
13D
330
1F
100
AcDbEntity
  8
0
  6
Continuous
 62
     7
370
    15
100
AcDbCircle
 10
787.1685217661797
 20
484.8015902574134
 30
0.0
 40
57.5
  0
CIRCLE
  5
13E
330
1F
100
AcDbEntity
  8
0
  6
Continuous
 62
     7
370
    15
100
AcDbCircle
 10
787.1685217661797
 20
484.8015902574134
 30
0.0
 40
56.5871557427476
  0
CIRCLE
  5
13F
330
1F
100
AcDbEntity
  8
0
  6
Continuous
 62
     7
370
    15
100
AcDbCircle
 10
787.1685217661797
 20
484.8015902574134
 30
0.0
 40
44.99999999999989
  0
LINE
  5
140
330
1F
100
AcDbEntity
  8
0
  6
Continuous
 62
     7
370
    15
100
AcDbLine
 10
204.7685095861598
 20
227.7805610552772
 30
0.0
 11
1037.56851049215
 21
227.7805610552772
 31
0.0
  0
LINE
  5
141
330
1F
100
AcDbEntity
  8
0
  6
Continuous
 62
     7
370
    15
100
AcDbLine
 10
1037.56851049215
 20
227.7805610552772
 30
0.0
 11
1037.56851049215
 21
225.9011819020256
 31
0.0
  0
LINE
  5
142
330
1F
100
AcDbEntity
  8
0
  6
Continuous
 62
     7
370
    15
100
AcDbLine
 10
1037.56851049215
 20
225.9011819020256
 30
0.0
 11
204.7685095861598
 21
225.9011819020256
 31
0.0
  0
LINE
  5
143
330
1F
100
AcDbEntity
  8
0
  6
Continuous
 62
     7
370
    15
100
AcDbLine
 10
204.7685095861598
 20
227.7805610552772
 30
0.0
 11
204.7685095861598
 21
225.9011819020256
 31
0.0
  0
LINE
  5
144
330
1F
100
AcDbEntity
  8
0
  6
Continuous
 62
     7
370
    15
100
AcDbLine
 10
1058.968932349984
 20
603.7015869275077
 30
0.0
 11
1058.968932349984
 21
247.3015888586982
 31
0.0
  0
LINE
  5
145
330
1F
100
AcDbEntity
  8
0
  6
Continuous
 62
     7
370
    15
100
AcDbLine
 10
1058.968932349984
 20
247.3015888586982
 30
0.0
 11
1057.089538295571
 21
247.3015888586982
 31
0.0
  0
LINE
  5
146
330
1F
100
AcDbEntity
  8
0
  6
Continuous
 62
     7
370
    15
100
AcDbLine
 10
1057.089538295571
 20
247.3015888586982
 30
0.0
 11
1057.089538295571
 21
603.7015869275077
 31
0.0
  0
LINE
  5
147
330
1F
100
AcDbEntity
  8
0
  6
Continuous
 62
     7
370
    15
100
AcDbLine
 10
1058.968932349984
 20
603.7015869275077
 30
0.0
 11
1057.089538295571
 21
603.7015869275077
 31
0.0
  0
ARC
  5
148
330
1F
100
AcDbEntity
  8
0
  6
Continuous
 62
     7
370
    15
100
AcDbCircle
 10
1037.56852176618
 20
247.3015902574134
 30
0.0
 40
19.5210298348477
100
AcDbArc
 50
270.0000000000008
 51
0.0
  0
ARC
  5
149
330
1F
100
AcDbEntity
  8
0
  6
Continuous
 62
     7
370
    15
100
AcDbCircle
 10
1037.56852176618
 20
247.3015902574134
 30
0.0
 40
21.40041507641942
100
AcDbArc
 50
270.0000000000008
 51
0.0
  0
ARC
  5
14A
330
1F
100
AcDbEntity
  8
0
  6
Continuous
 62
     7
370
    15
100
AcDbCircle
 10
1037.56852176618
 20
603.7015902574134
 30
0.0
 40
21.40041507641934
100
AcDbArc
 50
0.0
 51
90.0
  0
LINE
  5
14B
330
1F
100
AcDbEntity
  8
0
  6
Continuous
 62
     7
370
    15
100
AcDbLine
 10
204.7685095861598
 20
625.1020087853416
 30
0.0
 11
1037.56851049215
 21
625.1020087853416
 31
0.0
  0
ARC
  5
14C
330
1F
100
AcDbEntity
  8
0
  6
Continuous
 62
     7
370
    15
100
AcDbCircle
 10
204.7685217661798
 20
603.7015902574134
 30
0.0
 40
21.40041507641942
100
AcDbArc
 50
90.0
 51
180.0
  0
LINE
  5
14D
330
1F
100
AcDbEntity
  8
0
  6
Continuous
 62
     7
370
    15
100
AcDbLine
 10
183.3681175306483
 20
247.3015888586982
 30
0.0
 11
183.3681175306483
 21
603.7015869275077
 31
0.0
  0
ARC
  5
14E
330
1F
100
AcDbEntity
  8
0
  6
Continuous
 62
     7
370
    15
100
AcDbCircle
 10
204.7685217661798
 20
247.3015902574134
 30
0.0
 40
21.40041507641948
100
AcDbArc
 50
180.0
 51
270.0000000000008
  0
CIRCLE
  5
150
330
1F
100
AcDbEntity
  8
0
  6
Continuous
 62
     7
370
    15
100
AcDbCircle
 10
786.6685217661799
 20
658.7015902574134
 30
0.0
 40
17.5
  0
LINE
  5
151
330
1F
100
AcDbEntity
  8
0
  6
Continuous
 62
     7
370
    15
100
AcDbLine
 10
1075.187207181756
 20
233.7015970602974
 30
0.0
 11
1075.187207181756
 21
683.7015851393684
 31
0.0
  0
ARC
  5
152
330
1F
100
AcDbEntity
  8
0
  6
Continuous
 62
     7
370
    15
100
AcDbCircle
 10
1051.16852176618
 20
233.7015902574134
 30
0.0
 40
24.01869474724762
100
AcDbArc
 50
270.0000000000008
 51
0.0
  0
LINE
  5
153
330
1F
100
AcDbEntity
  8
0
  6
Continuous
 62
     7
370
    15
100
AcDbLine
 10
191.1685177877589
 20
209.6828921690925
 30
0.0
 11
1051.168532092874
 21
209.6828921690925
 31
0.0
  0
ARC
  5
154
330
1F
100
AcDbEntity
  8
0
  6
Continuous
 62
     7
370
    15
100
AcDbCircle
 10
191.1685217661798
 20
233.7015902574134
 30
0.0
 40
24.01869474724762
100
AcDbArc
 50
180.0
 51
270.0000000000008
  0
LINE
  5
155
330
1F
100
AcDbEntity
  8
0
  6
Continuous
 62
     7
370
    15
100
AcDbLine
 10
167.1498426988765
 20
683.7015851393684
 30
0.0
 11
167.1498426988765
 21
233.7015970602974
 31
0.0
  0
ARC
  5
156
330
1F
100
AcDbEntity
  8
0
  6
Continuous
 62
     7
370
    15
100
AcDbCircle
 10
191.1685217661798
 20
683.7015902574135
 30
0.0
 40
24.01869474724765
100
AcDbArc
 50
90.0
 51
180.0
  0
LINE
  5
157
330
1F
100
AcDbEntity
  8
0
  6
Continuous
 62
     7
370
    15
100
AcDbLine
 10
1051.168532092874
 20
707.7202900305732
 30
0.0
 11
191.1685177877589
 21
707.7202900305732
 31
0.0
  0
ARC
  5
158
330
1F
100
AcDbEntity
  8
0
  6
Continuous
 62
     7
370
    15
100
AcDbCircle
 10
1051.16852176618
 20
683.7015902574135
 30
0.0
 40
24.01869474724765
100
AcDbArc
 50
0.0
 51
90.0
  0
LINE
  5
159
330
1F
100
AcDbEntity
  8
0
  6
Continuous
 62
     7
370
    15
100
AcDbLine
 10
1075.187207181756
 20
233.7015970602974
 30
0.0
 11
1076.168508251016
 21
233.7015970602974
 31
0.0
  0
ARC
  5
15A
330
1F
100
AcDbEntity
  8
0
  6
Continuous
 62
     7
370
    15
100
AcDbCircle
 10
1051.16852176618
 20
233.7015902574134
 30
0.0
 40
25.00000000000003
100
AcDbArc
 50
270.0000000000008
 51
0.0
  0
LINE
  5
15B
330
1F
100
AcDbEntity
  8
0
  6
Continuous
 62
     7
370
    15
100
AcDbLine
 10
1051.168532092874
 20
209.6828921690925
 30
0.0
 11
1051.168532092874
 21
208.7015910998329
 31
0.0
  0
ARC
  5
15C
330
1F
100
AcDbEntity
  8
0
  6
Continuous
 62
     7
370
    15
100
AcDbCircle
 10
191.1685217661798
 20
233.7015902574134
 30
0.0
 40
25.00000000000003
100
AcDbArc
 50
180.0
 51
270.0000000000008
  0
LINE
  5
15D
330
1F
100
AcDbEntity
  8
0
  6
Continuous
 62
     7
370
    15
100
AcDbLine
 10
166.1685118272944
 20
233.7015970602974
 30
0.0
 11
167.1498426988765
 21
233.7015970602974
 31
0.0
  0
LINE
  5
15E
330
1F
100
AcDbEntity
  8
0
  6
Continuous
 62
     7
370
    15
100
AcDbLine
 10
191.1685177877589
 20
208.7015910998329
 30
0.0
 11
191.1685177877589
 21
209.6828921690925
 31
0.0
  0
LINE
  5
15F
330
1F
100
AcDbEntity
  8
0
  6
Continuous
 62
     7
370
    15
100
AcDbLine
 10
1075.187207181756
 20
683.7015851393684
 30
0.0
 11
1076.168508251016
 21
683.7015851393684
 31
0.0
  0
LINE
  5
160
330
1F
100
AcDbEntity
  8
0
  6
Continuous
 62
     7
370
    15
100
AcDbLine
 10
1076.168508251016
 20
683.7015851393684
 30
0.0
 11
1076.168508251016
 21
233.7015970602974
 31
0.0
  0
LINE
  5
161
330
1F
100
AcDbEntity
  8
0
  6
Continuous
 62
     7
370
    15
100
AcDbLine
 10
166.1685118272944
 20
233.7015970602974
 30
0.0
 11
166.1685118272944
 21
683.7015851393684
 31
0.0
  0
LINE
  5
162
330
1F
100
AcDbEntity
  8
0
  6
Continuous
 62
     7
370
    15
100
AcDbLine
 10
166.1685118272944
 20
683.7015851393684
 30
0.0
 11
167.1498426988765
 21
683.7015851393684
 31
0.0
  0
LINE
  5
163
330
1F
100
AcDbEntity
  8
0
  6
Continuous
 62
     7
370
    15
100
AcDbLine
 10
1051.168532092874
 20
707.7202900305732
 30
0.0
 11
1051.168532092874
 21
708.7015910998329
 31
0.0
  0
ARC
  5
164
330
1F
100
AcDbEntity
  8
0
  6
Continuous
 62
     7
370
    15
100
AcDbCircle
 10
1051.16852176618
 20
683.7015902574135
 30
0.0
 40
25.0
100
AcDbArc
 50
0.0
 51
90.0
  0
ARC
  5
165
330
1F
100
AcDbEntity
  8
0
  6
Continuous
 62
     7
370
    15
100
AcDbCircle
 10
191.1685217661798
 20
683.7015902574135
 30
0.0
 40
25.00000000000009
100
AcDbArc
 50
90.0
 51
180.0
  0
LINE
  5
166
330
1F
100
AcDbEntity
  8
0
  6
Continuous
 62
     7
370
    15
100
AcDbLine
 10
191.1685177877589
 20
708.7015910998329
 30
0.0
 11
191.1685177877589
 21
707.7202900305732
 31
0.0
  0
LINE
  5
167
330
1F
100
AcDbEntity
  8
0
  6
Continuous
 62
     7
370
    15
100
AcDbLine
 10
191.1685177877589
 20
708.7015910998329
 30
0.0
 11
1051.168532092874
 21
708.7015910998329
 31
0.0
  0
LINE
  5
168
330
1F
100
AcDbEntity
  8
0
  6
Continuous
 62
     7
370
    15
100
AcDbLine
 10
1051.168532092874
 20
208.7015910998329
 30
0.0
 11
191.1685177877589
 21
208.7015910998329
 31
0.0
  0
ARC
  5
169
330
1F
100
AcDbEntity
  8
0
  6
Continuous
 62
     7
370
    15
100
AcDbCircle
 10
204.7685217661798
 20
603.7015902574134
 30
0.0
 40
19.5210298348477
100
AcDbArc
 50
90.0
 51
180.0
  0
LINE
  5
16A
330
1F
100
AcDbEntity
  8
0
  6
Continuous
 62
     7
370
    15
100
AcDbLine
 10
185.2474817827388
 20
603.7015869275077
 30
0.0
 11
183.3681175306483
 21
603.7015869275077
 31
0.0
  0
LINE
  5
16B
330
1F
100
AcDbEntity
  8
0
  6
Continuous
 62
     7
370
    15
100
AcDbLine
 10
204.7685095861598
 20
625.1020087853416
 30
0.0
 11
204.7685095861598
 21
623.2226147309287
 31
0.0
  0
LINE
  5
16C
330
1F
100
AcDbEntity
  8
0
  6
Continuous
 62
     7
370
    15
100
AcDbLine
 10
185.2474817827388
 20
603.7015869275077
 30
0.0
 11
185.2474817827388
 21
247.3015888586982
 31
0.0
  0
LINE
  5
16D
330
1F
100
AcDbEntity
  8
0
  6
Continuous
 62
     7
370
    15
100
AcDbLine
 10
185.2474817827388
 20
247.3015888586982
 30
0.0
 11
183.3681175306483
 21
247.3015888586982
 31
0.0
  0
LINE
  5
16E
330
1F
100
AcDbEntity
  8
0
  6
Continuous
 62
     7
370
    15
100
AcDbLine
 10
1037.56851049215
 20
625.1020087853416
 30
0.0
 11
1037.56851049215
 21
623.2226147309287
 31
0.0
  0
LINE
  5
16F
330
1F
100
AcDbEntity
  8
0
  6
Continuous
 62
     7
370
    15
100
AcDbLine
 10
1037.56851049215
 20
623.2226147309287
 30
0.0
 11
204.7685095861598
 21
623.2226147309287
 31
0.0
  0
ARC
  5
170
330
1F
100
AcDbEntity
  8
0
  6
Continuous
 62
     7
370
    15
100
AcDbCircle
 10
204.7685217661798
 20
247.3015902574134
 30
0.0
 40
19.52102983484767
100
AcDbArc
 50
180.0
 51
270.0000000000008
  0
ARC
  5
171
330
1F
100
AcDbEntity
  8
0
  6
Continuous
 62
     7
370
    15
100
AcDbCircle
 10
1037.56852176618
 20
603.7015902574134
 30
0.0
 40
19.5210298348477
100
AcDbArc
 50
0.0
 51
90.0
  0
ARC
  5
172
330
1F
100
AcDbEntity
  8
0
  6
Continuous
 62
     7
370
    15
100
AcDbCircle
 10
1037.56852176618
 20
603.7015902574134
 30
0.0
 40
19.38705946235382
100
AcDbArc
 50
0.0
 51
90.0
  0
LINE
  5
173
330
1F
100
AcDbEntity
  8
0
  6
Continuous
 62
     7
370
    15
100
AcDbLine
 10
1037.56851049215
 20
623.088653291796
 30
0.0
 11
1037.56851049215
 21
623.2226147309287
 31
0.0
  0
LINE
  5
174
330
1F
100
AcDbEntity
  8
0
  6
Continuous
 62
     7
370
    15
100
AcDbLine
 10
1056.955576856439
 20
603.7015869275077
 30
0.0
 11
1057.089538295571
 21
603.7015869275077
 31
0.0
  0
ARC
  5
175
330
1F
100
AcDbEntity
  8
0
  6
Continuous
 62
     7
370
    15
100
AcDbCircle
 10
1037.56852176618
 20
247.3015902574134
 30
0.0
 40
19.38705946235382
100
AcDbArc
 50
270.0000000000008
 51
0.000000000000168
  0
LINE
  5
176
330
1F
100
AcDbEntity
  8
0
  6
Continuous
 62
     7
370
    15
100
AcDbLine
 10
1056.955576856439
 20
247.3015888586982
 30
0.0
 11
1057.089538295571
 21
247.3015888586982
 31
0.0
  0
LINE
  5
177
330
1F
100
AcDbEntity
  8
0
  6
Continuous
 62
     7
370
    15
100
AcDbLine
 10
1037.56851049215
 20
227.9145373955711
 30
0.0
 11
1037.56851049215
 21
227.7805610552772
 31
0.0
  0
LINE
  5
178
330
1F
100
AcDbEntity
  8
0
  6
Continuous
 62
     7
370
    15
100
AcDbLine
 10
1037.56851049215
 20
227.9145373955711
 30
0.0
 11
204.7685095861598
 21
227.9145373955711
 31
0.0
  0
LINE
  5
179
330
1F
100
AcDbEntity
  8
0
  6
Continuous
 62
     7
370
    15
100
AcDbLine
 10
204.7685095861598
 20
227.9145373955711
 30
0.0
 11
204.7685095861598
 21
227.7805610552772
 31
0.0
  0
ARC
  5
17A
330
1F
100
AcDbEntity
  8
0
  6
Continuous
 62
     7
370
    15
100
AcDbCircle
 10
204.7685217661798
 20
247.3015902574134
 30
0.0
 40
19.38705946235385
100
AcDbArc
 50
180.0
 51
270.0000000000008
  0
LINE
  5
17B
330
1F
100
AcDbEntity
  8
0
  6
Continuous
 62
     7
370
    15
100
AcDbLine
 10
185.3814730241938
 20
247.3015888586982
 30
0.0
 11
185.2474817827388
 21
247.3015888586982
 31
0.0
  0
LINE
  5
17C
330
1F
100
AcDbEntity
  8
0
  6
Continuous
 62
     7
370
    15
100
AcDbLine
 10
1056.955576856439
 20
603.7015869275077
 30
0.0
 11
1056.955576856439
 21
247.3015888586982
 31
0.0
  0
LINE
  5
17D
330
1F
100
AcDbEntity
  8
0
  6
Continuous
 62
     7
370
    15
100
AcDbLine
 10
204.7685095861598
 20
623.088653291796
 30
0.0
 11
1037.56851049215
 21
623.088653291796
 31
0.0
  0
LINE
  5
17E
330
1F
100
AcDbEntity
  8
0
  6
Continuous
 62
     7
370
    15
100
AcDbLine
 10
204.7685095861598
 20
623.088653291796
 30
0.0
 11
204.7685095861598
 21
623.2226147309287
 31
0.0
  0
ARC
  5
17F
330
1F
100
AcDbEntity
  8
0
  6
Continuous
 62
     7
370
    15
100
AcDbCircle
 10
204.7685217661798
 20
603.7015902574134
 30
0.0
 40
19.38705946235382
100
AcDbArc
 50
90.0
 51
180.0
  0
LINE
  5
180
330
1F
100
AcDbEntity
  8
0
  6
Continuous
 62
     7
370
    15
100
AcDbLine
 10
185.3814730241938
 20
603.7015869275077
 30
0.0
 11
185.2474817827388
 21
603.7015869275077
 31
0.0
  0
LINE
  5
181
330
1F
100
AcDbEntity
  8
0
  6
Continuous
 62
     7
370
    15
100
AcDbLine
 10
185.3814730241938
 20
247.3015888586982
 30
0.0
 11
185.3814730241938
 21
603.7015869275077
 31
0.0
  0
ARC
  5
182
330
1F
100
AcDbEntity
  8
0
  6
Continuous
 62
     7
370
    15
100
AcDbCircle
 10
1037.56852176618
 20
247.3015902574134
 30
0.0
 40
17.50767422078206
100
AcDbArc
 50
270.0000000000008
 51
0.0
  0
LINE
  5
183
330
1F
100
AcDbEntity
  8
0
  6
Continuous
 62
     7
370
    15
100
AcDbLine
 10
1056.955576856439
 20
247.3015888586982
 30
0.0
 11
1055.076182802026
 21
247.3015888586982
 31
0.0
  0
LINE
  5
184
330
1F
100
AcDbEntity
  8
0
  6
Continuous
 62
     7
370
    15
100
AcDbLine
 10
1037.56851049215
 20
229.7939165488228
 30
0.0
 11
1037.56851049215
 21
227.9145373955711
 31
0.0
  0
LINE
  5
185
330
1F
100
AcDbEntity
  8
0
  6
Continuous
 62
     7
370
    15
100
AcDbLine
 10
1055.076182802026
 20
247.3015888586982
 30
0.0
 11
1055.076182802026
 21
603.7015869275077
 31
0.0
  0
LINE
  5
186
330
1F
100
AcDbEntity
  8
0
  6
Continuous
 62
     7
370
    15
100
AcDbLine
 10
1056.955576856439
 20
603.7015869275077
 30
0.0
 11
1055.076182802026
 21
603.7015869275077
 31
0.0
  0
ARC
  5
187
330
1F
100
AcDbEntity
  8
0
  6
Continuous
 62
     7
370
    15
100
AcDbCircle
 10
204.7685217661798
 20
603.7015902574134
 30
0.0
 40
17.50767422078198
100
AcDbArc
 50
90.0
 51
180.0
  0
LINE
  5
188
330
1F
100
AcDbEntity
  8
0
  6
Continuous
 62
     7
370
    15
100
AcDbLine
 10
187.2608372762843
 20
603.7015869275077
 30
0.0
 11
185.3814730241938
 21
603.7015869275077
 31
0.0
  0
LINE
  5
189
330
1F
100
AcDbEntity
  8
0
  6
Continuous
 62
     7
370
    15
100
AcDbLine
 10
204.7685095861598
 20
623.088653291796
 30
0.0
 11
204.7685095861598
 21
621.2092592373832
 31
0.0
  0
LINE
  5
18A
330
1F
100
AcDbEntity
  8
0
  6
Continuous
 62
     7
370
    15
100
AcDbLine
 10
187.2608372762843
 20
603.7015869275077
 30
0.0
 11
187.2608372762843
 21
247.3015888586982
 31
0.0
  0
LINE
  5
18B
330
1F
100
AcDbEntity
  8
0
  6
Continuous
 62
     7
370
    15
100
AcDbLine
 10
187.2608372762843
 20
247.3015888586982
 30
0.0
 11
185.3814730241938
 21
247.3015888586982
 31
0.0
  0
ARC
  5
18C
330
1F
100
AcDbEntity
  8
0
  6
Continuous
 62
     7
370
    15
100
AcDbCircle
 10
1037.56852176618
 20
603.7015902574134
 30
0.0
 40
17.50767422078206
100
AcDbArc
 50
0.0
 51
90.0
  0
LINE
  5
18D
330
1F
100
AcDbEntity
  8
0
  6
Continuous
 62
     7
370
    15
100
AcDbLine
 10
1037.56851049215
 20
623.088653291796
 30
0.0
 11
1037.56851049215
 21
621.2092592373832
 31
0.0
  0
LINE
  5
18E
330
1F
100
AcDbEntity
  8
0
  6
Continuous
 62
     7
370
    15
100
AcDbLine
 10
1037.56851049215
 20
621.2092592373832
 30
0.0
 11
204.7685095861598
 21
621.2092592373832
 31
0.0
  0
ARC
  5
18F
330
1F
100
AcDbEntity
  8
0
  6
Continuous
 62
     7
370
    15
100
AcDbCircle
 10
204.7685217661798
 20
247.3015902574134
 30
0.0
 40
17.50767422078209
100
AcDbArc
 50
180.0
 51
270.0000000000008
  0
LINE
  5
190
330
1F
100
AcDbEntity
  8
0
  6
Continuous
 62
     7
370
    15
100
AcDbLine
 10
204.7685095861598
 20
229.7939165488228
 30
0.0
 11
204.7685095861598
 21
227.9145373955711
 31
0.0
  0
LINE
  5
191
330
1F
100
AcDbEntity
  8
0
  6
Continuous
 62
     7
370
    15
100
AcDbLine
 10
204.7685095861598
 20
229.7939165488228
 30
0.0
 11
1037.56851049215
 21
229.7939165488228
 31
0.0
  0
LINE
  5
192
330
1F
100
AcDbEntity
  8
0
  6
Continuous
 62
     7
370
    15
100
AcDbLine
 10
561.6685235694094
 20
601.3015910044654
 30
0.0
 11
1011.668534000222
 21
601.3015910044654
 31
0.0
  0
ARC
  5
193
330
1F
100
AcDbEntity
  8
0
  6
Continuous
 62
     7
370
    15
100
AcDbCircle
 10
561.6685217661799
 20
570.3015902574134
 30
0.0
 40
31.00000000000023
100
AcDbArc
 50
90.0
 51
180.0
  0
LINE
  5
194
330
1F
100
AcDbEntity
  8
0
  6
Continuous
 62
     7
370
    15
100
AcDbLine
 10
530.6685278013392
 20
280.7015880003914
 30
0.0
 11
530.6685278013392
 21
570.3015877858146
 31
0.0
  0
ARC
  5
195
330
1F
100
AcDbEntity
  8
0
  6
Continuous
 62
     7
370
    15
100
AcDbCircle
 10
561.6685217661799
 20
280.7015902574134
 30
0.0
 40
31.00000000000011
100
AcDbArc
 50
180.0
 51
270.0000000000008
  0
LINE
  5
196
330
1F
100
AcDbEntity
  8
0
  6
Continuous
 62
     7
370
    15
100
AcDbLine
 10
1011.668534000222
 20
249.7015847817405
 30
0.0
 11
561.6685235694094
 21
249.7015847817405
 31
0.0
  0
ARC
  5
197
330
1F
100
AcDbEntity
  8
0
  6
Continuous
 62
     7
370
    15
100
AcDbCircle
 10
1011.66852176618
 20
280.7015902574134
 30
0.0
 40
31.00000000000017
100
AcDbArc
 50
270.0000000000008
 51
0.0
  0
LINE
  5
198
330
1F
100
AcDbEntity
  8
0
  6
Continuous
 62
     7
370
    15
100
AcDbLine
 10
1042.668522317712
 20
570.3015877858146
 30
0.0
 11
1042.668522317712
 21
280.7015880003914
 31
0.0
  0
ARC
  5
199
330
1F
100
AcDbEntity
  8
0
  6
Continuous
 62
     7
370
    15
100
AcDbCircle
 10
1011.66852176618
 20
570.3015902574134
 30
0.0
 40
31.00000000000011
100
AcDbArc
 50
0.0
 51
90.0
  0
LINE
  5
19A
330
1F
100
AcDbEntity
  8
0
  6
Continuous
 62
     7
370
    15
100
AcDbLine
 10
1011.668534000222
 20
601.3015910044654
 30
0.0
 11
1011.668534000222
 21
596.3015883222564
 31
0.0
  0
LINE
  5
19B
330
1F
100
AcDbEntity
  8
0
  6
Continuous
 62
     7
370
    15
100
AcDbLine
 10
1011.668534000222
 20
596.3015883222564
 30
0.0
 11
561.6685235694094
 21
596.3015883222564
 31
0.0
  0
LINE
  5
19C
330
1F
100
AcDbEntity
  8
0
  6
Continuous
 62
     7
370
    15
100
AcDbLine
 10
561.6685235694094
 20
601.3015910044654
 30
0.0
 11
561.6685235694094
 21
596.3015883222564
 31
0.0
  0
LINE
  5
19D
330
1F
100
AcDbEntity
  8
0
  6
Continuous
 62
     7
370
    15
100
AcDbLine
 10
535.6685230329676
 20
570.3015877858146
 30
0.0
 11
535.6685230329676
 21
280.7015880003914
 31
0.0
  0
LINE
  5
19E
330
1F
100
AcDbEntity
  8
0
  6
Continuous
 62
     7
370
    15
100
AcDbLine
 10
535.6685230329676
 20
280.7015880003914
 30
0.0
 11
530.6685278013392
 21
280.7015880003914
 31
0.0
  0
LINE
  5
19F
330
1F
100
AcDbEntity
  8
0
  6
Continuous
 62
     7
370
    15
100
AcDbLine
 10
530.6685278013392
 20
570.3015877858146
 30
0.0
 11
535.6685230329676
 21
570.3015877858146
 31
0.0
  0
LINE
  5
1A0
330
1F
100
AcDbEntity
  8
0
  6
Continuous
 62
     7
370
    15
100
AcDbLine
 10
1037.668527086083
 20
280.7015880003914
 30
0.0
 11
1037.668527086083
 21
570.3015877858146
 31
0.0
  0
LINE
  5
1A1
330
1F
100
AcDbEntity
  8
0
  6
Continuous
 62
     7
370
    15
100
AcDbLine
 10
1042.668522317712
 20
570.3015877858146
 30
0.0
 11
1037.668527086083
 21
570.3015877858146
 31
0.0
  0
LINE
  5
1A2
330
1F
100
AcDbEntity
  8
0
  6
Continuous
 62
     7
370
    15
100
AcDbLine
 10
1037.668527086083
 20
280.7015880003914
 30
0.0
 11
1042.668522317712
 21
280.7015880003914
 31
0.0
  0
ARC
  5
1A3
330
1F
100
AcDbEntity
  8
0
  6
Continuous
 62
     7
370
    15
100
AcDbCircle
 10
561.6685217661799
 20
570.3015902574134
 30
0.0
 40
26.0
100
AcDbArc
 50
90.0
 51
180.0
  0
ARC
  5
1A4
330
1F
100
AcDbEntity
  8
0
  6
Continuous
 62
     7
370
    15
100
AcDbCircle
 10
1011.66852176618
 20
570.3015902574134
 30
0.0
 40
26.0
100
AcDbArc
 50
0.0
 51
90.0
  0
LINE
  5
1A5
330
1F
100
AcDbEntity
  8
0
  6
Continuous
 62
     7
370
    15
100
AcDbLine
 10
561.6685235694094
 20
254.7015949145301
 30
0.0
 11
1011.668534000222
 21
254.7015949145301
 31
0.0
  0
LINE
  5
1A6
330
1F
100
AcDbEntity
  8
0
  6
Continuous
 62
     7
370
    15
100
AcDbLine
 10
1011.668534000222
 20
254.7015949145301
 30
0.0
 11
1011.668534000222
 21
249.7015847817405
 31
0.0
  0
LINE
  5
1A7
330
1F
100
AcDbEntity
  8
0
  6
Continuous
 62
     7
370
    15
100
AcDbLine
 10
561.6685235694094
 20
254.7015949145301
 30
0.0
 11
561.6685235694094
 21
249.7015847817405
 31
0.0
  0
ARC
  5
1A8
330
1F
100
AcDbEntity
  8
0
  6
Continuous
 62
     7
370
    15
100
AcDbCircle
 10
1011.66852176618
 20
280.7015902574134
 30
0.0
 40
26.00000000000003
100
AcDbArc
 50
270.0000000000008
 51
0.0
  0
ARC
  5
1A9
330
1F
100
AcDbEntity
  8
0
  6
Continuous
 62
     7
370
    15
100
AcDbCircle
 10
561.6685217661799
 20
280.7015902574134
 30
0.0
 40
26.00000000000003
100
AcDbArc
 50
180.0
 51
270.0000000000008
  0
LINE
  5
1AA
330
1F
100
AcDbEntity
  8
0
  6
Continuous
 62
     8
370
    15
100
AcDbLine
 10
761.5985134437724
 20
594.7534396306022
 30
0.0
 11
761.5985134437724
 21
594.0569593564018
 31
0.0
  0
LINE
  5
1AB
330
1F
100
AcDbEntity
  8
0
  6
Continuous
 62
     8
370
    15
100
AcDbLine
 10
812.5985124900981
 20
594.0569593564018
 30
0.0
 11
812.5985124900981
 21
594.7534396306022
 31
0.0
  0
LWPOLYLINE
  5
1AC
330
1F
100
AcDbEntity
  8
0
  6
Continuous
 62
     8
370
    15
100
AcDbPolyline
 90
        3
 70
   128
 43
0.0
 10
811.3449970081492
 20
593.9899711862548
 10
811.4966759279414
 20
593.9825206056579
 10
811.563909967248
 20
593.9730285659774
  0
ELLIPSE
  5
1AD
330
1F
100
AcDbEntity
  8
0
  6
Continuous
 62
     8
370
    15
100
AcDbEllipse
 10
766.1336508528331
 20
593.9730103385201
 30
0.0
 11
3.500533148153636
 21
-1.483439302774059E-5
 31
0.0
210
0.0
220
0.0
230
1.0
 40
0.0139104406134396
 41
2.727974655526916
 42
3.141592712540169
  0
LINE
  5
1AE
330
1F
100
AcDbEntity
  8
0
  6
Continuous
 62
     8
370
    15
100
AcDbLine
 10
811.2896391943141
 20
593.9919157877906
 30
0.0
 11
811.563909967248
 21
593.9730285659774
 31
0.0
  0
LINE
  5
1AF
330
1F
100
AcDbEntity
  8
0
  6
Continuous
 62
     8
370
    15
100
AcDbLine
 10
762.6331159666224
 20
593.9730285659774
 30
0.0
 11
762.8504643037959
 21
593.9848675385459
 31
0.0
  0
ARC
  5
1B0
330
1F
100
AcDbEntity
  8
0
  6
Continuous
 62
     8
370
    15
100
AcDbCircle
 10
811.5638874185637
 20
595.7236450732322
 30
0.0
 40
2.000061945766907
100
AcDbArc
 50
239.0989991312964
 51
270.000645952217
  0
LWPOLYLINE
  5
1B1
330
1F
100
AcDbEntity
  8
0
  6
Continuous
 62
     8
370
    15
100
AcDbPolyline
 90
        3
 70
   128
 43
0.0
 10
762.6331159666224
 20
593.7235831275924
 10
763.0190187886401
 20
593.7611638561233
 10
763.0665087893649
 20
593.7711029306396
  0
LINE
  5
1B2
330
1F
100
AcDbEntity
  8
0
  6
Continuous
 62
     8
370
    15
100
AcDbLine
 10
808.0644467666789
 20
593.6749084845527
 30
0.0
 11
808.0644467666789
 21
593.7560974613174
 31
0.0
  0
LINE
  5
1B3
330
1F
100
AcDbEntity
  8
0
  6
Continuous
 62
     8
370
    15
100
AcDbLine
 10
766.1325866177722
 20
593.6749084845527
 30
0.0
 11
766.1325866177722
 21
593.7560974613174
 31
0.0
  0
LWPOLYLINE
  5
1B4
330
1F
100
AcDbEntity
  8
0
  6
Continuous
 62
     8
370
    15
100
AcDbPolyline
 90
        3
 70
   128
 43
0.0
 10
808.6310336187526
 20
594.0210624590858
 10
808.6151191785975
 20
593.9618005410179
 10
808.5985192850276
 20
593.9398809329017
  0
LINE
  5
1B5
330
1F
100
AcDbEntity
  8
0
  6
Continuous
 62
     8
370
    15
100
AcDbLine
 10
562.1685245826884
 20
596.3015883222564
 30
0.0
 11
1011.668534000222
 21
596.3015883222564
 31
0.0
  0
LINE
  5
1B6
330
1F
100
AcDbEntity
  8
0
  6
Continuous
 62
     8
370
    15
100
AcDbLine
 10
535.6685230329676
 20
280.7015880003914
 30
0.0
 11
535.6685230329676
 21
569.8015867725356
 31
0.0
  0
LINE
  5
1B7
330
1F
100
AcDbEntity
  8
0
  6
Continuous
 62
     8
370
    15
100
AcDbLine
 10
1037.668527086083
 20
569.8015867725356
 30
0.0
 11
1037.168533523385
 21
569.8015867725356
 31
0.0
  0
LINE
  5
1B8
330
1F
100
AcDbEntity
  8
0
  6
Continuous
 62
     8
370
    15
100
AcDbLine
 10
1037.652940471475
 20
279.8015876666054
 30
0.0
 11
1037.168533523385
 21
279.8015876666054
 31
0.0
  0
LINE
  5
1B9
330
1F
100
AcDbEntity
  8
0
  6
Continuous
 62
     8
370
    15
100
AcDbLine
 10
1012.168527562921
 20
254.8015966073021
 30
0.0
 11
1012.168527562921
 21
254.7063930884346
 31
0.0
  0
LINE
  5
1BA
330
1F
100
AcDbEntity
  8
0
  6
Continuous
 62
     8
370
    15
100
AcDbLine
 10
562.1685245826884
 20
254.8015966073021
 30
0.0
 11
562.1685245826884
 21
254.7015949145301
 31
0.0
  0
ENDSEC
  0
SECTION
  2
OBJECTS
  0
DICTIONARY
  5
C
330
0
100
AcDbDictionary
281
     1
  3
ACAD_GROUP
350
D
  3
ACAD_IMAGE_VARS
350
1FE
  3
ACAD_LAYOUT
350
1A
  3
ACAD_MLINESTYLE
350
17
  3
ACAD_PLOTSETTINGS
350
19
  3
ACAD_PLOTSTYLENAME
350
E
  3
ACAD_SCALELIST
350
1D4
  3
APPDATA
350
1FC
  3
DWGPROPS
350
1FF
  0
DICTIONARY
  5
D
102
{ACAD_REACTORS
330
C
102
}
330
C
100
AcDbDictionary
281
     1
  0
RASTERVARIABLES
  5
1FE
102
{ACAD_REACTORS
330
C
102
}
330
C
100
AcDbRasterVariables
 90
        0
 70
     1
 71
     1
 72
     1
  0
DICTIONARY
  5
1A
102
{ACAD_REACTORS
330
C
102
}
330
C
100
AcDbDictionary
281
     1
  3
Layout1
350
1E
  3
Layout2
350
26
  3
Model
350
22
  0
DICTIONARY
  5
17
102
{ACAD_REACTORS
330
C
102
}
330
C
100
AcDbDictionary
281
     1
  3
Standard
350
18
  0
DICTIONARY
  5
19
102
{ACAD_REACTORS
330
C
102
}
330
C
100
AcDbDictionary
281
     1
  0
ACDBDICTIONARYWDFLT
  5
E
102
{ACAD_REACTORS
330
C
102
}
330
C
100
AcDbDictionary
281
     1
  3
Normal
350
F
100
AcDbDictionaryWithDefault
340
F
  0
DICTIONARY
  5
1D4
102
{ACAD_REACTORS
330
C
102
}
330
C
100
AcDbDictionary
281
     1
  3
A0
350
1D5
  3
A1
350
1D6
  3
A2
350
1D7
  3
A3
350
1D8
  3
A4
350
1D9
  3
A5
350
1DA
  3
A6
350
1DB
  3
A7
350
1DC
  3
A8
350
1DD
  3
A9
350
1DE
  3
B0
350
1DF
  3
B1
350
1E0
  3
B2
350
1E1
  3
B3
350
1E2
  3
B4
350
1E3
  3
B5
350
1E4
  3
B6
350
1E5
  3
B7
350
1E6
  3
B8
350
1E7
  3
B9
350
1E8
  3
C0
350
1E9
  3
C1
350
1EA
  3
C2
350
1EB
  3
C3
350
1EC
  3
C4
350
1ED
  3
C5
350
1EE
  3
C6
350
1EF
  3
C7
350
1F0
  3
C8
350
1F1
  3
C9
350
1F2
  3
D0
350
1F3
  3
D1
350
1F4
  3
D2
350
1F5
  0
DICTIONARY
  5
1FC
102
{ACAD_REACTORS
330
C
102
}
330
C
100
AcDbDictionary
281
     1
  0
XRECORD
  5
1FF
102
{ACAD_REACTORS
330
C
102
}
330
C
100
AcDbXrecord
280
     1
  1
DWGPROPS COOKIE
  2

  3

  4

  6

  7

  8
Ismo
  9

300
=
301
=
302
=
303
=
304
=
305
=
306
=
307
=
308
=
309
=
 40
0.0
 41
2456338.294864722
 42
2457758.273148553
  1

 90
        0
  0
LAYOUT
  5
1E
102
{ACAD_REACTORS
330
1A
102
}
330
1A
100
AcDbPlotSettings
  1

  2
none_device
  4

  6

 40
0.0
 41
0.0
 42
0.0
 43
0.0
 44
0.0
 45
0.0
 46
0.0
 47
0.0
 48
0.0
 49
0.0
140
0.0
141
0.0
142
1.0
143
1.0
 70
   688
 72
     0
 73
     0
 74
     5
  7

 75
    16
147
1.0
148
0.0
149
0.0
100
AcDbLayout
  1
Layout1
 70
     1
 71
     1
 10
0.0
 20
0.0
 11
420.0
 21
297.0
 12
0.0
 22
0.0
 32
0.0
 14
1.000000000000000E+20
 24
1.000000000000000E+20
 34
1.000000000000000E+20
 15
-1.000000000000000E+20
 25
-1.000000000000000E+20
 35
-1.000000000000000E+20
146
0.0
 13
0.0
 23
0.0
 33
0.0
 16
1.0
 26
0.0
 36
0.0
 17
0.0
 27
1.0
 37
0.0
 76
     0
330
1B
  0
LAYOUT
  5
26
102
{ACAD_REACTORS
330
1A
102
}
330
1A
100
AcDbPlotSettings
  1

  2
none_device
  4

  6

 40
0.0
 41
0.0
 42
0.0
 43
0.0
 44
0.0
 45
0.0
 46
0.0
 47
0.0
 48
0.0
 49
0.0
140
0.0
141
0.0
142
1.0
143
1.0
 70
   688
 72
     0
 73
     0
 74
     5
  7

 75
    16
147
1.0
148
0.0
149
0.0
100
AcDbLayout
  1
Layout2
 70
     1
 71
     2
 10
0.0
 20
0.0
 11
0.0
 21
0.0
 12
0.0
 22
0.0
 32
0.0
 14
0.0
 24
0.0
 34
0.0
 15
0.0
 25
0.0
 35
0.0
146
0.0
 13
0.0
 23
0.0
 33
0.0
 16
1.0
 26
0.0
 36
0.0
 17
0.0
 27
1.0
 37
0.0
 76
     0
330
23
  0
LAYOUT
  5
22
102
{ACAD_REACTORS
330
1A
102
}
330
1A
100
AcDbPlotSettings
  1

  2
none_device
  4

  6

 40
0.0
 41
0.0
 42
0.0
 43
0.0
 44
0.0
 45
0.0
 46
0.0
 47
0.0
 48
0.0
 49
0.0
140
0.0
141
0.0
142
1.0
143
1.0
 70
  1712
 72
     0
 73
     0
 74
     0
  7

 75
     0
147
1.0
148
0.0
149
0.0
100
AcDbLayout
  1
Model
 70
     1
 71
     0
 10
0.0
 20
0.0
 11
1200.0
 21
900.0
 12
0.0
 22
0.0
 32
0.0
 14
0.0
 24
0.0
 34
0.0
 15
1200.0
 25
900.0
 35
0.0
146
0.0
 13
0.0
 23
0.0
 33
0.0
 16
1.0
 26
0.0
 36
0.0
 17
0.0
 27
1.0
 37
0.0
 76
     0
330
1F
331
29
  0
MLINESTYLE
  5
18
102
{ACAD_REACTORS
330
17
102
}
330
17
100
AcDbMlineStyle
  2
Standard
 70
     0
  3

 62
   256
 51
90.0
 52
90.0
 71
     2
 49
0.5
 62
   256
  6
BYLAYER
 49
-0.5
 62
   256
  6
BYLAYER
  0
ACDBPLACEHOLDER
  5
F
102
{ACAD_REACTORS
330
E
102
}
330
E
  0
SCALE
  5
1D5
102
{ACAD_REACTORS
330
1D4
102
}
330
1D4
100
AcDbScale
 70
     0
300
1:1
140
1.0
141
1.0
290
     1
  0
SCALE
  5
1D6
102
{ACAD_REACTORS
330
1D4
102
}
330
1D4
100
AcDbScale
 70
     0
300
1:2
140
1.0
141
2.0
290
     0
  0
SCALE
  5
1D7
102
{ACAD_REACTORS
330
1D4
102
}
330
1D4
100
AcDbScale
 70
     0
300
1:4
140
1.0
141
4.0
290
     0
  0
SCALE
  5
1D8
102
{ACAD_REACTORS
330
1D4
102
}
330
1D4
100
AcDbScale
 70
     0
300
1:5
140
1.0
141
5.0
290
     0
  0
SCALE
  5
1D9
102
{ACAD_REACTORS
330
1D4
102
}
330
1D4
100
AcDbScale
 70
     0
300
1:8
140
1.0
141
8.0
290
     0
  0
SCALE
  5
1DA
102
{ACAD_REACTORS
330
1D4
102
}
330
1D4
100
AcDbScale
 70
     0
300
1:10
140
1.0
141
10.0
290
     0
  0
SCALE
  5
1DB
102
{ACAD_REACTORS
330
1D4
102
}
330
1D4
100
AcDbScale
 70
     0
300
1:16
140
1.0
141
16.0
290
     0
  0
SCALE
  5
1DC
102
{ACAD_REACTORS
330
1D4
102
}
330
1D4
100
AcDbScale
 70
     0
300
1:20
140
1.0
141
20.0
290
     0
  0
SCALE
  5
1DD
102
{ACAD_REACTORS
330
1D4
102
}
330
1D4
100
AcDbScale
 70
     0
300
1:30
140
1.0
141
30.0
290
     0
  0
SCALE
  5
1DE
102
{ACAD_REACTORS
330
1D4
102
}
330
1D4
100
AcDbScale
 70
     0
300
1:40
140
1.0
141
40.0
290
     0
  0
SCALE
  5
1DF
102
{ACAD_REACTORS
330
1D4
102
}
330
1D4
100
AcDbScale
 70
     0
300
1:50
140
1.0
141
50.0
290
     0
  0
SCALE
  5
1E0
102
{ACAD_REACTORS
330
1D4
102
}
330
1D4
100
AcDbScale
 70
     0
300
1:100
140
1.0
141
100.0
290
     0
  0
SCALE
  5
1E1
102
{ACAD_REACTORS
330
1D4
102
}
330
1D4
100
AcDbScale
 70
     0
300
2:1
140
2.0
141
1.0
290
     0
  0
SCALE
  5
1E2
102
{ACAD_REACTORS
330
1D4
102
}
330
1D4
100
AcDbScale
 70
     0
300
4:1
140
4.0
141
1.0
290
     0
  0
SCALE
  5
1E3
102
{ACAD_REACTORS
330
1D4
102
}
330
1D4
100
AcDbScale
 70
     0
300
8:1
140
8.0
141
1.0
290
     0
  0
SCALE
  5
1E4
102
{ACAD_REACTORS
330
1D4
102
}
330
1D4
100
AcDbScale
 70
     0
300
10:1
140
10.0
141
1.0
290
     0
  0
SCALE
  5
1E5
102
{ACAD_REACTORS
330
1D4
102
}
330
1D4
100
AcDbScale
 70
     0
300
100:1
140
100.0
141
1.0
290
     0
  0
SCALE
  5
1E6
102
{ACAD_REACTORS
330
1D4
102
}
330
1D4
100
AcDbScale
 70
     0
300
1/128" = 1'-0"
140
0.0078125
141
12.0
290
     0
  0
SCALE
  5
1E7
102
{ACAD_REACTORS
330
1D4
102
}
330
1D4
100
AcDbScale
 70
     0
300
1/64" = 1'-0"
140
0.015625
141
12.0
290
     0
  0
SCALE
  5
1E8
102
{ACAD_REACTORS
330
1D4
102
}
330
1D4
100
AcDbScale
 70
     0
300
1/32" = 1'-0"
140
0.03125
141
12.0
290
     0
  0
SCALE
  5
1E9
102
{ACAD_REACTORS
330
1D4
102
}
330
1D4
100
AcDbScale
 70
     0
300
1/16" = 1'-0"
140
0.0625
141
12.0
290
     0
  0
SCALE
  5
1EA
102
{ACAD_REACTORS
330
1D4
102
}
330
1D4
100
AcDbScale
 70
     0
300
3/32" = 1'-0"
140
0.09375
141
12.0
290
     0
  0
SCALE
  5
1EB
102
{ACAD_REACTORS
330
1D4
102
}
330
1D4
100
AcDbScale
 70
     0
300
1/8" = 1'-0"
140
0.125
141
12.0
290
     0
  0
SCALE
  5
1EC
102
{ACAD_REACTORS
330
1D4
102
}
330
1D4
100
AcDbScale
 70
     0
300
3/16" = 1'-0"
140
0.1875
141
12.0
290
     0
  0
SCALE
  5
1ED
102
{ACAD_REACTORS
330
1D4
102
}
330
1D4
100
AcDbScale
 70
     0
300
1/4" = 1'-0"
140
0.25
141
12.0
290
     0
  0
SCALE
  5
1EE
102
{ACAD_REACTORS
330
1D4
102
}
330
1D4
100
AcDbScale
 70
     0
300
3/8" = 1'-0"
140
0.375
141
12.0
290
     0
  0
SCALE
  5
1EF
102
{ACAD_REACTORS
330
1D4
102
}
330
1D4
100
AcDbScale
 70
     0
300
1/2" = 1'-0"
140
0.5
141
12.0
290
     0
  0
SCALE
  5
1F0
102
{ACAD_REACTORS
330
1D4
102
}
330
1D4
100
AcDbScale
 70
     0
300
3/4" = 1'-0"
140
0.75
141
12.0
290
     0
  0
SCALE
  5
1F1
102
{ACAD_REACTORS
330
1D4
102
}
330
1D4
100
AcDbScale
 70
     0
300
1" = 1'-0"
140
1.0
141
12.0
290
     0
  0
SCALE
  5
1F2
102
{ACAD_REACTORS
330
1D4
102
}
330
1D4
100
AcDbScale
 70
     0
300
1-1/2" = 1'-0"
140
1.5
141
12.0
290
     0
  0
SCALE
  5
1F3
102
{ACAD_REACTORS
330
1D4
102
}
330
1D4
100
AcDbScale
 70
     0
300
3" = 1'-0"
140
3.0
141
12.0
290
     0
  0
SCALE
  5
1F4
102
{ACAD_REACTORS
330
1D4
102
}
330
1D4
100
AcDbScale
 70
     0
300
6" = 1'-0"
140
6.0
141
12.0
290
     0
  0
SCALE
  5
1F5
102
{ACAD_REACTORS
330
1D4
102
}
330
1D4
100
AcDbScale
 70
     0
300
1'-0" = 1'-0"
140
12.0
141
12.0
290
     0
  0
ENDSEC
  0
EOF
