  0
SECTION
  2
HEADER
  9
$ACADVER
  1
AC1015
  9
$ACADMAINTVER
 70
     6
  9
$DWGCODEPAGE
  3
ANSI_1252
  9
$INSBASE
 10
0.0
 20
0.0
 30
0.0
  9
$EXTMIN
 10
0.0
 20
0.0
 30
0.0
  9
$EXTMAX
 10
1400.0
 20
800.0
 30
0.0
  9
$LIMMIN
 10
0.0
 20
0.0
  9
$LIMMAX
 10
1400.0
 20
800.0
  9
$ORTHOMODE
 70
     0
  9
$REGENMODE
 70
     1
  9
$FILLMODE
 70
     1
  9
$QTEXTMODE
 70
     0
  9
$MIRRTEXT
 70
     1
  9
$LTSCALE
 40
1.0
  9
$ATTMODE
 70
     1
  9
$TEXTSIZE
 40
5.0
  9
$TRACEWID
 40
1.0
  9
$TEXTSTYLE
  7
Standard
  9
$CLAYER
  8
0
  9
$CELTYPE
  6
ByLayer
  9
$CECOLOR
 62
   256
  9
$CELTSCALE
 40
1.0
  9
$DISPSILH
 70
     0
  9
$DIMSCALE
 40
1.0
  9
$DIMASZ
 40
6.0
  9
$DIMEXO
 40
1.0
  9
$DIMDLI
 40
3.75
  9
$DIMRND
 40
0.0
  9
$DIMDLE
 40
0.0
  9
$DIMEXE
 40
1.0
  9
$DIMTP
 40
0.0
  9
$DIMTM
 40
0.0
  9
$DIMTXT
 40
5.0
  9
$DIMCEN
 40
2.5
  9
$DIMTSZ
 40
0.0
  9
$DIMTOL
 70
     0
  9
$DIMLIM
 70
     0
  9
$DIMTIH
 70
     1
  9
$DIMTOH
 70
     1
  9
$DIMSE1
 70
     0
  9
$DIMSE2
 70
     0
  9
$DIMTAD
 70
     1
  9
$DIMZIN
 70
     0
  9
$DIMBLK
  1

  9
$DIMASO
 70
     1
  9
$DIMSHO
 70
     1
  9
$DIMPOST
  1

  9
$DIMAPOST
  1

  9
$DIMALT
 70
     0
  9
$DIMALTD
 70
     3
  9
$DIMALTF
 40
0.0393700787
  9
$DIMLFAC
 40
1.0
  9
$DIMTOFL
 70
     1
  9
$DIMTVP
 40
0.0
  9
$DIMTIX
 70
     0
  9
$DIMSOXD
 70
     0
  9
$DIMSAH
 70
     0
  9
$DIMBLK1
  1

  9
$DIMBLK2
  1

  9
$DIMSTYLE
  2
ISO-25
  9
$DIMCLRD
 70
     0
  9
$DIMCLRE
 70
     0
  9
$DIMCLRT
 70
     0
  9
$DIMTFAC
 40
1.0
  9
$DIMGAP
 40
1.524
  9
$DIMJUST
 70
     0
  9
$DIMSD1
 70
     0
  9
$DIMSD2
 70
     0
  9
$DIMTOLJ
 70
     0
  9
$DIMTZIN
 70
     0
  9
$DIMALTZ
 70
     0
  9
$DIMALTTZ
 70
     0
  9
$DIMUPT
 70
     0
  9
$DIMDEC
 70
     2
  9
$DIMTDEC
 70
     2
  9
$DIMALTU
 70
     2
  9
$DIMALTTD
 70
     3
  9
$DIMTXSTY
  7
Standard
  9
$DIMAUNIT
 70
     0
  9
$DIMADEC
 70
     2
  9
$DIMALTRND
 40
0.0
  9
$DIMAZIN
 70
     0
  9
$DIMDSEP
 70
    44
  9
$DIMATFIT
 70
     3
  9
$DIMFRAC
 70
     0
  9
$DIMLDRBLK
  1

  9
$DIMLUNIT
 70
     2
  9
$DIMLWD
 70
    -2
  9
$DIMLWE
 70
    -2
  9
$DIMTMOVE
 70
     0
  9
$LUNITS
 70
     2
  9
$LUPREC
 70
     2
  9
$SKETCHINC
 40
1.0
  9
$FILLETRAD
 40
10.0
  9
$AUNITS
 70
     0
  9
$AUPREC
 70
     2
  9
$MENU
  1
.
  9
$ELEVATION
 40
0.0
  9
$PELEVATION
 40
0.0
  9
$THICKNESS
 40
0.0
  9
$LIMCHECK
 70
     0
  9
$CHAMFERA
 40
10.0
  9
$CHAMFERB
 40
10.0
  9
$CHAMFERC
 40
20.0
  9
$CHAMFERD
 40
0.0
  9
$SKPOLY
 70
     0
  9
$TDCREATE
 40
2456105.528239294
  9
$TDUCREATE
 40
2456105.403239294
  9
$TDUPDATE
 40
2456105.528239306
  9
$TDUUPDATE
 40
2456105.403239306
  9
$TDINDWG
 40
0.0000000116
  9
$TDUSRTIMER
 40
0.0000000116
  9
$USRTIMER
 70
     1
  9
$ANGBASE
 50
0.0
  9
$ANGDIR
 70
     0
  9
$PDMODE
 70
     0
  9
$PDSIZE
 40
-1.0
  9
$PLINEWID
 40
0.0
  9
$SPLFRAME
 70
     0
  9
$SPLINETYPE
 70
     6
  9
$SPLINESEGS
 70
     8
  9
$HANDSEED
  5
B9
  9
$SURFTAB1
 70
     6
  9
$SURFTAB2
 70
     6
  9
$SURFTYPE
 70
     6
  9
$SURFU
 70
     6
  9
$SURFV
 70
     6
  9
$UCSBASE
  2

  9
$UCSNAME
  2

  9
$UCSORG
 10
0.0
 20
0.0
 30
0.0
  9
$UCSXDIR
 10
1.0
 20
0.0
 30
0.0
  9
$UCSYDIR
 10
0.0
 20
1.0
 30
0.0
  9
$UCSORTHOREF
  2

  9
$UCSORTHOVIEW
 70
     0
  9
$UCSORGTOP
 10
0.0
 20
0.0
 30
0.0
  9
$UCSORGBOTTOM
 10
0.0
 20
0.0
 30
0.0
  9
$UCSORGLEFT
 10
0.0
 20
0.0
 30
0.0
  9
$UCSORGRIGHT
 10
0.0
 20
0.0
 30
0.0
  9
$UCSORGFRONT
 10
0.0
 20
0.0
 30
0.0
  9
$UCSORGBACK
 10
0.0
 20
0.0
 30
0.0
  9
$PUCSBASE
  2

  9
$PUCSNAME
  2

  9
$PUCSORG
 10
0.0
 20
0.0
 30
0.0
  9
$PUCSXDIR
 10
1.0
 20
0.0
 30
0.0
  9
$PUCSYDIR
 10
0.0
 20
1.0
 30
0.0
  9
$PUCSORTHOREF
  2

  9
$PUCSORTHOVIEW
 70
     0
  9
$PUCSORGTOP
 10
0.0
 20
0.0
 30
0.0
  9
$PUCSORGBOTTOM
 10
0.0
 20
0.0
 30
0.0
  9
$PUCSORGLEFT
 10
0.0
 20
0.0
 30
0.0
  9
$PUCSORGRIGHT
 10
0.0
 20
0.0
 30
0.0
  9
$PUCSORGFRONT
 10
0.0
 20
0.0
 30
0.0
  9
$PUCSORGBACK
 10
0.0
 20
0.0
 30
0.0
  9
$USERI1
 70
     0
  9
$USERI2
 70
     0
  9
$USERI3
 70
     0
  9
$USERI4
 70
     0
  9
$USERI5
 70
     0
  9
$USERR1
 40
0.0
  9
$USERR2
 40
0.0
  9
$USERR3
 40
0.0
  9
$USERR4
 40
0.0
  9
$USERR5
 40
0.0
  9
$WORLDVIEW
 70
     1
  9
$SHADEDGE
 70
     3
  9
$SHADEDIF
 70
    70
  9
$TILEMODE
 70
     1
  9
$MAXACTVP
 70
    64
  9
$PINSBASE
 10
0.0
 20
0.0
 30
0.0
  9
$PLIMCHECK
 70
     0
  9
$PEXTMIN
 10
1.0000000000E+20
 20
1.0000000000E+20
 30
1.0000000000E+20
  9
$PEXTMAX
 10
-1.0000000000E+20
 20
-1.0000000000E+20
 30
-1.0000000000E+20
  9
$PLIMMIN
 10
0.0
 20
0.0
  9
$PLIMMAX
 10
420.0
 20
297.0
  9
$UNITMODE
 70
     0
  9
$VISRETAIN
 70
     1
  9
$PLINEGEN
 70
     0
  9
$PSLTSCALE
 70
     1
  9
$TREEDEPTH
 70
  3020
  9
$CMLSTYLE
  2
Standard
  9
$CMLJUST
 70
     0
  9
$CMLSCALE
 40
20.0
  9
$PROXYGRAPHICS
 70
     1
  9
$MEASUREMENT
 70
     1
  9
$CELWEIGHT
370
    -1
  9
$ENDCAPS
280
     0
  9
$JOINSTYLE
280
     0
  9
$LWDISPLAY
290
     1
  9
$INSUNITS
 70
     4
  9
$HYPERLINKBASE
  1

  9
$STYLESHEET
  1

  9
$XEDIT
290
     1
  9
$CEPSNTYPE
380
     0
  9
$PSTYLEMODE
290
     1
  9
$FINGERPRINTGUID
  2
{F651675D-0B86-44EA-873D-F1650FBABEFA}
  9
$VERSIONGUID
  2
{FAEB1C32-E019-11D5-929B-00C0DF256EC4}
  9
$EXTNAMES
290
     1
  9
$PSVPSCALE
 40
0.0
  9
$OLESTARTUP
290
     0
  0
ENDSEC
  0
SECTION
  2
CLASSES
  0
CLASS
  1
ACDBDICTIONARYWDFLT
  2
AcDbDictionaryWithDefault
  3
ObjectDBX Classes
 90
        0
280
     0
281
     0
  0
CLASS
  1
VISUALSTYLE
  2
AcDbVisualStyle
  3
ObjectDBX Classes
 90
     4095
280
     0
281
     0
  0
CLASS
  1
MATERIAL
  2
AcDbMaterial
  3
ObjectDBX Classes
 90
     1153
280
     0
281
     0
  0
CLASS
  1
ACDBPLACEHOLDER
  2
AcDbPlaceHolder
  3
ObjectDBX Classes
 90
        0
280
     0
281
     0
  0
CLASS
  1
LAYOUT
  2
AcDbLayout
  3
ObjectDBX Classes
 90
        0
280
     0
281
     0
  0
ENDSEC
  0
SECTION
  2
TABLES
  0
TABLE
  2
VPORT
  5
8
330
0
100
AcDbSymbolTable
 70
     1
  0
VPORT
  5
29
330
8
100
AcDbSymbolTableRecord
100
AcDbViewportTableRecord
  2
*Active
 70
     0
 10
0.0
 20
0.0
 11
1.0
 21
1.0
 12
700.0
 22
400.0
 13
0.0
 23
0.0
 14
10.0
 24
10.0
 15
10.0
 25
10.0
 16
0.0
 26
0.0
 36
1.0
 17
0.0
 27
0.0
 37
0.0
 40
800.0
 41
1.75
 42
50.0
 43
0.0
 44
0.0
 50
0.0
 51
0.0
 71
     0
 72
  2000
 73
     1
 74
     3
 75
     0
 76
     0
 77
     0
 78
     0
281
     0
 65
     1
110
0.0
120
0.0
130
0.0
111
1.0
121
0.0
131
0.0
112
0.0
122
1.0
132
0.0
 79
     0
146
0.0
  0
ENDTAB
  0
TABLE
  2
LTYPE
  5
5
330
0
100
AcDbSymbolTable
 70
     6
  0
LTYPE
  5
14
330
5
100
AcDbSymbolTableRecord
100
AcDbLinetypeTableRecord
  2
ByBlock
 70
     0
  3

 72
    65
 73
     0
 40
0.0
  0
LTYPE
  5
15
330
5
100
AcDbSymbolTableRecord
100
AcDbLinetypeTableRecord
  2
ByLayer
 70
     0
  3

 72
    65
 73
     0
 40
0.0
  0
LTYPE
  5
16
330
5
100
AcDbSymbolTableRecord
100
AcDbLinetypeTableRecord
  2
Continuous
 70
     0
  3
Solid line
 72
    65
 73
     0
 40
0.0
  0
LTYPE
  5
3F
330
5
100
AcDbSymbolTableRecord
100
AcDbLinetypeTableRecord
  2
HIDDEN
 70
     0
  3
Hidden __ __ __ __ __ __ __ __ __ __ __ __ __ __
 72
    65
 73
     2
 40
1.905
 49
1.27
 74
     0
 49
-0.635
 74
     0
  0
LTYPE
  5
40
330
5
100
AcDbSymbolTableRecord
100
AcDbLinetypeTableRecord
  2
PHANTOM
 70
     0
  3
Phantom ______  __  __  ______  __  __  ______
 72
    65
 73
     6
 40
12.7
 49
6.35
 74
     0
 49
-1.27
 74
     0
 49
1.27
 74
     0
 49
-1.27
 74
     0
 49
1.27
 74
     0
 49
-1.27
 74
     0
  0
LTYPE
  5
41
330
5
100
AcDbSymbolTableRecord
100
AcDbLinetypeTableRecord
  2
CENTER
 70
     0
  3
Center ____ _ ____ _ ____ _ ____ _ ____ _ ____
 72
    65
 73
     4
 40
10.16
 49
6.35
 74
     0
 49
-1.27
 74
     0
 49
1.27
 74
     0
 49
-1.27
 74
     0
  0
LTYPE
  5
42
330
5
100
AcDbSymbolTableRecord
100
AcDbLinetypeTableRecord
  2
CENTERX2
 70
     0
  3
Center (2x) ________  __  ________  __  _____
 72
    65
 73
     4
 40
20.32
 49
12.7
 74
     0
 49
-2.54
 74
     0
 49
2.54
 74
     0
 49
-2.54
 74
     0
  0
LTYPE
  5
43
330
5
100
AcDbSymbolTableRecord
100
AcDbLinetypeTableRecord
  2
DOT2
 70
     0
  3
Dot (.5x) ........................................
 72
    65
 73
     2
 40
0.635
 49
0.0
 74
     0
 49
-0.635
 74
     0
  0
ENDTAB
  0
TABLE
  2
LAYER
  5
2
330
0
100
AcDbSymbolTable
 70
     2
  0
LAYER
  5
10
330
2
100
AcDbSymbolTableRecord
100
AcDbLayerTableRecord
  2
0
 70
     0
 62
     7
  6
Continuous
370
    -3
390
F
  0
LAYER
  5
44
330
2
100
AcDbSymbolTableRecord
100
AcDbLayerTableRecord
  2
TABLE_BL1
 70
     0
 62
   179
  6
Continuous
370
    -3
390
F
  0
ENDTAB
  0
TABLE
  2
STYLE
  5
3
330
0
100
AcDbSymbolTable
 70
     1
  0
STYLE
  5
11
330
3
100
AcDbSymbolTableRecord
100
AcDbTextStyleTableRecord
  2
Standard
 70
     0
 40
0.0
 41
1.0
 50
0.0
 71
     0
 42
2.5
  3
txt
  4

  0
ENDTAB
  0
TABLE
  2
VIEW
  5
6
330
0
100
AcDbSymbolTable
 70
     0
  0
ENDTAB
  0
TABLE
  2
UCS
  5
7
330
0
100
AcDbSymbolTable
 70
     0
  0
ENDTAB
  0
TABLE
  2
APPID
  5
9
330
0
100
AcDbSymbolTable
 70
     1
  0
APPID
  5
12
330
9
100
AcDbSymbolTableRecord
100
AcDbRegAppTableRecord
  2
ACAD
 70
     0
  0
ENDTAB
  0
TABLE
  2
DIMSTYLE
  5
A
330
0
100
AcDbSymbolTable
 70
     1
100
AcDbDimStyleTable
  0
DIMSTYLE
105
27
330
A
100
AcDbSymbolTableRecord
100
AcDbDimStyleTableRecord
  2
ISO-25
 70
     0
 41
2.5
 42
0.625
 43
3.75
 44
1.25
 73
     0
 74
     0
 77
     1
 78
     8
140
2.5
141
2.5
143
0.0393700787
147
0.625
171
     3
172
     1
178
     0
271
     2
272
     2
274
     3
278
    44
283
     0
284
     8
340
11
  0
ENDTAB
  0
TABLE
  2
BLOCK_RECORD
  5
1
330
0
100
AcDbSymbolTable
 70
     1
  0
BLOCK_RECORD
  5
1F
330
1
100
AcDbSymbolTableRecord
100
AcDbBlockTableRecord
  2
*Model_Space
340
22
  0
BLOCK_RECORD
  5
1B
330
1
100
AcDbSymbolTableRecord
100
AcDbBlockTableRecord
  2
*Paper_Space
340
1E
  0
BLOCK_RECORD
  5
23
330
1
100
AcDbSymbolTableRecord
100
AcDbBlockTableRecord
  2
*Paper_Space0
340
26
  0
ENDTAB
  0
ENDSEC
  0
SECTION
  2
BLOCKS
  0
BLOCK
  5
20
330
1F
100
AcDbEntity
  8
0
100
AcDbBlockBegin
  2
*Model_Space
 70
     0
 10
0.0
 20
0.0
 30
0.0
  3
*Model_Space
  1

  0
ENDBLK
  5
21
330
1F
100
AcDbEntity
  8
0
100
AcDbBlockEnd
  0
BLOCK
  5
1C
330
1B
100
AcDbEntity
 67
     1
  8
0
100
AcDbBlockBegin
  2
*Paper_Space
 70
     0
 10
0.0
 20
0.0
 30
0.0
  3
*Paper_Space
  1

  0
ENDBLK
  5
1D
330
1B
100
AcDbEntity
 67
     1
  8
0
100
AcDbBlockEnd
  0
BLOCK
  5
24
330
23
100
AcDbEntity
  8
0
100
AcDbBlockBegin
  2
*Paper_Space0
 70
     0
 10
0.0
 20
0.0
 30
0.0
  3
*Paper_Space0
  1

  0
ENDBLK
  5
25
330
23
100
AcDbEntity
  8
0
100
AcDbBlockEnd
  0
ENDSEC
  0
SECTION
  2
ENTITIES
  0
LINE
  5
45
330
1F
100
AcDbEntity
  8
0
  6
Continuous
 62
     7
370
    15
100
AcDbLine
 10
436.0475717976
 20
553.4927816305
 30
0.0
 11
436.0475717976
 21
263.492775074
 31
0.0
  0
LINE
  5
46
330
1F
100
AcDbEntity
  8
0
  6
Continuous
 62
     7
370
    15
100
AcDbLine
 10
436.0475717976
 20
263.492775074
 30
0.0
 11
434.5475911095
 21
263.492775074
 31
0.0
  0
LINE
  5
47
330
1F
100
AcDbEntity
  8
0
  6
Continuous
 62
     7
370
    15
100
AcDbLine
 10
434.5475911095
 20
263.492775074
 30
0.0
 11
434.5475911095
 21
553.4927816305
 31
0.0
  0
LINE
  5
48
330
1F
100
AcDbEntity
  8
0
  6
Continuous
 62
     7
370
    15
100
AcDbLine
 10
436.0475717976
 20
553.4927816305
 30
0.0
 11
434.5475911095
 21
553.4927816305
 31
0.0
  0
LINE
  5
49
330
1F
100
AcDbEntity
  8
0
  6
Continuous
 62
     7
370
    15
100
AcDbLine
 10
461.0475777581
 20
579.9927831802
 30
0.0
 11
911.0475807383
 21
579.9927831802
 31
0.0
  0
LINE
  5
4A
330
1F
100
AcDbEntity
  8
0
  6
Continuous
 62
     7
370
    15
100
AcDbLine
 10
911.0475807383
 20
579.9927831802
 30
0.0
 11
911.0475807383
 21
578.4927726898
 31
0.0
  0
LINE
  5
4B
330
1F
100
AcDbEntity
  8
0
  6
Continuous
 62
     7
370
    15
100
AcDbLine
 10
911.0475807383
 20
578.4927726898
 30
0.0
 11
461.0475777581
 21
578.4927726898
 31
0.0
  0
LINE
  5
4C
330
1F
100
AcDbEntity
  8
0
  6
Continuous
 62
     7
370
    15
100
AcDbLine
 10
461.0475777581
 20
579.9927831802
 30
0.0
 11
461.0475777581
 21
578.4927726898
 31
0.0
  0
ARC
  5
4D
330
1F
100
AcDbEntity
  8
0
  6
Continuous
 62
     7
370
    15
100
AcDbCircle
 10
461.0475785896
 20
263.4927782498
 30
0.0
 40
25.0
100
AcDbArc
 50
180.0
 51
270.0
  0
LINE
  5
4E
330
1F
100
AcDbEntity
  8
0
  6
Continuous
 62
     7
370
    15
100
AcDbLine
 10
461.0475777581
 20
238.4927840147
 30
0.0
 11
461.0475777581
 21
236.9927735242
 31
0.0
  0
ARC
  5
4F
330
1F
100
AcDbEntity
  8
0
  6
Continuous
 62
     7
370
    15
100
AcDbCircle
 10
461.0475785896
 20
263.4927782498
 30
0.0
 40
26.49999999999994
100
AcDbArc
 50
180.0
 51
270.0
  0
ARC
  5
50
330
1F
100
AcDbEntity
  8
0
  6
Continuous
 62
     7
370
    15
100
AcDbCircle
 10
911.0475785896
 20
553.4927782498
 30
0.0
 40
26.49999999999989
100
AcDbArc
 50
0.0
 51
90.0
  0
LINE
  5
51
330
1F
100
AcDbEntity
  8
0
  6
Continuous
 62
     7
370
    15
100
AcDbLine
 10
937.5475822881
 20
553.4927816305
 30
0.0
 11
936.0475717976
 21
553.4927816305
 31
0.0
  0
ARC
  5
52
330
1F
100
AcDbEntity
  8
0
  6
Continuous
 62
     7
370
    15
100
AcDbCircle
 10
911.0475785896
 20
553.4927782498
 30
0.0
 40
24.99999999999989
100
AcDbArc
 50
0.0
 51
90.0
  0
LINE
  5
53
330
1F
100
AcDbEntity
  8
0
  6
Continuous
 62
     7
370
    15
100
AcDbLine
 10
461.0475777581
 20
238.4927840147
 30
0.0
 11
911.0475807383
 21
238.4927840147
 31
0.0
  0
LINE
  5
54
330
1F
100
AcDbEntity
  8
0
  6
Continuous
 62
     7
370
    15
100
AcDbLine
 10
911.0475807383
 20
238.4927840147
 30
0.0
 11
911.0475807383
 21
236.9927735242
 31
0.0
  0
LINE
  5
55
330
1F
100
AcDbEntity
  8
0
  6
Continuous
 62
     7
370
    15
100
AcDbLine
 10
911.0475807383
 20
236.9927735242
 30
0.0
 11
461.0475777581
 21
236.9927735242
 31
0.0
  0
LINE
  5
56
330
1F
100
AcDbEntity
  8
0
  6
Continuous
 62
     7
370
    15
100
AcDbLine
 10
937.5475822881
 20
553.4927816305
 30
0.0
 11
937.5475822881
 21
263.492775074
 31
0.0
  0
LINE
  5
57
330
1F
100
AcDbEntity
  8
0
  6
Continuous
 62
     7
370
    15
100
AcDbLine
 10
937.5475822881
 20
263.492775074
 30
0.0
 11
936.0475717976
 21
263.492775074
 31
0.0
  0
LINE
  5
58
330
1F
100
AcDbEntity
  8
0
  6
Continuous
 62
     7
370
    15
100
AcDbLine
 10
936.0475717976
 20
263.492775074
 30
0.0
 11
936.0475717976
 21
553.4927816305
 31
0.0
  0
ARC
  5
59
330
1F
100
AcDbEntity
  8
0
  6
Continuous
 62
     7
370
    15
100
AcDbCircle
 10
911.0475785896
 20
263.4927782498
 30
0.0
 40
24.99999999999991
100
AcDbArc
 50
270.0
 51
0.0
  0
ARC
  5
5A
330
1F
100
AcDbEntity
  8
0
  6
Continuous
 62
     7
370
    15
100
AcDbCircle
 10
911.0475785896
 20
263.4927782498
 30
0.0
 40
26.49999999999991
100
AcDbArc
 50
270.0
 51
0.0
  0
LINE
  5
5B
330
1F
100
AcDbEntity
  8
0
  6
Continuous
 62
     7
370
    15
100
AcDbLine
 10
461.0475777581
 20
593.4927732858
 30
0.0
 11
911.0475807383
 21
593.4927732858
 31
0.0
  0
LINE
  5
5C
330
1F
100
AcDbEntity
  8
0
  6
Continuous
 62
     7
370
    15
100
AcDbLine
 10
911.0475807383
 20
593.4927732858
 30
0.0
 11
911.0475807383
 21
592.4507499847
 31
0.0
  0
LINE
  5
5D
330
1F
100
AcDbEntity
  8
0
  6
Continuous
 62
     7
370
    15
100
AcDbLine
 10
911.0475807383
 20
592.4507499847
 30
0.0
 11
461.0475777581
 21
592.4507499847
 31
0.0
  0
LINE
  5
5E
330
1F
100
AcDbEntity
  8
0
  6
Continuous
 62
     7
370
    15
100
AcDbLine
 10
461.0475777581
 20
593.4927732858
 30
0.0
 11
461.0475777581
 21
592.4507499847
 31
0.0
  0
ARC
  5
5F
330
1F
100
AcDbEntity
  8
0
  6
Continuous
 62
     7
370
    15
100
AcDbCircle
 10
911.0475785896
 20
263.4927782498
 30
0.0
 40
38.95796437412253
100
AcDbArc
 50
270.0
 51
0.0
  0
LINE
  5
60
330
1F
100
AcDbEntity
  8
0
  6
Continuous
 62
     7
370
    15
100
AcDbLine
 10
950.0055490926
 20
263.492775074
 30
0.0
 11
951.0475872948
 21
263.492775074
 31
0.0
  0
ARC
  5
61
330
1F
100
AcDbEntity
  8
0
  6
Continuous
 62
     7
370
    15
100
AcDbCircle
 10
911.0475785896
 20
263.4927782498
 30
0.0
 40
40.0
100
AcDbArc
 50
270.0
 51
0.0
  0
LINE
  5
62
330
1F
100
AcDbEntity
  8
0
  6
Continuous
 62
     7
370
    15
100
AcDbLine
 10
911.0475807383
 20
224.5348067197
 30
0.0
 11
911.0475807383
 21
223.4927834186
 31
0.0
  0
ARC
  5
63
330
1F
100
AcDbEntity
  8
0
  6
Continuous
 62
     7
370
    15
100
AcDbCircle
 10
911.0475785896
 20
553.4927782498
 30
0.0
 40
40.0
100
AcDbArc
 50
0.0
 51
90.0
  0
LINE
  5
64
330
1F
100
AcDbEntity
  8
0
  6
Continuous
 62
     7
370
    15
100
AcDbLine
 10
951.0475872948
 20
553.4927816305
 30
0.0
 11
950.0055490926
 21
553.4927816305
 31
0.0
  0
ARC
  5
65
330
1F
100
AcDbEntity
  8
0
  6
Continuous
 62
     7
370
    15
100
AcDbCircle
 10
911.0475785896
 20
553.4927782498
 30
0.0
 40
38.95796437412241
100
AcDbArc
 50
0.0
 51
90.0
  0
LINE
  5
66
330
1F
100
AcDbEntity
  8
0
  6
Continuous
 62
     7
370
    15
100
AcDbLine
 10
950.0055490926
 20
263.492775074
 30
0.0
 11
950.0055490926
 21
553.4927816305
 31
0.0
  0
LINE
  5
67
330
1F
100
AcDbEntity
  8
0
  6
Continuous
 62
     7
370
    15
100
AcDbLine
 10
951.0475872948
 20
553.4927816305
 30
0.0
 11
951.0475872948
 21
263.492775074
 31
0.0
  0
ARC
  5
68
330
1F
100
AcDbEntity
  8
0
  6
Continuous
 62
     7
370
    15
100
AcDbCircle
 10
461.0475785896
 20
553.4927782498
 30
0.0
 40
26.49999999999994
100
AcDbArc
 50
90.0
 51
180.0
  0
LINE
  5
69
330
1F
100
AcDbEntity
  8
0
  6
Continuous
 62
     7
370
    15
100
AcDbLine
 10
461.0475777581
 20
224.5348067197
 30
0.0
 11
911.0475807383
 21
224.5348067197
 31
0.0
  0
ARC
  5
6A
330
1F
100
AcDbEntity
  8
0
  6
Continuous
 62
     7
370
    15
100
AcDbCircle
 10
461.0475785896
 20
263.4927782498
 30
0.0
 40
38.95796437412247
100
AcDbArc
 50
180.0
 51
270.0
  0
LINE
  5
6B
330
1F
100
AcDbEntity
  8
0
  6
Continuous
 62
     7
370
    15
100
AcDbLine
 10
422.089624305
 20
553.4927816305
 30
0.0
 11
422.089624305
 21
263.492775074
 31
0.0
  0
ARC
  5
6C
330
1F
100
AcDbEntity
  8
0
  6
Continuous
 62
     7
370
    15
100
AcDbCircle
 10
461.0475785896
 20
553.4927782498
 30
0.0
 40
38.95796437412247
100
AcDbArc
 50
90.0
 51
180.0
  0
ARC
  5
6D
330
1F
100
AcDbEntity
  8
0
  6
Continuous
 62
     7
370
    15
100
AcDbCircle
 10
461.0475785896
 20
553.4927782498
 30
0.0
 40
24.99999999999989
100
AcDbArc
 50
90.0
 51
180.0
  0
LINE
  5
6E
330
1F
100
AcDbEntity
  8
0
  6
Continuous
 62
     7
370
    15
100
AcDbLine
 10
422.089624305
 20
263.492775074
 30
0.0
 11
421.0475861028
 21
263.492775074
 31
0.0
  0
LINE
  5
6F
330
1F
100
AcDbEntity
  8
0
  6
Continuous
 62
     7
370
    15
100
AcDbLine
 10
421.0475861028
 20
263.492775074
 30
0.0
 11
421.0475861028
 21
553.4927816305
 31
0.0
  0
LINE
  5
70
330
1F
100
AcDbEntity
  8
0
  6
Continuous
 62
     7
370
    15
100
AcDbLine
 10
421.0475861028
 20
553.4927816305
 30
0.0
 11
422.089624305
 21
553.4927816305
 31
0.0
  0
LINE
  5
71
330
1F
100
AcDbEntity
  8
0
  6
Continuous
 62
     7
370
    15
100
AcDbLine
 10
461.0475777581
 20
224.5348067197
 30
0.0
 11
461.0475777581
 21
223.4927834186
 31
0.0
  0
ARC
  5
72
330
1F
100
AcDbEntity
  8
0
  6
Continuous
 62
     7
370
    15
100
AcDbCircle
 10
461.0475785896
 20
263.4927782498
 30
0.0
 40
40.0
100
AcDbArc
 50
180.0
 51
270.0
  0
ARC
  5
73
330
1F
100
AcDbEntity
  8
0
  6
Continuous
 62
     7
370
    15
100
AcDbCircle
 10
461.0475785896
 20
553.4927782498
 30
0.0
 40
39.99999999999989
100
AcDbArc
 50
90.0
 51
180.0
  0
LINE
  5
74
330
1F
100
AcDbEntity
  8
0
  6
Continuous
 62
     7
370
    15
100
AcDbLine
 10
911.0475807383
 20
223.4927834186
 30
0.0
 11
461.0475777581
 21
223.4927834186
 31
0.0
  0
LINE
  5
75
330
1F
100
AcDbEntity
  8
0
  6
Continuous
 62
     7
370
    15
100
AcDbLine
 10
936.0475717976
 20
553.4927816305
 30
0.0
 11
926.9619016841
 21
553.4927816305
 31
0.0
  0
ARC
  5
76
330
1F
100
AcDbEntity
  8
0
  6
Continuous
 62
     7
370
    15
100
AcDbCircle
 10
910.6800260827
 20
553.1252269748
 30
0.0
 40
16.28602374809497
100
AcDbArc
 50
1.2932020114
 51
88.7067979886
  0
LINE
  5
77
330
1F
100
AcDbEntity
  8
0
  6
Continuous
 62
     7
370
    15
100
AcDbLine
 10
911.0475807383
 20
578.4927726898
 30
0.0
 11
911.0475807383
 21
569.4071025762
 31
0.0
  0
LINE
  5
78
330
1F
100
AcDbEntity
  8
0
  6
Continuous
 62
     7
370
    15
100
AcDbLine
 10
661.797578533
 20
578.3871532592
 30
0.0
 11
661.797578533
 21
577.7267933998
 31
0.0
  0
ARC
  5
79
330
1F
100
AcDbEntity
  8
0
  6
Continuous
 62
     7
370
    15
100
AcDbCircle
 10
662.5877423097
 20
584.2368070113
 30
0.0
 40
6.557792007701433
100
AcDbArc
 50
263.0794816004
 51
271.8336647351
  0
LINE
  5
7A
330
1F
100
AcDbEntity
  8
0
  6
Continuous
 62
     7
370
    15
100
AcDbLine
 10
662.7975786969
 20
577.6823730383
 30
0.0
 11
709.2975779369
 21
577.6823730383
 31
0.0
  0
ARC
  5
7B
330
1F
100
AcDbEntity
  8
0
  6
Continuous
 62
     7
370
    15
100
AcDbCircle
 10
709.5840742045
 20
582.5110242764
 30
0.0
 40
4.837143050530186
100
AcDbArc
 50
266.6044751379
 51
278.4823785266
  0
LINE
  5
7C
330
1F
100
AcDbEntity
  8
0
  6
Continuous
 62
     7
370
    15
100
AcDbLine
 10
710.2975781008
 20
577.7267933998
 30
0.0
 11
710.2975781008
 21
578.3871532592
 31
0.0
  0
ARC
  5
7D
330
1F
100
AcDbEntity
  8
0
  6
Continuous
 62
     7
370
    15
100
AcDbCircle
 10
709.512581587
 20
560.1451619245
 30
0.0
 40
18.25887366137157
100
AcDbArc
 50
87.5359457989
 51
90.6746903812
  0
LINE
  5
7E
330
1F
100
AcDbEntity
  8
0
  6
Continuous
 62
     7
370
    15
100
AcDbLine
 10
709.2975779369
 20
578.4027696762
 30
0.0
 11
662.7975786969
 21
578.4027696762
 31
0.0
  0
ARC
  5
7F
330
1F
100
AcDbEntity
  8
0
  6
Continuous
 62
     7
370
    15
100
AcDbCircle
 10
662.5061622271
 20
565.0382710479
 30
0.0
 40
13.36767545770924
100
AcDbArc
 50
88.7508481448
 51
93.0385156751
  0
LWPOLYLINE
  5
80
330
1F
100
AcDbEntity
  8
0
  6
Continuous
 62
     7
370
    15
100
AcDbPolyline
 90
        5
 70
   128
 43
0.0
 10
708.9746343836
 20
567.8728492174
 10
759.5173819855
 20
568.0651636037
 10
810.0307463601
 20
568.4056998405
 10
860.562118788
 20
568.857607356
 10
911.0475807383
 20
569.4071025762
  0
LINE
  5
81
330
1F
100
AcDbEntity
  8
0
  6
Continuous
 62
     7
370
    15
100
AcDbLine
 10
663.1205222502
 20
567.8728492174
 30
0.0
 11
708.9746343836
 21
567.8728492174
 31
0.0
  0
LWPOLYLINE
  5
82
330
1F
100
AcDbEntity
  8
0
  6
Continuous
 62
     7
370
    15
100
AcDbPolyline
 90
        5
 70
   128
 43
0.0
 10
461.0475777581
 20
569.4071025762
 10
511.4810942605
 20
568.8581288967
 10
561.9604169324
 20
568.4065194044
 10
612.5257416561
 20
568.0654318246
 10
663.1205222502
 20
567.8728492174
  0
LINE
  5
83
330
1F
100
AcDbEntity
  8
0
  6
Continuous
 62
     7
370
    15
100
AcDbLine
 10
461.0475777581
 20
578.4927726898
 30
0.0
 11
461.0475777581
 21
569.4071025762
 31
0.0
  0
LINE
  5
84
330
1F
100
AcDbEntity
  8
0
  6
Continuous
 62
     7
370
    15
100
AcDbLine
 10
461.0475777581
 20
238.4927840147
 30
0.0
 11
461.0475777581
 21
246.8175561342
 31
0.0
  0
LWPOLYLINE
  5
85
330
1F
100
AcDbEntity
  8
0
  6
Continuous
 62
     7
370
    15
100
AcDbPolyline
 90
       11
 70
   128
 43
0.0
 10
911.0475807383
 20
246.8175561342
 10
862.2803120807
 20
247.3007560882
 10
813.4662090733
 20
247.686502448
 10
764.6205081537
 20
247.9608179245
 10
715.6309998527
 20
248.108771554
 10
666.6282481447
 20
248.1230170641
 10
617.635625501
 20
248.0025858793
 10
578.4666120007
 20
247.8121341381
 10
539.3171637252
 20
247.5464166317
 10
500.1676409438
 20
247.2124667081
 10
461.0475777581
 20
246.8175561342
  0
LINE
  5
86
330
1F
100
AcDbEntity
  8
0
  6
Continuous
 62
     7
370
    15
100
AcDbLine
 10
911.0475807383
 20
238.4927840147
 30
0.0
 11
911.0475807383
 21
246.8175561342
 31
0.0
  0
LINE
  5
87
330
1F
100
AcDbEntity
  8
0
  6
Continuous
 62
     7
370
    15
100
AcDbLine
 10
436.0475717976
 20
263.492775074
 30
0.0
 11
444.3723588183
 21
263.492775074
 31
0.0
  0
LINE
  5
88
330
1F
100
AcDbEntity
  8
0
  6
Continuous
 62
     7
370
    15
100
AcDbLine
 10
436.0475717976
 20
553.4927816305
 30
0.0
 11
445.1332568124
 21
553.4927816305
 31
0.0
  0
LINE
  5
89
330
1F
100
AcDbEntity
  8
0
  6
Continuous
 62
     7
370
    15
100
AcDbLine
 10
445.2725230649
 20
553.4696550283
 30
0.0
 11
445.1332568124
 21
553.4927816305
 31
0.0
  0
LWPOLYLINE
  5
8A
330
1F
100
AcDbEntity
  8
0
  6
Continuous
 62
     7
370
    15
100
AcDbPolyline
 90
        7
 70
   128
 43
0.0
 10
444.3896739676
 20
263.4931923065
 10
444.8201536134
 20
311.7029489193
 10
445.1509146884
 20
359.9546746525
 10
445.3696339324
 20
408.2324867311
 10
445.4642116025
 20
456.6448600206
 10
445.4312055304
 20
505.064424983
 10
445.2725230649
 20
553.4696550283
  0
LINE
  5
8B
330
1F
100
AcDbEntity
  8
0
  6
Continuous
 62
     7
370
    15
100
AcDbLine
 10
444.3723588183
 20
263.492775074
 30
0.0
 11
444.3896739676
 21
263.492775074
 31
0.0
  0
ARC
  5
8C
330
1F
100
AcDbEntity
  8
0
  6
Continuous
 62
     7
370
    15
100
AcDbCircle
 10
461.4151234517
 20
553.1252359369
 30
0.0
 40
16.28601458608309
100
AcDbArc
 50
91.2931712017
 51
178.7068287983
  0
LINE
  5
8D
330
1F
100
AcDbEntity
  8
0
  6
Continuous
 62
     7
370
    15
100
AcDbLine
 10
936.0475717976
 20
263.492775074
 30
0.0
 11
927.7227996781
 21
263.492775074
 31
0.0
  0
LINE
  5
8E
330
1F
100
AcDbEntity
  8
0
  6
Continuous
 62
     7
370
    15
100
AcDbLine
 10
927.7227996781
 20
263.492775074
 30
0.0
 11
927.7054845288
 21
263.492775074
 31
0.0
  0
LWPOLYLINE
  5
8F
330
1F
100
AcDbEntity
  8
0
  6
Continuous
 62
     7
370
    15
100
AcDbPolyline
 90
        7
 70
   128
 43
0.0
 10
926.8226354316
 20
553.4696550283
 10
926.649811764
 20
497.6475210104
 10
926.645460625
 20
441.8140136811
 10
926.8121301129
 20
385.9041793446
 10
927.1367668107
 20
330.0250739965
 10
927.3982970908
 20
296.7509077105
 10
927.7054845288
 20
263.4931923065
  0
LINE
  5
90
330
1F
100
AcDbEntity
  8
0
  6
Continuous
 62
     7
370
    15
100
AcDbLine
 10
926.9619016841
 20
553.4927816305
 30
0.0
 11
926.8226354316
 21
553.4696550283
 31
0.0
  0
ARC
  5
91
330
1F
100
AcDbEntity
  8
0
  6
Continuous
 62
     7
370
    15
100
AcDbCircle
 10
910.6950158854
 20
263.8453399269
 30
0.0
 40
17.03143337680676
100
AcDbArc
 50
271.1861550725
 51
358.8138449275
  0
ARC
  5
92
330
1F
100
AcDbEntity
  8
0
  6
Continuous
 62
     7
370
    15
100
AcDbCircle
 10
461.4001426111
 20
263.8453399269
 30
0.0
 40
17.03143337680679
100
AcDbArc
 50
181.1861550725
 51
268.8138449275
  0
LWPOLYLINE
  5
93
330
1F
100
AcDbEntity
  8
0
  6
Continuous
 62
     7
370
    15
100
AcDbPolyline
 90
       15
 70
   128
 43
0.0
 10
461.0398142531
 20
246.8508453283
 10
461.1548363164
 20
248.2759625825
 10
461.9181482985
 20
250.7580639038
 10
463.347259064
 20
254.2797447357
 10
465.4597668841
 20
258.7818027649
 10
466.5281205371
 20
260.8943552885
 10
467.7566318705
 20
263.2461161527
 10
469.1480575993
 20
265.8401549968
 10
470.7052587464
 20
268.6747358355
 10
471.3690607741
 20
269.8601530108
 10
472.1777616933
 20
271.2910072121
 10
473.1334178641
 20
272.9741306219
 10
474.2384730771
 20
274.9147833499
 10
475.4957138493
 20
277.1153868351
 10
476.9082545235
 20
279.574078432
  0
LWPOLYLINE
  5
94
330
1F
100
AcDbEntity
  8
0
  6
Continuous
 62
     7
370
    15
100
AcDbPolyline
 90
       11
 70
   128
 43
0.0
 10
476.9082545235
 20
279.574078432
 10
511.8512391045
 20
279.8509792599
 10
546.814325352
 20
280.0768957648
 10
581.8101643517
 20
280.2494214091
 10
616.8195708587
 20
280.3689361724
 10
663.1861786291
 20
280.451265088
 10
709.5614588752
 20
280.4507062945
 10
755.9279083207
 20
280.367185286
 10
802.375252445
 20
280.1947714004
 10
848.7990229323
 20
279.9296424899
 10
895.1869039729
 20
279.574078432
  0
LWPOLYLINE
  5
95
330
1F
100
AcDbEntity
  8
0
  6
Continuous
 62
     7
370
    15
100
AcDbPolyline
 90
       19
 70
   128
 43
0.0
 10
911.0553442433
 20
246.8508453283
 10
911.0768317178
 20
247.4875421438
 10
910.9186707929
 20
248.4159291896
 10
910.5947046473
 20
249.5801271114
 10
910.0986449912
 20
251.0162861261
 10
909.2012225583
 20
253.2590002927
 10
908.0428211882
 20
255.8553339157
 10
906.6353916123
 20
258.7818027649
 10
905.4939328626
 20
261.0396863136
 10
904.1949241355
 20
263.5228158149
 10
902.8797476485
 20
265.9668297681
 10
901.38989975
 20
268.6747358355
 10
900.6260811284
 20
270.0426326308
 10
899.7843741372
 20
271.5380088601
 10
898.863720794
 20
273.1624142441
 10
897.9732721045
 20
274.7238026175
 10
897.0500259593
 20
276.3357580814
 10
896.2997822955
 20
277.641613892
 10
895.1869039729
 20
279.574078432
  0
LINE
  5
96
330
1F
100
AcDbEntity
  8
0
  6
Continuous
 62
     7
370
    15
100
AcDbLine
 10
911.0475807383
 20
246.8175561342
 30
0.0
 11
911.0553442433
 21
246.8508453283
 31
0.0
  0
LINE
  5
97
330
1F
100
AcDbEntity
  8
0
  6
Continuous
 62
     7
370
    15
100
AcDbLine
 10
461.0475777581
 20
246.8175561342
 30
0.0
 11
461.0398142531
 21
246.8508453283
 31
0.0
  0
LWPOLYLINE
  5
98
330
1F
100
AcDbEntity
  8
0
  6
Continuous
 62
     7
370
    15
100
AcDbPolyline
 90
       15
 70
   128
 43
0.0
 10
445.2725230649
 20
553.4696550283
 10
446.692916651
 20
553.0449123296
 10
449.1555570557
 20
551.9527466211
 10
452.6439188912
 20
550.1838893804
 10
457.1007667973
 20
547.7295191202
 10
459.1784655049
 20
546.530065051
 10
461.4911555245
 20
545.1683671388
 10
464.0422641232
 20
543.6433077964
 10
466.8306141093
 20
541.9537545356
 10
467.9969130948
 20
541.2384540948
 10
469.4032846883
 20
540.3714747343
 10
471.0566281274
 20
539.35199689
 10
472.9623972371
 20
538.1791115913
 10
475.1233487323
 20
536.8517757568
 10
477.5382458165
 20
535.3689314041
  0
LWPOLYLINE
  5
99
330
1F
100
AcDbEntity
  8
0
  6
Continuous
 62
     7
370
    15
100
AcDbPolyline
 90
        6
 70
   128
 43
0.0
 10
477.5382458165
 20
535.3689314041
 10
477.6204853251
 20
483.6547271523
 10
477.5989531472
 20
431.9359966728
 10
477.4725167945
 20
380.1672253001
 10
477.2354393199
 20
328.4233407292
 10
476.9082545235
 20
279.574078432
  0
LWPOLYLINE
  5
9A
330
1F
100
AcDbEntity
  8
0
  6
Continuous
 62
     7
370
    15
100
AcDbPolyline
 90
       18
 70
   128
 43
0.0
 10
444.3896739676
 20
263.4931923065
 10
445.0062691167
 20
263.4919853124
 10
445.9148823216
 20
263.6701882991
 10
447.0604239896
 20
264.0130938205
 10
448.4783141806
 20
264.5277948293
 10
450.6982891753
 20
265.4484630737
 10
453.2736568644
 20
266.628426424
 10
456.1809926226
 20
268.0556596431
 10
458.4265082076
 20
269.2100078973
 10
460.8979551986
 20
270.5212802801
 10
463.3321343854
 20
271.846850327
 10
466.0308240846
 20
273.3465255413
 10
467.6344274476
 20
274.2503033194
 10
469.4119720652
 20
275.2602369699
 10
471.3656931117
 20
276.3778464112
 10
473.1065361693
 20
277.3789511237
 10
474.7521161034
 20
278.327953926
 10
476.9082545235
 20
279.574078432
  0
LWPOLYLINE
  5
9B
330
1F
100
AcDbEntity
  8
0
  6
Continuous
 62
     7
370
    15
100
AcDbPolyline
 90
        6
 70
   128
 43
0.0
 10
895.1869039729
 20
279.574078432
 10
894.8595105603
 20
328.4606085333
 10
894.6227460101
 20
380.1348134119
 10
894.4963394597
 20
431.8338454876
 10
894.474643369
 20
483.6036459717
 10
894.5569126799
 20
535.3689314041
  0
LWPOLYLINE
  5
9C
330
1F
100
AcDbEntity
  8
0
  6
Continuous
 62
     7
370
    15
100
AcDbPolyline
 90
       16
 70
   128
 43
0.0
 10
894.5569126799
 20
535.3689314041
 10
899.1340129569
 20
538.1798715505
 10
902.6930957034
 20
540.3722346935
 10
905.2645443871
 20
541.9537545356
 10
907.1502714351
 20
543.0988491687
 10
908.9308260873
 20
544.1705108795
 10
910.6051354602
 20
545.1690674934
 10
912.1731399491
 20
546.0948617372
 10
913.6356740191
 20
546.9482363376
 10
914.9943916991
 20
547.7295191202
 10
917.3388062909
 20
549.042922369
 10
919.4515376284
 20
550.1839042816
 10
921.3213800385
 20
551.1534930381
 10
922.9398994639
 20
551.9527615223
 10
925.402390857
 20
553.0449123296
 10
926.8226354316
 20
553.4696550283
  0
LWPOLYLINE
  5
9D
330
1F
100
AcDbEntity
  8
0
  6
Continuous
 62
     7
370
    15
100
AcDbPolyline
 90
       15
 70
   128
 43
0.0
 10
927.7054845288
 20
263.4931923065
 10
926.3176797822
 20
263.6458845052
 10
923.8721757129
 20
264.4463003788
 10
920.3850357726
 20
265.9107715997
 10
915.9141658738
 20
268.0556670937
 10
913.8132511571
 20
269.1361204896
 10
911.4727257684
 20
270.3763888392
 10
908.8892518475
 20
271.7789829883
 10
906.0643195107
 20
273.3465255413
 10
904.8812716201
 20
274.014768115
 10
903.4535913661
 20
274.8280287895
 10
901.7742155984
 20
275.7882223639
 10
899.8377202943
 20
276.8975616607
 10
897.6414381459
 20
278.1585798773
 10
895.1869039729
 20
279.574078432
  0
LINE
  5
9E
330
1F
100
AcDbEntity
  8
0
  6
Continuous
 62
     7
370
    15
100
AcDbLine
 10
460.9927861884
 20
569.1177667293
 30
0.0
 11
461.0475777581
 21
569.4071025762
 31
0.0
  0
LWPOLYLINE
  5
9F
330
1F
100
AcDbEntity
  8
0
  6
Continuous
 62
     7
370
    15
100
AcDbPolyline
 90
       14
 70
   128
 43
0.0
 10
662.7133461579
 20
534.4890923414
 10
662.7241550877
 20
538.1750733766
 10
662.7393933877
 20
541.8070079002
 10
662.7588896945
 20
545.3443200502
 10
662.7824260786
 20
548.7474621448
 10
662.8097399071
 20
551.978436223
 10
662.8405257061
 20
555.0011367712
 10
662.8744426116
 20
557.7817828569
 10
662.9111069187
 20
560.2893055591
 10
662.9501107082
 20
562.4957055959
 10
662.9910199836
 20
564.3763066444
 10
663.0333746716
 20
565.9101129684
 10
663.0767035231
 20
567.0799882326
 10
663.1205222502
 20
567.8728492174
  0
LWPOLYLINE
  5
A0
330
1F
100
AcDbEntity
  8
0
  6
Continuous
 62
     7
370
    15
100
AcDbPolyline
 90
        5
 70
   128
 43
0.0
 10
662.7133461579
 20
534.4890923414
 10
616.4016007378
 20
534.5037103805
 10
570.1112626984
 20
534.6574158582
 10
523.8081245616
 20
534.9591941747
 10
477.5382458165
 20
535.3689314041
  0
LWPOLYLINE
  5
A1
330
1F
100
AcDbEntity
  8
0
  6
Continuous
 62
     7
370
    15
100
AcDbPolyline
 90
       16
 70
   128
 43
0.0
 10
477.5382458165
 20
535.3689314041
 10
474.7817396119
 20
539.9984390649
 10
472.654181619
 20
543.61460816
 10
471.1342631772
 20
546.2338150653
 10
470.0388192132
 20
548.1652588758
 10
469.0197287991
 20
549.9947042379
 10
468.0761425689
 20
551.7204524192
 10
467.2071515515
 20
553.3418924722
 10
466.4119510844
 20
554.8593522224
 10
465.6897216037
 20
556.273964158
 10
464.4916831448
 20
558.7277234706
 10
463.4725480273
 20
560.9572650108
 10
462.6302002862
 20
562.9501314077
 10
461.9624345496
 20
564.6966816101
 10
461.1417530969
 20
567.4253822479
 10
460.9927861884
 20
569.1177667293
  0
LWPOLYLINE
  5
A2
330
1F
100
AcDbEntity
  8
0
  6
Continuous
 62
     7
370
    15
100
AcDbPolyline
 90
       17
 70
   128
 43
0.0
 10
894.5569126799
 20
535.3689314041
 10
895.8439855769
 20
537.5175298366
 10
896.8154220774
 20
539.1473592434
 10
897.8441833451
 20
540.8827335748
 10
898.9941208556
 20
542.8383619699
 10
900.0324486688
 20
544.6216733369
 10
900.9608953193
 20
546.2338150653
 10
902.9771118358
 20
549.8126865539
 10
904.7845928862
 20
553.1423659238
 10
906.4054368928
 20
556.273964158
 10
907.8766732409
 20
559.2991382989
 10
909.094053407
 20
562.0177508506
 10
910.0436001017
 20
564.4038886938
 10
910.5739920333
 20
565.9629822883
 10
910.9265088036
 20
567.257699481
 10
911.1082284644
 20
568.3313877496
 10
911.102372308
 20
569.1177667293
  0
LWPOLYLINE
  5
A3
330
1F
100
AcDbEntity
  8
0
  6
Continuous
 62
     7
370
    15
100
AcDbPolyline
 90
        5
 70
   128
 43
0.0
 10
894.5569126799
 20
535.3689314041
 10
848.324853082
 20
534.9594921979
 10
802.059608598
 20
534.6578032884
 10
755.7314365104
 20
534.5037848863
 10
709.3818123385
 20
534.4890923414
  0
LWPOLYLINE
  5
A4
330
1F
100
AcDbEntity
  8
0
  6
Continuous
 62
     7
370
    15
100
AcDbPolyline
 90
       14
 70
   128
 43
0.0
 10
709.3818123385
 20
534.4890923414
 10
709.3710015461
 20
538.1750733766
 10
709.3557651087
 20
541.8070079002
 10
709.336268802
 20
545.3443200502
 10
709.3127324179
 20
548.7474621448
 10
709.2854167267
 20
551.978436223
 10
709.2546309277
 20
555.0011367712
 10
709.2207158848
 20
557.7817828569
 10
709.1840515777
 20
560.2893055591
 10
709.1450459256
 20
562.4957055959
 10
709.1041385129
 20
564.3763066444
 10
709.0617819622
 20
565.9101129684
 10
709.0184531107
 20
567.0799882326
 10
708.9746343836
 20
567.8728492174
  0
LINE
  5
A5
330
1F
100
AcDbEntity
  8
0
  6
Continuous
 62
     7
370
    15
100
AcDbLine
 10
911.102372308
 20
569.1177667293
 30
0.0
 11
911.0475807383
 21
569.4071025762
 31
0.0
  0
ARC
  5
A6
330
1F
100
AcDbEntity
  8
0
  6
Continuous
 62
     7
370
    15
100
AcDbCircle
 10
461.4106860165
 20
263.8720328743
 30
0.0
 40
17.02522749751473
100
AcDbArc
 50
181.2750347855
 51
268.751789501
  0
ARC
  5
A7
330
1F
100
AcDbEntity
  8
0
  6
Continuous
 62
     7
370
    15
100
AcDbCircle
 10
910.6844724836
 20
263.8720328707
 30
0.0
 40
17.0252274938163
100
AcDbArc
 50
271.248210487
 51
358.7249652264
  0
ARC
  5
A8
330
1F
100
AcDbEntity
  8
0
  6
Continuous
 62
     7
370
    15
100
AcDbCircle
 10
910.6095612557
 20
552.9022539249
 30
0.0
 40
16.22299966846658
100
AcDbArc
 50
2.0043346352
 51
88.2592406841
  0
ARC
  5
A9
330
1F
100
AcDbEntity
  8
0
  6
Continuous
 62
     7
370
    15
100
AcDbCircle
 10
461.4856133334
 20
552.902237758
 30
0.0
 40
16.22301631679028
100
AcDbArc
 50
91.7408143908
 51
177.9956102899
  0
LINE
  5
AA
330
1F
100
AcDbEntity
  8
0
  6
Continuous
 62
     7
370
    15
100
AcDbLine
 10
709.3818123385
 20
534.4890923414
 30
0.0
 11
692.3641907915
 21
534.5323653135
 31
0.0
  0
LWPOLYLINE
  5
AB
330
1F
100
AcDbEntity
  8
0
  6
Continuous
 62
     7
370
    15
100
AcDbPolyline
 90
        3
 70
   128
 43
0.0
 10
679.7309663079
 20
534.5323653135
 10
686.0226481504
 20
534.8150403413
 10
692.3641907915
 20
534.5323653135
  0
LINE
  5
AC
330
1F
100
AcDbEntity
  8
0
  6
Continuous
 62
     7
370
    15
100
AcDbLine
 10
679.7309663079
 20
534.5323653135
 30
0.0
 11
662.7133461579
 21
534.4890923414
 31
0.0
  0
ARC
  5
AD
330
1F
100
AcDbEntity
  8
0
  6
Continuous
 62
     7
370
    15
100
AcDbCircle
 10
686.0475785896
 20
468.4927782498
 30
0.0
 40
70.00000000000001
100
AcDbArc
 50
109.4720015612
 51
70.5279984388
  0
LWPOLYLINE
  5
AE
330
1F
100
AcDbEntity
  8
0
  6
Continuous
 62
     7
370
    15
100
AcDbPolyline
 90
        3
 70
   128
 43
0.0
 10
692.3002294197
 20
533.8636608038
 10
686.0766107266
 20
534.1671825561
 10
679.7949276797
 20
533.8636608038
  0
LWPOLYLINE
  5
AF
330
1F
100
AcDbEntity
  8
0
  6
Continuous
 62
     7
370
    15
100
AcDbPolyline
 90
        9
 70
   128
 43
0.0
 10
679.7309663079
 20
534.5323653135
 10
679.7390576385
 20
534.4477714214
 10
679.7471345335
 20
534.3633265409
 10
679.7551900081
 20
534.2791051778
 10
679.7632184744
 20
534.195181838
 10
679.7712124817
 20
534.1116012249
 10
679.7791664421
 20
534.0284378442
 10
679.7870738364
 20
533.9457662019
 10
679.7949276797
 20
533.8636608038
  0
LWPOLYLINE
  5
B0
330
1F
100
AcDbEntity
  8
0
  6
Continuous
 62
     7
370
    15
100
AcDbPolyline
 90
        9
 70
   128
 43
0.0
 10
692.3002294197
 20
533.8636608038
 10
692.3080837287
 20
533.9457662019
 10
692.3159906573
 20
534.0284378442
 10
692.3239446178
 20
534.1116012249
 10
692.3319386251
 20
534.195181838
 10
692.3399670914
 20
534.2791051778
 10
692.348022566
 20
534.3633265409
 10
692.356099461
 20
534.4477714214
 10
692.3641907915
 20
534.5323653135
  0
CIRCLE
  5
B1
330
1F
100
AcDbEntity
  8
0
  6
Continuous
 62
     7
370
    15
100
AcDbCircle
 10
686.0475785896
 20
468.4927782498
 30
0.0
 40
58.61177143234619
  0
ARC
  5
B2
330
1F
100
AcDbEntity
  8
0
  6
Continuous
 62
     7
370
    15
100
AcDbCircle
 10
686.0475785896
 20
468.4927782498
 30
0.0
 40
65.66922975937997
100
AcDbArc
 50
95.4636553582
 51
84.5363446418
  0
ARC
  5
B3
330
1F
100
AcDbEntity
  8
0
  6
Continuous
 62
     7
370
    15
100
AcDbCircle
 10
686.0475785896
 20
468.4927782498
 30
0.0
 40
66.34098840458016
100
AcDbArc
 50
95.4636553582
 51
84.5363446418
  0
CIRCLE
  5
B4
330
1F
100
AcDbEntity
  8
0
  6
Continuous
 62
     7
370
    15
100
AcDbCircle
 10
686.0475785896
 20
468.4927782498
 30
0.0
 40
57.50000000000006
  0
CIRCLE
  5
B5
330
1F
100
AcDbEntity
  8
0
  6
Continuous
 62
     7
370
    15
100
AcDbCircle
 10
686.0475785896
 20
468.4927782498
 30
0.0
 40
56.58715574274771
  0
CIRCLE
  5
B6
330
1F
100
AcDbEntity
  8
0
  6
Continuous
 62
     7
370
    15
100
AcDbCircle
 10
686.0475785896
 20
468.4927782498
 30
0.0
 40
44.99999999999989
  0
LINE
  5
B7
330
1F
100
AcDbEntity
  8
0
  6
Continuous
 62
     8
370
    15
100
AcDbLine
 10
662.7975786969
 20
577.6823730383
 30
0.0
 11
662.7975786969
 21
578.4027696762
 31
0.0
  0
LINE
  5
B8
330
1F
100
AcDbEntity
  8
0
  6
Continuous
 62
     8
370
    15
100
AcDbLine
 10
709.2975779369
 20
577.6823730383
 30
0.0
 11
709.2975779369
 21
578.4027696762
 31
0.0
  0
ENDSEC
  0
SECTION
  2
OBJECTS
  0
DICTIONARY
  5
C
330
0
100
AcDbDictionary
281
     1
  3
ACAD_GROUP
350
D
  3
ACAD_LAYOUT
350
1A
  3
ACAD_MLINESTYLE
350
17
  3
ACAD_PLOTSETTINGS
350
19
  3
ACAD_PLOTSTYLENAME
350
E
  0
DICTIONARY
  5
D
102
{ACAD_REACTORS
330
C
102
}
330
C
100
AcDbDictionary
281
     1
  0
DICTIONARY
  5
1A
102
{ACAD_REACTORS
330
C
102
}
330
C
100
AcDbDictionary
281
     1
  3
Layout1
350
1E
  3
Layout2
350
26
  3
Model
350
22
  0
DICTIONARY
  5
17
102
{ACAD_REACTORS
330
C
102
}
330
C
100
AcDbDictionary
281
     1
  3
Standard
350
18
  0
DICTIONARY
  5
19
102
{ACAD_REACTORS
330
C
102
}
330
C
100
AcDbDictionary
281
     1
  0
ACDBDICTIONARYWDFLT
  5
E
102
{ACAD_REACTORS
330
C
102
}
330
C
100
AcDbDictionary
281
     1
  3
Normal
350
F
100
AcDbDictionaryWithDefault
340
F
  0
LAYOUT
  5
1E
102
{ACAD_REACTORS
330
1A
102
}
330
1A
100
AcDbPlotSettings
  1

  2
none_device
  4

  6

 40
0.0
 41
0.0
 42
0.0
 43
0.0
 44
0.0
 45
0.0
 46
0.0
 47
0.0
 48
0.0
 49
0.0
140
0.0
141
0.0
142
1.0
143
1.0
 70
   688
 72
     0
 73
     0
 74
     5
  7

 75
    16
147
1.0
148
0.0
149
0.0
100
AcDbLayout
  1
Layout1
 70
     1
 71
     1
 10
0.0
 20
0.0
 11
420.0
 21
297.0
 12
0.0
 22
0.0
 32
0.0
 14
1.0000000000E+20
 24
1.0000000000E+20
 34
1.0000000000E+20
 15
-1.0000000000E+20
 25
-1.0000000000E+20
 35
-1.0000000000E+20
146
0.0
 13
0.0
 23
0.0
 33
0.0
 16
1.0
 26
0.0
 36
0.0
 17
0.0
 27
1.0
 37
0.0
 76
     0
330
1B
  0
LAYOUT
  5
26
102
{ACAD_REACTORS
330
1A
102
}
330
1A
100
AcDbPlotSettings
  1

  2
none_device
  4

  6

 40
0.0
 41
0.0
 42
0.0
 43
0.0
 44
0.0
 45
0.0
 46
0.0
 47
0.0
 48
0.0
 49
0.0
140
0.0
141
0.0
142
1.0
143
1.0
 70
   688
 72
     0
 73
     0
 74
     5
  7

 75
    16
147
1.0
148
0.0
149
0.0
100
AcDbLayout
  1
Layout2
 70
     1
 71
     2
 10
0.0
 20
0.0
 11
0.0
 21
0.0
 12
0.0
 22
0.0
 32
0.0
 14
0.0
 24
0.0
 34
0.0
 15
0.0
 25
0.0
 35
0.0
146
0.0
 13
0.0
 23
0.0
 33
0.0
 16
1.0
 26
0.0
 36
0.0
 17
0.0
 27
1.0
 37
0.0
 76
     0
330
23
  0
LAYOUT
  5
22
102
{ACAD_REACTORS
330
1A
102
}
330
1A
100
AcDbPlotSettings
  1

  2
none_device
  4

  6

 40
0.0
 41
0.0
 42
0.0
 43
0.0
 44
0.0
 45
0.0
 46
0.0
 47
0.0
 48
0.0
 49
0.0
140
0.0
141
0.0
142
1.0
143
1.0
 70
  1712
 72
     0
 73
     0
 74
     0
  7

 75
     0
147
1.0
148
0.0
149
0.0
100
AcDbLayout
  1
Model
 70
     1
 71
     0
 10
0.0
 20
0.0
 11
1400.0
 21
800.0
 12
0.0
 22
0.0
 32
0.0
 14
0.0
 24
0.0
 34
0.0
 15
1400.0
 25
800.0
 35
0.0
146
0.0
 13
0.0
 23
0.0
 33
0.0
 16
1.0
 26
0.0
 36
0.0
 17
0.0
 27
1.0
 37
0.0
 76
     0
330
1F
331
29
  0
MLINESTYLE
  5
18
102
{ACAD_REACTORS
330
17
102
}
330
17
100
AcDbMlineStyle
  2
Standard
 70
     0
  3

 62
   256
 51
90.0
 52
90.0
 71
     2
 49
0.5
 62
   256
  6
BYLAYER
 49
-0.5
 62
   256
  6
BYLAYER
  0
ACDBPLACEHOLDER
  5
F
102
{ACAD_REACTORS
330
E
102
}
330
E
  0
ENDSEC
  0
EOF
