  0
SECTION
  2
HEADER
  9
$ACADVER
  1
AC1015
  9
$ACADMAINTVER
 70
     6
  9
$DWGCODEPAGE
  3
ANSI_1252
  9
$INSBASE
 10
0.0
 20
0.0
 30
0.0
  9
$EXTMIN
 10
0.0
 20
0.0
 30
0.0
  9
$EXTMAX
 10
2000.0
 20
900.0
 30
0.0
  9
$LIMMIN
 10
0.0
 20
0.0
  9
$LIMMAX
 10
2000.0
 20
900.0
  9
$ORTHOMODE
 70
     0
  9
$REGENMODE
 70
     1
  9
$FILLMODE
 70
     1
  9
$QTEXTMODE
 70
     0
  9
$MIRRTEXT
 70
     1
  9
$LTSCALE
 40
1.0
  9
$ATTMODE
 70
     1
  9
$TEXTSIZE
 40
5.0
  9
$TRACEWID
 40
1.0
  9
$TEXTSTYLE
  7
Standard
  9
$CLAYER
  8
0
  9
$CELTYPE
  6
ByLayer
  9
$CECOLOR
 62
   256
  9
$CELTSCALE
 40
1.0
  9
$DISPSILH
 70
     0
  9
$DIMSCALE
 40
1.0
  9
$DIMASZ
 40
6.0
  9
$DIMEXO
 40
1.0
  9
$DIMDLI
 40
3.75
  9
$DIMRND
 40
0.0
  9
$DIMDLE
 40
0.0
  9
$DIMEXE
 40
1.0
  9
$DIMTP
 40
0.0
  9
$DIMTM
 40
0.0
  9
$DIMTXT
 40
5.0
  9
$DIMCEN
 40
2.5
  9
$DIMTSZ
 40
0.0
  9
$DIMTOL
 70
     0
  9
$DIMLIM
 70
     0
  9
$DIMTIH
 70
     1
  9
$DIMTOH
 70
     1
  9
$DIMSE1
 70
     0
  9
$DIMSE2
 70
     0
  9
$DIMTAD
 70
     1
  9
$DIMZIN
 70
     0
  9
$DIMBLK
  1

  9
$DIMASO
 70
     1
  9
$DIMSHO
 70
     1
  9
$DIMPOST
  1

  9
$DIMAPOST
  1

  9
$DIMALT
 70
     0
  9
$DIMALTD
 70
     3
  9
$DIMALTF
 40
0.0393700787401575
  9
$DIMLFAC
 40
1.0
  9
$DIMTOFL
 70
     1
  9
$DIMTVP
 40
0.0
  9
$DIMTIX
 70
     0
  9
$DIMSOXD
 70
     0
  9
$DIMSAH
 70
     0
  9
$DIMBLK1
  1

  9
$DIMBLK2
  1

  9
$DIMSTYLE
  2
ISO-25
  9
$DIMCLRD
 70
     0
  9
$DIMCLRE
 70
     0
  9
$DIMCLRT
 70
     0
  9
$DIMTFAC
 40
1.0
  9
$DIMGAP
 40
1.524
  9
$DIMJUST
 70
     0
  9
$DIMSD1
 70
     0
  9
$DIMSD2
 70
     0
  9
$DIMTOLJ
 70
     0
  9
$DIMTZIN
 70
     0
  9
$DIMALTZ
 70
     0
  9
$DIMALTTZ
 70
     0
  9
$DIMUPT
 70
     0
  9
$DIMDEC
 70
     2
  9
$DIMTDEC
 70
     2
  9
$DIMALTU
 70
     2
  9
$DIMALTTD
 70
     3
  9
$DIMTXSTY
  7
Standard
  9
$DIMAUNIT
 70
     0
  9
$DIMADEC
 70
     2
  9
$DIMALTRND
 40
0.0
  9
$DIMAZIN
 70
     0
  9
$DIMDSEP
 70
    44
  9
$DIMATFIT
 70
     3
  9
$DIMFRAC
 70
     0
  9
$DIMLDRBLK
  1

  9
$DIMLUNIT
 70
     2
  9
$DIMLWD
 70
    -2
  9
$DIMLWE
 70
    -2
  9
$DIMTMOVE
 70
     0
  9
$LUNITS
 70
     2
  9
$LUPREC
 70
     2
  9
$SKETCHINC
 40
1.0
  9
$FILLETRAD
 40
10.0
  9
$AUNITS
 70
     0
  9
$AUPREC
 70
     2
  9
$MENU
  1
.
  9
$ELEVATION
 40
0.0
  9
$PELEVATION
 40
0.0
  9
$THICKNESS
 40
0.0
  9
$LIMCHECK
 70
     0
  9
$CHAMFERA
 40
10.0
  9
$CHAMFERB
 40
10.0
  9
$CHAMFERC
 40
20.0
  9
$CHAMFERD
 40
0.0
  9
$SKPOLY
 70
     0
  9
$TDCREATE
 40
2456339.50692934
  9
$TDUCREATE
 40
2456339.423596007
  9
$TDUPDATE
 40
2457758.358138426
  9
$TDUUPDATE
 40
2457758.274805093
  9
$TDINDWG
 40
0.0001535532
  9
$TDUSRTIMER
 40
2457758.274651759
  9
$USRTIMER
 70
     1
  9
$ANGBASE
 50
0.0
  9
$ANGDIR
 70
     0
  9
$PDMODE
 70
     0
  9
$PDSIZE
 40
-1.0
  9
$PLINEWID
 40
0.0
  9
$SPLFRAME
 70
     0
  9
$SPLINETYPE
 70
     6
  9
$SPLINESEGS
 70
     8
  9
$HANDSEED
  5
244
  9
$SURFTAB1
 70
     6
  9
$SURFTAB2
 70
     6
  9
$SURFTYPE
 70
     6
  9
$SURFU
 70
     6
  9
$SURFV
 70
     6
  9
$UCSBASE
  2

  9
$UCSNAME
  2

  9
$UCSORG
 10
0.0
 20
0.0
 30
0.0
  9
$UCSXDIR
 10
1.0
 20
0.0
 30
0.0
  9
$UCSYDIR
 10
0.0
 20
1.0
 30
0.0
  9
$UCSORTHOREF
  2

  9
$UCSORTHOVIEW
 70
     0
  9
$UCSORGTOP
 10
0.0
 20
0.0
 30
0.0
  9
$UCSORGBOTTOM
 10
0.0
 20
0.0
 30
0.0
  9
$UCSORGLEFT
 10
0.0
 20
0.0
 30
0.0
  9
$UCSORGRIGHT
 10
0.0
 20
0.0
 30
0.0
  9
$UCSORGFRONT
 10
0.0
 20
0.0
 30
0.0
  9
$UCSORGBACK
 10
0.0
 20
0.0
 30
0.0
  9
$PUCSBASE
  2

  9
$PUCSNAME
  2

  9
$PUCSORG
 10
0.0
 20
0.0
 30
0.0
  9
$PUCSXDIR
 10
1.0
 20
0.0
 30
0.0
  9
$PUCSYDIR
 10
0.0
 20
1.0
 30
0.0
  9
$PUCSORTHOREF
  2

  9
$PUCSORTHOVIEW
 70
     0
  9
$PUCSORGTOP
 10
0.0
 20
0.0
 30
0.0
  9
$PUCSORGBOTTOM
 10
0.0
 20
0.0
 30
0.0
  9
$PUCSORGLEFT
 10
0.0
 20
0.0
 30
0.0
  9
$PUCSORGRIGHT
 10
0.0
 20
0.0
 30
0.0
  9
$PUCSORGFRONT
 10
0.0
 20
0.0
 30
0.0
  9
$PUCSORGBACK
 10
0.0
 20
0.0
 30
0.0
  9
$USERI1
 70
     0
  9
$USERI2
 70
     0
  9
$USERI3
 70
     0
  9
$USERI4
 70
     0
  9
$USERI5
 70
     0
  9
$USERR1
 40
0.0
  9
$USERR2
 40
0.0
  9
$USERR3
 40
0.0
  9
$USERR4
 40
0.0
  9
$USERR5
 40
0.0
  9
$WORLDVIEW
 70
     1
  9
$SHADEDGE
 70
     3
  9
$SHADEDIF
 70
    70
  9
$TILEMODE
 70
     1
  9
$MAXACTVP
 70
    64
  9
$PINSBASE
 10
0.0
 20
0.0
 30
0.0
  9
$PLIMCHECK
 70
     0
  9
$PEXTMIN
 10
1.000000000000000E+20
 20
1.000000000000000E+20
 30
1.000000000000000E+20
  9
$PEXTMAX
 10
-1.000000000000000E+20
 20
-1.000000000000000E+20
 30
-1.000000000000000E+20
  9
$PLIMMIN
 10
0.0
 20
0.0
  9
$PLIMMAX
 10
0.0
 20
0.0
  9
$UNITMODE
 70
     0
  9
$VISRETAIN
 70
     1
  9
$PLINEGEN
 70
     0
  9
$PSLTSCALE
 70
     1
  9
$TREEDEPTH
 70
  3020
  9
$CMLSTYLE
  2
Standard
  9
$CMLJUST
 70
     0
  9
$CMLSCALE
 40
20.0
  9
$PROXYGRAPHICS
 70
     1
  9
$MEASUREMENT
 70
     1
  9
$CELWEIGHT
370
    -1
  9
$ENDCAPS
280
     0
  9
$JOINSTYLE
280
     0
  9
$LWDISPLAY
290
     1
  9
$INSUNITS
 70
     4
  9
$HYPERLINKBASE
  1

  9
$STYLESHEET
  1

  9
$XEDIT
290
     1
  9
$CEPSNTYPE
380
     0
  9
$PSTYLEMODE
290
     1
  9
$FINGERPRINTGUID
  2
{E764D6C1-CA25-4BD1-BF5B-18E350ADEB66}
  9
$VERSIONGUID
  2
{FAEB1C32-E019-11D5-929B-00C0DF256EC4}
  9
$EXTNAMES
290
     1
  9
$PSVPSCALE
 40
0.0
  9
$OLESTARTUP
290
     0
  0
ENDSEC
  0
SECTION
  2
CLASSES
  0
CLASS
  1
ACDBDICTIONARYWDFLT
  2
AcDbDictionaryWithDefault
  3
ObjectDBX Classes
 90
        0
280
     0
281
     0
  0
CLASS
  1
VISUALSTYLE
  2
AcDbVisualStyle
  3
ObjectDBX Classes
 90
     4095
280
     0
281
     0
  0
CLASS
  1
MATERIAL
  2
AcDbMaterial
  3
ObjectDBX Classes
 90
     1153
280
     0
281
     0
  0
CLASS
  1
ACDBPLACEHOLDER
  2
AcDbPlaceHolder
  3
ObjectDBX Classes
 90
        0
280
     0
281
     0
  0
CLASS
  1
LAYOUT
  2
AcDbLayout
  3
ObjectDBX Classes
 90
        0
280
     0
281
     0
  0
CLASS
  1
SCALE
  2
AcDbScale
  3
ObjectDBX Classes
 90
     1153
280
     0
281
     0
  0
CLASS
  1
TABLESTYLE
  2
AcDbTableStyle
  3
ObjectDBX Classes
 90
     4095
280
     0
281
     0
  0
CLASS
  1
SUN
  2
AcDbSun
  3
SCENEOE
 90
     1153
280
     0
281
     0
  0
CLASS
  1
RASTERVARIABLES
  2
AcDbRasterVariables
  3
ISM
 90
        0
280
     0
281
     0
  0
ENDSEC
  0
SECTION
  2
TABLES
  0
TABLE
  2
VPORT
  5
8
330
0
100
AcDbSymbolTable
 70
     1
  0
VPORT
  5
29
330
8
100
AcDbSymbolTableRecord
100
AcDbViewportTableRecord
  2
*Active
 70
     0
 10
0.0
 20
0.0
 11
1.0
 21
1.0
 12
1000.0
 22
450.0
 13
0.0
 23
0.0
 14
10.0
 24
10.0
 15
10.0
 25
10.0
 16
0.0
 26
0.0
 36
1.0
 17
0.0
 27
0.0
 37
0.0
 40
900.0
 41
2.222222222222222
 42
50.0
 43
0.0
 44
0.0
 50
0.0
 51
0.0
 71
     0
 72
  2000
 73
     1
 74
     3
 75
     0
 76
     0
 77
     0
 78
     0
281
     0
 65
     1
110
0.0
120
0.0
130
0.0
111
1.0
121
0.0
131
0.0
112
0.0
122
1.0
132
0.0
 79
     0
146
0.0
  0
ENDTAB
  0
TABLE
  2
LTYPE
  5
5
330
0
100
AcDbSymbolTable
 70
     6
  0
LTYPE
  5
14
330
5
100
AcDbSymbolTableRecord
100
AcDbLinetypeTableRecord
  2
ByBlock
 70
     0
  3

 72
    65
 73
     0
 40
0.0
  0
LTYPE
  5
15
330
5
100
AcDbSymbolTableRecord
100
AcDbLinetypeTableRecord
  2
ByLayer
 70
     0
  3

 72
    65
 73
     0
 40
0.0
  0
LTYPE
  5
16
330
5
100
AcDbSymbolTableRecord
100
AcDbLinetypeTableRecord
  2
Continuous
 70
     0
  3
Solid line
 72
    65
 73
     0
 40
0.0
  0
LTYPE
  5
3F
330
5
100
AcDbSymbolTableRecord
100
AcDbLinetypeTableRecord
  2
HIDDEN
 70
     0
  3
Hidden __ __ __ __ __ __ __ __ __ __ __ __ __ __
 72
    65
 73
     2
 40
1.905
 49
1.27
 74
     0
 49
-0.635
 74
     0
  0
LTYPE
  5
40
330
5
100
AcDbSymbolTableRecord
100
AcDbLinetypeTableRecord
  2
PHANTOM
 70
     0
  3
Phantom ______  __  __  ______  __  __  ______
 72
    65
 73
     6
 40
12.7
 49
6.35
 74
     0
 49
-1.27
 74
     0
 49
1.27
 74
     0
 49
-1.27
 74
     0
 49
1.27
 74
     0
 49
-1.27
 74
     0
  0
LTYPE
  5
41
330
5
100
AcDbSymbolTableRecord
100
AcDbLinetypeTableRecord
  2
CENTER
 70
     0
  3
Center ____ _ ____ _ ____ _ ____ _ ____ _ ____
 72
    65
 73
     4
 40
10.16
 49
6.35
 74
     0
 49
-1.27
 74
     0
 49
1.27
 74
     0
 49
-1.27
 74
     0
  0
LTYPE
  5
42
330
5
100
AcDbSymbolTableRecord
100
AcDbLinetypeTableRecord
  2
CENTERX2
 70
     0
  3
Center (2x) ________  __  ________  __  _____
 72
    65
 73
     4
 40
20.32
 49
12.7
 74
     0
 49
-2.54
 74
     0
 49
2.54
 74
     0
 49
-2.54
 74
     0
  0
LTYPE
  5
43
330
5
100
AcDbSymbolTableRecord
100
AcDbLinetypeTableRecord
  2
DOT2
 70
     0
  3
Dot (.5x) ........................................
 72
    65
 73
     2
 40
0.635
 49
0.0
 74
     0
 49
-0.635
 74
     0
  0
ENDTAB
  0
TABLE
  2
LAYER
  5
2
330
0
100
AcDbSymbolTable
 70
     2
  0
LAYER
  5
10
330
2
100
AcDbSymbolTableRecord
100
AcDbLayerTableRecord
  2
0
 70
     0
 62
     7
  6
Continuous
370
    -3
390
F
  0
LAYER
  5
44
330
2
100
AcDbSymbolTableRecord
100
AcDbLayerTableRecord
  2
TABLE_BL1
 70
     0
 62
   179
  6
Continuous
370
    -3
390
F
  0
ENDTAB
  0
TABLE
  2
STYLE
  5
3
330
0
100
AcDbSymbolTable
 70
     2
  0
STYLE
  5
11
330
3
100
AcDbSymbolTableRecord
100
AcDbTextStyleTableRecord
  2
Standard
 70
     0
 40
0.0
 41
1.0
 50
0.0
 71
     0
 42
5.0
  3
txt
  4

  0
STYLE
  5
5C
330
3
100
AcDbSymbolTableRecord
100
AcDbTextStyleTableRecord
  2
SLDTEXTSTYLE0
 70
     0
 40
0.0
 41
0.605
 50
0.0
 71
     0
 42
0.2
  3
TXT
  4

  0
ENDTAB
  0
TABLE
  2
VIEW
  5
6
330
0
100
AcDbSymbolTable
 70
     0
  0
ENDTAB
  0
TABLE
  2
UCS
  5
7
330
0
100
AcDbSymbolTable
 70
     0
  0
ENDTAB
  0
TABLE
  2
APPID
  5
9
330
0
100
AcDbSymbolTable
 70
     1
  0
APPID
  5
12
330
9
100
AcDbSymbolTableRecord
100
AcDbRegAppTableRecord
  2
ACAD
 70
     0
  0
ENDTAB
  0
TABLE
  2
DIMSTYLE
  5
A
330
0
100
AcDbSymbolTable
 70
     1
100
AcDbDimStyleTable
  0
DIMSTYLE
105
27
330
A
100
AcDbSymbolTableRecord
100
AcDbDimStyleTableRecord
  2
ISO-25
 70
     0
 41
2.5
 42
0.625
 43
3.75
 44
1.25
 73
     0
 74
     0
 77
     1
 78
     8
140
2.5
141
2.5
143
0.03937007874016
147
0.625
171
     3
172
     1
178
     0
271
     2
272
     2
274
     3
278
    44
283
     0
284
     8
340
11
  0
ENDTAB
  0
TABLE
  2
BLOCK_RECORD
  5
1
330
0
100
AcDbSymbolTable
 70
    12
  0
BLOCK_RECORD
  5
1F
330
1
100
AcDbSymbolTableRecord
100
AcDbBlockTableRecord
  2
*Model_Space
340
22
  0
BLOCK_RECORD
  5
1B
330
1
100
AcDbSymbolTableRecord
100
AcDbBlockTableRecord
  2
*Paper_Space
340
1E
  0
BLOCK_RECORD
  5
23
330
1
100
AcDbSymbolTableRecord
100
AcDbBlockTableRecord
  2
*Paper_Space0
340
26
  0
BLOCK_RECORD
  5
45
330
1
100
AcDbSymbolTableRecord
100
AcDbBlockTableRecord
  2
Yleistoleranssit
340
0
  0
BLOCK_RECORD
  5
59
330
1
100
AcDbSymbolTableRecord
100
AcDbBlockTableRecord
  2
SW_NOTE_0
340
0
102
{BLKREFS
331
69
102
}
  0
BLOCK_RECORD
  5
6A
330
1
100
AcDbSymbolTableRecord
100
AcDbBlockTableRecord
  2
SW_NOTE_1
340
0
102
{BLKREFS
331
72
102
}
  0
BLOCK_RECORD
  5
73
330
1
100
AcDbSymbolTableRecord
100
AcDbBlockTableRecord
  2
SW_NOTE_2
340
0
102
{BLKREFS
331
78
102
}
  0
BLOCK_RECORD
  5
7A
330
1
100
AcDbSymbolTableRecord
100
AcDbBlockTableRecord
  2
SW_NOTE_3
340
0
102
{BLKREFS
331
89
102
}
  0
BLOCK_RECORD
  5
8A
330
1
100
AcDbSymbolTableRecord
100
AcDbBlockTableRecord
  2
SW_NOTE_4
340
0
102
{BLKREFS
331
99
102
}
  0
BLOCK_RECORD
  5
9A
330
1
100
AcDbSymbolTableRecord
100
AcDbBlockTableRecord
  2
SW_NOTE_5
340
0
102
{BLKREFS
331
A5
102
}
  0
BLOCK_RECORD
  5
A6
330
1
100
AcDbSymbolTableRecord
100
AcDbBlockTableRecord
  2
SW_NOTE_6
340
0
102
{BLKREFS
331
B1
102
}
  0
BLOCK_RECORD
  5
B2
330
1
100
AcDbSymbolTableRecord
100
AcDbBlockTableRecord
  2
SW_NOTE_7
340
0
102
{BLKREFS
331
BD
102
}
  0
BLOCK_RECORD
  5
BE
330
1
100
AcDbSymbolTableRecord
100
AcDbBlockTableRecord
  2
SW_NOTE_8
340
0
102
{BLKREFS
331
C9
102
}
  0
BLOCK_RECORD
  5
CA
330
1
100
AcDbSymbolTableRecord
100
AcDbBlockTableRecord
  2
SW_NOTE_9
340
0
102
{BLKREFS
331
D4
102
}
  0
ENDTAB
  0
ENDSEC
  0
SECTION
  2
BLOCKS
  0
BLOCK
  5
20
330
1F
100
AcDbEntity
  8
0
100
AcDbBlockBegin
  2
*Model_Space
 70
     0
 10
0.0
 20
0.0
 30
0.0
  3
*Model_Space
  1
*Model_Space
  0
ENDBLK
  5
21
330
1F
100
AcDbEntity
  8
0
100
AcDbBlockEnd
  0
BLOCK
  5
1C
330
1B
100
AcDbEntity
 67
     1
  8
0
100
AcDbBlockBegin
  2
*Paper_Space
 70
     0
 10
0.0
 20
0.0
 30
0.0
  3
*Paper_Space
  1
*Paper_Space
  0
ENDBLK
  5
1D
330
1B
100
AcDbEntity
 67
     1
  8
0
100
AcDbBlockEnd
  0
BLOCK
  5
24
330
23
100
AcDbEntity
  8
0
100
AcDbBlockBegin
  2
*Paper_Space0
 70
     0
 10
0.0
 20
0.0
 30
0.0
  3
*Paper_Space0
  1
*Paper_Space0
  0
ENDBLK
  5
25
330
23
100
AcDbEntity
  8
0
100
AcDbBlockEnd
  0
BLOCK
  5
46
330
45
100
AcDbEntity
  8
0
100
AcDbBlockBegin
  2
Yleistoleranssit
 70
     0
 10
0.0
 20
0.0
 30
0.0
  3
Yleistoleranssit
  1
Yleistoleranssit
  0
LINE
  5
48
330
45
100
AcDbEntity
  8
0
  6
Continuous
 62
     7
370
     0
100
AcDbLine
 10
-128.0
 20
20.3216674369395
 30
0.0
 11
0.0
 21
20.3216674369395
 31
0.0
  0
LINE
  5
49
330
45
100
AcDbEntity
  8
0
  6
Continuous
 62
     7
370
     0
100
AcDbLine
 10
-128.0
 20
0.0
 30
0.0
 11
0.0
 21
0.0
 31
0.0
  0
LINE
  5
4A
330
45
100
AcDbEntity
  8
0
  6
Continuous
 62
     7
370
     0
100
AcDbLine
 10
-128.0
 20
0.0
 30
0.0
 11
-128.0
 21
29.3217161765533
 31
0.0
  0
LINE
  5
4B
330
45
100
AcDbEntity
  8
0
  6
Continuous
 62
     7
370
     0
100
AcDbLine
 10
-128.0
 20
29.3217161765533
 30
0.0
 11
0.0
 21
29.3217161765533
 31
0.0
  0
LINE
  5
4C
330
45
100
AcDbEntity
  8
0
  6
Continuous
 62
     7
370
     0
100
AcDbLine
 10
0.0
 20
0.0
 30
0.0
 11
0.0
 21
29.3217161765533
 31
0.0
  0
LINE
  5
4D
330
45
100
AcDbEntity
  8
0
  6
Continuous
 62
     7
370
     0
100
AcDbLine
 10
-90.0
 20
29.3217161765533
 30
0.0
 11
-90.0
 21
0.0
 31
0.0
  0
LINE
  5
4E
330
45
100
AcDbEntity
  8
0
  6
Continuous
 62
     7
370
     0
100
AcDbLine
 10
-80.35846527125837
 20
29.3217161765533
 30
0.0
 11
-80.35846527125837
 21
0.0
 31
0.0
  0
LINE
  5
4F
330
45
100
AcDbEntity
  8
0
  6
Continuous
 62
     7
370
     0
100
AcDbLine
 10
-69.44920276909968
 20
29.3217161765533
 30
0.0
 11
-69.44920276909968
 21
0.0
 31
0.0
  0
LINE
  5
50
330
45
100
AcDbEntity
  8
0
  6
Continuous
 62
     7
370
     0
100
AcDbLine
 10
-58.76960895119699
 20
29.3217161765533
 30
0.0
 11
-58.76960895119699
 21
0.0
 31
0.0
  0
LINE
  5
51
330
45
100
AcDbEntity
  8
0
  6
Continuous
 62
     7
370
     0
100
AcDbLine
 10
-47.7455121069103
 20
29.3217161765533
 30
0.0
 11
-47.7455121069103
 21
0.0
 31
0.0
  0
LINE
  5
52
330
45
100
AcDbEntity
  8
0
  6
Continuous
 62
     7
370
     0
100
AcDbLine
 10
-36.60658092049568
 20
29.3217161765533
 30
0.0
 11
-36.60658092049568
 21
0.0
 31
0.0
  0
LINE
  5
53
330
45
100
AcDbEntity
  8
0
  6
Continuous
 62
     7
370
     0
100
AcDbLine
 10
-24.77864368131311
 20
29.3217161765533
 30
0.0
 11
-24.77864368131311
 21
0.0
 31
0.0
  0
LINE
  5
54
330
45
100
AcDbEntity
  8
0
  6
Continuous
 62
     7
370
     0
100
AcDbLine
 10
-12.95070644213053
 20
29.3217161765533
 30
0.0
 11
-12.95070644213053
 21
0.0
 31
0.0
  0
LINE
  5
55
330
45
100
AcDbEntity
  8
0
  6
Continuous
 62
     7
370
     0
100
AcDbLine
 10
0.0
 20
14.50972099221878
 30
0.0
 11
-107.7846503106451
 21
14.50972099221878
 31
0.0
  0
LINE
  5
56
330
45
100
AcDbEntity
  8
0
  6
Continuous
 62
     7
370
     0
100
AcDbLine
 10
0.0
 20
10.97489696491011
 30
0.0
 11
-107.7846503106451
 21
10.97489696491008
 31
0.0
  0
LINE
  5
57
330
45
100
AcDbEntity
  8
0
  6
Continuous
 62
     7
370
     0
100
AcDbLine
 10
0.0
 20
7.382273231563818
 30
0.0
 11
-128.0
 21
7.382273231563791
 31
0.0
  0
LINE
  5
58
330
45
100
AcDbEntity
  8
0
  6
Continuous
 62
     7
370
     0
100
AcDbLine
 10
0.0
 20
3.87319888736512
 30
0.0
 11
-107.7846503106451
 21
3.873198887365092
 31
0.0
  0
INSERT
  5
69
330
45
100
AcDbEntity
  8
0
  6
Continuous
 62
     7
370
     0
100
AcDbBlockReference
  2
SW_NOTE_0
 10
-88.89342403353773
 20
25.23533252512787
 30
0.0
  0
INSERT
  5
72
330
45
100
AcDbEntity
  8
0
  6
Continuous
 62
     7
370
     0
100
AcDbBlockReference
  2
SW_NOTE_1
 10
-107.3133833052766
 20
14.6653564215458
 30
0.0
  0
INSERT
  5
78
330
45
100
AcDbEntity
  8
0
  6
Continuous
 62
     7
370
     0
100
AcDbBlockReference
  2
SW_NOTE_2
 10
-127.0419636585391
 20
14.6653559558844
 30
0.0
  0
MTEXT
  5
79
330
45
100
AcDbEntity
  8
0
  6
Continuous
 62
     7
370
     0
100
AcDbMText
 10
-127.2347267983281
 20
27.0028750836024
 30
0.0
 40
2.5
 41
0.0
 71
     1
 72
     1
  1
YLEISTOLERANSSIT
  7
SLDTEXTSTYLE0
 73
     1
 44
1.0
  0
INSERT
  5
89
330
45
100
AcDbEntity
  8
0
  6
Continuous
 62
     7
370
     0
100
AcDbBlockReference
  2
SW_NOTE_3
 10
-78.04776805326102
 20
25.23533205946658
 30
0.0
  0
INSERT
  5
99
330
45
100
AcDbEntity
  8
0
  6
Continuous
 62
     7
370
     0
100
AcDbBlockReference
  2
SW_NOTE_4
 10
-66.7605496266333
 20
25.23533205946658
 30
0.0
  0
INSERT
  5
A5
330
45
100
AcDbEntity
  8
0
  6
Continuous
 62
     7
370
     0
100
AcDbBlockReference
  2
SW_NOTE_5
 10
-56.73185874405453
 20
25.23533205946658
 30
0.0
  0
INSERT
  5
B1
330
45
100
AcDbEntity
  8
0
  6
Continuous
 62
     7
370
     0
100
AcDbBlockReference
  2
SW_NOTE_6
 10
-45.87215391116062
 20
25.23533205946658
 30
0.0
  0
INSERT
  5
BD
330
45
100
AcDbEntity
  8
0
  6
Continuous
 62
     7
370
     0
100
AcDbBlockReference
  2
SW_NOTE_7
 10
-34.78509547874237
 20
25.2353315938053
 30
0.0
  0
INSERT
  5
C9
330
45
100
AcDbEntity
  8
0
  6
Continuous
 62
     7
370
     0
100
AcDbBlockReference
  2
SW_NOTE_8
 10
-22.9284213191655
 20
25.2353315938053
 30
0.0
  0
INSERT
  5
D4
330
45
100
AcDbEntity
  8
0
  6
Continuous
 62
     7
370
     0
100
AcDbBlockReference
  2
SW_NOTE_9
 10
-11.10524575847433
 20
25.23533252512787
 30
0.0
  0
ENDBLK
  5
47
330
45
100
AcDbEntity
  8
0
100
AcDbBlockEnd
  0
BLOCK
  5
5A
330
59
100
AcDbEntity
  8
0
100
AcDbBlockBegin
  2
SW_NOTE_0
 70
     0
 10
0.0
 20
0.0
 30
0.0
  3
SW_NOTE_0
  1
SW_NOTE_0
  0
MTEXT
  5
5D
330
59
100
AcDbEntity
  8
0
  6
Continuous
 62
     0
370
     0
100
AcDbMText
 10
1.500000000000001
 20
2.578135479543931
 30
0.0
 40
2.0
 41
0.0
 71
     1
 72
     1
  1
>0,5
  7
SLDTEXTSTYLE0
 73
     1
 44
1.0
  0
MTEXT
  5
5E
330
59
100
AcDbEntity
  8
0
  6
Continuous
 62
     0
370
     0
100
AcDbMText
 10
0.0
 20
-0.9218646284894876
 30
0.0
 40
2.0
 41
0.0
 71
     1
 72
     1
  1
=<3
  7
SLDTEXTSTYLE0
 73
     1
 44
1.0
  0
MTEXT
  5
5F
330
59
100
AcDbEntity
  8
0
  6
Continuous
 62
     0
370
     0
100
AcDbMText
 10
0.0
 20
-7.921864844556325
 30
0.0
 40
2.0
 41
0.0
 71
     1
 72
     1
  1
%%p
  7
SLDTEXTSTYLE0
 73
     1
 44
1.0
  0
MTEXT
  5
60
330
59
100
AcDbEntity
  8
0
  6
Continuous
 62
     0
370
     0
100
AcDbMText
 10
1.841666758991778
 20
-7.921864844556325
 30
0.0
 40
2.0
 41
0.0
 71
     1
 72
     1
  1
0,05
  7
SLDTEXTSTYLE0
 73
     1
 44
1.0
  0
MTEXT
  5
61
330
59
100
AcDbEntity
  8
0
  6
Continuous
 62
     0
370
     0
100
AcDbMText
 10
0.0
 20
-11.42186495258974
 30
0.0
 40
2.0
 41
0.0
 71
     1
 72
     1
  1
%%p
  7
SLDTEXTSTYLE0
 73
     1
 44
1.0
  0
MTEXT
  5
62
330
59
100
AcDbEntity
  8
0
  6
Continuous
 62
     0
370
     0
100
AcDbMText
 10
1.841666758991778
 20
-11.42186495258974
 30
0.0
 40
2.0
 41
0.0
 71
     1
 72
     1
  1
0,1
  7
SLDTEXTSTYLE0
 73
     1
 44
1.0
  0
MTEXT
  5
63
330
59
100
AcDbEntity
  8
0
  6
Continuous
 62
     0
370
     0
100
AcDbMText
 10
0.0
 20
-14.92186506062316
 30
0.0
 40
2.0
 41
0.0
 71
     1
 72
     1
  1
%%p
  7
SLDTEXTSTYLE0
 73
     1
 44
1.0
  0
MTEXT
  5
64
330
59
100
AcDbEntity
  8
0
  6
Continuous
 62
     0
370
     0
100
AcDbMText
 10
1.841666758991778
 20
-14.92186506062316
 30
0.0
 40
2.0
 41
0.0
 71
     1
 72
     1
  1
0,2
  7
SLDTEXTSTYLE0
 73
     1
 44
1.0
  0
MTEXT
  5
65
330
59
100
AcDbEntity
  8
0
  6
Continuous
 62
     0
370
     0
100
AcDbMText
 10
0.0
 20
-18.42186516865658
 30
0.0
 40
2.0
 41
0.0
 71
     1
 72
     1
  1
%%p
  7
SLDTEXTSTYLE0
 73
     1
 44
1.0
  0
MTEXT
  5
66
330
59
100
AcDbEntity
  8
0
  6
Continuous
 62
     0
370
     0
100
AcDbMText
 10
1.841666758991778
 20
-18.42186516865658
 30
0.0
 40
2.0
 41
0.0
 71
     1
 72
     1
  1
0,2
  7
SLDTEXTSTYLE0
 73
     1
 44
1.0
  0
MTEXT
  5
67
330
59
100
AcDbEntity
  8
0
  6
Continuous
 62
     0
370
     0
100
AcDbMText
 10
0.0
 20
-21.92186527669
 30
0.0
 40
2.0
 41
0.0
 71
     1
 72
     1
  1
%%p
  7
SLDTEXTSTYLE0
 73
     1
 44
1.0
  0
MTEXT
  5
68
330
59
100
AcDbEntity
  8
0
  6
Continuous
 62
     0
370
     0
100
AcDbMText
 10
1.841666758991778
 20
-21.92186527669
 30
0.0
 40
2.0
 41
0.0
 71
     1
 72
     1
  1
0,4
  7
SLDTEXTSTYLE0
 73
     1
 44
1.0
  0
ENDBLK
  5
5B
330
59
100
AcDbEntity
  8
0
100
AcDbBlockEnd
  0
BLOCK
  5
6B
330
6A
100
AcDbEntity
  8
0
100
AcDbBlockBegin
  2
SW_NOTE_1
 70
     0
 10
0.0
 20
0.0
 30
0.0
  3
SW_NOTE_1
  1
SW_NOTE_1
  0
MTEXT
  5
6D
330
6A
100
AcDbEntity
  8
0
  6
Continuous
 62
     0
370
     0
100
AcDbMText
 10
0.0
 20
2.578135479543931
 30
0.0
 40
2.0
 41
0.0
 71
     1
 72
     1
  1
ISO-2768-f
  7
SLDTEXTSTYLE0
 73
     1
 44
1.0
  0
MTEXT
  5
6E
330
6A
100
AcDbEntity
  8
0
  6
Continuous
 62
     0
370
     0
100
AcDbMText
 10
0.0
 20
-0.9218646284894876
 30
0.0
 40
2.0
 41
0.0
 71
     1
 72
     1
  1
ISO-2768-m
  7
SLDTEXTSTYLE0
 73
     1
 44
1.0
  0
MTEXT
  5
6F
330
6A
100
AcDbEntity
  8
0
  6
Continuous
 62
     0
370
     0
100
AcDbMText
 10
0.0
 20
-4.421864736522906
 30
0.0
 40
2.0
 41
0.0
 71
     1
 72
     1
  1
ISO-2768-c
  7
SLDTEXTSTYLE0
 73
     1
 44
1.0
  0
MTEXT
  5
70
330
6A
100
AcDbEntity
  8
0
  6
Continuous
 62
     0
370
     0
100
AcDbMText
 10
0.0
 20
-7.921864844556325
 30
0.0
 40
2.0
 41
0.0
 71
     1
 72
     1
  1
ISO-2768-f/m
  7
SLDTEXTSTYLE0
 73
     1
 44
1.0
  0
MTEXT
  5
71
330
6A
100
AcDbEntity
  8
0
  6
Continuous
 62
     0
370
     0
100
AcDbMText
 10
0.0
 20
-11.42186495258974
 30
0.0
 40
2.0
 41
0.0
 71
     1
 72
     1
  1
ISO-2768-c
  7
SLDTEXTSTYLE0
 73
     1
 44
1.0
  0
ENDBLK
  5
6C
330
6A
100
AcDbEntity
  8
0
100
AcDbBlockEnd
  0
BLOCK
  5
74
330
73
100
AcDbEntity
  8
0
100
AcDbBlockBegin
  2
SW_NOTE_2
 70
     0
 10
0.0
 20
0.0
 30
0.0
  3
SW_NOTE_2
  1
SW_NOTE_2
  0
MTEXT
  5
76
330
73
100
AcDbEntity
  8
0
  6
Continuous
 62
     0
370
     0
100
AcDbMText
 10
0.0
 20
2.578135479543931
 30
0.0
 40
2.0
 41
0.0
 71
     1
 72
     1
  1
Pituusmitat
  7
SLDTEXTSTYLE0
 73
     1
 44
1.0
  0
MTEXT
  5
77
330
73
100
AcDbEntity
  8
0
  6
Continuous
 62
     0
370
     0
100
AcDbMText
 10
0.0
 20
-7.921864844556325
 30
0.0
 40
2.0
 41
0.0
 71
     1
 72
     1
  1
Säteet, viisteet
  7
SLDTEXTSTYLE0
 73
     1
 44
1.0
  0
ENDBLK
  5
75
330
73
100
AcDbEntity
  8
0
100
AcDbBlockEnd
  0
BLOCK
  5
7B
330
7A
100
AcDbEntity
  8
0
100
AcDbBlockBegin
  2
SW_NOTE_3
 70
     0
 10
0.0
 20
0.0
 30
0.0
  3
SW_NOTE_3
  1
SW_NOTE_3
  0
MTEXT
  5
7D
330
7A
100
AcDbEntity
  8
0
  6
Continuous
 62
     0
370
     0
100
AcDbMText
 10
1.500000000000001
 20
2.578135479543931
 30
0.0
 40
2.0
 41
0.0
 71
     1
 72
     1
  1
>3
  7
SLDTEXTSTYLE0
 73
     1
 44
1.0
  0
MTEXT
  5
7E
330
7A
100
AcDbEntity
  8
0
  6
Continuous
 62
     0
370
     0
100
AcDbMText
 10
0.0
 20
-0.9218646284894876
 30
0.0
 40
2.0
 41
0.0
 71
     1
 72
     1
  1
=<6
  7
SLDTEXTSTYLE0
 73
     1
 44
1.0
  0
MTEXT
  5
7F
330
7A
100
AcDbEntity
  8
0
  6
Continuous
 62
     0
370
     0
100
AcDbMText
 10
0.0
 20
-7.921864844556325
 30
0.0
 40
2.0
 41
0.0
 71
     1
 72
     1
  1
%%p
  7
SLDTEXTSTYLE0
 73
     1
 44
1.0
  0
MTEXT
  5
80
330
7A
100
AcDbEntity
  8
0
  6
Continuous
 62
     0
370
     0
100
AcDbMText
 10
1.841666758991778
 20
-7.921864844556325
 30
0.0
 40
2.0
 41
0.0
 71
     1
 72
     1
  1
0,05
  7
SLDTEXTSTYLE0
 73
     1
 44
1.0
  0
MTEXT
  5
81
330
7A
100
AcDbEntity
  8
0
  6
Continuous
 62
     0
370
     0
100
AcDbMText
 10
0.0
 20
-11.42186495258974
 30
0.0
 40
2.0
 41
0.0
 71
     1
 72
     1
  1
%%p
  7
SLDTEXTSTYLE0
 73
     1
 44
1.0
  0
MTEXT
  5
82
330
7A
100
AcDbEntity
  8
0
  6
Continuous
 62
     0
370
     0
100
AcDbMText
 10
1.841666758991778
 20
-11.42186495258974
 30
0.0
 40
2.0
 41
0.0
 71
     1
 72
     1
  1
0,1
  7
SLDTEXTSTYLE0
 73
     1
 44
1.0
  0
MTEXT
  5
83
330
7A
100
AcDbEntity
  8
0
  6
Continuous
 62
     0
370
     0
100
AcDbMText
 10
0.0
 20
-14.92186506062316
 30
0.0
 40
2.0
 41
0.0
 71
     1
 72
     1
  1
%%p
  7
SLDTEXTSTYLE0
 73
     1
 44
1.0
  0
MTEXT
  5
84
330
7A
100
AcDbEntity
  8
0
  6
Continuous
 62
     0
370
     0
100
AcDbMText
 10
1.841666758991778
 20
-14.92186506062316
 30
0.0
 40
2.0
 41
0.0
 71
     1
 72
     1
  1
0,3
  7
SLDTEXTSTYLE0
 73
     1
 44
1.0
  0
MTEXT
  5
85
330
7A
100
AcDbEntity
  8
0
  6
Continuous
 62
     0
370
     0
100
AcDbMText
 10
0.0
 20
-18.42186516865658
 30
0.0
 40
2.0
 41
0.0
 71
     1
 72
     1
  1
%%p
  7
SLDTEXTSTYLE0
 73
     1
 44
1.0
  0
MTEXT
  5
86
330
7A
100
AcDbEntity
  8
0
  6
Continuous
 62
     0
370
     0
100
AcDbMText
 10
1.841666758991778
 20
-18.42186516865658
 30
0.0
 40
2.0
 41
0.0
 71
     1
 72
     1
  1
0,5
  7
SLDTEXTSTYLE0
 73
     1
 44
1.0
  0
MTEXT
  5
87
330
7A
100
AcDbEntity
  8
0
  6
Continuous
 62
     0
370
     0
100
AcDbMText
 10
0.0
 20
-21.92186527669
 30
0.0
 40
2.0
 41
0.0
 71
     1
 72
     1
  1
%%p
  7
SLDTEXTSTYLE0
 73
     1
 44
1.0
  0
MTEXT
  5
88
330
7A
100
AcDbEntity
  8
0
  6
Continuous
 62
     0
370
     0
100
AcDbMText
 10
1.841666758991778
 20
-21.92186527669
 30
0.0
 40
2.0
 41
0.0
 71
     1
 72
     1
  1
1
  7
SLDTEXTSTYLE0
 73
     1
 44
1.0
  0
ENDBLK
  5
7C
330
7A
100
AcDbEntity
  8
0
100
AcDbBlockEnd
  0
BLOCK
  5
8B
330
8A
100
AcDbEntity
  8
0
100
AcDbBlockBegin
  2
SW_NOTE_4
 70
     0
 10
0.0
 20
0.0
 30
0.0
  3
SW_NOTE_4
  1
SW_NOTE_4
  0
MTEXT
  5
8D
330
8A
100
AcDbEntity
  8
0
  6
Continuous
 62
     0
370
     0
100
AcDbMText
 10
1.500000000000001
 20
2.578135479543931
 30
0.0
 40
2.0
 41
0.0
 71
     1
 72
     1
  1
>6
  7
SLDTEXTSTYLE0
 73
     1
 44
1.0
  0
MTEXT
  5
8E
330
8A
100
AcDbEntity
  8
0
  6
Continuous
 62
     0
370
     0
100
AcDbMText
 10
0.0
 20
-0.9218646284894876
 30
0.0
 40
2.0
 41
0.0
 71
     1
 72
     1
  1
=<30
  7
SLDTEXTSTYLE0
 73
     1
 44
1.0
  0
MTEXT
  5
8F
330
8A
100
AcDbEntity
  8
0
  6
Continuous
 62
     0
370
     0
100
AcDbMText
 10
0.0
 20
-7.921864844556325
 30
0.0
 40
2.0
 41
0.0
 71
     1
 72
     1
  1
%%p
  7
SLDTEXTSTYLE0
 73
     1
 44
1.0
  0
MTEXT
  5
90
330
8A
100
AcDbEntity
  8
0
  6
Continuous
 62
     0
370
     0
100
AcDbMText
 10
1.841666758991778
 20
-7.921864844556325
 30
0.0
 40
2.0
 41
0.0
 71
     1
 72
     1
  1
0,1
  7
SLDTEXTSTYLE0
 73
     1
 44
1.0
  0
MTEXT
  5
91
330
8A
100
AcDbEntity
  8
0
  6
Continuous
 62
     0
370
     0
100
AcDbMText
 10
0.0
 20
-11.42186495258974
 30
0.0
 40
2.0
 41
0.0
 71
     1
 72
     1
  1
%%p
  7
SLDTEXTSTYLE0
 73
     1
 44
1.0
  0
MTEXT
  5
92
330
8A
100
AcDbEntity
  8
0
  6
Continuous
 62
     0
370
     0
100
AcDbMText
 10
1.841666758991778
 20
-11.42186495258974
 30
0.0
 40
2.0
 41
0.0
 71
     1
 72
     1
  1
0,2
  7
SLDTEXTSTYLE0
 73
     1
 44
1.0
  0
MTEXT
  5
93
330
8A
100
AcDbEntity
  8
0
  6
Continuous
 62
     0
370
     0
100
AcDbMText
 10
0.0
 20
-14.92186506062316
 30
0.0
 40
2.0
 41
0.0
 71
     1
 72
     1
  1
%%p
  7
SLDTEXTSTYLE0
 73
     1
 44
1.0
  0
MTEXT
  5
94
330
8A
100
AcDbEntity
  8
0
  6
Continuous
 62
     0
370
     0
100
AcDbMText
 10
1.841666758991778
 20
-14.92186506062316
 30
0.0
 40
2.0
 41
0.0
 71
     1
 72
     1
  1
0,5
  7
SLDTEXTSTYLE0
 73
     1
 44
1.0
  0
MTEXT
  5
95
330
8A
100
AcDbEntity
  8
0
  6
Continuous
 62
     0
370
     0
100
AcDbMText
 10
0.0
 20
-18.42186516865658
 30
0.0
 40
2.0
 41
0.0
 71
     1
 72
     1
  1
%%p
  7
SLDTEXTSTYLE0
 73
     1
 44
1.0
  0
MTEXT
  5
96
330
8A
100
AcDbEntity
  8
0
  6
Continuous
 62
     0
370
     0
100
AcDbMText
 10
1.841666758991778
 20
-18.42186516865658
 30
0.0
 40
2.0
 41
0.0
 71
     1
 72
     1
  1
1
  7
SLDTEXTSTYLE0
 73
     1
 44
1.0
  0
MTEXT
  5
97
330
8A
100
AcDbEntity
  8
0
  6
Continuous
 62
     0
370
     0
100
AcDbMText
 10
0.0
 20
-21.92186527669
 30
0.0
 40
2.0
 41
0.0
 71
     1
 72
     1
  1
%%p
  7
SLDTEXTSTYLE0
 73
     1
 44
1.0
  0
MTEXT
  5
98
330
8A
100
AcDbEntity
  8
0
  6
Continuous
 62
     0
370
     0
100
AcDbMText
 10
1.841666758991778
 20
-21.92186527669
 30
0.0
 40
2.0
 41
0.0
 71
     1
 72
     1
  1
2
  7
SLDTEXTSTYLE0
 73
     1
 44
1.0
  0
ENDBLK
  5
8C
330
8A
100
AcDbEntity
  8
0
100
AcDbBlockEnd
  0
BLOCK
  5
9B
330
9A
100
AcDbEntity
  8
0
100
AcDbBlockBegin
  2
SW_NOTE_5
 70
     0
 10
0.0
 20
0.0
 30
0.0
  3
SW_NOTE_5
  1
SW_NOTE_5
  0
MTEXT
  5
9D
330
9A
100
AcDbEntity
  8
0
  6
Continuous
 62
     0
370
     0
100
AcDbMText
 10
1.500000000000001
 20
2.578135479543931
 30
0.0
 40
2.0
 41
0.0
 71
     1
 72
     1
  1
>30
  7
SLDTEXTSTYLE0
 73
     1
 44
1.0
  0
MTEXT
  5
9E
330
9A
100
AcDbEntity
  8
0
  6
Continuous
 62
     0
370
     0
100
AcDbMText
 10
0.0
 20
-0.9218646284894876
 30
0.0
 40
2.0
 41
0.0
 71
     1
 72
     1
  1
=<120
  7
SLDTEXTSTYLE0
 73
     1
 44
1.0
  0
MTEXT
  5
9F
330
9A
100
AcDbEntity
  8
0
  6
Continuous
 62
     0
370
     0
100
AcDbMText
 10
0.0
 20
-7.921864844556325
 30
0.0
 40
2.0
 41
0.0
 71
     1
 72
     1
  1
%%p
  7
SLDTEXTSTYLE0
 73
     1
 44
1.0
  0
MTEXT
  5
A0
330
9A
100
AcDbEntity
  8
0
  6
Continuous
 62
     0
370
     0
100
AcDbMText
 10
1.841666758991778
 20
-7.921864844556325
 30
0.0
 40
2.0
 41
0.0
 71
     1
 72
     1
  1
0,15
  7
SLDTEXTSTYLE0
 73
     1
 44
1.0
  0
MTEXT
  5
A1
330
9A
100
AcDbEntity
  8
0
  6
Continuous
 62
     0
370
     0
100
AcDbMText
 10
0.0
 20
-11.42186495258974
 30
0.0
 40
2.0
 41
0.0
 71
     1
 72
     1
  1
%%p
  7
SLDTEXTSTYLE0
 73
     1
 44
1.0
  0
MTEXT
  5
A2
330
9A
100
AcDbEntity
  8
0
  6
Continuous
 62
     0
370
     0
100
AcDbMText
 10
1.841666758991778
 20
-11.42186495258974
 30
0.0
 40
2.0
 41
0.0
 71
     1
 72
     1
  1
0,3
  7
SLDTEXTSTYLE0
 73
     1
 44
1.0
  0
MTEXT
  5
A3
330
9A
100
AcDbEntity
  8
0
  6
Continuous
 62
     0
370
     0
100
AcDbMText
 10
0.0
 20
-14.92186506062316
 30
0.0
 40
2.0
 41
0.0
 71
     1
 72
     1
  1
%%p
  7
SLDTEXTSTYLE0
 73
     1
 44
1.0
  0
MTEXT
  5
A4
330
9A
100
AcDbEntity
  8
0
  6
Continuous
 62
     0
370
     0
100
AcDbMText
 10
1.841666758991778
 20
-14.92186506062316
 30
0.0
 40
2.0
 41
0.0
 71
     1
 72
     1
  1
0,8
  7
SLDTEXTSTYLE0
 73
     1
 44
1.0
  0
ENDBLK
  5
9C
330
9A
100
AcDbEntity
  8
0
100
AcDbBlockEnd
  0
BLOCK
  5
A7
330
A6
100
AcDbEntity
  8
0
100
AcDbBlockBegin
  2
SW_NOTE_6
 70
     0
 10
0.0
 20
0.0
 30
0.0
  3
SW_NOTE_6
  1
SW_NOTE_6
  0
MTEXT
  5
A9
330
A6
100
AcDbEntity
  8
0
  6
Continuous
 62
     0
370
     0
100
AcDbMText
 10
1.500000000000001
 20
2.578135479543931
 30
0.0
 40
2.0
 41
0.0
 71
     1
 72
     1
  1
>120
  7
SLDTEXTSTYLE0
 73
     1
 44
1.0
  0
MTEXT
  5
AA
330
A6
100
AcDbEntity
  8
0
  6
Continuous
 62
     0
370
     0
100
AcDbMText
 10
0.0
 20
-0.9218646284894876
 30
0.0
 40
2.0
 41
0.0
 71
     1
 72
     1
  1
=<400
  7
SLDTEXTSTYLE0
 73
     1
 44
1.0
  0
MTEXT
  5
AB
330
A6
100
AcDbEntity
  8
0
  6
Continuous
 62
     0
370
     0
100
AcDbMText
 10
0.0
 20
-7.921864844556325
 30
0.0
 40
2.0
 41
0.0
 71
     1
 72
     1
  1
%%p
  7
SLDTEXTSTYLE0
 73
     1
 44
1.0
  0
MTEXT
  5
AC
330
A6
100
AcDbEntity
  8
0
  6
Continuous
 62
     0
370
     0
100
AcDbMText
 10
1.841666758991778
 20
-7.921864844556325
 30
0.0
 40
2.0
 41
0.0
 71
     1
 72
     1
  1
0,2
  7
SLDTEXTSTYLE0
 73
     1
 44
1.0
  0
MTEXT
  5
AD
330
A6
100
AcDbEntity
  8
0
  6
Continuous
 62
     0
370
     0
100
AcDbMText
 10
0.0
 20
-11.42186495258974
 30
0.0
 40
2.0
 41
0.0
 71
     1
 72
     1
  1
%%p
  7
SLDTEXTSTYLE0
 73
     1
 44
1.0
  0
MTEXT
  5
AE
330
A6
100
AcDbEntity
  8
0
  6
Continuous
 62
     0
370
     0
100
AcDbMText
 10
1.841666758991778
 20
-11.42186495258974
 30
0.0
 40
2.0
 41
0.0
 71
     1
 72
     1
  1
0,5
  7
SLDTEXTSTYLE0
 73
     1
 44
1.0
  0
MTEXT
  5
AF
330
A6
100
AcDbEntity
  8
0
  6
Continuous
 62
     0
370
     0
100
AcDbMText
 10
0.0
 20
-14.92186506062316
 30
0.0
 40
2.0
 41
0.0
 71
     1
 72
     1
  1
%%p
  7
SLDTEXTSTYLE0
 73
     1
 44
1.0
  0
MTEXT
  5
B0
330
A6
100
AcDbEntity
  8
0
  6
Continuous
 62
     0
370
     0
100
AcDbMText
 10
1.841666758991778
 20
-14.92186506062316
 30
0.0
 40
2.0
 41
0.0
 71
     1
 72
     1
  1
1,2
  7
SLDTEXTSTYLE0
 73
     1
 44
1.0
  0
ENDBLK
  5
A8
330
A6
100
AcDbEntity
  8
0
100
AcDbBlockEnd
  0
BLOCK
  5
B3
330
B2
100
AcDbEntity
  8
0
100
AcDbBlockBegin
  2
SW_NOTE_7
 70
     0
 10
0.0
 20
0.0
 30
0.0
  3
SW_NOTE_7
  1
SW_NOTE_7
  0
MTEXT
  5
B5
330
B2
100
AcDbEntity
  8
0
  6
Continuous
 62
     0
370
     0
100
AcDbMText
 10
1.500000000000001
 20
2.578135479543931
 30
0.0
 40
2.0
 41
0.0
 71
     1
 72
     1
  1
>400
  7
SLDTEXTSTYLE0
 73
     1
 44
1.0
  0
MTEXT
  5
B6
330
B2
100
AcDbEntity
  8
0
  6
Continuous
 62
     0
370
     0
100
AcDbMText
 10
0.0
 20
-0.9218646284894876
 30
0.0
 40
2.0
 41
0.0
 71
     1
 72
     1
  1
=<1000
  7
SLDTEXTSTYLE0
 73
     1
 44
1.0
  0
MTEXT
  5
B7
330
B2
100
AcDbEntity
  8
0
  6
Continuous
 62
     0
370
     0
100
AcDbMText
 10
0.0
 20
-7.921864844556325
 30
0.0
 40
2.0
 41
0.0
 71
     1
 72
     1
  1
%%p
  7
SLDTEXTSTYLE0
 73
     1
 44
1.0
  0
MTEXT
  5
B8
330
B2
100
AcDbEntity
  8
0
  6
Continuous
 62
     0
370
     0
100
AcDbMText
 10
1.841666758991778
 20
-7.921864844556325
 30
0.0
 40
2.0
 41
0.0
 71
     1
 72
     1
  1
0,3
  7
SLDTEXTSTYLE0
 73
     1
 44
1.0
  0
MTEXT
  5
B9
330
B2
100
AcDbEntity
  8
0
  6
Continuous
 62
     0
370
     0
100
AcDbMText
 10
0.0
 20
-11.42186495258974
 30
0.0
 40
2.0
 41
0.0
 71
     1
 72
     1
  1
%%p
  7
SLDTEXTSTYLE0
 73
     1
 44
1.0
  0
MTEXT
  5
BA
330
B2
100
AcDbEntity
  8
0
  6
Continuous
 62
     0
370
     0
100
AcDbMText
 10
1.841666758991778
 20
-11.42186495258974
 30
0.0
 40
2.0
 41
0.0
 71
     1
 72
     1
  1
0,8
  7
SLDTEXTSTYLE0
 73
     1
 44
1.0
  0
MTEXT
  5
BB
330
B2
100
AcDbEntity
  8
0
  6
Continuous
 62
     0
370
     0
100
AcDbMText
 10
0.0
 20
-14.92186506062316
 30
0.0
 40
2.0
 41
0.0
 71
     1
 72
     1
  1
%%p
  7
SLDTEXTSTYLE0
 73
     1
 44
1.0
  0
MTEXT
  5
BC
330
B2
100
AcDbEntity
  8
0
  6
Continuous
 62
     0
370
     0
100
AcDbMText
 10
1.841666758991778
 20
-14.92186506062316
 30
0.0
 40
2.0
 41
0.0
 71
     1
 72
     1
  1
1,2
  7
SLDTEXTSTYLE0
 73
     1
 44
1.0
  0
ENDBLK
  5
B4
330
B2
100
AcDbEntity
  8
0
100
AcDbBlockEnd
  0
BLOCK
  5
BF
330
BE
100
AcDbEntity
  8
0
100
AcDbBlockBegin
  2
SW_NOTE_8
 70
     0
 10
0.0
 20
0.0
 30
0.0
  3
SW_NOTE_8
  1
SW_NOTE_8
  0
MTEXT
  5
C1
330
BE
100
AcDbEntity
  8
0
  6
Continuous
 62
     0
370
     0
100
AcDbMText
 10
1.500000000000001
 20
2.578135479543931
 30
0.0
 40
2.0
 41
0.0
 71
     1
 72
     1
  1
>1000
  7
SLDTEXTSTYLE0
 73
     1
 44
1.0
  0
MTEXT
  5
C2
330
BE
100
AcDbEntity
  8
0
  6
Continuous
 62
     0
370
     0
100
AcDbMText
 10
0.0
 20
-0.9218646284894876
 30
0.0
 40
2.0
 41
0.0
 71
     1
 72
     1
  1
=<2000
  7
SLDTEXTSTYLE0
 73
     1
 44
1.0
  0
MTEXT
  5
C3
330
BE
100
AcDbEntity
  8
0
  6
Continuous
 62
     0
370
     0
100
AcDbMText
 10
0.0
 20
-7.921864844556325
 30
0.0
 40
2.0
 41
0.0
 71
     1
 72
     1
  1
%%p
  7
SLDTEXTSTYLE0
 73
     1
 44
1.0
  0
MTEXT
  5
C4
330
BE
100
AcDbEntity
  8
0
  6
Continuous
 62
     0
370
     0
100
AcDbMText
 10
1.841666758991778
 20
-7.921864844556325
 30
0.0
 40
2.0
 41
0.0
 71
     1
 72
     1
  1
0,5
  7
SLDTEXTSTYLE0
 73
     1
 44
1.0
  0
MTEXT
  5
C5
330
BE
100
AcDbEntity
  8
0
  6
Continuous
 62
     0
370
     0
100
AcDbMText
 10
0.0
 20
-11.42186495258974
 30
0.0
 40
2.0
 41
0.0
 71
     1
 72
     1
  1
%%p
  7
SLDTEXTSTYLE0
 73
     1
 44
1.0
  0
MTEXT
  5
C6
330
BE
100
AcDbEntity
  8
0
  6
Continuous
 62
     0
370
     0
100
AcDbMText
 10
1.841666758991778
 20
-11.42186495258974
 30
0.0
 40
2.0
 41
0.0
 71
     1
 72
     1
  1
1,2
  7
SLDTEXTSTYLE0
 73
     1
 44
1.0
  0
MTEXT
  5
C7
330
BE
100
AcDbEntity
  8
0
  6
Continuous
 62
     0
370
     0
100
AcDbMText
 10
0.0
 20
-14.92186506062316
 30
0.0
 40
2.0
 41
0.0
 71
     1
 72
     1
  1
%%p
  7
SLDTEXTSTYLE0
 73
     1
 44
1.0
  0
MTEXT
  5
C8
330
BE
100
AcDbEntity
  8
0
  6
Continuous
 62
     0
370
     0
100
AcDbMText
 10
1.841666758991778
 20
-14.92186506062316
 30
0.0
 40
2.0
 41
0.0
 71
     1
 72
     1
  1
3
  7
SLDTEXTSTYLE0
 73
     1
 44
1.0
  0
ENDBLK
  5
C0
330
BE
100
AcDbEntity
  8
0
100
AcDbBlockEnd
  0
BLOCK
  5
CB
330
CA
100
AcDbEntity
  8
0
100
AcDbBlockBegin
  2
SW_NOTE_9
 70
     0
 10
0.0
 20
0.0
 30
0.0
  3
SW_NOTE_9
  1
SW_NOTE_9
  0
MTEXT
  5
CD
330
CA
100
AcDbEntity
  8
0
  6
Continuous
 62
     0
370
     0
100
AcDbMText
 10
1.5
 20
2.578135479543931
 30
0.0
 40
2.0
 41
0.0
 71
     1
 72
     1
  1
>2000
  7
SLDTEXTSTYLE0
 73
     1
 44
1.0
  0
MTEXT
  5
CE
330
CA
100
AcDbEntity
  8
0
  6
Continuous
 62
     0
370
     0
100
AcDbMText
 10
0.0
 20
-0.9218646284894876
 30
0.0
 40
2.0
 41
0.0
 71
     1
 72
     1
  1
=<4000
  7
SLDTEXTSTYLE0
 73
     1
 44
1.0
  0
MTEXT
  5
CF
330
CA
100
AcDbEntity
  8
0
  6
Continuous
 62
     0
370
     0
100
AcDbMText
 10
2.999999999999999
 20
-7.921864844556325
 30
0.0
 40
2.0
 41
0.0
 71
     1
 72
     1
  1
-
  7
SLDTEXTSTYLE0
 73
     1
 44
1.0
  0
MTEXT
  5
D0
330
CA
100
AcDbEntity
  8
0
  6
Continuous
 62
     0
370
     0
100
AcDbMText
 10
0.0
 20
-11.42186495258974
 30
0.0
 40
2.0
 41
0.0
 71
     1
 72
     1
  1
%%p
  7
SLDTEXTSTYLE0
 73
     1
 44
1.0
  0
MTEXT
  5
D1
330
CA
100
AcDbEntity
  8
0
  6
Continuous
 62
     0
370
     0
100
AcDbMText
 10
1.841666758991778
 20
-11.42186495258974
 30
0.0
 40
2.0
 41
0.0
 71
     1
 72
     1
  1
2,0
  7
SLDTEXTSTYLE0
 73
     1
 44
1.0
  0
MTEXT
  5
D2
330
CA
100
AcDbEntity
  8
0
  6
Continuous
 62
     0
370
     0
100
AcDbMText
 10
0.0
 20
-14.92186506062316
 30
0.0
 40
2.0
 41
0.0
 71
     1
 72
     1
  1
%%p
  7
SLDTEXTSTYLE0
 73
     1
 44
1.0
  0
MTEXT
  5
D3
330
CA
100
AcDbEntity
  8
0
  6
Continuous
 62
     0
370
     0
100
AcDbMText
 10
1.841666758991778
 20
-14.92186506062316
 30
0.0
 40
2.0
 41
0.0
 71
     1
 72
     1
  1
4
  7
SLDTEXTSTYLE0
 73
     1
 44
1.0
  0
ENDBLK
  5
CC
330
CA
100
AcDbEntity
  8
0
100
AcDbBlockEnd
  0
ENDSEC
  0
SECTION
  2
ENTITIES
  0
LINE
  5
D5
330
1F
100
AcDbEntity
  8
0
  6
Continuous
 62
     7
370
    15
100
AcDbLine
 10
876.9629612860862
 20
272.0071191229317
 30
0.0
 11
876.9629612860862
 21
562.007118228862
 31
0.0
  0
ARC
  5
D6
330
1F
100
AcDbEntity
  8
0
  6
Continuous
 62
     7
370
    15
100
AcDbCircle
 10
1021.962905573608
 20
562.0071147802221
 30
0.0
 40
25.00000000000011
100
AcDbArc
 50
0.0
 51
90.0
  0
ARC
  5
D7
330
1F
100
AcDbEntity
  8
0
  6
Continuous
 62
     7
370
    15
100
AcDbCircle
 10
901.9629055736079
 20
272.0071147802222
 30
0.0
 40
26.5
100
AcDbArc
 50
180.0
 51
270.0000000000008
  0
ARC
  5
D8
330
1F
100
AcDbEntity
  8
0
  6
Continuous
 62
     7
370
    15
100
AcDbCircle
 10
1021.962905573608
 20
272.0071147802222
 30
0.0
 40
25.0
100
AcDbArc
 50
270.0000000000008
 51
0.0
  0
LINE
  5
D9
330
1F
100
AcDbEntity
  8
0
  6
Continuous
 62
     7
370
    15
100
AcDbLine
 10
1046.962918370742
 20
562.007118228862
 30
0.0
 11
1046.962918370742
 21
272.0071191229317
 31
0.0
  0
ARC
  5
DA
330
1F
100
AcDbEntity
  8
0
  6
Continuous
 62
     7
370
    15
100
AcDbCircle
 10
901.9629055736079
 20
562.0071147802221
 30
0.0
 40
25.00000000000011
100
AcDbArc
 50
90.0
 51
180.0
  0
LINE
  5
DB
330
1F
100
AcDbEntity
  8
0
  6
Continuous
 62
     7
370
    15
100
AcDbLine
 10
901.9629374442283
 20
587.0071167387459
 30
0.0
 11
1021.9629422126
 21
587.0071167387459
 31
0.0
  0
LINE
  5
DC
330
1F
100
AcDbEntity
  8
0
  6
Continuous
 62
     7
370
    15
100
AcDbLine
 10
1021.9629422126
 20
247.0071131624672
 30
0.0
 11
901.9629374442283
 21
247.0071131624672
 31
0.0
  0
ARC
  5
DD
330
1F
100
AcDbEntity
  8
0
  6
Continuous
 62
     7
370
    15
100
AcDbCircle
 10
901.9629055736079
 20
272.0071147802222
 30
0.0
 40
25.0
100
AcDbArc
 50
180.0
 51
270.0000000000008
  0
SPLINE
  5
DE
330
1F
100
AcDbEntity
  8
0
  6
Continuous
 62
     7
370
    15
100
AcDbSpline
210
0.0
220
0.0
230
1.0
 70
     8
 71
     3
 72
    12
 73
     8
 74
     0
 42
0.000000001
 43
0.00000001
 40
0.0
 40
0.0
 40
0.0
 40
0.0
 40
0.2046383588160111
 40
0.4030897040959878
 40
0.5969063220148463
 40
0.7953566737407364
 40
1.0
 40
1.0
 40
1.0
 40
1.0
 10
901.9629374442285
 20
248.9542329945061
 30
0.0
 10
910.1476718080742
 20
248.9708985141323
 30
0.0
 10
926.269684181097
 20
249.0037256899052
 30
0.0
 10
950.1473128148338
 20
249.0262060827531
 30
0.0
 10
973.7780502556556
 20
249.0262062613087
 30
0.0
 10
997.6558378784842
 20
249.0037250410874
 30
0.0
 10
1013.778009177546
 20
248.9708984550015
 30
0.0
 10
1021.9629422126
 20
248.9542329945061
 30
0.0
  0
LINE
  5
DF
330
1F
100
AcDbEntity
  8
0
  6
Continuous
 62
     7
370
    15
100
AcDbLine
 10
1021.9629422126
 20
247.0071131624672
 30
0.0
 11
1021.9629422126
 21
248.9542329945061
 31
0.0
  0
LINE
  5
E0
330
1F
100
AcDbEntity
  8
0
  6
Continuous
 62
     7
370
    15
100
AcDbLine
 10
901.9629374442283
 20
247.0071131624672
 30
0.0
 11
901.9629374442283
 21
248.9543075003121
 31
0.0
  0
SPLINE
  5
E1
330
1F
100
AcDbEntity
  8
0
  6
Continuous
 62
     7
370
    15
100
AcDbSpline
210
0.0
220
0.0
230
1.0
 70
     8
 71
     3
 72
    15
 73
    11
 74
     0
 42
0.000000001
 43
0.00000001
 40
0.0
 40
0.0
 40
0.0
 40
0.0
 40
0.1370431757446217
 40
0.2706558685813383
 40
0.40083199848171
 40
0.5275659280126598
 40
0.6508557860820169
 40
0.7706925509399264
 40
0.8870754178370693
 40
1.0
 40
1.0
 40
1.0
 40
1.0
 10
1045.005621045608
 20
562.007118228862
 30
0.0
 10
1044.903730101183
 20
563.6617306706837
 30
0.0
 10
1044.702498759935
 20
566.9295370767557
 30
0.0
 10
1043.114138436417
 20
571.5483465303485
 30
0.0
 10
1040.745389893248
 20
575.643971515602
 30
0.0
 10
1037.669360807415
 20
579.0825416008902
 30
0.0
 10
1034.087243071263
 20
581.7829835535922
 30
0.0
 10
1030.171145650638
 20
583.6830092177828
 30
0.0
 10
1026.092192395815
 20
584.8486872959267
 30
0.0
 10
1023.325450128412
 20
584.9902721371725
 30
0.0
 10
1021.9629422126
 20
585.059996906707
 30
0.0
  0
LINE
  5
E2
330
1F
100
AcDbEntity
  8
0
  6
Continuous
 62
     7
370
    15
100
AcDbLine
 10
1021.9629422126
 20
587.0071167387459
 30
0.0
 11
1021.9629422126
 21
585.0598553456757
 31
0.0
  0
LINE
  5
E3
330
1F
100
AcDbEntity
  8
0
  6
Continuous
 62
     7
370
    15
100
AcDbLine
 10
1046.962918370742
 20
562.007118228862
 30
0.0
 11
1045.005621045608
 21
562.007118228862
 31
0.0
  0
SPLINE
  5
E4
330
1F
100
AcDbEntity
  8
0
  6
Continuous
 62
     7
370
    15
100
AcDbSpline
210
0.0
220
0.0
230
1.0
 70
     8
 71
     3
 72
    15
 73
    11
 74
     0
 42
0.000000001
 43
0.00000001
 40
0.0
 40
0.0
 40
0.0
 40
0.0
 40
0.137047227963919
 40
0.2706616324176565
 40
0.4008397169468406
 40
0.5275749959924542
 40
0.6508611256933848
 40
0.7706967664865847
 40
0.8870789824123417
 40
1.0
 40
1.0
 40
1.0
 40
1.0
 10
878.9202586112204
 20
272.0071191229317
 30
0.0
 10
879.0221495609328
 20
270.3524555010487
 30
0.0
 10
879.2233792478627
 20
267.0845750509683
 30
0.0
 10
880.8117124405047
 20
262.4656448314886
 30
0.0
 10
883.1806000329626
 20
258.3700035949268
 30
0.0
 10
886.2567430749068
 20
254.9315494698498
 30
0.0
 10
889.8387619671125
 20
252.2310361809535
 30
0.0
 10
893.7548669668262
 20
250.3311366126787
 30
0.0
 10
897.8337734181333
 20
249.1655278599398
 30
0.0
 10
900.600469991636
 20
249.023952282777
 30
0.0
 10
901.9629374442283
 20
248.9542329945061
 30
0.0
  0
LINE
  5
E5
330
1F
100
AcDbEntity
  8
0
  6
Continuous
 62
     7
370
    15
100
AcDbLine
 10
876.9629612860862
 20
272.0071191229317
 30
0.0
 11
878.9202586112204
 21
272.0071191229317
 31
0.0
  0
SPLINE
  5
E6
330
1F
100
AcDbEntity
  8
0
  6
Continuous
 62
     7
370
    15
100
AcDbSpline
210
0.0
220
0.0
230
1.0
 70
     8
 71
     3
 72
    11
 73
     7
 74
     0
 42
0.000000001
 43
0.00000001
 40
0.0
 40
0.0
 40
0.0
 40
0.0
 40
0.2499289367902791
 40
0.4998842778810471
 40
0.7499280154137357
 40
1.0
 40
1.0
 40
1.0
 40
1.0
 10
1021.9629422126
 20
585.059996906707
 30
0.0
 10
1011.966661286454
 20
585.0400208524609
 30
0.0
 10
991.9730433547481
 20
585.0000666335535
 30
0.0
 10
961.9732919268068
 20
584.9831164552497
 30
0.0
 10
931.9678157805281
 20
585.0000390058672
 30
0.0
 10
911.964940150701
 20
585.0400101872226
 30
0.0
 10
901.9629374442283
 20
585.059996906707
 30
0.0
  0
LINE
  5
E7
330
1F
100
AcDbEntity
  8
0
  6
Continuous
 62
     7
370
    15
100
AcDbLine
 10
901.9629374442283
 20
587.0071167387459
 30
0.0
 11
901.9629374442283
 21
585.059996906707
 31
0.0
  0
SPLINE
  5
E8
330
1F
100
AcDbEntity
  8
0
  6
Continuous
 62
     7
370
    15
100
AcDbSpline
210
0.0
220
0.0
230
1.0
 70
     8
 71
     3
 72
    24
 73
    20
 74
     0
 42
0.000000001
 43
0.00000001
 40
0.0
 40
0.0
 40
0.0
 40
0.0
 40
0.0576402179578839
 40
0.1187433306433166
 40
0.1833115081109167
 40
0.2509658255173235
 40
0.2987382237327012
 40
0.3433972194629234
 40
0.3943249145645222
 40
0.4515215171161712
 40
0.5151431697136406
 40
0.5774257163731524
 40
0.6325564440231846
 40
0.680535420029724
 40
0.7213628682004946
 40
0.7585419044554873
 40
0.8120797994774378
 40
0.9105027614317278
 40
1.0
 40
1.0
 40
1.0
 40
1.0
 10
1045.005621045608
 20
272.0071191229317
 30
0.0
 10
1044.992915716864
 20
274.2062292244796
 30
0.0
 10
1044.966741751787
 20
278.7365670191761
 30
0.0
 10
1044.919884255875
 20
285.7271754368569
 30
0.0
 10
1044.865643742581
 20
293.0972893363966
 30
0.0
 10
1044.811027146497
 20
299.9569148724871
 30
0.0
 10
1044.758591591354
 20
306.0559600461049
 30
0.0
 10
1044.71010363297
 20
311.5168577100883
 30
0.0
 10
1044.656851537698
 20
317.3361196090679
 30
0.0
 10
1044.595591606136
 20
323.8771049275616
 30
0.0
 10
1044.52814668984
 20
330.8499062736403
 30
0.0
 10
1044.461115648589
 20
337.7442996631503
 30
0.0
 10
1044.399790610368
 20
344.0434493018887
 30
0.0
 10
1044.346606298825
 20
349.525962030341
 30
0.0
 10
1044.300276981627
 20
354.3252536216139
 30
0.0
 10
1044.253451467644
 20
359.3372735626224
 30
0.0
 10
1044.188797749578
 20
366.5457305034536
 30
0.0
 10
1044.111301221831
 20
375.7516432624613
 30
0.0
 10
1044.0627776068
 20
382.9219933675602
 30
0.0
 10
1044.039668172378
 20
386.3368818797562
 30
0.0
  0
SPLINE
  5
E9
330
1F
100
AcDbEntity
  8
0
  6
Continuous
 62
     7
370
    15
100
AcDbSpline
210
0.0
220
0.0
230
1.0
 70
     8
 71
     3
 72
    18
 73
    14
 74
     0
 42
0.000000001
 43
0.00000001
 40
0.0
 40
0.0
 40
0.0
 40
0.0
 40
0.0898927479629136
 40
0.1869387022788666
 40
0.2834602367307251
 40
0.3811334066475903
 40
0.4703095378342162
 40
0.5509927594663064
 40
0.6359363107406877
 40
0.7332943014073573
 40
0.824039053114867
 40
0.9121113805153094
 40
1.0
 40
1.0
 40
1.0
 40
1.0
 10
1044.039191335219
 20
386.3366881646607
 30
0.0
 10
1044.02367394677
 20
388.1772507128317
 30
0.0
 10
1043.991404375252
 20
392.004838388315
 30
0.0
 10
1043.910819568208
 20
397.7895433680134
 30
0.0
 10
1043.817398495639
 20
403.7242583887029
 30
0.0
 10
1043.7486357645
 20
409.5172911424492
 30
0.0
 10
1043.714106921887
 20
415.002289831182
 30
0.0
 10
1043.720278864403
 20
420.2319060986397
 30
0.0
 10
1043.763417915114
 20
425.6195433642586
 30
0.0
 10
1043.833239084632
 20
431.1984161823384
 30
0.0
 10
1043.915272308261
 20
436.8311745934999
 30
0.0
 10
1043.996459982304
 20
442.2698553436017
 30
0.0
 10
1044.024798467239
 20
445.8739316267125
 30
0.0
 10
1044.03895291664
 20
447.6740883924458
 30
0.0
  0
SPLINE
  5
EA
330
1F
100
AcDbEntity
  8
0
  6
Continuous
 62
     7
370
    15
100
AcDbSpline
210
0.0
220
0.0
230
1.0
 70
     8
 71
     3
 72
    23
 73
    19
 74
     0
 42
0.000000001
 43
0.00000001
 40
0.0
 40
0.0
 40
0.0
 40
0.0
 40
0.0569538721143128
 40
0.1176587073128695
 40
0.1821172361707955
 40
0.2499061050432449
 40
0.2955028738832264
 40
0.3394469326560366
 40
0.3905350016807522
 40
0.4487671613404497
 40
0.5133595512438353
 40
0.5741084417441361
 40
0.6412230878147129
 40
0.6985362233970677
 40
0.7460480582713455
 40
0.8109074674392455
 40
0.9095790267736694
 40
0.9999999999999999
 40
0.9999999999999999
 40
0.9999999999999999
 40
0.9999999999999999
 10
1044.039429753798
 20
447.6739114411566
 30
0.0
 10
1044.053718997691
 20
449.8472724691875
 30
0.0
 10
1044.083238570328
 20
454.337131360064
 30
0.0
 10
1044.137119548124
 20
461.2832230017988
 30
0.0
 10
1044.198764510475
 20
468.6398767342944
 30
0.0
 10
1044.259853221678
 20
475.4179592204219
 30
0.0
 10
1044.316675826767
 20
481.4121416428723
 30
0.0
 10
1044.36839377868
 20
486.7691317816814
 30
0.0
 10
1044.42519830559
 20
492.6068262524258
 30
0.0
 10
1044.489786340576
 20
499.2304801830227
 30
0.0
 10
1044.557922330464
 20
506.2214775815187
 30
0.0
 10
1044.627702431071
 20
513.5510602099491
 30
0.0
 10
1044.692986736248
 20
520.6040512979358
 30
0.0
 10
1044.751667630036
 20
527.1536687041473
 30
0.0
 10
1044.807161515798
 20
533.6184979660206
 30
0.0
 10
1044.871661507559
 20
541.6614996922834
 30
0.0
 10
1044.942709599573
 20
551.3432998782943
 30
0.0
 10
1044.985269563265
 20
558.5574357856042
 30
0.0
 10
1045.005621045608
 20
562.007118228862
 30
0.0
  0
LINE
  5
EB
330
1F
100
AcDbEntity
  8
0
  6
Continuous
 62
     7
370
    15
100
AcDbLine
 10
1046.962918370742
 20
272.0071191229317
 30
0.0
 11
1045.005621045608
 21
272.0071191229317
 31
0.0
  0
SPLINE
  5
EC
330
1F
100
AcDbEntity
  8
0
  6
Continuous
 62
     7
370
    15
100
AcDbSpline
210
0.0
220
0.0
230
1.0
 70
     8
 71
     3
 72
    15
 73
    11
 74
     0
 42
0.000000001
 43
0.00000001
 40
0.0
 40
0.0
 40
0.0
 40
0.0
 40
0.1129212157117936
 40
0.229303817091369
 40
0.3491401720788069
 40
0.472429360863078
 40
0.5991629320728311
 40
0.7293412030381748
 40
0.8629546249408395
 40
1.0
 40
1.0
 40
1.0
 40
1.0
 10
1021.9629422126
 20
248.9542329945061
 30
0.0
 10
1023.325409472959
 20
249.0239570632628
 30
0.0
 10
1026.092107843084
 20
249.1655424598448
 30
0.0
 10
1030.171025220155
 20
250.3311725459777
 30
0.0
 10
1034.087116974879
 20
252.2311731423063
 30
0.0
 10
1037.66925492685
 20
254.9315701040953
 30
0.0
 10
1040.745261491045
 20
258.370171719007
 30
0.0
 10
1043.114164881907
 20
262.4657447819605
 30
0.0
 10
1044.702496364724
 20
267.0846403850258
 30
0.0
 10
1044.903728942381
 20
270.3524808063478
 30
0.0
 10
1045.005621045608
 20
272.0071191229317
 30
0.0
  0
SPLINE
  5
ED
330
1F
100
AcDbEntity
  8
0
  6
Continuous
 62
     7
370
    15
100
AcDbSpline
210
0.0
220
0.0
230
1.0
 70
     8
 71
     3
 72
    15
 73
    11
 74
     0
 42
0.000000001
 43
0.00000001
 40
0.0
 40
0.0
 40
0.0
 40
0.0
 40
0.1129276529483095
 40
0.2293137693840689
 40
0.3491507206978764
 40
0.4724409251658697
 40
0.5991748811191417
 40
0.7293487072999224
 40
0.8629597343324165
 40
1.0
 40
1.0
 40
1.0
 40
1.0
 10
901.9629374442285
 20
585.059996906707
 30
0.0
 10
900.6003895884999
 20
584.9902686789999
 30
0.0
 10
897.8335651960166
 20
584.8486767631977
 30
0.0
 10
893.7545272387824
 20
583.6829691967056
 30
0.0
 10
889.8383933275803
 20
581.7828852989566
 30
0.0
 10
886.2562942867255
 20
579.0824017597391
 30
0.0
 10
883.18023724008
 20
575.6438615860395
 30
0.0
 10
880.8116639102844
 20
571.5481841896961
 30
0.0
 10
879.2232260186933
 20
566.9294785781442
 30
0.0
 10
879.0220972025685
 20
563.6617062529018
 30
0.0
 10
878.9202586112204
 20
562.007118228862
 30
0.0
  0
LINE
  5
EE
330
1F
100
AcDbEntity
  8
0
  6
Continuous
 62
     7
370
    15
100
AcDbLine
 10
876.9629612860862
 20
562.007118228862
 30
0.0
 11
878.9202586112204
 21
562.007118228862
 31
0.0
  0
SPLINE
  5
EF
330
1F
100
AcDbEntity
  8
0
  6
Continuous
 62
     7
370
    15
100
AcDbSpline
210
0.0
220
0.0
230
1.0
 70
     8
 71
     3
 72
    24
 73
    20
 74
     0
 42
0.000000001
 43
0.00000001
 40
0.0
 40
0.0
 40
0.0
 40
0.0
 40
0.0576439598514232
 40
0.1187520352704115
 40
0.1833264653260893
 40
0.2509879491437878
 40
0.298750234659922
 40
0.3434079507562687
 40
0.3943404110684323
 40
0.4515477035555062
 40
0.5151769143316345
 40
0.5774418842941216
 40
0.63256447477982
 40
0.6805447564909156
 40
0.7213828000337286
 40
0.7585782403545551
 40
0.8121133248730834
 40
0.9105240056776053
 40
1.0
 40
1.0
 40
1.0
 40
1.0
 10
878.9202586112207
 20
562.007118228862
 30
0.0
 10
878.9329640223912
 20
559.8077968356204
 30
0.0
 10
878.9591383768133
 20
555.2769857613222
 30
0.0
 10
879.005995350212
 20
548.2855925953843
 30
0.0
 10
879.0602380254612
 20
540.9145547343841
 30
0.0
 10
879.1148415961426
 20
534.0545980255519
 30
0.0
 10
879.1672915227842
 20
527.9555338928055
 30
0.0
 10
879.2157867579849
 20
522.4947284372686
 30
0.0
 10
879.2689934978281
 20
516.6747554418065
 30
0.0
 10
879.3304529362867
 20
510.132703814653
 30
0.0
 10
879.3978335434632
 20
503.1596720726379
 30
0.0
 10
879.4648494043852
 20
496.2657675536677
 30
0.0
 10
879.526346172368
 20
489.9673634017694
 30
0.0
 10
879.5795767825877
 20
484.4845449399779
 30
0.0
 10
879.6256456156971
 20
479.6840292104171
 30
0.0
 10
879.6727280445322
 20
474.6709401321128
 30
0.0
 10
879.7372767321153
 20
467.4622141344441
 30
0.0
 10
879.8148231539539
 20
458.2574020139159
 30
0.0
 10
879.8633434244024
 20
451.0880996023807
 30
0.0
 10
879.8864499030295
 20
447.6739114411566
 30
0.0
  0
SPLINE
  5
F0
330
1F
100
AcDbEntity
  8
0
  6
Continuous
 62
     7
370
    15
100
AcDbSpline
210
0.0
220
0.0
230
1.0
 70
     8
 71
     3
 72
    18
 73
    14
 74
     0
 42
0.000000001
 43
0.00000001
 40
0.0
 40
0.0
 40
0.0
 40
0.0
 40
0.0898439602047578
 40
0.1868102085010027
 40
0.2832836164447089
 40
0.3809347284493065
 40
0.4700751605405646
 40
0.550768275261234
 40
0.6357416310180358
 40
0.7331195814381805
 40
0.8239183897707523
 40
0.9120625815751335
 40
1.0
 40
1.0
 40
1.0
 40
1.0
 10
879.8869267401877
 20
447.6740883924458
 30
0.0
 10
879.9024004271914
 20
445.834520755451
 30
0.0
 10
879.9345744619159
 20
442.0095556377568
 30
0.0
 10
880.0150884016441
 20
436.2284204651922
 30
0.0
 10
880.1083350308663
 20
430.2967262457781
 30
0.0
 10
880.1771404663328
 20
424.505861053798
 30
0.0
 10
880.2116125765776
 20
419.0218593434819
 30
0.0
 10
880.205630780594
 20
413.7921573928337
 30
0.0
 10
880.1624960048973
 20
408.4032841776566
 30
0.0
 10
880.0924529759172
 20
402.8222964649354
 30
0.0
 10
880.0105320177346
 20
397.1865843249847
 30
0.0
 10
879.9291489292543
 20
391.7443855672108
 30
0.0
 10
879.9008307727806
 20
388.1378422391501
 30
0.0
 10
879.8866883216086
 20
386.3366881646607
 30
0.0
  0
SPLINE
  5
F1
330
1F
100
AcDbEntity
  8
0
  6
Continuous
 62
     7
370
    15
100
AcDbSpline
210
0.0
220
0.0
230
1.0
 70
     8
 71
     3
 72
    23
 73
    19
 74
     0
 42
0.000000001
 43
0.00000001
 40
0.0
 40
0.0
 40
0.0
 40
0.0
 40
0.0569686302223827
 40
0.1176844722321031
 40
0.1821503025716254
 40
0.2499422155017094
 40
0.2955170205696148
 40
0.3394545743649338
 40
0.3905454607365498
 40
0.4487898242581167
 40
0.5133944506101397
 40
0.574129285428515
 40
0.6412346202009522
 40
0.6985479307915669
 40
0.746069186121359
 40
0.8109229734916701
 40
0.9095853400004944
 40
1.0
 40
1.0
 40
1.0
 40
1.0
 10
879.8860922751609
 20
386.3368818797562
 30
0.0
 10
879.8718036976358
 20
384.1630281136925
 30
0.0
 10
879.8422866862828
 20
379.6723315290926
 30
0.0
 10
879.7883991413316
 20
372.7251980607731
 30
0.0
 10
879.7267812513094
 20
365.3679576853869
 30
0.0
 10
879.6656050884709
 20
358.5905235420551
 30
0.0
 10
879.6090364058989
 20
352.5974866166804
 30
0.0
 10
879.5570665960119
 20
347.2416356117535
 30
0.0
 10
879.5003129687152
 20
341.403789196505
 30
0.0
 10
879.4358475418312
 20
334.7792910694653
 30
0.0
 10
879.3679288671416
 20
327.7881010210776
 30
0.0
 10
879.2978889898019
 20
320.4591594368816
 30
0.0
 10
879.2326121587945
 20
313.4072585355873
 30
0.0
 10
879.1741163551073
 20
306.85782088359
 30
0.0
 10
879.1186024648773
 20
300.3930311518233
 30
0.0
 10
879.0540737141284
 20
292.3504757027412
 30
0.0
 10
878.9832072025436
 20
282.6697730288224
 30
0.0
 10
878.9406222776789
 20
275.4564533039915
 30
0.0
 10
878.9202586112204
 20
272.0071191229317
 30
0.0
  0
SPLINE
  5
F2
330
1F
100
AcDbEntity
  8
0
  6
Continuous
 62
     7
370
    15
100
AcDbSpline
210
0.0
220
0.0
230
1.0
 70
     8
 71
     3
 72
    15
 73
    11
 74
     0
 42
0.000000001
 43
0.00000001
 40
0.0
 40
0.0
 40
0.0
 40
0.0
 40
0.1250000590381918
 40
0.2500000729369901
 40
0.3750000912078158
 40
0.4999999518011085
 40
0.6249999277535193
 40
0.7500000310921012
 40
0.8749999796335501
 40
1.0
 40
1.0
 40
1.0
 40
1.0
 10
1022.35573682167
 20
566.145401660392
 30
0.0
 10
1022.350938411502
 20
567.3201631399131
 30
0.0
 10
1022.341341592899
 20
569.6696856747312
 30
0.0
 10
1022.311751440243
 20
573.0455783805614
 30
0.0
 10
1022.272130646158
 20
576.1783254956055
 30
0.0
 10
1022.222739168308
 20
578.9663453952897
 30
0.0
 10
1022.165240280835
 20
581.3274549313007
 30
0.0
 10
1022.101304532849
 20
583.1726601011333
 30
0.0
 10
1022.033315395815
 20
584.5009130765843
 30
0.0
 10
1021.986399944831
 20
584.8736355943051
 30
0.0
 10
1021.9629422126
 20
585.059996906707
 30
0.0
  0
SPLINE
  5
F3
330
1F
100
AcDbEntity
  8
0
  6
Continuous
 62
     7
370
    15
100
AcDbSpline
210
0.0
220
0.0
230
1.0
 70
     8
 71
     3
 72
     9
 73
     5
 74
     0
 42
0.000000001
 43
0.00000001
 40
0.0
 40
0.0
 40
0.0
 40
0.0
 40
0.4999003285650572
 40
1.0
 40
1.0
 40
1.0
 40
1.0
 10
901.5700236258691
 20
566.145401660392
 30
0.0
 10
921.6969622370227
 20
566.1501544992252
 30
0.0
 10
961.95886538265
 20
566.1596620721583
 30
0.0
 10
1002.220771034056
 20
566.1501557626525
 30
0.0
 10
1022.35573682167
 20
566.145401660392
 30
0.0
  0
SPLINE
  5
F4
330
1F
100
AcDbEntity
  8
0
  6
Continuous
 62
     7
370
    15
100
AcDbSpline
210
0.0
220
0.0
230
1.0
 70
     8
 71
     3
 72
    15
 73
    11
 74
     0
 42
0.000000001
 43
0.00000001
 40
0.0
 40
0.0
 40
0.0
 40
0.0
 40
0.1250000747046304
 40
0.2500000839862148
 40
0.375000050453613
 40
0.4999999651456229
 40
0.6249999364808212
 40
0.7499999594053701
 40
0.8749999842507644
 40
1.0
 40
1.0
 40
1.0
 40
1.0
 10
901.5700236258689
 20
566.145401660392
 30
0.0
 10
901.5748679211372
 20
567.3201631354547
 30
0.0
 10
901.5845565091399
 20
569.6696854707283
 30
0.0
 10
901.6141736328792
 20
573.0455774654854
 30
0.0
 10
901.6535488795089
 20
576.1783271955807
 30
0.0
 10
901.7031804164598
 20
578.96634453194
 30
0.0
 10
901.7606797392405
 20
581.3274541730351
 30
0.0
 10
901.8243736747452
 20
583.1726614232895
 30
0.0
 10
901.8926146042963
 20
584.50091252846
 30
0.0
 10
901.9394964981532
 20
584.8736354518118
 30
0.0
 10
901.9629374442283
 20
585.059996906707
 30
0.0
  0
SPLINE
  5
F5
330
1F
100
AcDbEntity
  8
0
  6
Continuous
 62
     7
370
    15
100
AcDbSpline
210
0.0
220
0.0
230
1.0
 70
     8
 71
     3
 72
    11
 73
     7
 74
     0
 42
0.000000001
 43
0.00000001
 40
0.0
 40
0.0
 40
0.0
 40
0.0
 40
0.253228271615374
 40
0.5064284321062646
 40
0.7537845778661083
 40
1.0
 40
1.0
 40
1.0
 40
1.0
 10
1022.35573682167
 20
566.145401660392
 30
0.0
 10
1022.780513402275
 20
566.1012405969266
 30
0.0
 10
1023.630019408611
 20
566.0129233723596
 30
0.0
 10
1024.671013112003
 20
565.2456390187089
 30
0.0
 10
1025.416201907127
 20
564.2064484898051
 30
0.0
 10
1025.498357332805
 20
563.379347648547
 30
0.0
 10
1025.539340108413
 20
562.9667530097458
 30
0.0
  0
SPLINE
  5
F6
330
1F
100
AcDbEntity
  8
0
  6
Continuous
 62
     7
370
    15
100
AcDbSpline
210
0.0
220
0.0
230
1.0
 70
     8
 71
     3
 72
    15
 73
    11
 74
     0
 42
0.000000001
 43
0.00000001
 40
0.0
 40
0.0
 40
0.0
 40
0.0
 40
0.1178534689817553
 40
0.2416248583275026
 40
0.3696853001532216
 40
0.4999996625146426
 40
0.6303145616807113
 40
0.7583723507390915
 40
0.8821435813597367
 40
1.0
 40
1.0
 40
1.0
 40
1.0
 10
1045.005621045608
 20
562.007118228862
 30
0.0
 10
1044.828362283121
 20
562.0619327222578
 30
0.0
 10
1044.464943847132
 20
562.1743141762403
 30
0.0
 10
1043.150589207471
 20
562.3412152611326
 30
0.0
 10
1041.23642862367
 20
562.5027031719583
 30
0.0
 10
1038.716845363695
 20
562.6497347976602
 30
0.0
 10
1035.724409953728
 20
562.7744311231623
 30
0.0
 10
1032.420004509123
 20
562.8702061468113
 30
0.0
 10
1028.991019118275
 20
562.9371463400201
 30
0.0
 10
1026.670968914032
 20
562.9570464987394
 30
0.0
 10
1025.539340108413
 20
562.9667530097458
 30
0.0
  0
SPLINE
  5
F7
330
1F
100
AcDbEntity
  8
0
  6
Continuous
 62
     7
370
    15
100
AcDbSpline
210
0.0
220
0.0
230
1.0
 70
     8
 71
     3
 72
    11
 73
     7
 74
     0
 42
0.000000001
 43
0.00000001
 40
0.0
 40
0.0
 40
0.0
 40
0.0
 40
0.2532048493077576
 40
0.5064259813108001
 40
0.7537812606457093
 40
1.0
 40
1.0
 40
1.0
 40
1.0
 10
901.5700236258689
 20
267.8688282408211
 30
0.0
 10
901.1452932645326
 20
267.9130002527899
 30
0.0
 10
900.2958052289753
 20
268.0013471172709
 30
0.0
 10
899.2547611951633
 20
268.7685474801282
 30
0.0
 10
898.5095562390396
 20
269.8077828214013
 30
0.0
 10
898.4274025814042
 20
270.6348853509515
 30
0.0
 10
898.3864203391257
 20
271.0474843420479
 30
0.0
  0
SPLINE
  5
F8
330
1F
100
AcDbEntity
  8
0
  6
Continuous
 62
     7
370
    15
100
AcDbSpline
210
0.0
220
0.0
230
1.0
 70
     8
 71
     3
 72
    15
 73
    11
 74
     0
 42
0.000000001
 43
0.00000001
 40
0.0
 40
0.0
 40
0.0
 40
0.0
 40
0.1181237605802889
 40
0.2419505686831802
 40
0.369894069737892
 40
0.5000000403518582
 40
0.6301060737885065
 40
0.7580494238153448
 40
0.8818762957512494
 40
1.0
 40
1.0
 40
1.0
 40
1.0
 10
901.9629374442283
 20
248.9542329945061
 30
0.0
 10
901.9407792862094
 20
249.1273541828569
 30
0.0
 10
901.8953931682317
 20
249.4819548979613
 30
0.0
 10
901.8280164898932
 20
250.7560960431632
 30
0.0
 10
901.7625749648738
 20
252.6068712670584
 30
0.0
 10
901.703099024823
 20
255.0418904861396
 30
0.0
 10
901.6519328335582
 20
257.9372262902226
 30
0.0
 10
901.6122032111537
 20
261.143980798304
 30
0.0
 10
901.5837335093241
 20
264.4849481669759
 30
0.0
 10
901.5745212040257
 20
266.7587338220389
 30
0.0
 10
901.5700236258689
 20
267.8688282408211
 30
0.0
  0
SPLINE
  5
F9
330
1F
100
AcDbEntity
  8
0
  6
Continuous
 62
     7
370
    15
100
AcDbSpline
210
0.0
220
0.0
230
1.0
 70
     8
 71
     3
 72
    15
 73
    11
 74
     0
 42
0.000000001
 43
0.00000001
 40
0.0
 40
0.0
 40
0.0
 40
0.0
 40
0.1178525181865471
 40
0.24162398901005
 40
0.3696857147693325
 40
0.5000008482960817
 40
0.6303154637288663
 40
0.7583739984062321
 40
0.8821470781745527
 40
1.0
 40
1.0
 40
1.0
 40
1.0
 10
898.3864203391257
 20
271.0474843420479
 30
0.0
 10
897.2548309066798
 20
271.0571830064392
 30
0.0
 10
894.9348197877288
 20
271.0770674349975
 30
0.0
 10
891.5058510283477
 20
271.144041492529
 30
0.0
 10
888.2013678614519
 20
271.2397949564282
 30
0.0
 10
885.2089296890479
 20
271.3644853130446
 30
0.0
 10
882.6892981288378
 20
271.5115229693388
 30
0.0
 10
880.7753543040862
 20
271.6730340666386
 30
0.0
 10
879.4607491701557
 20
271.8398966980715
 30
0.0
 10
879.0974550682026
 20
271.9522962944414
 30
0.0
 10
878.9202586112204
 20
272.0071191229317
 30
0.0
  0
SPLINE
  5
FA
330
1F
100
AcDbEntity
  8
0
  6
Continuous
 62
     7
370
    15
100
AcDbSpline
210
0.0
220
0.0
230
1.0
 70
     8
 71
     3
 72
    11
 73
     7
 74
     0
 42
0.000000001
 43
0.00000001
 40
0.0
 40
0.0
 40
0.0
 40
0.0
 40
0.2462933996796056
 40
0.4937840761158533
 40
0.7468530922038489
 40
1.0
 40
1.0
 40
1.0
 40
1.0
 10
1025.539340108413
 20
271.0474843420479
 30
0.0
 10
1025.498338500943
 20
270.634751067937
 30
0.0
 10
1025.416135969774
 20
269.8072781486291
 30
0.0
 10
1024.670592917356
 20
268.7680803145926
 30
0.0
 10
1023.629546208039
 20
268.0011486329877
 30
0.0
 10
1022.780383504162
 20
267.9129395624685
 30
0.0
 10
1022.35573682167
 20
267.8688282408211
 30
0.0
  0
SPLINE
  5
FB
330
1F
100
AcDbEntity
  8
0
  6
Continuous
 62
     7
370
    15
100
AcDbSpline
210
0.0
220
0.0
230
1.0
 70
     8
 71
     3
 72
    15
 73
    11
 74
     0
 42
0.000000001
 43
0.00000001
 40
0.0
 40
0.0
 40
0.0
 40
0.0
 40
0.1178534926172953
 40
0.2416248564092098
 40
0.3696853081389091
 40
0.4999996791940833
 40
0.6303145683422505
 40
0.7583723492433739
 40
0.8821435879595559
 40
0.9999999999999999
 40
0.9999999999999999
 40
0.9999999999999999
 40
0.9999999999999999
 10
1045.005621045608
 20
272.0071191229317
 30
0.0
 10
1044.828362341164
 20
271.9522966674508
 30
0.0
 10
1044.464944099944
 20
271.8398989129216
 30
0.0
 10
1043.150588915812
 20
271.6730306657321
 30
0.0
 10
1041.236428641178
 20
271.5115251342197
 30
0.0
 10
1038.716845591777
 20
271.3644847127661
 30
0.0
 10
1035.724409949459
 20
271.2397971763884
 30
0.0
 10
1032.420004213432
 20
271.1440398078568
 30
0.0
 10
1028.991019393517
 20
271.0770667096282
 30
0.0
 10
1026.670968956967
 20
271.0571828852199
 30
0.0
 10
1025.539340108413
 20
271.0474843420479
 30
0.0
  0
SPLINE
  5
FC
330
1F
100
AcDbEntity
  8
0
  6
Continuous
 62
     7
370
    15
100
AcDbSpline
210
0.0
220
0.0
230
1.0
 70
     8
 71
     3
 72
    15
 73
    11
 74
     0
 42
0.000000001
 43
0.00000001
 40
0.0
 40
0.0
 40
0.0
 40
0.0
 40
0.118123768982516
 40
0.2419505047793419
 40
0.3698940149347658
 40
0.5000000632500234
 40
0.6301060474776886
 40
0.7580494066052283
 40
0.8818762873490262
 40
1.0
 40
1.0
 40
1.0
 40
1.0
 10
1021.9629422126
 20
248.9542329945061
 30
0.0
 10
1021.985111840816
 20
249.1273540955306
 30
0.0
 10
1022.030521437748
 20
249.4819545128862
 30
0.0
 10
1022.097713310206
 20
250.75609654015
 30
0.0
 10
1022.163143421353
 20
252.6068721473796
 30
0.0
 10
1022.222864806454
 20
255.0418886866633
 30
0.0
 10
1022.273774086505
 20
257.9372273427364
 30
0.0
 10
1022.31357092418
 20
261.1439806547171
 30
0.0
 10
1022.342023743975
 20
264.484948200484
 30
0.0
 10
1022.351238195631
 20
266.7587338330314
 30
0.0
 10
1022.35573682167
 20
267.8688282408211
 30
0.0
  0
SPLINE
  5
FD
330
1F
100
AcDbEntity
  8
0
  6
Continuous
 62
     7
370
    15
100
AcDbSpline
210
0.0
220
0.0
230
1.0
 70
     8
 71
     3
 72
    11
 73
     7
 74
     0
 42
0.000000001
 43
0.00000001
 40
0.0
 40
0.0
 40
0.0
 40
0.0
 40
0.2463015025133685
 40
0.4937961288773204
 40
0.7468713047386925
 40
1.0
 40
1.0
 40
1.0
 40
1.0
 10
898.3864203391257
 20
562.9667530097458
 30
0.0
 10
898.4274708636689
 20
563.3794825014465
 30
0.0
 10
898.5097707680584
 20
564.2069408124826
 30
0.0
 10
899.2552830952255
 20
565.2461438222501
 30
0.0
 10
900.2962996582661
 20
566.0130578371951
 30
0.0
 10
901.1454190450622
 20
566.1012839433669
 30
0.0
 10
901.5700236258689
 20
566.145401660392
 30
0.0
  0
SPLINE
  5
FE
330
1F
100
AcDbEntity
  8
0
  6
Continuous
 62
     7
370
    15
100
AcDbSpline
210
0.0
220
0.0
230
1.0
 70
     8
 71
     3
 72
    15
 73
    11
 74
     0
 42
0.000000001
 43
0.00000001
 40
0.0
 40
0.0
 40
0.0
 40
0.0
 40
0.1178525247865984
 40
0.2416239875146333
 40
0.3696857214311207
 40
0.5000008649758786
 40
0.630315471714982
 40
0.7583739964882213
 40
0.8821471018102333
 40
0.9999999999999999
 40
0.9999999999999999
 40
0.9999999999999999
 40
0.9999999999999999
 10
898.3864203391257
 20
562.9667530097458
 30
0.0
 10
897.2548309496134
 20
562.9570463776441
 30
0.0
 10
894.9348200629713
 20
562.9371456147372
 30
0.0
 10
891.5058507326564
 20
562.8702044623689
 30
0.0
 10
888.2013678571747
 20
562.774433343248
 30
0.0
 10
885.2089299171307
 20
562.6497341973746
 30
0.0
 10
882.6892981463546
 20
562.5027053367767
 30
0.0
 10
880.775354012432
 20
562.3412118601308
 30
0.0
 10
879.4607494229653
 20
562.1743163910696
 30
0.0
 10
879.0974551262526
 20
562.0619330953115
 30
0.0
 10
878.9202586112204
 20
562.007118228862
 30
0.0
  0
SPLINE
  5
FF
330
1F
100
AcDbEntity
  8
0
  6
Continuous
 62
     7
370
    15
100
AcDbSpline
210
0.0
220
0.0
230
1.0
 70
     8
 71
     3
 72
    11
 73
     7
 74
     0
 42
0.000000001
 43
0.00000001
 40
0.0
 40
0.0
 40
0.0
 40
0.0
 40
0.2499731570964588
 40
0.5
 40
0.7500268429035413
 40
1.0
 40
1.0
 40
1.0
 40
1.0
 10
1022.35573682167
 20
267.8688282408211
 30
0.0
 10
1012.292104479987
 20
267.8668143490289
 30
0.0
 10
992.1626784676597
 20
267.8627861329285
 30
0.0
 10
961.962880223769
 20
267.8575886974926
 30
0.0
 10
931.7630819798793
 20
267.8627861329285
 30
0.0
 10
911.6336559675514
 20
267.8668143490289
 30
0.0
 10
901.5700236258689
 20
267.8688282408211
 30
0.0
  0
SPLINE
  5
100
330
1F
100
AcDbEntity
  8
0
  6
Continuous
 62
     7
370
    15
100
AcDbSpline
210
0.0
220
0.0
230
1.0
 70
     8
 71
     3
 72
    15
 73
    11
 74
     0
 42
0.000000001
 43
0.00000001
 40
0.0
 40
0.0
 40
0.0
 40
0.0
 40
0.1183544322583145
 40
0.2422295408694765
 40
0.3700800617065759
 40
0.5000133813193359
 40
0.629943414898407
 40
0.7577873208737491
 40
0.8816564027586962
 40
1.0
 40
1.0
 40
1.0
 40
1.0
 10
895.425142377395
 20
385.9732860960457
 30
0.0
 10
894.5244699867866
 20
385.9778513946956
 30
0.0
 10
892.6811130842348
 20
385.9871949416569
 30
0.0
 10
889.9709853713103
 20
386.0143328428342
 30
0.0
 10
887.3660665027429
 20
386.0515058329051
 30
0.0
 10
885.0049543702271
 20
386.0986875100115
 30
0.0
 10
883.0045944628419
 20
386.1535094893786
 30
0.0
 10
881.4637236560171
 20
386.2133021282153
 30
0.0
 10
880.3782840309743
 20
386.2749317044029
 30
0.0
 10
880.0480423416271
 20
386.3164181481922
 30
0.0
 10
879.8866883216089
 20
386.3366881646607
 30
0.0
  0
SPLINE
  5
101
330
1F
100
AcDbEntity
  8
0
  6
Continuous
 62
     7
370
    15
100
AcDbSpline
210
0.0
220
0.0
230
1.0
 70
     8
 71
     3
 72
    14
 73
    10
 74
     0
 42
0.000000001
 43
0.00000001
 40
0.0
 40
0.0
 40
0.0
 40
0.0
 40
0.1469404801288233
 40
0.2877592729709411
 40
0.4320989198779672
 40
0.5749993073081561
 40
0.7162284658795944
 40
0.8604613499835869
 40
1.0
 40
1.0
 40
1.0
 40
1.0
 10
898.3864203391257
 20
271.0474843420479
 30
0.0
 10
898.3740220219959
 20
276.6772572155012
 30
0.0
 10
898.3497419140217
 20
287.7022609968701
 30
0.0
 10
898.0242765183574
 20
304.2560193548099
 30
0.0
 10
897.5673015530602
 20
320.6526048415774
 30
0.0
 10
897.0107040244646
 20
337.0637643106844
 30
0.0
 10
896.4304831661668
 20
353.4723204802848
 30
0.0
 10
895.8631258812117
 20
369.7552617177255
 30
0.0
 10
895.5694379812759
 20
380.6327910553663
 30
0.0
 10
895.4250231681052
 20
385.9815860428307
 30
0.0
  0
SPLINE
  5
102
330
1F
100
AcDbEntity
  8
0
  6
Continuous
 62
     7
370
    15
100
AcDbSpline
210
0.0
220
0.0
230
1.0
 70
     8
 71
     3
 72
    13
 73
     9
 74
     0
 42
0.000000001
 43
0.00000001
 40
0.0
 40
0.0
 40
0.0
 40
0.0
 40
0.1636095419944777
 40
0.329408909454675
 40
0.5004202292593378
 40
0.6626811548393952
 40
0.8296567391397508
 40
1.0
 40
1.0
 40
1.0
 40
1.0
 10
895.4233542380515
 20
448.0291867889855
 30
0.0
 10
895.5957480025551
 20
454.3007120104061
 30
0.0
 10
895.9428429291082
 20
466.9277034353645
 30
0.0
 10
896.6239780725343
 20
486.0992713242093
 30
0.0
 10
897.3054258697107
 20
505.2155570817337
 30
0.0
 10
897.8904909982496
 20
524.3770758280289
 30
0.0
 10
898.3291157417682
 20
543.5158559378973
 30
0.0
 10
898.3671920928958
 20
556.4401102003263
 30
0.0
 10
898.3864203391257
 20
562.9667530097458
 30
0.0
  0
SPLINE
  5
103
330
1F
100
AcDbEntity
  8
0
  6
Continuous
 62
     7
370
    15
100
AcDbSpline
210
0.0
220
0.0
230
1.0
 70
     8
 71
     3
 72
    15
 73
    11
 74
     0
 42
0.000000001
 43
0.00000001
 40
0.0
 40
0.0
 40
0.0
 40
0.0
 40
0.1183519984229914
 40
0.2422260018224656
 40
0.3700780047198139
 40
0.5000120702892505
 40
0.6299462782882216
 40
0.7577904132588416
 40
0.8816583661234948
 40
1.0
 40
1.0
 40
1.0
 40
1.0
 10
895.4233542380515
 20
448.0290489532445
 30
0.0
 10
894.5226797741378
 20
448.0244430053605
 30
0.0
 10
892.6793076533082
 20
448.0150162077111
 30
0.0
 10
889.9691732270034
 20
447.9877205588649
 30
0.0
 10
887.3642581150555
 20
447.9503400713986
 30
0.0
 10
885.0032693578808
 20
447.9029361239178
 30
0.0
 10
883.0030193082708
 20
447.8478553476638
 30
0.0
 10
881.4625119158213
 20
447.7878184811636
 30
0.0
 10
880.377563815721
 20
447.7259369064101
 30
0.0
 10
880.0476453713126
 20
447.6842956124196
 30
0.0
 10
879.8864499030295
 20
447.6639500148985
 30
0.0
  0
SPLINE
  5
104
330
1F
100
AcDbEntity
  8
0
  6
Continuous
 62
     7
370
    15
100
AcDbSpline
210
0.0
220
0.0
230
1.0
 70
     8
 71
     3
 72
    14
 73
    10
 74
     0
 42
0.000000001
 43
0.00000001
 40
0.0
 40
0.0
 40
0.0
 40
0.0
 40
0.1469533215249205
 40
0.2877841100905859
 40
0.4321332334014201
 40
0.5750375040214405
 40
0.7162655889519239
 40
0.8604802355859426
 40
1.0
 40
1.0
 40
1.0
 40
1.0
 10
1025.539340108413
 20
562.9667530097458
 30
0.0
 10
1025.551809285877
 20
557.3363167795249
 30
0.0
 10
1025.576228136047
 20
546.310025824535
 30
0.0
 10
1025.902047786801
 20
529.7544532914752
 30
0.0
 10
1026.359565272327
 20
513.3564105106059
 30
0.0
 10
1026.916442882079
 20
496.9442877143549
 30
0.0
 10
1027.497123832549
 20
480.5358375874857
 30
0.0
 10
1028.064431510185
 20
464.2538612788962
 30
0.0
 10
1028.35803403218
 20
453.3774217120209
 30
0.0
 10
1028.502406209487
 20
448.0291867889855
 30
0.0
  0
SPLINE
  5
105
330
1F
100
AcDbEntity
  8
0
  6
Continuous
 62
     7
370
    15
100
AcDbSpline
210
0.0
220
0.0
230
1.0
 70
     8
 71
     3
 72
    15
 73
    11
 74
     0
 42
0.000000001
 43
0.00000001
 40
0.0
 40
0.0
 40
0.0
 40
0.0
 40
0.1183572346921455
 40
0.2422322102637414
 40
0.3700802811682868
 40
0.500009342983667
 40
0.6299334750741096
 40
0.7577803948225262
 40
0.8816494344885061
 40
1.0
 40
1.0
 40
1.0
 40
1.0
 10
1044.039310544509
 20
447.6739114411566
 30
0.0
 10
1043.87789964579
 20
447.6885921987572
 30
0.0
 10
1043.547552972356
 20
447.7186381217731
 30
0.0
 10
1042.462340264617
 20
447.7676052271802
 30
0.0
 10
1040.921406105984
 20
447.8186487983613
 30
0.0
 10
1038.921188500821
 20
447.8697399946147
 30
0.0
 10
1036.560385230971
 20
447.9183521794747
 30
0.0
 10
1033.955725243884
 20
447.9620800598411
 30
0.0
 10
1031.245927834437
 20
447.9998742568802
 30
0.0
 10
1029.402836936628
 20
448.0195154356634
 30
0.0
 10
1028.502287000197
 20
448.0291122831795
 30
0.0
  0
SPLINE
  5
106
330
1F
100
AcDbEntity
  8
0
  6
Continuous
 62
     7
370
    15
100
AcDbSpline
210
0.0
220
0.0
230
1.0
 70
     8
 71
     3
 72
    13
 73
     9
 74
     0
 42
0.000000001
 43
0.00000001
 40
0.0
 40
0.0
 40
0.0
 40
0.0
 40
0.1636321458148356
 40
0.329446217612881
 40
0.5004593814612218
 40
0.6627092016056566
 40
0.8296717126621527
 40
1.0
 40
1.0
 40
1.0
 40
1.0
 10
1028.500856488723
 20
385.9815860428307
 30
0.0
 10
1028.32834843117
 20
379.7093885692917
 30
0.0
 10
1027.981032035692
 20
367.0813580347734
 30
0.0
 10
1027.300235203747
 20
347.9088643474743
 30
0.0
 10
1026.61928708059
 20
328.7929368363776
 30
0.0
 10
1026.034656834601
 20
309.632846258031
 30
0.0
 10
1025.596625847221
 20
290.4961389632518
 30
0.0
 10
1025.558561966011
 20
277.5733540852567
 30
0.0
 10
1025.539340108413
 20
271.0474843420479
 30
0.0
  0
SPLINE
  5
107
330
1F
100
AcDbEntity
  8
0
  6
Continuous
 62
     7
370
    15
100
AcDbSpline
210
0.0
220
0.0
230
1.0
 70
     8
 71
     3
 72
    15
 73
    11
 74
     0
 42
0.000000001
 43
0.00000001
 40
0.0
 40
0.0
 40
0.0
 40
0.0
 40
0.118347860280406
 40
0.2422189225115299
 40
0.3700634427222088
 40
0.4999965602848482
 40
0.6299291373795889
 40
0.7577792762164272
 40
0.8816497645715374
 40
1.0
 40
1.0
 40
1.0
 40
1.0
 10
1044.03907212593
 20
386.346701744983
 30
0.0
 10
1043.877670004003
 20
386.3263684199407
 30
0.0
 10
1043.547333249525
 20
386.2847528295013
 30
0.0
 10
1042.461928761686
 20
386.2229021018204
 30
0.0
 10
1040.921059949587
 20
386.1628921755285
 30
0.0
 10
1038.920567349746
 20
386.1078256565269
 30
0.0
 10
1036.559459380959
 20
386.0604247289837
 30
0.0
 10
1033.954557821314
 20
386.0230401644566
 30
0.0
 10
1031.244524344178
 20
385.9957257948631
 30
0.0
 10
1029.401250650858
 20
385.9862771855558
 30
0.0
 10
1028.500618070144
 20
385.9816605486367
 30
0.0
  0
SPLINE
  5
108
330
1F
100
AcDbEntity
  8
0
  6
Continuous
 62
     7
370
    15
100
AcDbSpline
210
0.0
220
0.0
230
1.0
 70
     8
 71
     3
 72
    15
 73
    11
 74
     0
 42
0.000000001
 43
0.00000001
 40
0.0
 40
0.0
 40
0.0
 40
0.0
 40
0.1249995200992497
 40
0.2499997142241493
 40
0.3749997905983627
 40
0.4999998696249314
 40
0.6249999479632568
 40
0.7499999008013042
 40
0.8749999462215786
 40
1.0
 40
1.0
 40
1.0
 40
1.0
 10
1028.502287000197
 20
448.0291122831795
 30
0.0
 10
1029.553877753318
 20
445.574375782596
 30
0.0
 10
1031.657064929974
 20
440.6648895449351
 30
0.0
 10
1033.771753756843
 20
432.9207954987104
 30
0.0
 10
1035.090011801738
 20
425.0138701251537
 30
0.0
 10
1035.522896618163
 20
417.0052022548524
 30
0.0
 10
1035.089505314111
 20
408.9965691937512
 30
0.0
 10
1033.770920783185
 20
401.0897092103234
 30
0.0
 10
1031.655893911793
 20
393.3456944922765
 30
0.0
 10
1029.552376707469
 20
388.4363385845607
 30
0.0
 10
1028.500618070144
 20
385.9816605486367
 30
0.0
  0
SPLINE
  5
109
330
1F
100
AcDbEntity
  8
0
  6
Continuous
 62
     7
370
    15
100
AcDbSpline
210
0.0
220
0.0
230
1.0
 70
     8
 71
     3
 72
    15
 73
    11
 74
     0
 42
0.000000001
 43
0.00000001
 40
0.0
 40
0.0
 40
0.0
 40
0.0
 40
0.1250000176747311
 40
0.2500000269913177
 40
0.3749999437257039
 40
0.4999999425194326
 40
0.6249999273471759
 40
0.7499996644240529
 40
0.8749998224452216
 40
1.0
 40
1.0
 40
1.0
 40
1.0
 10
895.4251423773948
 20
385.9816605486367
 30
0.0
 10
894.373382836216
 20
388.436338521717
 30
0.0
 10
892.2698638241848
 20
393.3456943037452
 30
0.0
 10
890.1548505105947
 20
401.0897099644483
 30
0.0
 10
888.8362146127959
 20
408.9965654498346
 30
0.0
 10
888.4030157930478
 20
417.0052097105292
 30
0.0
 10
888.8358963348466
 20
425.0138580452125
 30
0.0
 10
890.1539762698316
 20
432.9208060344284
 30
0.0
 10
892.268682275528
 20
440.6649129262074
 30
0.0
 10
894.3719558081503
 20
445.5743790363229
 30
0.0
 10
895.4235926566306
 20
448.0291122831795
 30
0.0
  0
ARC
  5
10A
330
1F
100
AcDbEntity
  8
0
  6
Continuous
 62
     7
370
    15
100
AcDbCircle
 10
961.9629055736079
 20
417.0071147802222
 30
0.0
 40
73.4155934289034
100
AcDbArc
 50
24.99588983297712
 51
155.0041101922141
  0
ARC
  5
10B
330
1F
100
AcDbEntity
  8
0
  6
Continuous
 62
     7
370
    15
100
AcDbCircle
 10
961.9629055736079
 20
417.0071147802222
 30
0.0
 40
73.41559342890346
100
AcDbArc
 50
204.9988636534473
 51
335.0011361549079
  0
CIRCLE
  5
10C
330
1F
100
AcDbEntity
  8
0
  6
Continuous
 62
     7
370
    15
100
AcDbCircle
 10
961.9629055736079
 20
417.0071147802222
 30
0.0
 40
58.61177143234613
  0
CIRCLE
  5
10D
330
1F
100
AcDbEntity
  8
0
  6
Continuous
 62
     7
370
    15
100
AcDbCircle
 10
961.9629055736079
 20
417.0071147802222
 30
0.0
 40
57.50000000000011
  0
CIRCLE
  5
10E
330
1F
100
AcDbEntity
  8
0
  6
Continuous
 62
     7
370
    15
100
AcDbCircle
 10
961.9629055736079
 20
417.0071147802222
 30
0.0
 40
56.58715574274788
  0
CIRCLE
  5
10F
330
1F
100
AcDbEntity
  8
0
  6
Continuous
 62
     7
370
    15
100
AcDbCircle
 10
961.9629055736079
 20
417.0071147802222
 30
0.0
 40
44.99999999999989
  0
ARC
  5
110
330
1F
100
AcDbEntity
  8
0
  6
Continuous
 62
     7
370
    15
100
AcDbCircle
 10
1396.962905573608
 20
622.2071147802224
 30
0.0
 40
25.0
100
AcDbArc
 50
0.0000000000000509
 51
90.0
  0
ARC
  5
111
330
1F
100
AcDbEntity
  8
0
  6
Continuous
 62
     7
370
    15
100
AcDbCircle
 10
1106.962905573607
 20
622.2071147802224
 30
0.0
 40
25.00000000000011
100
AcDbArc
 50
89.99999999999896
 51
180.0
  0
LINE
  5
112
330
1F
100
AcDbEntity
  8
0
  6
Continuous
 62
     7
370
    15
100
AcDbLine
 10
1106.962861150283
 20
647.2071076073144
 30
0.0
 11
1396.9629422126
 21
647.2071076073144
 31
0.0
  0
LINE
  5
113
330
1F
100
AcDbEntity
  8
0
  6
Continuous
 62
     7
370
    15
100
AcDbLine
 10
1081.962884992141
 20
272.2071076073144
 30
0.0
 11
1081.962884992141
 21
622.2071165480111
 31
0.0
  0
LINE
  5
114
330
1F
100
AcDbEntity
  8
0
  6
Continuous
 62
     7
370
    15
100
AcDbLine
 10
1421.962799161453
 20
622.2071165480111
 30
0.0
 11
1421.962799161453
 21
272.2071076073144
 31
0.0
  0
ARC
  5
115
330
1F
100
AcDbEntity
  8
0
  6
Continuous
 62
     7
370
    15
100
AcDbCircle
 10
1106.962905573607
 20
272.2071147802223
 30
0.0
 40
25.0
100
AcDbArc
 50
179.9999999999996
 51
270.0000000000018
  0
ARC
  5
116
330
1F
100
AcDbEntity
  8
0
  6
Continuous
 62
     7
370
    15
100
AcDbCircle
 10
1396.962905573608
 20
272.2071147802223
 30
0.0
 40
25.0
100
AcDbArc
 50
270.0000000000008
 51
0.0000000000005211
  0
LINE
  5
117
330
1F
100
AcDbEntity
  8
0
  6
Continuous
 62
     7
370
    15
100
AcDbLine
 10
1396.9629422126
 20
247.2071165480111
 30
0.0
 11
1106.962861150283
 21
247.2071165480111
 31
0.0
  0
SPLINE
  5
118
330
1F
100
AcDbEntity
  8
0
  6
Continuous
 62
     7
370
    15
100
AcDbSpline
210
0.0
220
0.0
230
1.0
 70
     8
 71
     3
 72
    15
 73
    11
 74
     0
 42
0.000000001
 43
0.00000001
 40
0.0
 40
0.0
 40
0.0
 40
0.0
 40
0.1277213931331615
 40
0.2499993462907849
 40
0.3758214134488396
 40
0.4999998032995204
 40
0.6241743958581127
 40
0.7499957686389069
 40
0.8722775087392137
 40
1.0
 40
1.0
 40
1.0
 40
1.0
 10
1417.426885694045
 20
622.2071165480111
 30
0.0
 10
1417.339258101903
 20
623.5701800570416
 30
0.0
 10
1417.167737574175
 20
626.2382137971309
 30
0.0
 10
1415.928893941144
 20
630.0931890709522
 30
0.0
 10
1414.043443074311
 20
633.6191326958323
 30
0.0
 10
1411.482180074432
 20
636.7263042549309
 30
0.0
 10
1408.37496059428
 20
639.2874643955639
 30
0.0
 10
1404.849140789524
 20
641.173115086235
 30
0.0
 10
1400.994112515223
 20
642.412008828931
 30
0.0
 10
1398.326020551812
 20
642.5834559811676
 30
0.0
 10
1396.9629422126
 20
642.6710451282952
 30
0.0
  0
LINE
  5
119
330
1F
100
AcDbEntity
  8
0
  6
Continuous
 62
     7
370
    15
100
AcDbLine
 10
1396.9629422126
 20
642.6710451282952
 30
0.0
 11
1396.9629422126
 21
647.2071076073144
 31
0.0
  0
LINE
  5
11A
330
1F
100
AcDbEntity
  8
0
  6
Continuous
 62
     7
370
    15
100
AcDbLine
 10
1417.426885694045
 20
622.2071165480111
 30
0.0
 11
1421.962799161453
 21
622.2071165480111
 31
0.0
  0
SPLINE
  5
11B
330
1F
100
AcDbEntity
  8
0
  6
Continuous
 62
     7
370
    15
100
AcDbSpline
210
0.0
220
0.0
230
1.0
 70
     8
 71
     3
 72
    15
 73
    11
 74
     0
 42
0.000000001
 43
0.00000001
 40
0.0
 40
0.0
 40
0.0
 40
0.0
 40
0.1244704861889469
 40
0.2489404035950631
 40
0.3736000494144527
 40
0.4982592645755328
 40
0.6235705427167825
 40
0.748881095214784
 40
0.8744404267896271
 40
1.0
 40
1.0
 40
1.0
 40
1.0
 10
1396.9629422126
 20
642.6710451282952
 30
0.0
 10
1384.983647222278
 20
642.5588400535609
 30
0.0
 10
1361.02511198246
 20
642.3344304168265
 30
0.0
 10
1324.981649464685
 20
642.0581026329185
 30
0.0
 10
1288.870037881371
 20
641.8354157642457
 30
0.0
 10
1252.632254728661
 20
641.6768160519672
 30
0.0
 10
1216.3023353214
 20
641.5885593094519
 30
0.0
 10
1179.873541353819
 20
641.5762622854502
 30
0.0
 10
1143.424138082272
 20
641.6362836350123
 30
0.0
 10
1119.131568816961
 20
641.7366843320399
 30
0.0
 10
1106.985272496718
 20
641.7868847288582
 30
0.0
  0
LINE
  5
11C
330
1F
100
AcDbEntity
  8
0
  6
Continuous
 62
     7
370
    15
100
AcDbLine
 10
1106.985272496718
 20
641.7868847288582
 30
0.0
 11
1106.962861150283
 21
641.8616438545678
 31
0.0
  0
LINE
  5
11D
330
1F
100
AcDbEntity
  8
0
  6
Continuous
 62
     7
370
    15
100
AcDbLine
 10
1106.962861150283
 20
641.8616438545678
 30
0.0
 11
1106.962861150283
 21
647.2071076073144
 31
0.0
  0
SPLINE
  5
11E
330
1F
100
AcDbEntity
  8
0
  6
Continuous
 62
     7
370
    15
100
AcDbSpline
210
0.0
220
0.0
230
1.0
 70
     8
 71
     3
 72
    15
 73
    11
 74
     0
 42
0.000000001
 43
0.00000001
 40
0.0
 40
0.0
 40
0.0
 40
0.0
 40
0.1277184515352314
 40
0.2500006396376188
 40
0.3758249540455806
 40
0.5000002986386451
 40
0.6241724792443891
 40
0.7499969546260788
 40
0.8722785071112595
 40
1.0
 40
1.0
 40
1.0
 40
1.0
 10
1106.962861150283
 20
641.8616438545678
 30
0.0
 10
1105.654690314671
 20
641.7761199075449
 30
0.0
 10
1103.094030192918
 20
641.6087122917853
 30
0.0
 10
1099.393736459639
 20
640.4168014964135
 30
0.0
 10
1096.008784871724
 20
638.6047718844508
 30
0.0
 10
1093.02519292909
 20
636.1448343004976
 30
0.0
 10
1090.565208233656
 20
633.1612660292238
 30
0.0
 10
1088.753297317559
 20
629.7762945773302
 30
0.0
 10
1087.561307899929
 20
626.0760059178307
 30
0.0
 10
1087.393882825015
 20
623.5153194209499
 30
0.0
 10
1087.308348744887
 20
622.2071165480111
 30
0.0
  0
LINE
  5
11F
330
1F
100
AcDbEntity
  8
0
  6
Continuous
 62
     7
370
    15
100
AcDbLine
 10
1087.308348744887
 20
622.2071165480111
 30
0.0
 11
1081.962884992141
 21
622.2071165480111
 31
0.0
  0
SPLINE
  5
120
330
1F
100
AcDbEntity
  8
0
  6
Continuous
 62
     7
370
    15
100
AcDbSpline
210
0.0
220
0.0
230
1.0
 70
     8
 71
     3
 72
    12
 73
     8
 74
     0
 42
0.000000001
 43
0.00000001
 40
0.0
 40
0.0
 40
0.0
 40
0.0
 40
0.2147054273381136
 40
0.4294110091434604
 40
0.6441121960607453
 40
0.8588058457461301
 40
1.0
 40
1.0
 40
1.0
 40
1.0
 10
1082.027615636367
 20
471.4571148883942
 30
0.0
 10
1082.026527009727
 20
471.4460596455569
 30
0.0
 10
1082.024349755664
 20
471.4239491519289
 30
0.0
 10
1082.021367269378
 20
471.2515271356737
 30
0.0
 10
1082.01939708304
 20
470.9977630184675
 30
0.0
 10
1082.01824887793
 20
470.7165958897961
 30
0.0
 10
1082.018127176689
 20
470.5308193180149
 30
0.0
 10
1082.018078893203
 20
470.4571147244815
 30
0.0
  0
LINE
  5
121
330
1F
100
AcDbEntity
  8
0
  6
Continuous
 62
     7
370
    15
100
AcDbLine
 10
1082.018078893203
 20
470.4571147244815
 30
0.0
 11
1082.018078893203
 21
423.9571133889649
 31
0.0
  0
SPLINE
  5
122
330
1F
100
AcDbEntity
  8
0
  6
Continuous
 62
     7
370
    15
100
AcDbSpline
210
0.0
220
0.0
230
1.0
 70
     8
 71
     3
 72
    12
 73
     8
 74
     0
 42
0.000000001
 43
0.00000001
 40
0.0
 40
0.0
 40
0.0
 40
0.0
 40
0.2146803472159572
 40
0.4293654272412581
 40
0.6440484512137606
 40
0.858743448232772
 40
0.9999999999999999
 40
0.9999999999999999
 40
0.9999999999999999
 40
0.9999999999999999
 10
1082.018078893203
 20
423.9571133889649
 30
0.0
 10
1082.018158687394
 20
423.8446937342722
 30
0.0
 10
1082.018318277536
 20
423.6198519465006
 30
0.0
 10
1082.019982422467
 20
423.320191475765
 30
0.0
 10
1082.022384750798
 20
423.0940324825665
 30
0.0
 10
1082.025071028305
 20
422.9741900339122
 30
0.0
 10
1082.026892714596
 20
422.9619660706584
 30
0.0
 10
1082.027615636367
 20
422.9571150876973
 30
0.0
  0
LINE
  5
123
330
1F
100
AcDbEntity
  8
0
  6
Continuous
 62
     7
370
    15
100
AcDbLine
 10
1082.027615636367
 20
422.9571150876973
 30
0.0
 11
1082.432092755813
 21
422.9571150876973
 31
0.0
  0
SPLINE
  5
124
330
1F
100
AcDbEntity
  8
0
  6
Continuous
 62
     7
370
    15
100
AcDbSpline
210
0.0
220
0.0
230
1.0
 70
     8
 71
     3
 72
    12
 73
     8
 74
     0
 42
0.000000001
 43
0.00000001
 40
0.0
 40
0.0
 40
0.0
 40
0.0
 40
0.2147917946355578
 40
0.4295853803463885
 40
0.6443452711552828
 40
0.859031666228619
 40
1.0
 40
1.0
 40
1.0
 40
1.0
 10
1082.432092755813
 20
422.9571150876973
 30
0.0
 10
1082.435123862596
 20
422.9681762193979
 30
0.0
 10
1082.441186101438
 20
422.9902985750341
 30
0.0
 10
1082.44936329402
 20
423.1628018411346
 30
0.0
 10
1082.455480280574
 20
423.4166792265181
 30
0.0
 10
1082.458873639434
 20
423.6978321331107
 30
0.0
 10
1082.459244634462
 20
423.8835154242965
 30
0.0
 10
1082.45939168312
 20
423.9571133889649
 30
0.0
  0
LINE
  5
125
330
1F
100
AcDbEntity
  8
0
  6
Continuous
 62
     7
370
    15
100
AcDbLine
 10
1082.45939168312
 20
423.9571133889649
 30
0.0
 11
1082.45939168312
 21
470.4571147244815
 31
0.0
  0
SPLINE
  5
126
330
1F
100
AcDbEntity
  8
0
  6
Continuous
 62
     7
370
    15
100
AcDbSpline
210
0.0
220
0.0
230
1.0
 70
     8
 71
     3
 72
    12
 73
     8
 74
     0
 42
0.000000001
 43
0.00000001
 40
0.0
 40
0.0
 40
0.0
 40
0.0
 40
0.2145935329829879
 40
0.4291865190495339
 40
0.6438157678296839
 40
0.8585231937299199
 40
1.0
 40
1.0
 40
1.0
 40
1.0
 10
1082.45939168312
 20
470.4571147244815
 30
0.0
 10
1082.459096741318
 20
470.5695072751901
 30
0.0
 10
1082.458506858468
 20
470.7942920901618
 30
0.0
 10
1082.453632399717
 20
471.09389193895
 30
0.0
 10
1082.446832476177
 20
471.3200514368039
 30
0.0
 10
1082.439122351354
 20
471.4400029869264
 30
0.0
 10
1082.434091153617
 20
471.452250257688
 30
0.0
 10
1082.432092755813
 20
471.4571148883942
 30
0.0
  0
LINE
  5
127
330
1F
100
AcDbEntity
  8
0
  6
Continuous
 62
     7
370
    15
100
AcDbLine
 10
1082.432092755813
 20
471.4571148883942
 30
0.0
 11
1082.027615636367
 21
471.4571148883942
 31
0.0
  0
SPLINE
  5
128
330
1F
100
AcDbEntity
  8
0
  6
Continuous
 62
     7
370
    15
100
AcDbSpline
210
0.0
220
0.0
230
1.0
 70
     8
 71
     3
 72
    17
 73
    13
 74
     0
 42
0.000000001
 43
0.00000001
 40
0.0
 40
0.0
 40
0.0
 40
0.0
 40
0.1254783884205929
 40
0.2509556251665931
 40
0.3348150564484573
 40
0.4186802377025807
 40
0.5025343610417536
 40
0.5853258939815256
 40
0.6681279488393443
 40
0.7509245119368007
 40
0.8754617030295198
 40
0.9999999999999999
 40
0.9999999999999999
 40
0.9999999999999999
 40
0.9999999999999999
 10
1087.308348744887
 20
622.2071165480111
 30
0.0
 10
1087.43937234829
 20
607.6079060968019
 30
0.0
 10
1087.701418352524
 20
578.4096191898865
 30
0.0
 10
1087.96112795413
 20
539.3577458355481
 30
0.0
 10
1088.130138439776
 20
505.1254368743574
 30
0.0
 10
1088.223195322723
 20
475.7285341773555
 30
0.0
 10
1088.255808223632
 20
446.4423595723966
 30
0.0
 10
1088.21990327851
 20
417.2809891784066
 30
0.0
 10
1088.125716548867
 20
388.2575194947331
 30
0.0
 10
1087.956755149524
 20
354.3840794950763
 30
0.0
 10
1087.698713376017
 20
315.6762567241579
 30
0.0
 10
1087.438470673751
 20
286.6968668684174
 30
0.0
 10
1087.308348744888
 20
272.2071076073144
 30
0.0
  0
LINE
  5
129
330
1F
100
AcDbEntity
  8
0
  6
Continuous
 62
     7
370
    15
100
AcDbLine
 10
1087.308348744887
 20
272.2071076073144
 30
0.0
 11
1081.962884992141
 21
272.2071076073144
 31
0.0
  0
LINE
  5
12A
330
1F
100
AcDbEntity
  8
0
  6
Continuous
 62
     7
370
    15
100
AcDbLine
 10
1417.406381696243
 20
622.2050154842827
 30
0.0
 11
1417.426885694045
 21
622.2071165480111
 31
0.0
  0
LINE
  5
12B
330
1F
100
AcDbEntity
  8
0
  6
Continuous
 62
     7
370
    15
100
AcDbLine
 10
1417.426885694045
 20
272.2071076073144
 30
0.0
 11
1421.962799161453
 21
272.2071076073144
 31
0.0
  0
LINE
  5
12C
330
1F
100
AcDbEntity
  8
0
  6
Continuous
 62
     7
370
    15
100
AcDbLine
 10
1417.426885694045
 20
272.2071076073144
 30
0.0
 11
1417.406381696243
 21
272.2092235722039
 31
0.0
  0
SPLINE
  5
12D
330
1F
100
AcDbEntity
  8
0
  6
Continuous
 62
     7
370
    15
100
AcDbSpline
210
0.0
220
0.0
230
1.0
 70
     8
 71
     3
 72
    17
 73
    13
 74
     0
 42
0.000000001
 43
0.00000001
 40
0.0
 40
0.0
 40
0.0
 40
0.0
 40
0.0927120813108997
 40
0.185423864820651
 40
0.2782558098237079
 40
0.371087426000117
 40
0.4643112872972583
 40
0.5575350813842325
 40
0.6508997631240907
 40
0.7442647203398014
 40
0.8721318239799442
 40
1.0
 40
1.0
 40
1.0
 40
1.0
 10
1417.406381696243
 20
272.2092235722039
 30
0.0
 10
1417.320263743994
 20
282.9957636067884
 30
0.0
 10
1417.148028116118
 20
304.5688090284341
 30
0.0
 10
1416.943394380329
 20
337.0040263671769
 30
0.0
 10
1416.783857696102
 20
369.4871469726322
 30
0.0
 10
1416.677110576729
 20
402.0591184915286
 30
0.0
 10
1416.626501665602
 20
434.6936482423248
 30
0.0
 10
1416.633122654893
 20
467.3952596799709
 30
0.0
 10
1416.697494720184
 20
500.1059258554725
 30
0.0
 10
1416.832957330676
 20
536.8405646878783
 30
0.0
 10
1417.056001699357
 20
577.5661301329716
 30
0.0
 10
1417.289588037447
 20
607.3253454372061
 30
0.0
 10
1417.406381696243
 20
622.2050154842827
 30
0.0
  0
SPLINE
  5
12E
330
1F
100
AcDbEntity
  8
0
  6
Continuous
 62
     7
370
    15
100
AcDbSpline
210
0.0
220
0.0
230
1.0
 70
     8
 71
     3
 72
    15
 73
    11
 74
     0
 42
0.000000001
 43
0.00000001
 40
0.0
 40
0.0
 40
0.0
 40
0.0
 40
0.1561204249183298
 40
0.3123568759133956
 40
0.4689515051730152
 40
0.6256637523129087
 40
0.7192075754369394
 40
0.8127517119063999
 40
0.9063757416485957
 40
1.0
 40
1.0
 40
1.0
 40
1.0
 10
1106.985272496718
 20
252.6273394264672
 30
0.0
 10
1122.089189707747
 20
252.6878859220015
 30
0.0
 10
1152.308249107307
 20
252.8090239102083
 30
0.0
 10
1197.724728967439
 20
252.847820826329
 30
0.0
 10
1243.18938394603
 20
252.7746464766165
 30
0.0
 10
1282.55060714328
 20
252.6112552690859
 30
0.0
 10
1315.770984798736
 20
252.4147601503213
 30
0.0
 10
1342.865115253423
 20
252.2208693198154
 30
0.0
 10
1369.935614455815
 20
251.9986460714645
 30
0.0
 10
1387.953825627598
 20
251.8283347778188
 30
0.0
 10
1396.9629422126
 20
251.7431790270302
 30
0.0
  0
LINE
  5
12F
330
1F
100
AcDbEntity
  8
0
  6
Continuous
 62
     7
370
    15
100
AcDbLine
 10
1396.9629422126
 20
251.7431790270302
 30
0.0
 11
1396.9629422126
 21
247.2071165480111
 31
0.0
  0
LINE
  5
130
330
1F
100
AcDbEntity
  8
0
  6
Continuous
 62
     7
370
    15
100
AcDbLine
 10
1106.962861150283
 20
252.5525803007577
 30
0.0
 11
1106.962861150283
 21
247.2071165480111
 31
0.0
  0
LINE
  5
131
330
1F
100
AcDbEntity
  8
0
  6
Continuous
 62
     7
370
    15
100
AcDbLine
 10
1106.962861150283
 20
252.5525803007577
 30
0.0
 11
1106.985272496718
 21
252.6273394264672
 31
0.0
  0
SPLINE
  5
132
330
1F
100
AcDbEntity
  8
0
  6
Continuous
 62
     7
370
    15
100
AcDbSpline
210
0.0
220
0.0
230
1.0
 70
     8
 71
     3
 72
    15
 73
    11
 74
     0
 42
0.000000001
 43
0.00000001
 40
0.0
 40
0.0
 40
0.0
 40
0.0
 40
0.1277196421108853
 40
0.2500008069286938
 40
0.3758257857660311
 40
0.500000282601993
 40
0.6241744712259663
 40
0.7499988590319895
 40
0.8722775746913409
 40
1.0
 40
1.0
 40
1.0
 40
1.0
 10
1087.308348744887
 20
272.2071076073144
 30
0.0
 10
1087.393884231489
 20
270.898924965916
 30
0.0
 10
1087.561312986518
 20
268.3382638917503
 30
0.0
 10
1088.753299216327
 20
264.6379927749071
 30
0.0
 10
1090.565234423505
 20
261.2530172612518
 30
0.0
 10
1093.025141728714
 20
258.2693601509615
 30
0.0
 10
1096.008809081718
 20
255.8094880574779
 30
0.0
 10
1099.393705229784
 20
253.9974799792188
 30
0.0
 10
1103.09398109042
 20
252.8054968557275
 30
0.0
 10
1105.654648508575
 20
252.6381008207503
 30
0.0
 10
1106.962861150283
 20
252.5525803007577
 30
0.0
  0
SPLINE
  5
133
330
1F
100
AcDbEntity
  8
0
  6
Continuous
 62
     7
370
    15
100
AcDbSpline
210
0.0
220
0.0
230
1.0
 70
     8
 71
     3
 72
    15
 73
    11
 74
     0
 42
0.000000001
 43
0.00000001
 40
0.0
 40
0.0
 40
0.0
 40
0.0
 40
0.1277225818878272
 40
0.2499972408790027
 40
0.3758253056296327
 40
0.500001521296579
 40
0.624173180982699
 40
0.7499985071276367
 40
0.8722766027635416
 40
1.0
 40
1.0
 40
1.0
 40
1.0
 10
1396.9629422126
 20
251.7431790270302
 30
0.0
 10
1398.326024937677
 20
251.8307501629993
 30
0.0
 10
1400.994048988886
 20
252.0021571456121
 30
0.0
 10
1404.849013058379
 20
253.241193279439
 30
0.0
 10
1408.374935931025
 20
255.1266519966832
 30
0.0
 10
1411.482152016536
 20
257.6878891925475
 30
0.0
 10
1414.043162364662
 20
260.7951959939919
 30
0.0
 10
1415.928956535305
 20
264.3209028882301
 30
0.0
 10
1417.167725073751
 20
268.1759803978255
 30
0.0
 10
1417.339253462968
 20
270.8440275578638
 30
0.0
 10
1417.426885694045
 20
272.2071076073144
 30
0.0
  0
SPLINE
  5
134
330
1F
100
AcDbEntity
  8
0
  6
Continuous
 62
     7
370
    15
100
AcDbSpline
210
0.0
220
0.0
230
1.0
 70
     8
 71
     3
 72
    13
 73
     9
 74
     0
 42
0.000000001
 43
0.00000001
 40
0.0
 40
0.0
 40
0.0
 40
0.0
 40
0.1595984367861441
 40
0.3192926509492163
 40
0.47927480230259
 40
0.6393513894939773
 40
0.8196199486772726
 40
1.0
 40
1.0
 40
1.0
 40
1.0
 10
1120.883645146865
 20
610.118385616729
 30
0.0
 10
1135.00373707319
 20
610.0932537113215
 30
0.0
 10
1163.252394601358
 20
610.042974818479
 30
0.0
 10
1205.683920041122
 20
610.0390077711266
 30
0.0
 10
1248.146720664246
 20
610.0776742657031
 30
0.0
 10
1292.394051018243
 20
610.1883515003536
 30
0.0
 10
1338.390132756993
 20
610.3887124338025
 30
0.0
 10
1370.161088672794
 20
610.6113692078218
 30
0.0
 10
1386.051477521438
 20
610.7227320112679
 30
0.0
  0
SPLINE
  5
135
330
1F
100
AcDbEntity
  8
0
  6
Continuous
 62
     7
370
    15
100
AcDbSpline
210
0.0
220
0.0
230
1.0
 70
     8
 71
     3
 72
    20
 73
    16
 74
     0
 42
0.000000001
 43
0.00000001
 40
0.0
 40
0.0
 40
0.0
 40
0.0
 40
0.0478258147937079
 40
0.0857037909430083
 40
0.1255949032601466
 40
0.1704319948389471
 40
0.2118798368330022
 40
0.2499389527634534
 40
0.335581002928227
 40
0.4182553325060921
 40
0.4998425009264352
 40
0.6249940406365511
 40
0.7499342315269648
 40
0.8737502829278225
 40
1.0
 40
1.0
 40
1.0
 40
1.0
 10
1120.883645146865
 20
610.118385616729
 30
0.0
 10
1120.535056354572
 20
610.8523098425196
 30
0.0
 10
1119.910385742926
 20
612.1675009937102
 30
0.0
 10
1119.003669097517
 20
614.0758862157572
 30
0.0
 10
1118.126820406455
 20
615.9217691642616
 30
0.0
 10
1117.238213379031
 20
617.7973407417321
 30
0.0
 10
1116.378621311995
 20
619.6161829903648
 30
0.0
 10
1115.260991956241
 20
621.9896586009586
 30
0.0
 10
1113.918981612452
 20
624.865987001687
 30
0.0
 10
1112.409263614149
 20
628.1537522791127
 30
0.0
 10
1110.821180595676
 20
631.6895815398817
 30
0.0
 10
1109.264933423338
 20
635.2847030703379
 30
0.0
 10
1107.966137189327
 20
638.5064795811792
 30
0.0
 10
1107.12491745034
 20
640.8557115028875
 30
0.0
 10
1107.032121846699
 20
641.4744863268801
 30
0.0
 10
1106.985272496718
 20
641.7868847288582
 30
0.0
  0
LINE
  5
136
330
1F
100
AcDbEntity
  8
0
  6
Continuous
 62
     7
370
    15
100
AcDbLine
 10
1397.001327603836
 20
642.6176989712212
 30
0.0
 11
1396.9629422126
 21
642.6710451282952
 31
0.0
  0
SPLINE
  5
137
330
1F
100
AcDbEntity
  8
0
  6
Continuous
 62
     7
370
    15
100
AcDbSpline
210
0.0
220
0.0
230
1.0
 70
     8
 71
     3
 72
    22
 73
    18
 74
     0
 42
0.000000001
 43
0.00000001
 40
0.0
 40
0.0
 40
0.0
 40
0.0
 40
0.104018754994218
 40
0.1872816757604691
 40
0.249763511851207
 40
0.295370426545346
 40
0.3393887352560011
 40
0.3818245841007004
 40
0.4226836788061907
 40
0.4619719983613867
 40
0.4996984974839896
 40
0.5668033462790163
 40
0.6324721498625437
 40
0.6967697298919653
 40
0.7597665048618989
 40
0.8820171064719637
 40
1.0
 40
1.0
 40
1.0
 40
1.0
 10
1386.051477521438
 20
610.7227320112679
 30
0.0
 10
1386.744754356469
 20
612.3261367839289
 30
0.0
 10
1387.992972021039
 20
615.2130039913183
 30
0.0
 10
1389.568529254978
 20
618.9520051262047
 30
0.0
 10
1390.723418830045
 20
621.733700171364
 30
0.0
 10
1391.589518902854
 20
623.8872732738675
 30
0.0
 10
1392.307330157947
 20
625.707271505895
 30
0.0
 10
1392.964088381845
 20
627.409612295347
 30
0.0
 10
1393.561694552349
 20
628.9945955891436
 30
0.0
 10
1394.100923452601
 20
630.4638788326084
 30
0.0
 10
1394.716001757543
 20
632.1898712898612
 30
0.0
 10
1395.363548342412
 20
634.1114998524539
 30
0.0
 10
1395.98936039964
 20
636.1279271638385
 30
0.0
 10
1396.480437903393
 20
637.8858198332593
 30
0.0
 10
1396.950427158635
 20
639.844397654268
 30
0.0
 10
1397.25684278715
 20
641.7087916354836
 30
0.0
 10
1397.085484615133
 20
642.318339363978
 30
0.0
 10
1397.001327603836
 20
642.6176989712212
 30
0.0
  0
SPLINE
  5
138
330
1F
100
AcDbEntity
  8
0
  6
Continuous
 62
     7
370
    15
100
AcDbSpline
210
0.0
220
0.0
230
1.0
 70
     8
 71
     3
 72
    17
 73
    13
 74
     0
 42
0.000000001
 43
0.00000001
 40
0.0
 40
0.0
 40
0.0
 40
0.0
 40
0.1166786822101638
 40
0.2333568861792708
 40
0.3288956240446002
 40
0.4244341745410009
 40
0.5200907593585983
 40
0.6157473794922755
 40
0.7117548872515895
 40
0.8077626014554559
 40
0.9038812049847098
 40
1.0
 40
1.0
 40
1.0
 40
1.0
 10
1386.051477521438
 20
610.7227320112679
 30
0.0
 10
1385.979143477406
 20
598.0302264406146
 30
0.0
 10
1385.834475685825
 20
572.6452673231839
 30
0.0
 10
1385.700705682075
 20
536.8005629268921
 30
0.0
 10
1385.618204284195
 20
503.2332551656218
 30
0.0
 10
1385.577516218521
 20
471.9405175009661
 30
0.0
 10
1385.568138296293
 20
440.6273211844506
 30
0.0
 10
1385.59064384983
 20
409.2650169953302
 30
0.0
 10
1385.646207854532
 20
377.876154135034
 30
0.0
 10
1385.739532972181
 20
346.4590477312565
 30
0.0
 10
1385.870196201962
 20
315.0564625461822
 30
0.0
 10
1385.991050374819
 20
294.1464892208479
 30
0.0
 10
1386.051477521438
 20
283.6914921440575
 30
0.0
  0
SPLINE
  5
139
330
1F
100
AcDbEntity
  8
0
  6
Continuous
 62
     7
370
    15
100
AcDbSpline
210
0.0
220
0.0
230
1.0
 70
     8
 71
     3
 72
    20
 73
    16
 74
     0
 42
0.000000001
 43
0.00000001
 40
0.0
 40
0.0
 40
0.0
 40
0.0
 40
0.1180109712876583
 40
0.2402901328793152
 40
0.3674760944949224
 40
0.5001398758925215
 40
0.5573295836189978
 40
0.6180392865566438
 40
0.6822888037347011
 40
0.750096335417409
 40
0.7850829053221253
 40
0.8275714386531533
 40
0.8775538804395988
 40
0.9350336190895936
 40
1.0
 40
1.0
 40
1.0
 40
1.0
 10
1417.406381696243
 20
622.2050154842827
 30
0.0
 10
1417.139134371933
 20
622.256710380846
 30
0.0
 10
1416.594973991171
 20
622.3619698616285
 30
0.0
 10
1414.439688561821
 20
621.8982827178957
 30
0.0
 10
1411.27960721228
 20
620.9619931044193
 30
0.0
 10
1407.905650357517
 20
619.781389094967
 30
0.0
 10
1404.91874614151
 20
618.6464254751572
 30
0.0
 10
1402.61267226798
 20
617.7414108806474
 30
0.0
 10
1400.041821678495
 20
616.7043814485367
 30
0.0
 10
1397.711106264825
 20
615.7426500424132
 30
0.0
 10
1395.630366582854
 20
614.863324556493
 30
0.0
 10
1393.771408545589
 20
614.0690947930647
 30
0.0
 10
1391.541964906333
 20
613.1108519528702
 30
0.0
 10
1388.933573183945
 20
611.9842936273407
 30
0.0
 10
1387.050553485743
 20
611.1600512524382
 30
0.0
 10
1386.051477521438
 20
610.7227320112679
 30
0.0
  0
SPLINE
  5
13A
330
1F
100
AcDbEntity
  8
0
  6
Continuous
 62
     7
370
    15
100
AcDbSpline
210
0.0
220
0.0
230
1.0
 70
     8
 71
     3
 72
    23
 73
    19
 74
     0
 42
0.000000001
 43
0.00000001
 40
0.0
 40
0.0
 40
0.0
 40
0.0
 40
0.0841426630598454
 40
0.1671473694880278
 40
0.2502006181615112
 40
0.3328897788933147
 40
0.4159980536517714
 40
0.5003550128460774
 40
0.5611019923809426
 40
0.6246964092786991
 40
0.6852525366857616
 40
0.7501961414582481
 40
0.7882242273768013
 40
0.8296466384690312
 40
0.8744656099581821
 40
0.9143471400961285
 40
0.9519415766843274
 40
0.9999999999999999
 40
0.9999999999999999
 40
0.9999999999999999
 40
0.9999999999999999
 10
1417.406381696243
 20
272.2092235722039
 30
0.0
 10
1417.236613488032
 20
272.1611786414012
 30
0.0
 10
1416.899373039572
 20
272.0657385458674
 30
0.0
 10
1415.755444993445
 20
272.2200026439517
 30
0.0
 10
1414.190200769634
 20
272.584978027773
 30
0.0
 10
1412.187000086943
 20
273.1711361469282
 30
0.0
 10
1409.790816921457
 20
273.9665745045136
 30
0.0
 10
1407.291930822262
 20
274.866347406559
 30
0.0
 10
1404.79610253508
 20
275.8132478639935
 30
0.0
 10
1402.443081149764
 20
276.7378499681586
 30
0.0
 10
1399.911827176302
 20
277.7621878164317
 30
0.0
 10
1397.628261822613
 20
278.7074808167267
 30
0.0
 10
1395.556341126613
 20
279.579832004444
 30
0.0
 10
1393.739702596454
 20
280.3525780260204
 30
0.0
 10
1391.864211951173
 20
281.157832335165
 30
0.0
 10
1390.020534975708
 20
281.956357493016
 30
0.0
 10
1388.10933633834
 20
282.7886763820762
 30
0.0
 10
1386.791111812317
 20
283.3670026842254
 30
0.0
 10
1386.051477521438
 20
283.6914921440575
 30
0.0
  0
SPLINE
  5
13B
330
1F
100
AcDbEntity
  8
0
  6
Continuous
 62
     7
370
    15
100
AcDbSpline
210
0.0
220
0.0
230
1.0
 70
     8
 71
     3
 72
    23
 73
    19
 74
     0
 42
0.000000001
 43
0.00000001
 40
0.0
 40
0.0
 40
0.0
 40
0.0
 40
0.0840870272945108
 40
0.1670643470809479
 40
0.2501754637088628
 40
0.3328611249783509
 40
0.4159612911209354
 40
0.5003408632537497
 40
0.5610155513826093
 40
0.624691883067918
 40
0.6852259913562521
 40
0.750179664746773
 40
0.7882160797826409
 40
0.829644120760832
 40
0.8744645981950677
 40
0.9143298891642725
 40
0.9519875500102583
 40
1.0
 40
1.0
 40
1.0
 40
1.0
 10
1106.985272496718
 20
252.6273394264672
 30
0.0
 10
1107.004266673053
 20
252.8094645996571
 30
0.0
 10
1107.04200435709
 20
253.1713114162821
 30
0.0
 10
1107.412791947686
 20
254.3586713459956
 30
0.0
 10
1108.000673331561
 20
255.9697605659264
 30
0.0
 10
1108.814438632563
 20
258.0186553762386
 30
0.0
 10
1109.838599334245
 20
260.4575425333809
 30
0.0
 10
1110.943160153922
 20
262.989971556284
 30
0.0
 10
1112.072377060264
 20
265.5116781603137
 30
0.0
 10
1113.152617518896
 20
267.8832404890171
 30
0.0
 10
1114.330082985417
 20
270.4296232337255
 30
0.0
 10
1115.400711077584
 20
272.721353716082
 30
0.0
 10
1116.378538178406
 20
274.7979415387307
 30
0.0
 10
1117.238123368623
 20
276.6167565419305
 30
0.0
 10
1118.126732595113
 20
278.4922854364661
 30
0.0
 10
1119.002161897856
 20
280.3350640255129
 30
0.0
 10
1119.908835753197
 20
282.2434016043448
 30
0.0
 10
1120.53353974064
 20
283.5587003131288
 30
0.0
 10
1120.883645146865
 20
284.2958385385964
 30
0.0
  0
SPLINE
  5
13C
330
1F
100
AcDbEntity
  8
0
  6
Continuous
 62
     7
370
    15
100
AcDbSpline
210
0.0
220
0.0
230
1.0
 70
     8
 71
     3
 72
    13
 73
     9
 74
     0
 42
0.000000001
 43
0.00000001
 40
0.0
 40
0.0
 40
0.0
 40
0.0
 40
0.1802881794052147
 40
0.3606836767458284
 40
0.5202778879826655
 40
0.6799626566255877
 40
0.8399328812237189
 40
1.0
 40
1.0
 40
1.0
 40
1.0
 10
1386.051477521438
 20
283.6914921440575
 30
0.0
 10
1370.169188093936
 20
283.8028032579187
 30
0.0
 10
1338.395155183116
 20
284.0254917444439
 30
0.0
 10
1292.438582497319
 20
284.2256809312889
 30
0.0
 10
1248.249068689404
 20
284.3363467866158
 30
0.0
 10
1205.830954123465
 20
284.375159850374
 30
0.0
 10
1163.359785871087
 20
284.371390877577
 30
0.0
 10
1135.045216218304
 20
284.3210277342211
 30
0.0
 10
1120.883645146865
 20
284.2958385385964
 30
0.0
  0
SPLINE
  5
13D
330
1F
100
AcDbEntity
  8
0
  6
Continuous
 62
     7
370
    15
100
AcDbSpline
210
0.0
220
0.0
230
1.0
 70
     8
 71
     3
 72
    20
 73
    16
 74
     0
 42
0.000000001
 43
0.00000001
 40
0.0
 40
0.0
 40
0.0
 40
0.0
 40
0.1180127243119663
 40
0.2402938790518067
 40
0.3674787935848088
 40
0.5001388768626227
 40
0.5573315115610353
 40
0.6180399745549617
 40
0.6822882745279737
 40
0.7500974178702737
 40
0.7850908011909373
 40
0.8275808724150425
 40
0.877563806674596
 40
0.9350377860617497
 40
1.0
 40
1.0
 40
1.0
 40
1.0
 10
1397.001327603836
 20
251.7965251841042
 30
0.0
 10
1397.0853109877
 20
252.0963308407984
 30
0.0
 10
1397.256315370509
 20
252.7067858966302
 30
0.0
 10
1396.88783305969
 20
254.9586341747317
 30
0.0
 10
1396.041686007661
 20
258.2102387721349
 30
0.0
 10
1394.927049739884
 20
261.6508235706883
 30
0.0
 10
1393.836693699437
 20
264.6834083291851
 30
0.0
 10
1392.961494848032
 20
267.0196350719894
 30
0.0
 10
1391.952618889726
 20
269.618949079652
 30
0.0
 10
1391.011628063254
 20
271.9710295320794
 30
0.0
 10
1390.148232129136
 20
274.0681351158246
 30
0.0
 10
1389.365989494236
 20
275.9396786320175
 30
0.0
 10
1388.420268424853
 20
278.181739711261
 30
0.0
 10
1387.305241532149
 20
280.801696169474
 30
0.0
 10
1386.486098535998
 20
282.6897357946844
 30
0.0
 10
1386.051477521438
 20
283.6914921440575
 30
0.0
  0
LINE
  5
13E
330
1F
100
AcDbEntity
  8
0
  6
Continuous
 62
     7
370
    15
100
AcDbLine
 10
1396.9629422126
 20
251.7431790270302
 30
0.0
 11
1397.001327603836
 21
251.7965251841042
 31
0.0
  0
LINE
  5
13F
330
1F
100
AcDbEntity
  8
0
  6
Continuous
 62
     7
370
    15
100
AcDbLine
 10
1087.308348744887
 20
622.2071165480111
 30
0.0
 11
1087.523759931106
 21
622.3107392229531
 31
0.0
  0
SPLINE
  5
140
330
1F
100
AcDbEntity
  8
0
  6
Continuous
 62
     7
370
    15
100
AcDbSpline
210
0.0
220
0.0
230
1.0
 70
     8
 71
     3
 72
    22
 73
    18
 74
     0
 42
0.000000001
 43
0.00000001
 40
0.0
 40
0.0
 40
0.0
 40
0.0
 40
0.1041448955232011
 40
0.1874108584134852
 40
0.249777488204585
 40
0.2954188486261938
 40
0.3394565006763165
 40
0.3819004090874624
 40
0.4227535132530454
 40
0.4620235953757968
 40
0.4997214136545539
 40
0.5669576179148675
 40
0.6327025596014653
 40
0.697029523374071
 40
0.760015397354426
 40
0.8821617852742191
 40
1.0
 40
1.0
 40
1.0
 40
1.0
 10
1120.883645146865
 20
610.118385616729
 30
0.0
 10
1119.272816458623
 20
610.8597847903811
 30
0.0
 10
1116.374097460407
 20
612.1939476877864
 30
0.0
 10
1112.591431155939
 20
613.8886572068495
 30
0.0
 10
1109.764748370209
 20
615.1365185186224
 30
0.0
 10
1107.565841017172
 20
616.0766300678312
 30
0.0
 10
1105.698722762048
 20
616.8597009950811
 30
0.0
 10
1103.945498152948
 20
617.5787772032915
 30
0.0
 10
1102.306702643952
 20
618.2356918947937
 30
0.0
 10
1100.781424755824
 20
618.8315518485654
 30
0.0
 10
1098.979280581754
 20
619.5150132843874
 30
0.0
 10
1096.958205944992
 20
620.2420986932714
 30
0.0
 10
1094.815716561584
 20
620.9546915530428
 30
0.0
 10
1092.927005805526
 20
621.5250353335891
 30
0.0
 10
1090.792422094283
 20
622.0876853726431
 30
0.0
 10
1088.702089384559
 20
622.4928477121309
 30
0.0
 10
1087.911807401565
 20
622.370711192904
 30
0.0
 10
1087.523759931106
 20
622.3107392229531
 30
0.0
  0
SPLINE
  5
141
330
1F
100
AcDbEntity
  8
0
  6
Continuous
 62
     7
370
    15
100
AcDbSpline
210
0.0
220
0.0
230
1.0
 70
     8
 71
     3
 72
    15
 73
    11
 74
     0
 42
0.000000001
 43
0.00000001
 40
0.0
 40
0.0
 40
0.0
 40
0.0
 40
0.1255016376113196
 40
0.2510021380549425
 40
0.3767604956202022
 40
0.5025137197939665
 40
0.6267425650359222
 40
0.7509762977866369
 40
0.8754876005822487
 40
1.0
 40
1.0
 40
1.0
 40
1.0
 10
1120.883645146865
 20
284.2958385385964
 30
0.0
 10
1120.972131565631
 20
297.8959037433776
 30
0.0
 10
1121.149103601389
 20
325.0959109230355
 30
0.0
 10
1121.288892235223
 20
366.005864204308
 30
0.0
 10
1121.272005986517
 20
406.985748430821
 30
0.0
 10
1121.212575753456
 20
447.8618518961999
 30
0.0
 10
1121.273798805661
 20
488.5712523969281
 30
0.0
 10
1121.286973612724
 20
529.1112091044943
 30
0.0
 10
1121.147208808457
 20
569.6400818302973
 30
0.0
 10
1120.971499958651
 20
596.6255780760364
 30
0.0
 10
1120.883645146865
 20
610.118385616729
 30
0.0
  0
SPLINE
  5
142
330
1F
100
AcDbEntity
  8
0
  6
Continuous
 62
     7
370
    15
100
AcDbSpline
210
0.0
220
0.0
230
1.0
 70
     8
 71
     3
 72
    20
 73
    16
 74
     0
 42
0.000000001
 43
0.00000001
 40
0.0
 40
0.0
 40
0.0
 40
0.0
 40
0.0480184809708504
 40
0.0857093846647261
 40
0.1255884275718993
 40
0.1704321075651827
 40
0.2118796376438126
 40
0.2499316399866185
 40
0.3355781662752542
 40
0.4182533339794935
 40
0.4998465164292147
 40
0.6250060904939332
 40
0.7499510503604022
 40
0.873764352648419
 40
1.0
 40
1.0
 40
1.0
 40
1.0
 10
1120.883645146865
 20
284.2958385385964
 30
0.0
 10
1120.141253515179
 20
283.9520487881072
 30
0.0
 10
1118.816140170366
 20
283.3384098854864
 30
0.0
 10
1116.88610472206
 20
282.4553262555872
 30
0.0
 10
1115.01738085546
 20
281.6072307260976
 30
0.0
 10
1113.109764579051
 20
280.7523561461039
 30
0.0
 10
1111.253797408812
 20
279.9314317748126
 30
0.0
 10
1108.824487202839
 20
278.871620861366
 30
0.0
 10
1105.865483883444
 20
277.6144289972246
 30
0.0
 10
1102.457092616314
 20
276.2273120460925
 30
0.0
 10
1098.759326767075
 20
274.8027522558436
 30
0.0
 10
1094.947699262465
 20
273.4640728418689
 30
0.0
 10
1091.445256355271
 20
272.4459301807849
 30
0.0
 10
1088.786108752652
 20
271.9136574539095
 30
0.0
 10
1087.947251676305
 20
272.0398017659061
 30
0.0
 10
1087.523759931106
 20
272.1034849323723
 30
0.0
  0
LINE
  5
143
330
1F
100
AcDbEntity
  8
0
  6
Continuous
 62
     7
370
    15
100
AcDbLine
 10
1087.523759931106
 20
272.1034849323723
 30
0.0
 11
1087.308348744887
 21
272.2071076073144
 31
0.0
  0
SPLINE
  5
144
330
1F
100
AcDbEntity
  8
0
  6
Continuous
 62
     7
370
    15
100
AcDbSpline
210
0.0
220
0.0
230
1.0
 70
     8
 71
     3
 72
    15
 73
    11
 74
     0
 42
0.000000001
 43
0.00000001
 40
0.0
 40
0.0
 40
0.0
 40
0.0
 40
0.1250386185886282
 40
0.2500427149511838
 40
0.3750265947794864
 40
0.5000029527607438
 40
0.6249696740307605
 40
0.7499591083449448
 40
0.8749643531850488
 40
1.0
 40
1.0
 40
1.0
 40
1.0
 10
1417.406381696243
 20
622.2050154842827
 30
0.0
 10
1417.320632008546
 20
623.5332138843945
 30
0.0
 10
1417.149156308002
 20
626.1892439789876
 30
0.0
 10
1415.920988860691
 20
630.0228637821598
 30
0.0
 10
1414.02864394514
 20
633.5604378472771
 30
0.0
 10
1411.471961768609
 20
636.6650374739352
 30
0.0
 10
1408.367424652241
 20
639.223690409045
 30
0.0
 10
1404.828155754218
 20
641.1199076409699
 30
0.0
 10
1400.991018813812
 20
642.3534085633157
 30
0.0
 10
1398.331332469152
 20
642.5295950278654
 30
0.0
 10
1397.001327603836
 20
642.6176989712212
 30
0.0
  0
SPLINE
  5
145
330
1F
100
AcDbEntity
  8
0
  6
Continuous
 62
     7
370
    15
100
AcDbSpline
210
0.0
220
0.0
230
1.0
 70
     8
 71
     3
 72
    15
 73
    11
 74
     0
 42
0.000000001
 43
0.00000001
 40
0.0
 40
0.0
 40
0.0
 40
0.0
 40
0.1250363344558019
 40
0.2500449342940657
 40
0.3750332027313176
 40
0.5000019833048394
 40
0.6249702246241146
 40
0.7499592568404736
 40
0.8749642536057951
 40
1.0
 40
1.0
 40
1.0
 40
1.0
 10
1417.406381696243
 20
272.2092235722039
 30
0.0
 10
1417.320618486901
 20
270.881055092563
 30
0.0
 10
1417.149111091568
 20
268.2250127376055
 30
0.0
 10
1415.921075967459
 20
264.3912576641029
 30
0.0
 10
1414.028382282919
 20
260.8538583382242
 30
0.0
 10
1411.471926342512
 20
257.7491324808325
 30
0.0
 10
1408.367444738196
 20
255.1904885867897
 30
0.0
 10
1404.828153256512
 20
253.2943002035792
 30
0.0
 10
1400.991012695762
 20
252.060840681302
 30
0.0
 10
1398.331331662316
 20
251.8846375728999
 30
0.0
 10
1397.001327603836
 20
251.7965251841042
 30
0.0
  0
SPLINE
  5
146
330
1F
100
AcDbEntity
  8
0
  6
Continuous
 62
     7
370
    15
100
AcDbSpline
210
0.0
220
0.0
230
1.0
 70
     8
 71
     3
 72
    15
 73
    11
 74
     0
 42
0.000000001
 43
0.00000001
 40
0.0
 40
0.0
 40
0.0
 40
0.0
 40
0.1251108582414785
 40
0.2501300076334587
 40
0.3750837809945394
 40
0.4999988576569296
 40
0.6249184378581009
 40
0.7498706818495652
 40
0.8748883741666401
 40
0.9999999999999999
 40
0.9999999999999999
 40
0.9999999999999999
 40
0.9999999999999999
 10
1087.523759931106
 20
622.3107392229531
 30
0.0
 10
1087.617207237401
 20
623.5786431580779
 30
0.0
 10
1087.804033351181
 20
626.113521628491
 30
0.0
 10
1088.997575294461
 20
629.7681660613648
 30
0.0
 10
1090.814464036706
 20
633.1383825625763
 30
0.0
 10
1093.253640374492
 20
636.0958435310205
 30
0.0
 10
1096.206086910268
 20
638.5341011944694
 30
0.0
 10
1099.565459176011
 20
640.3440927251539
 30
0.0
 10
1103.204185573543
 20
641.5253426594422
 30
0.0
 10
1105.724594684342
 20
641.6996822152385
 30
0.0
 10
1106.985272496718
 20
641.7868847288582
 30
0.0
  0
SPLINE
  5
147
330
1F
100
AcDbEntity
  8
0
  6
Continuous
 62
     7
370
    15
100
AcDbSpline
210
0.0
220
0.0
230
1.0
 70
     8
 71
     3
 72
    15
 73
    11
 74
     0
 42
0.000000001
 43
0.00000001
 40
0.0
 40
0.0
 40
0.0
 40
0.0
 40
0.1251115843480831
 40
0.250129625797702
 40
0.3750823278020549
 40
0.500000030748209
 40
0.6249177476674942
 40
0.7498729553502176
 40
0.8748871925605641
 40
1.0
 40
1.0
 40
1.0
 40
1.0
 10
1106.985272496718
 20
252.6273394264672
 30
0.0
 10
1105.72459432962
 20
252.7145402518142
 30
0.0
 10
1103.204180573924
 20
252.8888767045652
 30
0.0
 10
1099.565451076707
 20
254.0701561738902
 30
0.0
 10
1096.206134296186
 20
255.8802005226686
 30
0.0
 10
1093.253560011103
 20
258.3183405509649
 30
0.0
 10
1090.814536918942
 20
261.275948457506
 30
0.0
 10
1088.997413350194
 20
264.6460250644283
 30
0.0
 10
1087.804055335765
 20
268.3007252737004
 30
0.0
 10
1087.617216275878
 20
270.8355654023306
 30
0.0
 10
1087.523759931106
 20
272.1034849323723
 30
0.0
  0
CIRCLE
  5
148
330
1F
100
AcDbEntity
  8
0
  6
Continuous
 62
     7
370
    15
100
AcDbCircle
 10
1191.962905573607
 20
447.2071147802223
 30
0.0
 40
69.99999999999909
  0
CIRCLE
  5
149
330
1F
100
AcDbEntity
  8
0
  6
Continuous
 62
     7
370
    15
100
AcDbCircle
 10
1191.962905573607
 20
447.2071147802223
 30
0.0
 40
63.7319442163564
  0
CIRCLE
  5
14A
330
1F
100
AcDbEntity
  8
0
  6
Continuous
 62
     7
370
    15
100
AcDbCircle
 10
1191.962905573607
 20
447.2071147802223
 30
0.0
 40
63.11249494977801
  0
CIRCLE
  5
14B
330
1F
100
AcDbEntity
  8
0
  6
Continuous
 62
     7
370
    15
100
AcDbCircle
 10
1191.962905573607
 20
447.2071147802223
 30
0.0
 40
58.61177143234636
  0
CIRCLE
  5
14C
330
1F
100
AcDbEntity
  8
0
  6
Continuous
 62
     7
370
    15
100
AcDbCircle
 10
1191.962905573607
 20
447.2071147802223
 30
0.0
 40
57.5
  0
CIRCLE
  5
14D
330
1F
100
AcDbEntity
  8
0
  6
Continuous
 62
     7
370
    15
100
AcDbCircle
 10
1191.962905573607
 20
447.2071147802223
 30
0.0
 40
56.58715574274765
  0
CIRCLE
  5
14E
330
1F
100
AcDbEntity
  8
0
  6
Continuous
 62
     7
370
    15
100
AcDbCircle
 10
1191.962905573607
 20
447.2071147802223
 30
0.0
 40
45.0
  0
LINE
  5
14F
330
1F
100
AcDbEntity
  8
0
  6
Continuous
 62
     7
370
    15
100
AcDbLine
 10
1012.347997754592
 20
624.1098607220147
 30
0.0
 11
589.8628846106711
 21
624.1098607220147
 31
0.0
  0
LINE
  5
150
330
1F
100
AcDbEntity
  8
0
  6
Continuous
 62
     7
370
    15
100
AcDbLine
 10
1012.347997754592
 20
622.2304666676018
 30
0.0
 11
1012.347997754592
 21
624.1098607220147
 31
0.0
  0
LINE
  5
151
330
1F
100
AcDbEntity
  8
0
  6
Continuous
 62
     7
370
    15
100
AcDbLine
 10
589.8628846106711
 20
622.2304666676018
 30
0.0
 11
1012.347997754592
 21
622.2304666676018
 31
0.0
  0
LINE
  5
152
330
1F
100
AcDbEntity
  8
0
  6
Continuous
 62
     7
370
    15
100
AcDbLine
 10
589.8628846106711
 20
622.2304666676018
 30
0.0
 11
589.8628846106711
 21
624.1098607220147
 31
0.0
  0
LINE
  5
153
330
1F
100
AcDbEntity
  8
0
  6
Continuous
 62
     7
370
    15
100
AcDbLine
 10
1422.662796109695
 20
226.7884129919503
 30
0.0
 11
589.8628846106711
 21
226.7884129919503
 31
0.0
  0
LINE
  5
154
330
1F
100
AcDbEntity
  8
0
  6
Continuous
 62
     7
370
    15
100
AcDbLine
 10
1422.662796109695
 20
224.9090189375374
 30
0.0
 11
1422.662796109695
 21
226.7884129919503
 31
0.0
  0
LINE
  5
155
330
1F
100
AcDbEntity
  8
0
  6
Continuous
 62
     7
370
    15
100
AcDbLine
 10
589.8628846106711
 20
224.9090189375374
 30
0.0
 11
1422.662796109695
 21
224.9090189375374
 31
0.0
  0
LINE
  5
156
330
1F
100
AcDbEntity
  8
0
  6
Continuous
 62
     7
370
    15
100
AcDbLine
 10
589.8628846106711
 20
224.9090189375374
 30
0.0
 11
589.8628846106711
 21
226.7884129919503
 31
0.0
  0
ARC
  5
157
330
1F
100
AcDbEntity
  8
0
  6
Continuous
 62
     7
370
    15
100
AcDbCircle
 10
1012.347956207491
 20
657.7094405594404
 30
0.0
 40
33.59958492358066
100
AcDbArc
 50
270.0000000000008
 51
315.000000000001
  0
LWPOLYLINE
  5
158
330
1F
100
AcDbEntity
  8
0
  6
Continuous
 62
     7
370
    15
100
AcDbPolyline
 90
        9
 70
   128
 43
0.0
 10
1037.435354321975
 20
632.6220149435494
 10
1037.34630498268
 20
632.7110642828438
 10
1037.228406995315
 20
632.8289771713708
 10
1037.084402173537
 20
632.9729968943093
 10
1036.917628377456
 20
633.139785591552
 10
1036.731900304336
 20
633.3254540600274
 10
1036.53174790718
 20
633.5256809629891
 10
1036.321581929702
 20
633.7358171381447
 10
1036.106409162063
 20
633.9509452023003
  0
ARC
  5
159
330
1F
100
AcDbEntity
  8
0
  6
Continuous
 62
     7
370
    15
100
AcDbCircle
 10
1012.347956207491
 20
657.7094405594404
 30
0.0
 40
35.47897016515253
100
AcDbArc
 50
270.0000000000008
 51
315.0000000000007
  0
ARC
  5
15A
330
1F
100
AcDbEntity
  8
0
  6
Continuous
 62
     7
370
    15
100
AcDbCircle
 10
1422.662905573608
 20
246.3094405594404
 30
0.0
 40
19.5210298348477
100
AcDbArc
 50
270.0000000000008
 51
0.0000000000005598
  0
LINE
  5
15B
330
1F
100
AcDbEntity
  8
0
  6
Continuous
 62
     7
370
    15
100
AcDbLine
 10
1444.063247769851
 20
246.3094407953713
 30
0.0
 11
1442.184032529373
 21
246.3094407953713
 31
0.0
  0
ARC
  5
15C
330
1F
100
AcDbEntity
  8
0
  6
Continuous
 62
     7
370
    15
100
AcDbCircle
 10
1422.662905573608
 20
246.3094405594404
 30
0.0
 40
21.40041507641936
100
AcDbArc
 50
270.0000000000008
 51
0.0000000000006616
  0
LINE
  5
15D
330
1F
100
AcDbEntity
  8
0
  6
Continuous
 62
     7
370
    15
100
AcDbLine
 10
1061.003984540481
 20
658.8484162725899
 30
0.0
 11
1036.106409162063
 21
633.9509452023003
 31
0.0
  0
LWPOLYLINE
  5
15E
330
1F
100
AcDbEntity
  8
0
  6
Continuous
 62
     7
370
    15
100
AcDbPolyline
 90
        9
 70
   128
 43
0.0
 10
1062.332810491103
 20
657.5195009150002
 10
1062.243761151809
 20
657.6085353531334
 10
1062.125863164443
 20
657.7264482416604
 10
1061.981858342666
 20
657.8704679645989
 10
1061.815084546584
 20
658.0372566618416
 10
1061.629356473464
 20
658.222925130317
 10
1061.429204076308
 20
658.4231520332787
 10
1061.21903809883
 20
658.6332882084344
 10
1061.003984540481
 20
658.8484162725899
  0
LINE
  5
15F
330
1F
100
AcDbEntity
  8
0
  6
Continuous
 62
     7
370
    15
100
AcDbLine
 10
1037.435354321975
 20
632.6220149435494
 30
0.0
 11
1062.332810491103
 21
657.5195009150002
 31
0.0
  0
LINE
  5
160
330
1F
100
AcDbEntity
  8
0
  6
Continuous
 62
     7
370
    15
100
AcDbLine
 10
1442.184032529373
 20
648.1094474234078
 30
0.0
 11
1442.184032529373
 21
246.3094407953713
 31
0.0
  0
LINE
  5
161
330
1F
100
AcDbEntity
  8
0
  6
Continuous
 62
     7
370
    15
100
AcDbLine
 10
1444.063247769851
 20
648.1094474234078
 30
0.0
 11
1442.184032529373
 21
648.1094474234078
 31
0.0
  0
LINE
  5
162
330
1F
100
AcDbEntity
  8
0
  6
Continuous
 62
     7
370
    15
100
AcDbLine
 10
1444.063247769851
 20
246.3094407953713
 30
0.0
 11
1444.063247769851
 21
648.1094474234078
 31
0.0
  0
ARC
  5
163
330
1F
100
AcDbEntity
  8
0
  6
Continuous
 62
     7
370
    15
100
AcDbCircle
 10
1086.742905573608
 20
633.1094405594404
 30
0.0
 40
36.40041507641945
100
AcDbArc
 50
90.0
 51
134.9999999999999
  0
LINE
  5
164
330
1F
100
AcDbEntity
  8
0
  6
Continuous
 62
     7
370
    15
100
AcDbLine
 10
1086.742939084548
 20
667.6304752268288
 30
0.0
 11
1086.742939084548
 21
669.5098543800805
 31
0.0
  0
ARC
  5
165
330
1F
100
AcDbEntity
  8
0
  6
Continuous
 62
     7
370
    15
100
AcDbCircle
 10
1086.742905573608
 20
633.1094405594404
 30
0.0
 40
34.52102983484758
100
AcDbArc
 50
90.0
 51
135.0
  0
ARC
  5
166
330
1F
100
AcDbEntity
  8
0
  6
Continuous
 62
     7
370
    15
100
AcDbCircle
 10
1422.662905573608
 20
648.1094405594403
 30
0.0
 40
19.5210298348477
100
AcDbArc
 50
0.0
 51
90.0
  0
LINE
  5
167
330
1F
100
AcDbEntity
  8
0
  6
Continuous
 62
     7
370
    15
100
AcDbLine
 10
1422.662796109695
 20
669.5098543800805
 30
0.0
 11
1422.662796109695
 21
667.6304752268288
 31
0.0
  0
ARC
  5
168
330
1F
100
AcDbEntity
  8
0
  6
Continuous
 62
     7
370
    15
100
AcDbCircle
 10
1422.662905573608
 20
648.1094405594403
 30
0.0
 40
21.40041507642013
100
AcDbArc
 50
0.0
 51
90.0
  0
LINE
  5
169
330
1F
100
AcDbEntity
  8
0
  6
Continuous
 62
     7
370
    15
100
AcDbLine
 10
1422.662796109695
 20
669.5098543800805
 30
0.0
 11
1086.742939084548
 21
669.5098543800805
 31
0.0
  0
LINE
  5
16A
330
1F
100
AcDbEntity
  8
0
  6
Continuous
 62
     7
370
    15
100
AcDbLine
 10
1086.742939084548
 20
667.6304752268288
 30
0.0
 11
1422.662796109695
 21
667.6304752268288
 31
0.0
  0
LINE
  5
16B
330
1F
100
AcDbEntity
  8
0
  6
Continuous
 62
     7
370
    15
100
AcDbLine
 10
1460.281671613235
 20
682.7094370760415
 30
0.0
 11
1460.281671613235
 21
232.7094340958092
 31
0.0
  0
LINE
  5
16C
330
1F
100
AcDbEntity
  8
0
  6
Continuous
 62
     7
370
    15
100
AcDbLine
 10
1461.263002484817
 20
682.7094370760415
 30
0.0
 11
1460.281671613235
 21
682.7094370760415
 31
0.0
  0
LINE
  5
16D
330
1F
100
AcDbEntity
  8
0
  6
Continuous
 62
     7
370
    15
100
AcDbLine
 10
1461.263002484817
 20
232.7094340958092
 30
0.0
 11
1461.263002484817
 21
682.7094370760415
 31
0.0
  0
LINE
  5
16E
330
1F
100
AcDbEntity
  8
0
  6
Continuous
 62
     7
370
    15
100
AcDbLine
 10
1461.263002484817
 20
232.7094340958092
 30
0.0
 11
1460.281671613235
 21
232.7094340958092
 31
0.0
  0
ARC
  5
16F
330
1F
100
AcDbEntity
  8
0
  6
Continuous
 62
     7
370
    15
100
AcDbCircle
 10
576.2629055736078
 20
682.7094405594404
 30
0.0
 40
25.00000000000011
100
AcDbArc
 50
90.0
 51
180.0
  0
LINE
  5
170
330
1F
100
AcDbEntity
  8
0
  6
Continuous
 62
     7
370
    15
100
AcDbLine
 10
576.2628928122703
 20
706.7281419672463
 30
0.0
 11
576.2628928122703
 21
707.709443036506
 31
0.0
  0
ARC
  5
171
330
1F
100
AcDbEntity
  8
0
  6
Continuous
 62
     7
370
    15
100
AcDbCircle
 10
576.2629055736078
 20
682.7094405594404
 30
0.0
 40
24.01869474724731
100
AcDbArc
 50
90.0
 51
180.0
  0
LINE
  5
172
330
1F
100
AcDbEntity
  8
0
  6
Continuous
 62
     7
370
    15
100
AcDbLine
 10
552.2442475257102
 20
682.7094370760415
 30
0.0
 11
551.2629166541282
 21
682.7094370760415
 31
0.0
  0
ARC
  5
173
330
1F
100
AcDbEntity
  8
0
  6
Continuous
 62
     7
370
    15
100
AcDbCircle
 10
589.8629055736079
 20
602.7094405594404
 30
0.0
 40
21.40041507641956
100
AcDbArc
 50
90.0
 51
180.0
  0
LINE
  5
174
330
1F
100
AcDbEntity
  8
0
  6
Continuous
 62
     7
370
    15
100
AcDbLine
 10
568.4624329505149
 20
602.7094388641808
 30
0.0
 11
568.4624329505149
 21
246.3094407953713
 31
0.0
  0
ARC
  5
175
330
1F
100
AcDbEntity
  8
0
  6
Continuous
 62
     7
370
    15
100
AcDbCircle
 10
589.8629055736079
 20
246.3094405594404
 30
0.0
 40
21.40041507641956
100
AcDbArc
 50
180.0
 51
270.0000000000008
  0
CIRCLE
  5
177
330
1F
100
AcDbEntity
  8
0
  6
Continuous
 62
     7
370
    15
100
AcDbCircle
 10
1011.262905573608
 20
657.7094405594404
 30
0.0
 40
17.50000000000011
  0
LINE
  5
178
330
1F
100
AcDbEntity
  8
0
  6
Continuous
 62
     7
370
    15
100
AcDbLine
 10
576.2628928122703
 20
706.7281419672463
 30
0.0
 11
1436.262907117385
 21
706.7281419672463
 31
0.0
  0
ARC
  5
179
330
1F
100
AcDbEntity
  8
0
  6
Continuous
 62
     7
370
    15
100
AcDbCircle
 10
1436.262905573608
 20
682.7094405594404
 30
0.0
 40
24.01869474724742
100
AcDbArc
 50
0.0
 51
90.0
  0
ARC
  5
17A
330
1F
100
AcDbEntity
  8
0
  6
Continuous
 62
     7
370
    15
100
AcDbCircle
 10
1436.262905573608
 20
232.7094405594404
 30
0.0
 40
24.01869474724737
100
AcDbArc
 50
270.0000000000008
 51
0.0
  0
LINE
  5
17B
330
1F
100
AcDbEntity
  8
0
  6
Continuous
 62
     7
370
    15
100
AcDbLine
 10
1436.262907117385
 20
208.6907441057656
 30
0.0
 11
576.2628928122703
 21
208.6907441057656
 31
0.0
  0
ARC
  5
17C
330
1F
100
AcDbEntity
  8
0
  6
Continuous
 62
     7
370
    15
100
AcDbCircle
 10
576.2629055736078
 20
232.7094405594404
 30
0.0
 40
24.01869474724737
100
AcDbArc
 50
180.0
 51
270.0000000000008
  0
LINE
  5
17D
330
1F
100
AcDbEntity
  8
0
  6
Continuous
 62
     7
370
    15
100
AcDbLine
 10
552.2442475257102
 20
232.7094340958092
 30
0.0
 11
552.2442475257102
 21
682.7094370760415
 31
0.0
  0
LINE
  5
17E
330
1F
100
AcDbEntity
  8
0
  6
Continuous
 62
     7
370
    15
100
AcDbLine
 10
1436.262907117385
 20
707.709443036506
 30
0.0
 11
576.2628928122703
 21
707.709443036506
 31
0.0
  0
LINE
  5
17F
330
1F
100
AcDbEntity
  8
0
  6
Continuous
 62
     7
370
    15
100
AcDbLine
 10
1436.262907117385
 20
707.709443036506
 30
0.0
 11
1436.262907117385
 21
706.7281419672463
 31
0.0
  0
ARC
  5
180
330
1F
100
AcDbEntity
  8
0
  6
Continuous
 62
     7
370
    15
100
AcDbCircle
 10
589.8629055736079
 20
246.3094405594404
 30
0.0
 40
19.5210298348477
100
AcDbArc
 50
179.9999999999998
 51
270.0000000000008
  0
LINE
  5
181
330
1F
100
AcDbEntity
  8
0
  6
Continuous
 62
     7
370
    15
100
AcDbLine
 10
568.4624329505149
 20
246.3094407953713
 30
0.0
 11
570.3418866095725
 21
246.3094407953713
 31
0.0
  0
ARC
  5
182
330
1F
100
AcDbEntity
  8
0
  6
Continuous
 62
     7
370
    15
100
AcDbCircle
 10
1436.262905573608
 20
232.7094405594404
 30
0.0
 40
25.00000000000023
100
AcDbArc
 50
270.0000000000008
 51
0.0
  0
LINE
  5
183
330
1F
100
AcDbEntity
  8
0
  6
Continuous
 62
     7
370
    15
100
AcDbLine
 10
1436.262907117385
 20
207.7094430365059
 30
0.0
 11
1436.262907117385
 21
208.6907441057656
 31
0.0
  0
LINE
  5
184
330
1F
100
AcDbEntity
  8
0
  6
Continuous
 62
     7
370
    15
100
AcDbLine
 10
551.2629166541282
 20
682.7094370760415
 30
0.0
 11
551.2629166541282
 21
232.7094340958092
 31
0.0
  0
LINE
  5
185
330
1F
100
AcDbEntity
  8
0
  6
Continuous
 62
     7
370
    15
100
AcDbLine
 10
552.2442475257102
 20
232.7094340958092
 30
0.0
 11
551.2629166541282
 21
232.7094340958092
 31
0.0
  0
LINE
  5
186
330
1F
100
AcDbEntity
  8
0
  6
Continuous
 62
     7
370
    15
100
AcDbLine
 10
576.2628928122703
 20
207.7094430365059
 30
0.0
 11
1436.262907117385
 21
207.7094430365059
 31
0.0
  0
LINE
  5
187
330
1F
100
AcDbEntity
  8
0
  6
Continuous
 62
     7
370
    15
100
AcDbLine
 10
576.2628928122703
 20
208.6907441057656
 30
0.0
 11
576.2628928122703
 21
207.7094430365059
 31
0.0
  0
LINE
  5
188
330
1F
100
AcDbEntity
  8
0
  6
Continuous
 62
     7
370
    15
100
AcDbLine
 10
570.3418866095725
 20
602.7094388641808
 30
0.0
 11
568.4624329505149
 21
602.7094388641808
 31
0.0
  0
LINE
  5
189
330
1F
100
AcDbEntity
  8
0
  6
Continuous
 62
     7
370
    15
100
AcDbLine
 10
570.3418866095725
 20
246.3094407953713
 30
0.0
 11
570.3418866095725
 21
602.7094388641808
 31
0.0
  0
ARC
  5
18A
330
1F
100
AcDbEntity
  8
0
  6
Continuous
 62
     7
370
    15
100
AcDbCircle
 10
576.2629055736078
 20
232.7094405594404
 30
0.0
 40
25.00000000000011
100
AcDbArc
 50
180.0
 51
270.0000000000008
  0
ARC
  5
18B
330
1F
100
AcDbEntity
  8
0
  6
Continuous
 62
     7
370
    15
100
AcDbCircle
 10
589.8629055736079
 20
602.7094405594404
 30
0.0
 40
19.5210298348477
100
AcDbArc
 50
90.0
 51
179.9999999999998
  0
ARC
  5
18C
330
1F
100
AcDbEntity
  8
0
  6
Continuous
 62
     7
370
    15
100
AcDbCircle
 10
1436.262905573608
 20
682.7094405594404
 30
0.0
 40
25.00000000000023
100
AcDbArc
 50
0.0
 51
90.0
  0
LINE
  5
18D
330
1F
100
AcDbEntity
  8
0
  6
Continuous
 62
     7
370
    15
100
AcDbLine
 10
1442.050041287918
 20
648.1094474234078
 30
0.0
 11
1442.184032529373
 21
648.1094474234078
 31
0.0
  0
ARC
  5
18E
330
1F
100
AcDbEntity
  8
0
  6
Continuous
 62
     7
370
    15
100
AcDbCircle
 10
1422.662905573608
 20
648.1094405594403
 30
0.0
 40
19.38705946235427
100
AcDbArc
 50
0.0
 51
90.0
  0
LINE
  5
18F
330
1F
100
AcDbEntity
  8
0
  6
Continuous
 62
     7
370
    15
100
AcDbLine
 10
1422.662796109695
 20
667.4964988865349
 30
0.0
 11
1422.662796109695
 21
667.6304752268288
 31
0.0
  0
LINE
  5
190
330
1F
100
AcDbEntity
  8
0
  6
Continuous
 62
     7
370
    15
100
AcDbLine
 10
589.8628846106711
 20
226.922374431083
 30
0.0
 11
589.8628846106711
 21
226.7884129919503
 31
0.0
  0
LINE
  5
191
330
1F
100
AcDbEntity
  8
0
  6
Continuous
 62
     7
370
    15
100
AcDbLine
 10
589.8628846106711
 20
226.922374431083
 30
0.0
 11
1422.662796109695
 21
226.922374431083
 31
0.0
  0
LINE
  5
192
330
1F
100
AcDbEntity
  8
0
  6
Continuous
 62
     7
370
    15
100
AcDbLine
 10
1422.662796109695
 20
226.922374431083
 30
0.0
 11
1422.662796109695
 21
226.7884129919503
 31
0.0
  0
LINE
  5
193
330
1F
100
AcDbEntity
  8
0
  6
Continuous
 62
     7
370
    15
100
AcDbLine
 10
1442.050041287918
 20
246.3094407953713
 30
0.0
 11
1442.184032529373
 21
246.3094407953713
 31
0.0
  0
LINE
  5
194
330
1F
100
AcDbEntity
  8
0
  6
Continuous
 62
     7
370
    15
100
AcDbLine
 10
1442.050041287918
 20
246.3094407953713
 30
0.0
 11
1442.050041287918
 21
648.1094474234078
 31
0.0
  0
LINE
  5
195
330
1F
100
AcDbEntity
  8
0
  6
Continuous
 62
     7
370
    15
100
AcDbLine
 10
1062.427581876296
 20
657.4247593321297
 30
0.0
 11
1062.332810491103
 21
657.5195009150002
 31
0.0
  0
LINE
  5
196
330
1F
100
AcDbEntity
  8
0
  6
Continuous
 62
     7
370
    15
100
AcDbLine
 10
1062.427581876296
 20
657.4247593321297
 30
0.0
 11
1037.530125707168
 21
632.5272882618401
 31
0.0
  0
LINE
  5
197
330
1F
100
AcDbEntity
  8
0
  6
Continuous
 62
     7
370
    15
100
AcDbLine
 10
1037.530125707168
 20
632.5272882618401
 30
0.0
 11
1037.435354321975
 21
632.6220149435494
 31
0.0
  0
ARC
  5
198
330
1F
100
AcDbEntity
  8
0
  6
Continuous
 62
     7
370
    15
100
AcDbCircle
 10
1012.347956207491
 20
657.7094405594404
 30
0.0
 40
35.61294053764641
100
AcDbArc
 50
270.0000000000008
 51
315.0000000000013
  0
LINE
  5
199
330
1F
100
AcDbEntity
  8
0
  6
Continuous
 62
     7
370
    15
100
AcDbLine
 10
1012.347997754592
 20
622.0965052284691
 30
0.0
 11
1012.347997754592
 21
622.2304666676018
 31
0.0
  0
ARC
  5
19A
330
1F
100
AcDbEntity
  8
0
  6
Continuous
 62
     7
370
    15
100
AcDbCircle
 10
1422.662905573608
 20
246.3094405594404
 30
0.0
 40
19.38705946235427
100
AcDbArc
 50
270.0000000000008
 51
0.0000000000006616
  0
LINE
  5
19B
330
1F
100
AcDbEntity
  8
0
  6
Continuous
 62
     7
370
    15
100
AcDbLine
 10
589.8628846106711
 20
622.0965052284691
 30
0.0
 11
589.8628846106711
 21
622.2304666676018
 31
0.0
  0
ARC
  5
19C
330
1F
100
AcDbEntity
  8
0
  6
Continuous
 62
     7
370
    15
100
AcDbCircle
 10
589.8629055736079
 20
602.7094405594404
 30
0.0
 40
19.38705946235405
100
AcDbArc
 50
90.0
 51
180.0
  0
LINE
  5
19D
330
1F
100
AcDbEntity
  8
0
  6
Continuous
 62
     7
370
    15
100
AcDbLine
 10
570.4758778510276
 20
602.7094388641808
 30
0.0
 11
570.3418866095725
 21
602.7094388641808
 31
0.0
  0
LINE
  5
19E
330
1F
100
AcDbEntity
  8
0
  6
Continuous
 62
     7
370
    15
100
AcDbLine
 10
570.4758778510276
 20
246.3094407953713
 30
0.0
 11
570.3418866095725
 21
246.3094407953713
 31
0.0
  0
ARC
  5
19F
330
1F
100
AcDbEntity
  8
0
  6
Continuous
 62
     7
370
    15
100
AcDbCircle
 10
589.8629055736079
 20
246.3094405594404
 30
0.0
 40
19.38705946235405
100
AcDbArc
 50
180.0
 51
270.0000000000008
  0
LINE
  5
1A0
330
1F
100
AcDbEntity
  8
0
  6
Continuous
 62
     7
370
    15
100
AcDbLine
 10
1422.662796109695
 20
667.4964988865349
 30
0.0
 11
1086.742939084548
 21
667.4964988865349
 31
0.0
  0
LINE
  5
1A1
330
1F
100
AcDbEntity
  8
0
  6
Continuous
 62
     7
370
    15
100
AcDbLine
 10
1086.742939084548
 20
667.4964988865349
 30
0.0
 11
1086.742939084548
 21
667.6304752268288
 31
0.0
  0
LINE
  5
1A2
330
1F
100
AcDbEntity
  8
0
  6
Continuous
 62
     7
370
    15
100
AcDbLine
 10
1012.347997754592
 20
622.0965052284691
 30
0.0
 11
589.8628846106711
 21
622.0965052284691
 31
0.0
  0
ARC
  5
1A3
330
1F
100
AcDbEntity
  8
0
  6
Continuous
 62
     7
370
    15
100
AcDbCircle
 10
1086.742905573608
 20
633.1094405594404
 30
0.0
 40
34.38705946235382
100
AcDbArc
 50
90.0
 51
134.9999999999999
  0
LINE
  5
1A4
330
1F
100
AcDbEntity
  8
0
  6
Continuous
 62
     7
370
    15
100
AcDbLine
 10
570.4758778510276
 20
602.7094388641808
 30
0.0
 11
570.4758778510276
 21
246.3094407953713
 31
0.0
  0
LINE
  5
1A5
330
1F
100
AcDbEntity
  8
0
  6
Continuous
 62
     7
370
    15
100
AcDbLine
 10
1422.662796109695
 20
667.4964988865349
 30
0.0
 11
1422.662796109695
 21
665.6171197332833
 31
0.0
  0
LINE
  5
1A6
330
1F
100
AcDbEntity
  8
0
  6
Continuous
 62
     7
370
    15
100
AcDbLine
 10
1086.742939084548
 20
665.6171197332833
 30
0.0
 11
1422.662796109695
 21
665.6171197332833
 31
0.0
  0
LINE
  5
1A7
330
1F
100
AcDbEntity
  8
0
  6
Continuous
 62
     7
370
    15
100
AcDbLine
 10
1086.742939084548
 20
665.6171197332833
 30
0.0
 11
1086.742939084548
 21
667.4964988865349
 31
0.0
  0
ARC
  5
1A8
330
1F
100
AcDbEntity
  8
0
  6
Continuous
 62
     7
370
    15
100
AcDbCircle
 10
1422.662905573608
 20
648.1094405594403
 30
0.0
 40
17.50767422078252
100
AcDbArc
 50
0.0
 51
90.0
  0
LINE
  5
1A9
330
1F
100
AcDbEntity
  8
0
  6
Continuous
 62
     7
370
    15
100
AcDbLine
 10
1442.050041287918
 20
648.1094474234078
 30
0.0
 11
1440.17058762886
 21
648.1094474234078
 31
0.0
  0
LINE
  5
1AA
330
1F
100
AcDbEntity
  8
0
  6
Continuous
 62
     7
370
    15
100
AcDbLine
 10
1012.347997754592
 20
620.2171111740563
 30
0.0
 11
1012.347997754592
 21
622.0965052284691
 31
0.0
  0
LINE
  5
1AB
330
1F
100
AcDbEntity
  8
0
  6
Continuous
 62
     7
370
    15
100
AcDbLine
 10
589.8628846106711
 20
620.2171111740563
 30
0.0
 11
1012.347997754592
 21
620.2171111740563
 31
0.0
  0
LINE
  5
1AC
330
1F
100
AcDbEntity
  8
0
  6
Continuous
 62
     7
370
    15
100
AcDbLine
 10
589.8628846106711
 20
620.2171111740563
 30
0.0
 11
589.8628846106711
 21
622.0965052284691
 31
0.0
  0
ARC
  5
1AD
330
1F
100
AcDbEntity
  8
0
  6
Continuous
 62
     7
370
    15
100
AcDbCircle
 10
589.8629055736079
 20
602.7094405594404
 30
0.0
 40
17.50767422078206
100
AcDbArc
 50
90.0
 51
180.0
  0
LINE
  5
1AE
330
1F
100
AcDbEntity
  8
0
  6
Continuous
 62
     7
370
    15
100
AcDbLine
 10
572.3552123007956
 20
602.7094388641808
 30
0.0
 11
570.4758778510276
 21
602.7094388641808
 31
0.0
  0
LWPOLYLINE
  5
1AF
330
1F
100
AcDbEntity
  8
0
  6
Continuous
 62
     7
370
    15
100
AcDbPolyline
 90
        9
 70
   128
 43
0.0
 10
1038.85907086708
 20
631.1983580030892
 10
1038.643898099441
 20
631.413500968406
 10
1038.433732121963
 20
631.6236222424004
 10
1038.233579724807
 20
631.8238491453621
 10
1038.047851651687
 20
632.0095176138375
 10
1037.881077855605
 20
632.1763063110802
 10
1037.737073033828
 20
632.32034093518
 10
1037.619175046462
 20
632.4382389225457
 10
1037.530125707168
 20
632.5272882618401
  0
ARC
  5
1B0
330
1F
100
AcDbEntity
  8
0
  6
Continuous
 62
     7
370
    15
100
AcDbCircle
 10
1012.347956207491
 20
657.7094405594404
 30
0.0
 40
37.49232577921824
100
AcDbArc
 50
270.0000000000008
 51
315.0000000000009
  0
LWPOLYLINE
  5
1B1
330
1F
100
AcDbEntity
  8
0
  6
Continuous
 62
     7
370
    15
100
AcDbPolyline
 90
        9
 70
   128
 43
0.0
 10
1063.756527036208
 20
656.09584397454
 10
1063.541354268569
 20
656.3109720386956
 10
1063.331188291091
 20
656.52109331269
 10
1063.131035893935
 20
656.721335116813
 10
1062.945307820815
 20
656.9070035852883
 10
1062.778534024734
 20
657.0737773813698
 10
1062.634529202956
 20
657.2178120054696
 10
1062.51663121559
 20
657.3357099928353
 10
1062.427581876296
 20
657.4247593321297
  0
LINE
  5
1B2
330
1F
100
AcDbEntity
  8
0
  6
Continuous
 62
     7
370
    15
100
AcDbLine
 10
1038.85907086708
 20
631.1983580030892
 30
0.0
 11
1063.756527036208
 21
656.09584397454
 31
0.0
  0
LINE
  5
1B3
330
1F
100
AcDbEntity
  8
0
  6
Continuous
 62
     7
370
    15
100
AcDbLine
 10
1440.17058762886
 20
648.1094474234078
 30
0.0
 11
1440.17058762886
 21
246.3094407953713
 31
0.0
  0
LINE
  5
1B4
330
1F
100
AcDbEntity
  8
0
  6
Continuous
 62
     7
370
    15
100
AcDbLine
 10
1442.050041287918
 20
246.3094407953713
 30
0.0
 11
1440.17058762886
 21
246.3094407953713
 31
0.0
  0
ARC
  5
1B5
330
1F
100
AcDbEntity
  8
0
  6
Continuous
 62
     7
370
    15
100
AcDbCircle
 10
1086.742905573608
 20
633.1094405594404
 30
0.0
 40
32.50767422078195
100
AcDbArc
 50
90.0
 51
134.9999999999997
  0
LINE
  5
1B6
330
1F
100
AcDbEntity
  8
0
  6
Continuous
 62
     7
370
    15
100
AcDbLine
 10
572.3552123007956
 20
246.3094407953713
 30
0.0
 11
572.3552123007956
 21
602.7094388641808
 31
0.0
  0
LINE
  5
1B7
330
1F
100
AcDbEntity
  8
0
  6
Continuous
 62
     7
370
    15
100
AcDbLine
 10
570.4758778510276
 20
246.3094407953713
 30
0.0
 11
572.3552123007956
 21
246.3094407953713
 31
0.0
  0
LINE
  5
1B8
330
1F
100
AcDbEntity
  8
0
  6
Continuous
 62
     7
370
    15
100
AcDbLine
 10
1422.662796109695
 20
228.8017684854958
 30
0.0
 11
589.8628846106711
 21
228.8017684854958
 31
0.0
  0
LINE
  5
1B9
330
1F
100
AcDbEntity
  8
0
  6
Continuous
 62
     7
370
    15
100
AcDbLine
 10
1422.662796109695
 20
226.922374431083
 30
0.0
 11
1422.662796109695
 21
228.8017684854958
 31
0.0
  0
LINE
  5
1BA
330
1F
100
AcDbEntity
  8
0
  6
Continuous
 62
     7
370
    15
100
AcDbLine
 10
589.8628846106711
 20
226.922374431083
 30
0.0
 11
589.8628846106711
 21
228.8017684854958
 31
0.0
  0
ARC
  5
1BB
330
1F
100
AcDbEntity
  8
0
  6
Continuous
 62
     7
370
    15
100
AcDbCircle
 10
1422.662905573608
 20
246.3094405594404
 30
0.0
 40
17.50767422078252
100
AcDbArc
 50
270.0000000000008
 51
0.0000000000006107
  0
ARC
  5
1BC
330
1F
100
AcDbEntity
  8
0
  6
Continuous
 62
     7
370
    15
100
AcDbCircle
 10
589.8629055736079
 20
246.3094405594404
 30
0.0
 40
17.50767422078206
100
AcDbArc
 50
180.0
 51
270.0000000000008
  0
LINE
  5
1BD
330
1F
100
AcDbEntity
  8
0
  6
Continuous
 62
     7
370
    15
100
AcDbLine
 10
1396.762909024734
 20
648.2071096338723
 30
0.0
 11
1107.162894338149
 21
648.2071096338723
 31
0.0
  0
LINE
  5
1BE
330
1F
100
AcDbEntity
  8
0
  6
Continuous
 62
     7
370
    15
100
AcDbLine
 10
1107.162894338149
 20
653.2071197666619
 30
0.0
 11
1107.162894338149
 21
648.2071096338723
 31
0.0
  0
LINE
  5
1BF
330
1F
100
AcDbEntity
  8
0
  6
Continuous
 62
     7
370
    15
100
AcDbLine
 10
1396.762909024734
 20
653.2071197666619
 30
0.0
 11
1107.162894338149
 21
653.2071197666619
 31
0.0
  0
LINE
  5
1C0
330
1F
100
AcDbEntity
  8
0
  6
Continuous
 62
     7
370
    15
100
AcDbLine
 10
1396.762909024734
 20
653.2071197666619
 30
0.0
 11
1396.762909024734
 21
648.2071096338723
 31
0.0
  0
LINE
  5
1C1
330
1F
100
AcDbEntity
  8
0
  6
Continuous
 62
     7
370
    15
100
AcDbLine
 10
1076.162876218337
 20
622.2071165480111
 30
0.0
 11
1076.162876218337
 21
272.2071076073144
 31
0.0
  0
ARC
  5
1C2
330
1F
100
AcDbEntity
  8
0
  6
Continuous
 62
     7
370
    15
100
AcDbCircle
 10
1107.162905573608
 20
272.2071147802223
 30
0.0
 40
31.00000000000009
100
AcDbArc
 50
180.0
 51
270.0000000000008
  0
LINE
  5
1C3
330
1F
100
AcDbEntity
  8
0
  6
Continuous
 62
     7
370
    15
100
AcDbLine
 10
1107.162894338149
 20
241.2071192898247
 30
0.0
 11
1396.762909024734
 21
241.2071192898247
 31
0.0
  0
ARC
  5
1C4
330
1F
100
AcDbEntity
  8
0
  6
Continuous
 62
     7
370
    15
100
AcDbCircle
 10
1396.762905573607
 20
272.2071147802223
 30
0.0
 40
31.00000000000068
100
AcDbArc
 50
270.0000000000025
 51
0.0
  0
LINE
  5
1C5
330
1F
100
AcDbEntity
  8
0
  6
Continuous
 62
     7
370
    15
100
AcDbLine
 10
1427.762807935256
 20
272.2071076073144
 30
0.0
 11
1427.762807935256
 21
622.2071165480111
 31
0.0
  0
ARC
  5
1C6
330
1F
100
AcDbEntity
  8
0
  6
Continuous
 62
     7
370
    15
100
AcDbCircle
 10
1396.762905573608
 20
622.2071147802224
 30
0.0
 40
31.00000000000023
100
AcDbArc
 50
0.0
 51
90.0
  0
ARC
  5
1C7
330
1F
100
AcDbEntity
  8
0
  6
Continuous
 62
     7
370
    15
100
AcDbCircle
 10
1107.162905573608
 20
622.2071147802224
 30
0.0
 40
31.00000000000023
100
AcDbArc
 50
90.0
 51
180.0
  0
LINE
  5
1C8
330
1F
100
AcDbEntity
  8
0
  6
Continuous
 62
     7
370
    15
100
AcDbLine
 10
870.9629193244162
 20
561.8071148433182
 30
0.0
 11
870.9629193244162
 21
272.2071076073144
 31
0.0
  0
ARC
  5
1C9
330
1F
100
AcDbEntity
  8
0
  6
Continuous
 62
     7
370
    15
100
AcDbCircle
 10
901.9629055736077
 20
272.2071147802223
 30
0.0
 40
30.99999999999986
100
AcDbArc
 50
180.0
 51
270.0000000000008
  0
LINE
  5
1CA
330
1F
100
AcDbEntity
  8
0
  6
Continuous
 62
     7
370
    15
100
AcDbLine
 10
901.9629374442283
 20
241.2071192898247
 30
0.0
 11
1021.9629422126
 21
241.2071192898247
 31
0.0
  0
ARC
  5
1CB
330
1F
100
AcDbEntity
  8
0
  6
Continuous
 62
     7
370
    15
100
AcDbCircle
 10
1021.962905573608
 20
272.2071147802223
 30
0.0
 40
30.9999999999998
100
AcDbArc
 50
270.0000000000008
 51
0.0
  0
LINE
  5
1CC
330
1F
100
AcDbEntity
  8
0
  6
Continuous
 62
     7
370
    15
100
AcDbLine
 10
1052.962960332412
 20
272.2071076073144
 30
0.0
 11
1052.962960332412
 21
561.8071148433182
 31
0.0
  0
ARC
  5
1CD
330
1F
100
AcDbEntity
  8
0
  6
Continuous
 62
     7
370
    15
100
AcDbCircle
 10
1021.962905573608
 20
561.8071147802224
 30
0.0
 40
30.99999999999989
100
AcDbArc
 50
0.0
 51
90.0
  0
LINE
  5
1CE
330
1F
100
AcDbEntity
  8
0
  6
Continuous
 62
     7
370
    15
100
AcDbLine
 10
1021.9629422126
 20
592.807118061969
 30
0.0
 11
901.9629374442283
 21
592.807118061969
 31
0.0
  0
ARC
  5
1CF
330
1F
100
AcDbEntity
  8
0
  6
Continuous
 62
     7
370
    15
100
AcDbCircle
 10
901.9629055736079
 20
561.8071147802224
 30
0.0
 40
31.00000000000011
100
AcDbArc
 50
90.0
 51
180.0
  0
ARC
  5
1D0
330
1F
100
AcDbEntity
  8
0
  6
Continuous
 62
     7
370
    15
100
AcDbCircle
 10
1107.162905573608
 20
622.2071147802224
 30
0.0
 40
26.00000000000023
100
AcDbArc
 50
90.0
 51
180.0
  0
LINE
  5
1D1
330
1F
100
AcDbEntity
  8
0
  6
Continuous
 62
     7
370
    15
100
AcDbLine
 10
1076.162876218337
 20
622.2071165480111
 30
0.0
 11
1081.162871449965
 21
622.2071165480111
 31
0.0
  0
ARC
  5
1D2
330
1F
100
AcDbEntity
  8
0
  6
Continuous
 62
     7
370
    15
100
AcDbCircle
 10
1396.762905573608
 20
622.2071147802224
 30
0.0
 40
26.00000000000011
100
AcDbArc
 50
0.0
 51
90.0
  0
LINE
  5
1D3
330
1F
100
AcDbEntity
  8
0
  6
Continuous
 62
     7
370
    15
100
AcDbLine
 10
1427.762807935256
 20
622.2071165480111
 30
0.0
 11
1422.762931912918
 21
622.2071165480111
 31
0.0
  0
LINE
  5
1D4
330
1F
100
AcDbEntity
  8
0
  6
Continuous
 62
     7
370
    15
100
AcDbLine
 10
870.9629193244162
 20
561.8071148433182
 30
0.0
 11
875.9629145560447
 21
561.8071148433182
 31
0.0
  0
LINE
  5
1D5
330
1F
100
AcDbEntity
  8
0
  6
Continuous
 62
     7
370
    15
100
AcDbLine
 10
875.9629145560447
 20
561.8071148433182
 30
0.0
 11
875.9629145560447
 21
272.2071076073144
 31
0.0
  0
LINE
  5
1D6
330
1F
100
AcDbEntity
  8
0
  6
Continuous
 62
     7
370
    15
100
AcDbLine
 10
875.9629145560447
 20
272.2071076073144
 30
0.0
 11
870.9629193244162
 21
272.2071076073144
 31
0.0
  0
LINE
  5
1D7
330
1F
100
AcDbEntity
  8
0
  6
Continuous
 62
     7
370
    15
100
AcDbLine
 10
1021.9629422126
 20
587.80711537976
 30
0.0
 11
901.9629374442283
 21
587.80711537976
 31
0.0
  0
LINE
  5
1D8
330
1F
100
AcDbEntity
  8
0
  6
Continuous
 62
     7
370
    15
100
AcDbLine
 10
901.9629374442283
 20
592.807118061969
 30
0.0
 11
901.9629374442283
 21
587.80711537976
 31
0.0
  0
LINE
  5
1D9
330
1F
100
AcDbEntity
  8
0
  6
Continuous
 62
     7
370
    15
100
AcDbLine
 10
1021.9629422126
 20
592.807118061969
 30
0.0
 11
1021.9629422126
 21
587.80711537976
 31
0.0
  0
ARC
  5
1DA
330
1F
100
AcDbEntity
  8
0
  6
Continuous
 62
     7
370
    15
100
AcDbCircle
 10
1021.962905573608
 20
561.8071147802224
 30
0.0
 40
26.0
100
AcDbArc
 50
0.0
 51
90.0
  0
LINE
  5
1DB
330
1F
100
AcDbEntity
  8
0
  6
Continuous
 62
     7
370
    15
100
AcDbLine
 10
1052.962960332412
 20
561.8071148433182
 30
0.0
 11
1047.962965100783
 21
561.8071148433182
 31
0.0
  0
LINE
  5
1DC
330
1F
100
AcDbEntity
  8
0
  6
Continuous
 62
     7
370
    15
100
AcDbLine
 10
1081.162871449965
 20
622.2071165480111
 30
0.0
 11
1081.162871449965
 21
272.2071076073144
 31
0.0
  0
LINE
  5
1DD
330
1F
100
AcDbEntity
  8
0
  6
Continuous
 62
     7
370
    15
100
AcDbLine
 10
1081.162871449965
 20
272.2071076073144
 30
0.0
 11
1076.162876218337
 21
272.2071076073144
 31
0.0
  0
LINE
  5
1DE
330
1F
100
AcDbEntity
  8
0
  6
Continuous
 62
     7
370
    15
100
AcDbLine
 10
1047.962965100783
 20
272.2071076073144
 30
0.0
 11
1052.962960332412
 21
272.2071076073144
 31
0.0
  0
LINE
  5
1DF
330
1F
100
AcDbEntity
  8
0
  6
Continuous
 62
     7
370
    15
100
AcDbLine
 10
1047.962965100783
 20
272.2071076073144
 30
0.0
 11
1047.962965100783
 21
561.8071148433182
 31
0.0
  0
ARC
  5
1E0
330
1F
100
AcDbEntity
  8
0
  6
Continuous
 62
     7
370
    15
100
AcDbCircle
 10
901.9629055736079
 20
561.8071147802224
 30
0.0
 40
26.0
100
AcDbArc
 50
90.0
 51
180.0
  0
LINE
  5
1E1
330
1F
100
AcDbEntity
  8
0
  6
Continuous
 62
     7
370
    15
100
AcDbLine
 10
1422.762931912918
 20
272.2071076073144
 30
0.0
 11
1427.762807935256
 21
272.2071076073144
 31
0.0
  0
LINE
  5
1E2
330
1F
100
AcDbEntity
  8
0
  6
Continuous
 62
     7
370
    15
100
AcDbLine
 10
1422.762931912918
 20
272.2071076073144
 30
0.0
 11
1422.762931912918
 21
622.2071165480111
 31
0.0
  0
LINE
  5
1E3
330
1F
100
AcDbEntity
  8
0
  6
Continuous
 62
     7
370
    15
100
AcDbLine
 10
1396.762909024734
 20
246.2071145214531
 30
0.0
 11
1396.762909024734
 21
241.2071192898247
 31
0.0
  0
ARC
  5
1E4
330
1F
100
AcDbEntity
  8
0
  6
Continuous
 62
     7
370
    15
100
AcDbCircle
 10
1396.762905573607
 20
272.2071147802223
 30
0.0
 40
26.00000000000068
100
AcDbArc
 50
270.0000000000008
 51
0.0
  0
LINE
  5
1E5
330
1F
100
AcDbEntity
  8
0
  6
Continuous
 62
     7
370
    15
100
AcDbLine
 10
1107.162894338149
 20
246.2071145214531
 30
0.0
 11
1107.162894338149
 21
241.2071192898247
 31
0.0
  0
LINE
  5
1E6
330
1F
100
AcDbEntity
  8
0
  6
Continuous
 62
     7
370
    15
100
AcDbLine
 10
1107.162894338149
 20
246.2071145214531
 30
0.0
 11
1396.762909024734
 21
246.2071145214531
 31
0.0
  0
ARC
  5
1E7
330
1F
100
AcDbEntity
  8
0
  6
Continuous
 62
     7
370
    15
100
AcDbCircle
 10
901.9629055736077
 20
272.2071147802223
 30
0.0
 40
26.0
100
AcDbArc
 50
180.0
 51
270.0000000000008
  0
LINE
  5
1E8
330
1F
100
AcDbEntity
  8
0
  6
Continuous
 62
     7
370
    15
100
AcDbLine
 10
901.9629374442283
 20
246.2071145214531
 30
0.0
 11
901.9629374442283
 21
241.2071192898247
 31
0.0
  0
LINE
  5
1E9
330
1F
100
AcDbEntity
  8
0
  6
Continuous
 62
     7
370
    15
100
AcDbLine
 10
1021.9629422126
 20
246.2071145214531
 30
0.0
 11
1021.9629422126
 21
241.2071192898247
 31
0.0
  0
ARC
  5
1EA
330
1F
100
AcDbEntity
  8
0
  6
Continuous
 62
     7
370
    15
100
AcDbCircle
 10
1021.962905573608
 20
272.2071147802223
 30
0.0
 40
25.99999999999997
100
AcDbArc
 50
270.0000000000008
 51
0.0
  0
ARC
  5
1EB
330
1F
100
AcDbEntity
  8
0
  6
Continuous
 62
     7
370
    15
100
AcDbCircle
 10
1107.162905573608
 20
272.2071147802223
 30
0.0
 40
26.00000000000023
100
AcDbArc
 50
180.0
 51
270.0000000000008
  0
LINE
  5
1EC
330
1F
100
AcDbEntity
  8
0
  6
Continuous
 62
     7
370
    15
100
AcDbLine
 10
901.9629374442283
 20
246.2071145214531
 30
0.0
 11
1021.9629422126
 21
246.2071145214531
 31
0.0
  0
LINE
  5
1ED
330
1F
100
AcDbEntity
  8
0
  6
Continuous
 62
     8
370
    15
100
AcDbLine
 10
875.963629811782
 20
272.0071191229317
 30
0.0
 11
876.9629612860862
 21
272.0071191229317
 31
0.0
  0
LINE
  5
1EE
330
1F
100
AcDbEntity
  8
0
  6
Continuous
 62
     8
370
    15
100
AcDbLine
 10
875.963629811782
 20
562.007118228862
 30
0.0
 11
876.9629612860862
 21
562.007118228862
 31
0.0
  0
LINE
  5
1EF
330
1F
100
AcDbEntity
  8
0
  6
Continuous
 62
     8
370
    15
100
AcDbLine
 10
1046.962918370742
 20
562.007118228862
 30
0.0
 11
1047.962130635756
 21
562.007118228862
 31
0.0
  0
LINE
  5
1F0
330
1F
100
AcDbEntity
  8
0
  6
Continuous
 62
     8
370
    15
100
AcDbLine
 10
1021.9629422126
 20
587.80711537976
 30
0.0
 11
1021.9629422126
 21
587.0071167387459
 31
0.0
  0
LINE
  5
1F1
330
1F
100
AcDbEntity
  8
0
  6
Continuous
 62
     8
370
    15
100
AcDbLine
 10
1021.9629422126
 20
247.0071131624672
 30
0.0
 11
1021.9629422126
 21
246.2071145214531
 31
0.0
  0
LINE
  5
1F2
330
1F
100
AcDbEntity
  8
0
  6
Continuous
 62
     8
370
    15
100
AcDbLine
 10
1046.962918370742
 20
272.0071191229317
 30
0.0
 11
1047.962130635756
 21
272.0071191229317
 31
0.0
  0
LINE
  5
1F3
330
1F
100
AcDbEntity
  8
0
  6
Continuous
 62
     8
370
    15
100
AcDbLine
 10
901.9629374442283
 20
587.80711537976
 30
0.0
 11
901.9629374442283
 21
587.0071167387459
 31
0.0
  0
LINE
  5
1F4
330
1F
100
AcDbEntity
  8
0
  6
Continuous
 62
     8
370
    15
100
AcDbLine
 10
901.9629374442283
 20
247.0071131624672
 30
0.0
 11
901.9629374442283
 21
246.2071145214531
 31
0.0
  0
LINE
  5
1F5
330
1F
100
AcDbEntity
  8
0
  6
Continuous
 62
     8
370
    15
100
AcDbLine
 10
1421.962799161453
 20
622.2071165480111
 30
0.0
 11
1422.762931912918
 21
622.2071165480111
 31
0.0
  0
LINE
  5
1F6
330
1F
100
AcDbEntity
  8
0
  6
Continuous
 62
     8
370
    15
100
AcDbLine
 10
1396.9629422126
 20
647.2071076073144
 30
0.0
 11
1396.9629422126
 21
648.2063496746514
 31
0.0
  0
LINE
  5
1F7
330
1F
100
AcDbEntity
  8
0
  6
Continuous
 62
     8
370
    15
100
AcDbLine
 10
1081.162871449965
 20
622.2071165480111
 30
0.0
 11
1081.962884992141
 21
622.2071165480111
 31
0.0
  0
LINE
  5
1F8
330
1F
100
AcDbEntity
  8
0
  6
Continuous
 62
     8
370
    15
100
AcDbLine
 10
1106.962861150283
 20
648.2063496746514
 30
0.0
 11
1106.962861150283
 21
647.2071076073144
 31
0.0
  0
LINE
  5
1F9
330
1F
100
AcDbEntity
  8
0
  6
Continuous
 62
     8
370
    15
100
AcDbLine
 10
1081.162871449965
 20
272.2071076073144
 30
0.0
 11
1081.962884992141
 21
272.2071076073144
 31
0.0
  0
LINE
  5
1FA
330
1F
100
AcDbEntity
  8
0
  6
Continuous
 62
     8
370
    15
100
AcDbLine
 10
1421.962799161453
 20
272.2071076073144
 30
0.0
 11
1422.762931912918
 21
272.2071076073144
 31
0.0
  0
LINE
  5
1FB
330
1F
100
AcDbEntity
  8
0
  6
Continuous
 62
     8
370
    15
100
AcDbLine
 10
1106.962861150283
 20
246.2078893818352
 30
0.0
 11
1106.962861150283
 21
247.2071165480111
 31
0.0
  0
LINE
  5
1FC
330
1F
100
AcDbEntity
  8
0
  6
Continuous
 62
     8
370
    15
100
AcDbLine
 10
1396.9629422126
 20
247.2071165480111
 30
0.0
 11
1396.9629422126
 21
246.2078893818352
 31
0.0
  0
LINE
  5
1FD
330
1F
100
AcDbEntity
  8
0
  6
Continuous
 62
     8
370
    15
100
AcDbLine
 10
1082.45939168312
 20
423.9571133889649
 30
0.0
 11
1082.018078893203
 21
423.9571133889649
 31
0.0
  0
LINE
  5
1FE
330
1F
100
AcDbEntity
  8
0
  6
Continuous
 62
     8
370
    15
100
AcDbLine
 10
1082.45939168312
 20
470.4571147244815
 30
0.0
 11
1082.018078893203
 21
470.4571147244815
 31
0.0
  0
ENDSEC
  0
SECTION
  2
OBJECTS
  0
DICTIONARY
  5
C
330
0
100
AcDbDictionary
281
     1
  3
ACAD_GROUP
350
D
  3
ACAD_IMAGE_VARS
350
242
  3
ACAD_LAYOUT
350
1A
  3
ACAD_MLINESTYLE
350
17
  3
ACAD_PLOTSETTINGS
350
19
  3
ACAD_PLOTSTYLENAME
350
E
  3
ACAD_SCALELIST
350
218
  3
APPDATA
350
240
  3
DWGPROPS
350
243
  0
DICTIONARY
  5
D
102
{ACAD_REACTORS
330
C
102
}
330
C
100
AcDbDictionary
281
     1
  0
RASTERVARIABLES
  5
242
102
{ACAD_REACTORS
330
C
102
}
330
C
100
AcDbRasterVariables
 90
        0
 70
     1
 71
     1
 72
     1
  0
DICTIONARY
  5
1A
102
{ACAD_REACTORS
330
C
102
}
330
C
100
AcDbDictionary
281
     1
  3
Layout1
350
1E
  3
Layout2
350
26
  3
Model
350
22
  0
DICTIONARY
  5
17
102
{ACAD_REACTORS
330
C
102
}
330
C
100
AcDbDictionary
281
     1
  3
Standard
350
18
  0
DICTIONARY
  5
19
102
{ACAD_REACTORS
330
C
102
}
330
C
100
AcDbDictionary
281
     1
  0
ACDBDICTIONARYWDFLT
  5
E
102
{ACAD_REACTORS
330
C
102
}
330
C
100
AcDbDictionary
281
     1
  3
Normal
350
F
100
AcDbDictionaryWithDefault
340
F
  0
DICTIONARY
  5
218
102
{ACAD_REACTORS
330
C
102
}
330
C
100
AcDbDictionary
281
     1
  3
A0
350
219
  3
A1
350
21A
  3
A2
350
21B
  3
A3
350
21C
  3
A4
350
21D
  3
A5
350
21E
  3
A6
350
21F
  3
A7
350
220
  3
A8
350
221
  3
A9
350
222
  3
B0
350
223
  3
B1
350
224
  3
B2
350
225
  3
B3
350
226
  3
B4
350
227
  3
B5
350
228
  3
B6
350
229
  3
B7
350
22A
  3
B8
350
22B
  3
B9
350
22C
  3
C0
350
22D
  3
C1
350
22E
  3
C2
350
22F
  3
C3
350
230
  3
C4
350
231
  3
C5
350
232
  3
C6
350
233
  3
C7
350
234
  3
C8
350
235
  3
C9
350
236
  3
D0
350
237
  3
D1
350
238
  3
D2
350
239
  0
DICTIONARY
  5
240
102
{ACAD_REACTORS
330
C
102
}
330
C
100
AcDbDictionary
281
     1
  0
XRECORD
  5
243
102
{ACAD_REACTORS
330
C
102
}
330
C
100
AcDbXrecord
280
     1
  1
DWGPROPS COOKIE
  2

  3

  4

  6

  7

  8
Ismo
  9

300
=
301
=
302
=
303
=
304
=
305
=
306
=
307
=
308
=
309
=
 40
0.0
 41
2456339.423596007
 42
2457758.274805093
  1

 90
        0
  0
LAYOUT
  5
1E
102
{ACAD_REACTORS
330
1A
102
}
330
1A
100
AcDbPlotSettings
  1

  2
none_device
  4

  6

 40
0.0
 41
0.0
 42
0.0
 43
0.0
 44
0.0
 45
0.0
 46
0.0
 47
0.0
 48
0.0
 49
0.0
140
0.0
141
0.0
142
1.0
143
1.0
 70
   688
 72
     0
 73
     0
 74
     5
  7

 75
    16
147
1.0
148
0.0
149
0.0
100
AcDbLayout
  1
Layout1
 70
     1
 71
     1
 10
0.0
 20
0.0
 11
420.0
 21
297.0
 12
0.0
 22
0.0
 32
0.0
 14
1.000000000000000E+20
 24
1.000000000000000E+20
 34
1.000000000000000E+20
 15
-1.000000000000000E+20
 25
-1.000000000000000E+20
 35
-1.000000000000000E+20
146
0.0
 13
0.0
 23
0.0
 33
0.0
 16
1.0
 26
0.0
 36
0.0
 17
0.0
 27
1.0
 37
0.0
 76
     0
330
1B
  0
LAYOUT
  5
26
102
{ACAD_REACTORS
330
1A
102
}
330
1A
100
AcDbPlotSettings
  1

  2
none_device
  4

  6

 40
0.0
 41
0.0
 42
0.0
 43
0.0
 44
0.0
 45
0.0
 46
0.0
 47
0.0
 48
0.0
 49
0.0
140
0.0
141
0.0
142
1.0
143
1.0
 70
   688
 72
     0
 73
     0
 74
     5
  7

 75
    16
147
1.0
148
0.0
149
0.0
100
AcDbLayout
  1
Layout2
 70
     1
 71
     2
 10
0.0
 20
0.0
 11
0.0
 21
0.0
 12
0.0
 22
0.0
 32
0.0
 14
0.0
 24
0.0
 34
0.0
 15
0.0
 25
0.0
 35
0.0
146
0.0
 13
0.0
 23
0.0
 33
0.0
 16
1.0
 26
0.0
 36
0.0
 17
0.0
 27
1.0
 37
0.0
 76
     0
330
23
  0
LAYOUT
  5
22
102
{ACAD_REACTORS
330
1A
102
}
330
1A
100
AcDbPlotSettings
  1

  2
none_device
  4

  6

 40
0.0
 41
0.0
 42
0.0
 43
0.0
 44
0.0
 45
0.0
 46
0.0
 47
0.0
 48
0.0
 49
0.0
140
0.0
141
0.0
142
1.0
143
1.0
 70
  1712
 72
     0
 73
     0
 74
     0
  7

 75
     0
147
1.0
148
0.0
149
0.0
100
AcDbLayout
  1
Model
 70
     1
 71
     0
 10
0.0
 20
0.0
 11
2000.0
 21
900.0
 12
0.0
 22
0.0
 32
0.0
 14
0.0
 24
0.0
 34
0.0
 15
2000.0
 25
900.0
 35
0.0
146
0.0
 13
0.0
 23
0.0
 33
0.0
 16
1.0
 26
0.0
 36
0.0
 17
0.0
 27
1.0
 37
0.0
 76
     0
330
1F
331
29
  0
MLINESTYLE
  5
18
102
{ACAD_REACTORS
330
17
102
}
330
17
100
AcDbMlineStyle
  2
Standard
 70
     0
  3

 62
   256
 51
90.0
 52
90.0
 71
     2
 49
0.5
 62
   256
  6
BYLAYER
 49
-0.5
 62
   256
  6
BYLAYER
  0
ACDBPLACEHOLDER
  5
F
102
{ACAD_REACTORS
330
E
102
}
330
E
  0
SCALE
  5
219
102
{ACAD_REACTORS
330
218
102
}
330
218
100
AcDbScale
 70
     0
300
1:1
140
1.0
141
1.0
290
     1
  0
SCALE
  5
21A
102
{ACAD_REACTORS
330
218
102
}
330
218
100
AcDbScale
 70
     0
300
1:2
140
1.0
141
2.0
290
     0
  0
SCALE
  5
21B
102
{ACAD_REACTORS
330
218
102
}
330
218
100
AcDbScale
 70
     0
300
1:4
140
1.0
141
4.0
290
     0
  0
SCALE
  5
21C
102
{ACAD_REACTORS
330
218
102
}
330
218
100
AcDbScale
 70
     0
300
1:5
140
1.0
141
5.0
290
     0
  0
SCALE
  5
21D
102
{ACAD_REACTORS
330
218
102
}
330
218
100
AcDbScale
 70
     0
300
1:8
140
1.0
141
8.0
290
     0
  0
SCALE
  5
21E
102
{ACAD_REACTORS
330
218
102
}
330
218
100
AcDbScale
 70
     0
300
1:10
140
1.0
141
10.0
290
     0
  0
SCALE
  5
21F
102
{ACAD_REACTORS
330
218
102
}
330
218
100
AcDbScale
 70
     0
300
1:16
140
1.0
141
16.0
290
     0
  0
SCALE
  5
220
102
{ACAD_REACTORS
330
218
102
}
330
218
100
AcDbScale
 70
     0
300
1:20
140
1.0
141
20.0
290
     0
  0
SCALE
  5
221
102
{ACAD_REACTORS
330
218
102
}
330
218
100
AcDbScale
 70
     0
300
1:30
140
1.0
141
30.0
290
     0
  0
SCALE
  5
222
102
{ACAD_REACTORS
330
218
102
}
330
218
100
AcDbScale
 70
     0
300
1:40
140
1.0
141
40.0
290
     0
  0
SCALE
  5
223
102
{ACAD_REACTORS
330
218
102
}
330
218
100
AcDbScale
 70
     0
300
1:50
140
1.0
141
50.0
290
     0
  0
SCALE
  5
224
102
{ACAD_REACTORS
330
218
102
}
330
218
100
AcDbScale
 70
     0
300
1:100
140
1.0
141
100.0
290
     0
  0
SCALE
  5
225
102
{ACAD_REACTORS
330
218
102
}
330
218
100
AcDbScale
 70
     0
300
2:1
140
2.0
141
1.0
290
     0
  0
SCALE
  5
226
102
{ACAD_REACTORS
330
218
102
}
330
218
100
AcDbScale
 70
     0
300
4:1
140
4.0
141
1.0
290
     0
  0
SCALE
  5
227
102
{ACAD_REACTORS
330
218
102
}
330
218
100
AcDbScale
 70
     0
300
8:1
140
8.0
141
1.0
290
     0
  0
SCALE
  5
228
102
{ACAD_REACTORS
330
218
102
}
330
218
100
AcDbScale
 70
     0
300
10:1
140
10.0
141
1.0
290
     0
  0
SCALE
  5
229
102
{ACAD_REACTORS
330
218
102
}
330
218
100
AcDbScale
 70
     0
300
100:1
140
100.0
141
1.0
290
     0
  0
SCALE
  5
22A
102
{ACAD_REACTORS
330
218
102
}
330
218
100
AcDbScale
 70
     0
300
1/128" = 1'-0"
140
0.0078125
141
12.0
290
     0
  0
SCALE
  5
22B
102
{ACAD_REACTORS
330
218
102
}
330
218
100
AcDbScale
 70
     0
300
1/64" = 1'-0"
140
0.015625
141
12.0
290
     0
  0
SCALE
  5
22C
102
{ACAD_REACTORS
330
218
102
}
330
218
100
AcDbScale
 70
     0
300
1/32" = 1'-0"
140
0.03125
141
12.0
290
     0
  0
SCALE
  5
22D
102
{ACAD_REACTORS
330
218
102
}
330
218
100
AcDbScale
 70
     0
300
1/16" = 1'-0"
140
0.0625
141
12.0
290
     0
  0
SCALE
  5
22E
102
{ACAD_REACTORS
330
218
102
}
330
218
100
AcDbScale
 70
     0
300
3/32" = 1'-0"
140
0.09375
141
12.0
290
     0
  0
SCALE
  5
22F
102
{ACAD_REACTORS
330
218
102
}
330
218
100
AcDbScale
 70
     0
300
1/8" = 1'-0"
140
0.125
141
12.0
290
     0
  0
SCALE
  5
230
102
{ACAD_REACTORS
330
218
102
}
330
218
100
AcDbScale
 70
     0
300
3/16" = 1'-0"
140
0.1875
141
12.0
290
     0
  0
SCALE
  5
231
102
{ACAD_REACTORS
330
218
102
}
330
218
100
AcDbScale
 70
     0
300
1/4" = 1'-0"
140
0.25
141
12.0
290
     0
  0
SCALE
  5
232
102
{ACAD_REACTORS
330
218
102
}
330
218
100
AcDbScale
 70
     0
300
3/8" = 1'-0"
140
0.375
141
12.0
290
     0
  0
SCALE
  5
233
102
{ACAD_REACTORS
330
218
102
}
330
218
100
AcDbScale
 70
     0
300
1/2" = 1'-0"
140
0.5
141
12.0
290
     0
  0
SCALE
  5
234
102
{ACAD_REACTORS
330
218
102
}
330
218
100
AcDbScale
 70
     0
300
3/4" = 1'-0"
140
0.75
141
12.0
290
     0
  0
SCALE
  5
235
102
{ACAD_REACTORS
330
218
102
}
330
218
100
AcDbScale
 70
     0
300
1" = 1'-0"
140
1.0
141
12.0
290
     0
  0
SCALE
  5
236
102
{ACAD_REACTORS
330
218
102
}
330
218
100
AcDbScale
 70
     0
300
1-1/2" = 1'-0"
140
1.5
141
12.0
290
     0
  0
SCALE
  5
237
102
{ACAD_REACTORS
330
218
102
}
330
218
100
AcDbScale
 70
     0
300
3" = 1'-0"
140
3.0
141
12.0
290
     0
  0
SCALE
  5
238
102
{ACAD_REACTORS
330
218
102
}
330
218
100
AcDbScale
 70
     0
300
6" = 1'-0"
140
6.0
141
12.0
290
     0
  0
SCALE
  5
239
102
{ACAD_REACTORS
330
218
102
}
330
218
100
AcDbScale
 70
     0
300
1'-0" = 1'-0"
140
12.0
141
12.0
290
     0
  0
ENDSEC
  0
EOF
