  0
SECTION
  2
HEADER
  9
$ACADVER
  1
AC1015
  9
$ACADMAINTVER
 70
     6
  9
$DWGCODEPAGE
  3
ANSI_1252
  9
$INSBASE
 10
0.0
 20
0.0
 30
0.0
  9
$EXTMIN
 10
0.0
 20
0.0
 30
0.0
  9
$EXTMAX
 10
2000.0
 20
900.0
 30
0.0
  9
$LIMMIN
 10
0.0
 20
0.0
  9
$LIMMAX
 10
2000.0
 20
900.0
  9
$ORTHOMODE
 70
     0
  9
$REGENMODE
 70
     1
  9
$FILLMODE
 70
     1
  9
$QTEXTMODE
 70
     0
  9
$MIRRTEXT
 70
     1
  9
$LTSCALE
 40
1.0
  9
$ATTMODE
 70
     1
  9
$TEXTSIZE
 40
5.0
  9
$TRACEWID
 40
1.0
  9
$TEXTSTYLE
  7
Standard
  9
$CLAYER
  8
0
  9
$CELTYPE
  6
ByLayer
  9
$CECOLOR
 62
   256
  9
$CELTSCALE
 40
1.0
  9
$DISPSILH
 70
     0
  9
$DIMSCALE
 40
1.0
  9
$DIMASZ
 40
6.0
  9
$DIMEXO
 40
1.0
  9
$DIMDLI
 40
3.75
  9
$DIMRND
 40
0.0
  9
$DIMDLE
 40
0.0
  9
$DIMEXE
 40
1.0
  9
$DIMTP
 40
0.0
  9
$DIMTM
 40
0.0
  9
$DIMTXT
 40
5.0
  9
$DIMCEN
 40
2.5
  9
$DIMTSZ
 40
0.0
  9
$DIMTOL
 70
     0
  9
$DIMLIM
 70
     0
  9
$DIMTIH
 70
     1
  9
$DIMTOH
 70
     1
  9
$DIMSE1
 70
     0
  9
$DIMSE2
 70
     0
  9
$DIMTAD
 70
     1
  9
$DIMZIN
 70
     0
  9
$DIMBLK
  1

  9
$DIMASO
 70
     1
  9
$DIMSHO
 70
     1
  9
$DIMPOST
  1

  9
$DIMAPOST
  1

  9
$DIMALT
 70
     0
  9
$DIMALTD
 70
     3
  9
$DIMALTF
 40
0.0393700787401575
  9
$DIMLFAC
 40
1.0
  9
$DIMTOFL
 70
     1
  9
$DIMTVP
 40
0.0
  9
$DIMTIX
 70
     0
  9
$DIMSOXD
 70
     0
  9
$DIMSAH
 70
     0
  9
$DIMBLK1
  1

  9
$DIMBLK2
  1

  9
$DIMSTYLE
  2
ISO-25
  9
$DIMCLRD
 70
     0
  9
$DIMCLRE
 70
     0
  9
$DIMCLRT
 70
     0
  9
$DIMTFAC
 40
1.0
  9
$DIMGAP
 40
1.524
  9
$DIMJUST
 70
     0
  9
$DIMSD1
 70
     0
  9
$DIMSD2
 70
     0
  9
$DIMTOLJ
 70
     0
  9
$DIMTZIN
 70
     0
  9
$DIMALTZ
 70
     0
  9
$DIMALTTZ
 70
     0
  9
$DIMUPT
 70
     0
  9
$DIMDEC
 70
     2
  9
$DIMTDEC
 70
     2
  9
$DIMALTU
 70
     2
  9
$DIMALTTD
 70
     3
  9
$DIMTXSTY
  7
Standard
  9
$DIMAUNIT
 70
     0
  9
$DIMADEC
 70
     2
  9
$DIMALTRND
 40
0.0
  9
$DIMAZIN
 70
     0
  9
$DIMDSEP
 70
    44
  9
$DIMATFIT
 70
     3
  9
$DIMFRAC
 70
     0
  9
$DIMLDRBLK
  1

  9
$DIMLUNIT
 70
     2
  9
$DIMLWD
 70
    -2
  9
$DIMLWE
 70
    -2
  9
$DIMTMOVE
 70
     0
  9
$LUNITS
 70
     2
  9
$LUPREC
 70
     2
  9
$SKETCHINC
 40
1.0
  9
$FILLETRAD
 40
10.0
  9
$AUNITS
 70
     0
  9
$AUPREC
 70
     2
  9
$MENU
  1
.
  9
$ELEVATION
 40
0.0
  9
$PELEVATION
 40
0.0
  9
$THICKNESS
 40
0.0
  9
$LIMCHECK
 70
     0
  9
$CHAMFERA
 40
10.0
  9
$CHAMFERB
 40
10.0
  9
$CHAMFERC
 40
20.0
  9
$CHAMFERD
 40
0.0
  9
$SKPOLY
 70
     0
  9
$TDCREATE
 40
2456338.433739282
  9
$TDUCREATE
 40
2456338.350405949
  9
$TDUPDATE
 40
2457758.358683495
  9
$TDUUPDATE
 40
2457758.275350162
  9
$TDINDWG
 40
0.0003212963
  9
$TDUSRTIMER
 40
2457758.275023912
  9
$USRTIMER
 70
     1
  9
$ANGBASE
 50
0.0
  9
$ANGDIR
 70
     0
  9
$PDMODE
 70
     0
  9
$PDSIZE
 40
-1.0
  9
$PLINEWID
 40
0.0
  9
$SPLFRAME
 70
     0
  9
$SPLINETYPE
 70
     6
  9
$SPLINESEGS
 70
     8
  9
$HANDSEED
  5
24A
  9
$SURFTAB1
 70
     6
  9
$SURFTAB2
 70
     6
  9
$SURFTYPE
 70
     6
  9
$SURFU
 70
     6
  9
$SURFV
 70
     6
  9
$UCSBASE
  2

  9
$UCSNAME
  2

  9
$UCSORG
 10
0.0
 20
0.0
 30
0.0
  9
$UCSXDIR
 10
1.0
 20
0.0
 30
0.0
  9
$UCSYDIR
 10
0.0
 20
1.0
 30
0.0
  9
$UCSORTHOREF
  2

  9
$UCSORTHOVIEW
 70
     0
  9
$UCSORGTOP
 10
0.0
 20
0.0
 30
0.0
  9
$UCSORGBOTTOM
 10
0.0
 20
0.0
 30
0.0
  9
$UCSORGLEFT
 10
0.0
 20
0.0
 30
0.0
  9
$UCSORGRIGHT
 10
0.0
 20
0.0
 30
0.0
  9
$UCSORGFRONT
 10
0.0
 20
0.0
 30
0.0
  9
$UCSORGBACK
 10
0.0
 20
0.0
 30
0.0
  9
$PUCSBASE
  2

  9
$PUCSNAME
  2

  9
$PUCSORG
 10
0.0
 20
0.0
 30
0.0
  9
$PUCSXDIR
 10
1.0
 20
0.0
 30
0.0
  9
$PUCSYDIR
 10
0.0
 20
1.0
 30
0.0
  9
$PUCSORTHOREF
  2

  9
$PUCSORTHOVIEW
 70
     0
  9
$PUCSORGTOP
 10
0.0
 20
0.0
 30
0.0
  9
$PUCSORGBOTTOM
 10
0.0
 20
0.0
 30
0.0
  9
$PUCSORGLEFT
 10
0.0
 20
0.0
 30
0.0
  9
$PUCSORGRIGHT
 10
0.0
 20
0.0
 30
0.0
  9
$PUCSORGFRONT
 10
0.0
 20
0.0
 30
0.0
  9
$PUCSORGBACK
 10
0.0
 20
0.0
 30
0.0
  9
$USERI1
 70
     0
  9
$USERI2
 70
     0
  9
$USERI3
 70
     0
  9
$USERI4
 70
     0
  9
$USERI5
 70
     0
  9
$USERR1
 40
0.0
  9
$USERR2
 40
0.0
  9
$USERR3
 40
0.0
  9
$USERR4
 40
0.0
  9
$USERR5
 40
0.0
  9
$WORLDVIEW
 70
     1
  9
$SHADEDGE
 70
     3
  9
$SHADEDIF
 70
    70
  9
$TILEMODE
 70
     1
  9
$MAXACTVP
 70
    64
  9
$PINSBASE
 10
0.0
 20
0.0
 30
0.0
  9
$PLIMCHECK
 70
     0
  9
$PEXTMIN
 10
1.000000000000000E+20
 20
1.000000000000000E+20
 30
1.000000000000000E+20
  9
$PEXTMAX
 10
-1.000000000000000E+20
 20
-1.000000000000000E+20
 30
-1.000000000000000E+20
  9
$PLIMMIN
 10
0.0
 20
0.0
  9
$PLIMMAX
 10
0.0
 20
0.0
  9
$UNITMODE
 70
     0
  9
$VISRETAIN
 70
     1
  9
$PLINEGEN
 70
     0
  9
$PSLTSCALE
 70
     1
  9
$TREEDEPTH
 70
  3020
  9
$CMLSTYLE
  2
Standard
  9
$CMLJUST
 70
     0
  9
$CMLSCALE
 40
20.0
  9
$PROXYGRAPHICS
 70
     1
  9
$MEASUREMENT
 70
     1
  9
$CELWEIGHT
370
    -1
  9
$ENDCAPS
280
     0
  9
$JOINSTYLE
280
     0
  9
$LWDISPLAY
290
     1
  9
$INSUNITS
 70
     4
  9
$HYPERLINKBASE
  1

  9
$STYLESHEET
  1

  9
$XEDIT
290
     1
  9
$CEPSNTYPE
380
     0
  9
$PSTYLEMODE
290
     1
  9
$FINGERPRINTGUID
  2
{800BE90C-475D-44B0-B5A5-217650A73712}
  9
$VERSIONGUID
  2
{FAEB1C32-E019-11D5-929B-00C0DF256EC4}
  9
$EXTNAMES
290
     1
  9
$PSVPSCALE
 40
0.0
  9
$OLESTARTUP
290
     0
  0
ENDSEC
  0
SECTION
  2
CLASSES
  0
CLASS
  1
ACDBDICTIONARYWDFLT
  2
AcDbDictionaryWithDefault
  3
ObjectDBX Classes
 90
        0
280
     0
281
     0
  0
CLASS
  1
VISUALSTYLE
  2
AcDbVisualStyle
  3
ObjectDBX Classes
 90
     4095
280
     0
281
     0
  0
CLASS
  1
MATERIAL
  2
AcDbMaterial
  3
ObjectDBX Classes
 90
     1153
280
     0
281
     0
  0
CLASS
  1
ACDBPLACEHOLDER
  2
AcDbPlaceHolder
  3
ObjectDBX Classes
 90
        0
280
     0
281
     0
  0
CLASS
  1
LAYOUT
  2
AcDbLayout
  3
ObjectDBX Classes
 90
        0
280
     0
281
     0
  0
CLASS
  1
SCALE
  2
AcDbScale
  3
ObjectDBX Classes
 90
     1153
280
     0
281
     0
  0
CLASS
  1
TABLESTYLE
  2
AcDbTableStyle
  3
ObjectDBX Classes
 90
     4095
280
     0
281
     0
  0
CLASS
  1
SUN
  2
AcDbSun
  3
SCENEOE
 90
     1153
280
     0
281
     0
  0
CLASS
  1
RASTERVARIABLES
  2
AcDbRasterVariables
  3
ISM
 90
        0
280
     0
281
     0
  0
CLASS
  1
DICTIONARYVAR
  2
AcDbDictionaryVar
  3
ObjectDBX Classes
 90
        0
280
     0
281
     0
  0
ENDSEC
  0
SECTION
  2
TABLES
  0
TABLE
  2
VPORT
  5
8
330
0
100
AcDbSymbolTable
 70
     1
  0
VPORT
  5
29
330
8
100
AcDbSymbolTableRecord
100
AcDbViewportTableRecord
  2
*Active
 70
     0
 10
0.0
 20
0.0
 11
1.0
 21
1.0
 12
1000.0
 22
450.0
 13
0.0
 23
0.0
 14
10.0
 24
10.0
 15
10.0
 25
10.0
 16
0.0
 26
0.0
 36
1.0
 17
0.0
 27
0.0
 37
0.0
 40
900.0
 41
2.222222222222222
 42
50.0
 43
0.0
 44
0.0
 50
0.0
 51
0.0
 71
     0
 72
  2000
 73
     1
 74
     3
 75
     0
 76
     0
 77
     0
 78
     0
281
     0
 65
     1
110
0.0
120
0.0
130
0.0
111
1.0
121
0.0
131
0.0
112
0.0
122
1.0
132
0.0
 79
     0
146
0.0
  0
ENDTAB
  0
TABLE
  2
LTYPE
  5
5
330
0
100
AcDbSymbolTable
 70
     6
  0
LTYPE
  5
14
330
5
100
AcDbSymbolTableRecord
100
AcDbLinetypeTableRecord
  2
ByBlock
 70
     0
  3

 72
    65
 73
     0
 40
0.0
  0
LTYPE
  5
15
330
5
100
AcDbSymbolTableRecord
100
AcDbLinetypeTableRecord
  2
ByLayer
 70
     0
  3

 72
    65
 73
     0
 40
0.0
  0
LTYPE
  5
16
330
5
100
AcDbSymbolTableRecord
100
AcDbLinetypeTableRecord
  2
Continuous
 70
     0
  3
Solid line
 72
    65
 73
     0
 40
0.0
  0
LTYPE
  5
3F
330
5
100
AcDbSymbolTableRecord
100
AcDbLinetypeTableRecord
  2
HIDDEN
 70
     0
  3
Hidden __ __ __ __ __ __ __ __ __ __ __ __ __ __
 72
    65
 73
     2
 40
1.905
 49
1.27
 74
     0
 49
-0.635
 74
     0
  0
LTYPE
  5
40
330
5
100
AcDbSymbolTableRecord
100
AcDbLinetypeTableRecord
  2
PHANTOM
 70
     0
  3
Phantom ______  __  __  ______  __  __  ______
 72
    65
 73
     6
 40
12.7
 49
6.35
 74
     0
 49
-1.27
 74
     0
 49
1.27
 74
     0
 49
-1.27
 74
     0
 49
1.27
 74
     0
 49
-1.27
 74
     0
  0
LTYPE
  5
41
330
5
100
AcDbSymbolTableRecord
100
AcDbLinetypeTableRecord
  2
CENTER
 70
     0
  3
Center ____ _ ____ _ ____ _ ____ _ ____ _ ____
 72
    65
 73
     4
 40
10.16
 49
6.35
 74
     0
 49
-1.27
 74
     0
 49
1.27
 74
     0
 49
-1.27
 74
     0
  0
LTYPE
  5
42
330
5
100
AcDbSymbolTableRecord
100
AcDbLinetypeTableRecord
  2
CENTERX2
 70
     0
  3
Center (2x) ________  __  ________  __  _____
 72
    65
 73
     4
 40
20.32
 49
12.7
 74
     0
 49
-2.54
 74
     0
 49
2.54
 74
     0
 49
-2.54
 74
     0
  0
LTYPE
  5
43
330
5
100
AcDbSymbolTableRecord
100
AcDbLinetypeTableRecord
  2
DOT2
 70
     0
  3
Dot (.5x) ........................................
 72
    65
 73
     2
 40
0.635
 49
0.0
 74
     0
 49
-0.635
 74
     0
  0
ENDTAB
  0
TABLE
  2
LAYER
  5
2
330
0
100
AcDbSymbolTable
 70
     2
  0
LAYER
  5
10
330
2
100
AcDbSymbolTableRecord
100
AcDbLayerTableRecord
  2
0
 70
     0
 62
     7
  6
Continuous
370
    -3
390
F
  0
LAYER
  5
44
330
2
100
AcDbSymbolTableRecord
100
AcDbLayerTableRecord
  2
TABLE_BL1
 70
     0
 62
   179
  6
Continuous
370
    -3
390
F
  0
ENDTAB
  0
TABLE
  2
STYLE
  5
3
330
0
100
AcDbSymbolTable
 70
     2
  0
STYLE
  5
11
330
3
100
AcDbSymbolTableRecord
100
AcDbTextStyleTableRecord
  2
Standard
 70
     0
 40
0.0
 41
1.0
 50
0.0
 71
     0
 42
5.0
  3
txt
  4

  0
STYLE
  5
5C
330
3
100
AcDbSymbolTableRecord
100
AcDbTextStyleTableRecord
  2
SLDTEXTSTYLE0
 70
     0
 40
0.0
 41
0.605
 50
0.0
 71
     0
 42
0.2
  3
TXT
  4

  0
ENDTAB
  0
TABLE
  2
VIEW
  5
6
330
0
100
AcDbSymbolTable
 70
     0
  0
ENDTAB
  0
TABLE
  2
UCS
  5
7
330
0
100
AcDbSymbolTable
 70
     0
  0
ENDTAB
  0
TABLE
  2
APPID
  5
9
330
0
100
AcDbSymbolTable
 70
     1
  0
APPID
  5
12
330
9
100
AcDbSymbolTableRecord
100
AcDbRegAppTableRecord
  2
ACAD
 70
     0
  0
ENDTAB
  0
TABLE
  2
DIMSTYLE
  5
A
330
0
100
AcDbSymbolTable
 70
     1
100
AcDbDimStyleTable
  0
DIMSTYLE
105
27
330
A
100
AcDbSymbolTableRecord
100
AcDbDimStyleTableRecord
  2
ISO-25
 70
     0
 41
2.5
 42
0.625
 43
3.75
 44
1.25
 73
     0
 74
     0
 77
     1
 78
     8
140
2.5
141
2.5
143
0.03937007874016
147
0.625
171
     3
172
     1
178
     0
271
     2
272
     2
274
     3
278
    44
283
     0
284
     8
340
11
  0
ENDTAB
  0
TABLE
  2
BLOCK_RECORD
  5
1
330
0
100
AcDbSymbolTable
 70
    12
  0
BLOCK_RECORD
  5
1F
330
1
100
AcDbSymbolTableRecord
100
AcDbBlockTableRecord
  2
*Model_Space
340
22
  0
BLOCK_RECORD
  5
1B
330
1
100
AcDbSymbolTableRecord
100
AcDbBlockTableRecord
  2
*Paper_Space
340
1E
  0
BLOCK_RECORD
  5
23
330
1
100
AcDbSymbolTableRecord
100
AcDbBlockTableRecord
  2
*Paper_Space0
340
26
  0
BLOCK_RECORD
  5
45
330
1
100
AcDbSymbolTableRecord
100
AcDbBlockTableRecord
  2
Yleistoleranssit
340
0
  0
BLOCK_RECORD
  5
59
330
1
100
AcDbSymbolTableRecord
100
AcDbBlockTableRecord
  2
SW_NOTE_0
340
0
102
{BLKREFS
331
69
102
}
  0
BLOCK_RECORD
  5
6A
330
1
100
AcDbSymbolTableRecord
100
AcDbBlockTableRecord
  2
SW_NOTE_1
340
0
102
{BLKREFS
331
72
102
}
  0
BLOCK_RECORD
  5
73
330
1
100
AcDbSymbolTableRecord
100
AcDbBlockTableRecord
  2
SW_NOTE_2
340
0
102
{BLKREFS
331
78
102
}
  0
BLOCK_RECORD
  5
7A
330
1
100
AcDbSymbolTableRecord
100
AcDbBlockTableRecord
  2
SW_NOTE_3
340
0
102
{BLKREFS
331
89
102
}
  0
BLOCK_RECORD
  5
8A
330
1
100
AcDbSymbolTableRecord
100
AcDbBlockTableRecord
  2
SW_NOTE_4
340
0
102
{BLKREFS
331
99
102
}
  0
BLOCK_RECORD
  5
9A
330
1
100
AcDbSymbolTableRecord
100
AcDbBlockTableRecord
  2
SW_NOTE_5
340
0
102
{BLKREFS
331
A5
102
}
  0
BLOCK_RECORD
  5
A6
330
1
100
AcDbSymbolTableRecord
100
AcDbBlockTableRecord
  2
SW_NOTE_6
340
0
102
{BLKREFS
331
B1
102
}
  0
BLOCK_RECORD
  5
B2
330
1
100
AcDbSymbolTableRecord
100
AcDbBlockTableRecord
  2
SW_NOTE_7
340
0
102
{BLKREFS
331
BD
102
}
  0
BLOCK_RECORD
  5
BE
330
1
100
AcDbSymbolTableRecord
100
AcDbBlockTableRecord
  2
SW_NOTE_8
340
0
102
{BLKREFS
331
C9
102
}
  0
BLOCK_RECORD
  5
CA
330
1
100
AcDbSymbolTableRecord
100
AcDbBlockTableRecord
  2
SW_NOTE_9
340
0
102
{BLKREFS
331
D4
102
}
  0
ENDTAB
  0
ENDSEC
  0
SECTION
  2
BLOCKS
  0
BLOCK
  5
20
330
1F
100
AcDbEntity
  8
0
100
AcDbBlockBegin
  2
*Model_Space
 70
     0
 10
0.0
 20
0.0
 30
0.0
  3
*Model_Space
  1
*Model_Space
  0
ENDBLK
  5
21
330
1F
100
AcDbEntity
  8
0
100
AcDbBlockEnd
  0
BLOCK
  5
1C
330
1B
100
AcDbEntity
 67
     1
  8
0
100
AcDbBlockBegin
  2
*Paper_Space
 70
     0
 10
0.0
 20
0.0
 30
0.0
  3
*Paper_Space
  1
*Paper_Space
  0
ENDBLK
  5
1D
330
1B
100
AcDbEntity
 67
     1
  8
0
100
AcDbBlockEnd
  0
BLOCK
  5
24
330
23
100
AcDbEntity
  8
0
100
AcDbBlockBegin
  2
*Paper_Space0
 70
     0
 10
0.0
 20
0.0
 30
0.0
  3
*Paper_Space0
  1
*Paper_Space0
  0
ENDBLK
  5
25
330
23
100
AcDbEntity
  8
0
100
AcDbBlockEnd
  0
BLOCK
  5
46
330
45
100
AcDbEntity
  8
0
100
AcDbBlockBegin
  2
Yleistoleranssit
 70
     0
 10
0.0
 20
0.0
 30
0.0
  3
Yleistoleranssit
  1
Yleistoleranssit
  0
LINE
  5
48
330
45
100
AcDbEntity
  8
0
  6
Continuous
 62
     7
370
     0
100
AcDbLine
 10
-128.0
 20
20.3216674369395
 30
0.0
 11
0.0
 21
20.3216674369395
 31
0.0
  0
LINE
  5
49
330
45
100
AcDbEntity
  8
0
  6
Continuous
 62
     7
370
     0
100
AcDbLine
 10
-128.0
 20
0.0
 30
0.0
 11
0.0
 21
0.0
 31
0.0
  0
LINE
  5
4A
330
45
100
AcDbEntity
  8
0
  6
Continuous
 62
     7
370
     0
100
AcDbLine
 10
-128.0
 20
0.0
 30
0.0
 11
-128.0
 21
29.3217161765533
 31
0.0
  0
LINE
  5
4B
330
45
100
AcDbEntity
  8
0
  6
Continuous
 62
     7
370
     0
100
AcDbLine
 10
-128.0
 20
29.3217161765533
 30
0.0
 11
0.0
 21
29.3217161765533
 31
0.0
  0
LINE
  5
4C
330
45
100
AcDbEntity
  8
0
  6
Continuous
 62
     7
370
     0
100
AcDbLine
 10
0.0
 20
0.0
 30
0.0
 11
0.0
 21
29.3217161765533
 31
0.0
  0
LINE
  5
4D
330
45
100
AcDbEntity
  8
0
  6
Continuous
 62
     7
370
     0
100
AcDbLine
 10
-90.0
 20
29.3217161765533
 30
0.0
 11
-90.0
 21
0.0
 31
0.0
  0
LINE
  5
4E
330
45
100
AcDbEntity
  8
0
  6
Continuous
 62
     7
370
     0
100
AcDbLine
 10
-80.35846527125837
 20
29.3217161765533
 30
0.0
 11
-80.35846527125837
 21
0.0
 31
0.0
  0
LINE
  5
4F
330
45
100
AcDbEntity
  8
0
  6
Continuous
 62
     7
370
     0
100
AcDbLine
 10
-69.44920276909968
 20
29.3217161765533
 30
0.0
 11
-69.44920276909968
 21
0.0
 31
0.0
  0
LINE
  5
50
330
45
100
AcDbEntity
  8
0
  6
Continuous
 62
     7
370
     0
100
AcDbLine
 10
-58.76960895119699
 20
29.3217161765533
 30
0.0
 11
-58.76960895119699
 21
0.0
 31
0.0
  0
LINE
  5
51
330
45
100
AcDbEntity
  8
0
  6
Continuous
 62
     7
370
     0
100
AcDbLine
 10
-47.7455121069103
 20
29.3217161765533
 30
0.0
 11
-47.7455121069103
 21
0.0
 31
0.0
  0
LINE
  5
52
330
45
100
AcDbEntity
  8
0
  6
Continuous
 62
     7
370
     0
100
AcDbLine
 10
-36.60658092049568
 20
29.3217161765533
 30
0.0
 11
-36.60658092049568
 21
0.0
 31
0.0
  0
LINE
  5
53
330
45
100
AcDbEntity
  8
0
  6
Continuous
 62
     7
370
     0
100
AcDbLine
 10
-24.77864368131311
 20
29.3217161765533
 30
0.0
 11
-24.77864368131311
 21
0.0
 31
0.0
  0
LINE
  5
54
330
45
100
AcDbEntity
  8
0
  6
Continuous
 62
     7
370
     0
100
AcDbLine
 10
-12.95070644213053
 20
29.3217161765533
 30
0.0
 11
-12.95070644213053
 21
0.0
 31
0.0
  0
LINE
  5
55
330
45
100
AcDbEntity
  8
0
  6
Continuous
 62
     7
370
     0
100
AcDbLine
 10
0.0
 20
14.50972099221878
 30
0.0
 11
-107.7846503106451
 21
14.50972099221878
 31
0.0
  0
LINE
  5
56
330
45
100
AcDbEntity
  8
0
  6
Continuous
 62
     7
370
     0
100
AcDbLine
 10
0.0
 20
10.97489696491011
 30
0.0
 11
-107.7846503106451
 21
10.97489696491008
 31
0.0
  0
LINE
  5
57
330
45
100
AcDbEntity
  8
0
  6
Continuous
 62
     7
370
     0
100
AcDbLine
 10
0.0
 20
7.382273231563818
 30
0.0
 11
-128.0
 21
7.382273231563791
 31
0.0
  0
LINE
  5
58
330
45
100
AcDbEntity
  8
0
  6
Continuous
 62
     7
370
     0
100
AcDbLine
 10
0.0
 20
3.87319888736512
 30
0.0
 11
-107.7846503106451
 21
3.873198887365092
 31
0.0
  0
INSERT
  5
69
330
45
100
AcDbEntity
  8
0
  6
Continuous
 62
     7
370
     0
100
AcDbBlockReference
  2
SW_NOTE_0
 10
-88.89342403353773
 20
25.23533252512787
 30
0.0
  0
INSERT
  5
72
330
45
100
AcDbEntity
  8
0
  6
Continuous
 62
     7
370
     0
100
AcDbBlockReference
  2
SW_NOTE_1
 10
-107.3133833052766
 20
14.6653564215458
 30
0.0
  0
INSERT
  5
78
330
45
100
AcDbEntity
  8
0
  6
Continuous
 62
     7
370
     0
100
AcDbBlockReference
  2
SW_NOTE_2
 10
-127.0419636585391
 20
14.6653559558844
 30
0.0
  0
MTEXT
  5
79
330
45
100
AcDbEntity
  8
0
  6
Continuous
 62
     7
370
     0
100
AcDbMText
 10
-127.2347267983281
 20
27.0028750836024
 30
0.0
 40
2.5
 41
0.0
 71
     1
 72
     1
  1
YLEISTOLERANSSIT
  7
SLDTEXTSTYLE0
 73
     1
 44
1.0
  0
INSERT
  5
89
330
45
100
AcDbEntity
  8
0
  6
Continuous
 62
     7
370
     0
100
AcDbBlockReference
  2
SW_NOTE_3
 10
-78.04776805326102
 20
25.23533205946658
 30
0.0
  0
INSERT
  5
99
330
45
100
AcDbEntity
  8
0
  6
Continuous
 62
     7
370
     0
100
AcDbBlockReference
  2
SW_NOTE_4
 10
-66.7605496266333
 20
25.23533205946658
 30
0.0
  0
INSERT
  5
A5
330
45
100
AcDbEntity
  8
0
  6
Continuous
 62
     7
370
     0
100
AcDbBlockReference
  2
SW_NOTE_5
 10
-56.73185874405453
 20
25.23533205946658
 30
0.0
  0
INSERT
  5
B1
330
45
100
AcDbEntity
  8
0
  6
Continuous
 62
     7
370
     0
100
AcDbBlockReference
  2
SW_NOTE_6
 10
-45.87215391116062
 20
25.23533205946658
 30
0.0
  0
INSERT
  5
BD
330
45
100
AcDbEntity
  8
0
  6
Continuous
 62
     7
370
     0
100
AcDbBlockReference
  2
SW_NOTE_7
 10
-34.78509547874237
 20
25.2353315938053
 30
0.0
  0
INSERT
  5
C9
330
45
100
AcDbEntity
  8
0
  6
Continuous
 62
     7
370
     0
100
AcDbBlockReference
  2
SW_NOTE_8
 10
-22.9284213191655
 20
25.2353315938053
 30
0.0
  0
INSERT
  5
D4
330
45
100
AcDbEntity
  8
0
  6
Continuous
 62
     7
370
     0
100
AcDbBlockReference
  2
SW_NOTE_9
 10
-11.10524575847433
 20
25.23533252512787
 30
0.0
  0
ENDBLK
  5
47
330
45
100
AcDbEntity
  8
0
100
AcDbBlockEnd
  0
BLOCK
  5
5A
330
59
100
AcDbEntity
  8
0
100
AcDbBlockBegin
  2
SW_NOTE_0
 70
     0
 10
0.0
 20
0.0
 30
0.0
  3
SW_NOTE_0
  1
SW_NOTE_0
  0
MTEXT
  5
5D
330
59
100
AcDbEntity
  8
0
  6
Continuous
 62
     0
370
     0
100
AcDbMText
 10
1.500000000000001
 20
2.578135479543931
 30
0.0
 40
2.0
 41
0.0
 71
     1
 72
     1
  1
>0,5
  7
SLDTEXTSTYLE0
 73
     1
 44
1.0
  0
MTEXT
  5
5E
330
59
100
AcDbEntity
  8
0
  6
Continuous
 62
     0
370
     0
100
AcDbMText
 10
0.0
 20
-0.9218646284894876
 30
0.0
 40
2.0
 41
0.0
 71
     1
 72
     1
  1
=<3
  7
SLDTEXTSTYLE0
 73
     1
 44
1.0
  0
MTEXT
  5
5F
330
59
100
AcDbEntity
  8
0
  6
Continuous
 62
     0
370
     0
100
AcDbMText
 10
0.0
 20
-7.921864844556325
 30
0.0
 40
2.0
 41
0.0
 71
     1
 72
     1
  1
%%p
  7
SLDTEXTSTYLE0
 73
     1
 44
1.0
  0
MTEXT
  5
60
330
59
100
AcDbEntity
  8
0
  6
Continuous
 62
     0
370
     0
100
AcDbMText
 10
1.841666758991778
 20
-7.921864844556325
 30
0.0
 40
2.0
 41
0.0
 71
     1
 72
     1
  1
0,05
  7
SLDTEXTSTYLE0
 73
     1
 44
1.0
  0
MTEXT
  5
61
330
59
100
AcDbEntity
  8
0
  6
Continuous
 62
     0
370
     0
100
AcDbMText
 10
0.0
 20
-11.42186495258974
 30
0.0
 40
2.0
 41
0.0
 71
     1
 72
     1
  1
%%p
  7
SLDTEXTSTYLE0
 73
     1
 44
1.0
  0
MTEXT
  5
62
330
59
100
AcDbEntity
  8
0
  6
Continuous
 62
     0
370
     0
100
AcDbMText
 10
1.841666758991778
 20
-11.42186495258974
 30
0.0
 40
2.0
 41
0.0
 71
     1
 72
     1
  1
0,1
  7
SLDTEXTSTYLE0
 73
     1
 44
1.0
  0
MTEXT
  5
63
330
59
100
AcDbEntity
  8
0
  6
Continuous
 62
     0
370
     0
100
AcDbMText
 10
0.0
 20
-14.92186506062316
 30
0.0
 40
2.0
 41
0.0
 71
     1
 72
     1
  1
%%p
  7
SLDTEXTSTYLE0
 73
     1
 44
1.0
  0
MTEXT
  5
64
330
59
100
AcDbEntity
  8
0
  6
Continuous
 62
     0
370
     0
100
AcDbMText
 10
1.841666758991778
 20
-14.92186506062316
 30
0.0
 40
2.0
 41
0.0
 71
     1
 72
     1
  1
0,2
  7
SLDTEXTSTYLE0
 73
     1
 44
1.0
  0
MTEXT
  5
65
330
59
100
AcDbEntity
  8
0
  6
Continuous
 62
     0
370
     0
100
AcDbMText
 10
0.0
 20
-18.42186516865658
 30
0.0
 40
2.0
 41
0.0
 71
     1
 72
     1
  1
%%p
  7
SLDTEXTSTYLE0
 73
     1
 44
1.0
  0
MTEXT
  5
66
330
59
100
AcDbEntity
  8
0
  6
Continuous
 62
     0
370
     0
100
AcDbMText
 10
1.841666758991778
 20
-18.42186516865658
 30
0.0
 40
2.0
 41
0.0
 71
     1
 72
     1
  1
0,2
  7
SLDTEXTSTYLE0
 73
     1
 44
1.0
  0
MTEXT
  5
67
330
59
100
AcDbEntity
  8
0
  6
Continuous
 62
     0
370
     0
100
AcDbMText
 10
0.0
 20
-21.92186527669
 30
0.0
 40
2.0
 41
0.0
 71
     1
 72
     1
  1
%%p
  7
SLDTEXTSTYLE0
 73
     1
 44
1.0
  0
MTEXT
  5
68
330
59
100
AcDbEntity
  8
0
  6
Continuous
 62
     0
370
     0
100
AcDbMText
 10
1.841666758991778
 20
-21.92186527669
 30
0.0
 40
2.0
 41
0.0
 71
     1
 72
     1
  1
0,4
  7
SLDTEXTSTYLE0
 73
     1
 44
1.0
  0
ENDBLK
  5
5B
330
59
100
AcDbEntity
  8
0
100
AcDbBlockEnd
  0
BLOCK
  5
6B
330
6A
100
AcDbEntity
  8
0
100
AcDbBlockBegin
  2
SW_NOTE_1
 70
     0
 10
0.0
 20
0.0
 30
0.0
  3
SW_NOTE_1
  1
SW_NOTE_1
  0
MTEXT
  5
6D
330
6A
100
AcDbEntity
  8
0
  6
Continuous
 62
     0
370
     0
100
AcDbMText
 10
0.0
 20
2.578135479543931
 30
0.0
 40
2.0
 41
0.0
 71
     1
 72
     1
  1
ISO-2768-f
  7
SLDTEXTSTYLE0
 73
     1
 44
1.0
  0
MTEXT
  5
6E
330
6A
100
AcDbEntity
  8
0
  6
Continuous
 62
     0
370
     0
100
AcDbMText
 10
0.0
 20
-0.9218646284894876
 30
0.0
 40
2.0
 41
0.0
 71
     1
 72
     1
  1
ISO-2768-m
  7
SLDTEXTSTYLE0
 73
     1
 44
1.0
  0
MTEXT
  5
6F
330
6A
100
AcDbEntity
  8
0
  6
Continuous
 62
     0
370
     0
100
AcDbMText
 10
0.0
 20
-4.421864736522906
 30
0.0
 40
2.0
 41
0.0
 71
     1
 72
     1
  1
ISO-2768-c
  7
SLDTEXTSTYLE0
 73
     1
 44
1.0
  0
MTEXT
  5
70
330
6A
100
AcDbEntity
  8
0
  6
Continuous
 62
     0
370
     0
100
AcDbMText
 10
0.0
 20
-7.921864844556325
 30
0.0
 40
2.0
 41
0.0
 71
     1
 72
     1
  1
ISO-2768-f/m
  7
SLDTEXTSTYLE0
 73
     1
 44
1.0
  0
MTEXT
  5
71
330
6A
100
AcDbEntity
  8
0
  6
Continuous
 62
     0
370
     0
100
AcDbMText
 10
0.0
 20
-11.42186495258974
 30
0.0
 40
2.0
 41
0.0
 71
     1
 72
     1
  1
ISO-2768-c
  7
SLDTEXTSTYLE0
 73
     1
 44
1.0
  0
ENDBLK
  5
6C
330
6A
100
AcDbEntity
  8
0
100
AcDbBlockEnd
  0
BLOCK
  5
74
330
73
100
AcDbEntity
  8
0
100
AcDbBlockBegin
  2
SW_NOTE_2
 70
     0
 10
0.0
 20
0.0
 30
0.0
  3
SW_NOTE_2
  1
SW_NOTE_2
  0
MTEXT
  5
76
330
73
100
AcDbEntity
  8
0
  6
Continuous
 62
     0
370
     0
100
AcDbMText
 10
0.0
 20
2.578135479543931
 30
0.0
 40
2.0
 41
0.0
 71
     1
 72
     1
  1
Pituusmitat
  7
SLDTEXTSTYLE0
 73
     1
 44
1.0
  0
MTEXT
  5
77
330
73
100
AcDbEntity
  8
0
  6
Continuous
 62
     0
370
     0
100
AcDbMText
 10
0.0
 20
-7.921864844556325
 30
0.0
 40
2.0
 41
0.0
 71
     1
 72
     1
  1
Säteet, viisteet
  7
SLDTEXTSTYLE0
 73
     1
 44
1.0
  0
ENDBLK
  5
75
330
73
100
AcDbEntity
  8
0
100
AcDbBlockEnd
  0
BLOCK
  5
7B
330
7A
100
AcDbEntity
  8
0
100
AcDbBlockBegin
  2
SW_NOTE_3
 70
     0
 10
0.0
 20
0.0
 30
0.0
  3
SW_NOTE_3
  1
SW_NOTE_3
  0
MTEXT
  5
7D
330
7A
100
AcDbEntity
  8
0
  6
Continuous
 62
     0
370
     0
100
AcDbMText
 10
1.500000000000001
 20
2.578135479543931
 30
0.0
 40
2.0
 41
0.0
 71
     1
 72
     1
  1
>3
  7
SLDTEXTSTYLE0
 73
     1
 44
1.0
  0
MTEXT
  5
7E
330
7A
100
AcDbEntity
  8
0
  6
Continuous
 62
     0
370
     0
100
AcDbMText
 10
0.0
 20
-0.9218646284894876
 30
0.0
 40
2.0
 41
0.0
 71
     1
 72
     1
  1
=<6
  7
SLDTEXTSTYLE0
 73
     1
 44
1.0
  0
MTEXT
  5
7F
330
7A
100
AcDbEntity
  8
0
  6
Continuous
 62
     0
370
     0
100
AcDbMText
 10
0.0
 20
-7.921864844556325
 30
0.0
 40
2.0
 41
0.0
 71
     1
 72
     1
  1
%%p
  7
SLDTEXTSTYLE0
 73
     1
 44
1.0
  0
MTEXT
  5
80
330
7A
100
AcDbEntity
  8
0
  6
Continuous
 62
     0
370
     0
100
AcDbMText
 10
1.841666758991778
 20
-7.921864844556325
 30
0.0
 40
2.0
 41
0.0
 71
     1
 72
     1
  1
0,05
  7
SLDTEXTSTYLE0
 73
     1
 44
1.0
  0
MTEXT
  5
81
330
7A
100
AcDbEntity
  8
0
  6
Continuous
 62
     0
370
     0
100
AcDbMText
 10
0.0
 20
-11.42186495258974
 30
0.0
 40
2.0
 41
0.0
 71
     1
 72
     1
  1
%%p
  7
SLDTEXTSTYLE0
 73
     1
 44
1.0
  0
MTEXT
  5
82
330
7A
100
AcDbEntity
  8
0
  6
Continuous
 62
     0
370
     0
100
AcDbMText
 10
1.841666758991778
 20
-11.42186495258974
 30
0.0
 40
2.0
 41
0.0
 71
     1
 72
     1
  1
0,1
  7
SLDTEXTSTYLE0
 73
     1
 44
1.0
  0
MTEXT
  5
83
330
7A
100
AcDbEntity
  8
0
  6
Continuous
 62
     0
370
     0
100
AcDbMText
 10
0.0
 20
-14.92186506062316
 30
0.0
 40
2.0
 41
0.0
 71
     1
 72
     1
  1
%%p
  7
SLDTEXTSTYLE0
 73
     1
 44
1.0
  0
MTEXT
  5
84
330
7A
100
AcDbEntity
  8
0
  6
Continuous
 62
     0
370
     0
100
AcDbMText
 10
1.841666758991778
 20
-14.92186506062316
 30
0.0
 40
2.0
 41
0.0
 71
     1
 72
     1
  1
0,3
  7
SLDTEXTSTYLE0
 73
     1
 44
1.0
  0
MTEXT
  5
85
330
7A
100
AcDbEntity
  8
0
  6
Continuous
 62
     0
370
     0
100
AcDbMText
 10
0.0
 20
-18.42186516865658
 30
0.0
 40
2.0
 41
0.0
 71
     1
 72
     1
  1
%%p
  7
SLDTEXTSTYLE0
 73
     1
 44
1.0
  0
MTEXT
  5
86
330
7A
100
AcDbEntity
  8
0
  6
Continuous
 62
     0
370
     0
100
AcDbMText
 10
1.841666758991778
 20
-18.42186516865658
 30
0.0
 40
2.0
 41
0.0
 71
     1
 72
     1
  1
0,5
  7
SLDTEXTSTYLE0
 73
     1
 44
1.0
  0
MTEXT
  5
87
330
7A
100
AcDbEntity
  8
0
  6
Continuous
 62
     0
370
     0
100
AcDbMText
 10
0.0
 20
-21.92186527669
 30
0.0
 40
2.0
 41
0.0
 71
     1
 72
     1
  1
%%p
  7
SLDTEXTSTYLE0
 73
     1
 44
1.0
  0
MTEXT
  5
88
330
7A
100
AcDbEntity
  8
0
  6
Continuous
 62
     0
370
     0
100
AcDbMText
 10
1.841666758991778
 20
-21.92186527669
 30
0.0
 40
2.0
 41
0.0
 71
     1
 72
     1
  1
1
  7
SLDTEXTSTYLE0
 73
     1
 44
1.0
  0
ENDBLK
  5
7C
330
7A
100
AcDbEntity
  8
0
100
AcDbBlockEnd
  0
BLOCK
  5
8B
330
8A
100
AcDbEntity
  8
0
100
AcDbBlockBegin
  2
SW_NOTE_4
 70
     0
 10
0.0
 20
0.0
 30
0.0
  3
SW_NOTE_4
  1
SW_NOTE_4
  0
MTEXT
  5
8D
330
8A
100
AcDbEntity
  8
0
  6
Continuous
 62
     0
370
     0
100
AcDbMText
 10
1.500000000000001
 20
2.578135479543931
 30
0.0
 40
2.0
 41
0.0
 71
     1
 72
     1
  1
>6
  7
SLDTEXTSTYLE0
 73
     1
 44
1.0
  0
MTEXT
  5
8E
330
8A
100
AcDbEntity
  8
0
  6
Continuous
 62
     0
370
     0
100
AcDbMText
 10
0.0
 20
-0.9218646284894876
 30
0.0
 40
2.0
 41
0.0
 71
     1
 72
     1
  1
=<30
  7
SLDTEXTSTYLE0
 73
     1
 44
1.0
  0
MTEXT
  5
8F
330
8A
100
AcDbEntity
  8
0
  6
Continuous
 62
     0
370
     0
100
AcDbMText
 10
0.0
 20
-7.921864844556325
 30
0.0
 40
2.0
 41
0.0
 71
     1
 72
     1
  1
%%p
  7
SLDTEXTSTYLE0
 73
     1
 44
1.0
  0
MTEXT
  5
90
330
8A
100
AcDbEntity
  8
0
  6
Continuous
 62
     0
370
     0
100
AcDbMText
 10
1.841666758991778
 20
-7.921864844556325
 30
0.0
 40
2.0
 41
0.0
 71
     1
 72
     1
  1
0,1
  7
SLDTEXTSTYLE0
 73
     1
 44
1.0
  0
MTEXT
  5
91
330
8A
100
AcDbEntity
  8
0
  6
Continuous
 62
     0
370
     0
100
AcDbMText
 10
0.0
 20
-11.42186495258974
 30
0.0
 40
2.0
 41
0.0
 71
     1
 72
     1
  1
%%p
  7
SLDTEXTSTYLE0
 73
     1
 44
1.0
  0
MTEXT
  5
92
330
8A
100
AcDbEntity
  8
0
  6
Continuous
 62
     0
370
     0
100
AcDbMText
 10
1.841666758991778
 20
-11.42186495258974
 30
0.0
 40
2.0
 41
0.0
 71
     1
 72
     1
  1
0,2
  7
SLDTEXTSTYLE0
 73
     1
 44
1.0
  0
MTEXT
  5
93
330
8A
100
AcDbEntity
  8
0
  6
Continuous
 62
     0
370
     0
100
AcDbMText
 10
0.0
 20
-14.92186506062316
 30
0.0
 40
2.0
 41
0.0
 71
     1
 72
     1
  1
%%p
  7
SLDTEXTSTYLE0
 73
     1
 44
1.0
  0
MTEXT
  5
94
330
8A
100
AcDbEntity
  8
0
  6
Continuous
 62
     0
370
     0
100
AcDbMText
 10
1.841666758991778
 20
-14.92186506062316
 30
0.0
 40
2.0
 41
0.0
 71
     1
 72
     1
  1
0,5
  7
SLDTEXTSTYLE0
 73
     1
 44
1.0
  0
MTEXT
  5
95
330
8A
100
AcDbEntity
  8
0
  6
Continuous
 62
     0
370
     0
100
AcDbMText
 10
0.0
 20
-18.42186516865658
 30
0.0
 40
2.0
 41
0.0
 71
     1
 72
     1
  1
%%p
  7
SLDTEXTSTYLE0
 73
     1
 44
1.0
  0
MTEXT
  5
96
330
8A
100
AcDbEntity
  8
0
  6
Continuous
 62
     0
370
     0
100
AcDbMText
 10
1.841666758991778
 20
-18.42186516865658
 30
0.0
 40
2.0
 41
0.0
 71
     1
 72
     1
  1
1
  7
SLDTEXTSTYLE0
 73
     1
 44
1.0
  0
MTEXT
  5
97
330
8A
100
AcDbEntity
  8
0
  6
Continuous
 62
     0
370
     0
100
AcDbMText
 10
0.0
 20
-21.92186527669
 30
0.0
 40
2.0
 41
0.0
 71
     1
 72
     1
  1
%%p
  7
SLDTEXTSTYLE0
 73
     1
 44
1.0
  0
MTEXT
  5
98
330
8A
100
AcDbEntity
  8
0
  6
Continuous
 62
     0
370
     0
100
AcDbMText
 10
1.841666758991778
 20
-21.92186527669
 30
0.0
 40
2.0
 41
0.0
 71
     1
 72
     1
  1
2
  7
SLDTEXTSTYLE0
 73
     1
 44
1.0
  0
ENDBLK
  5
8C
330
8A
100
AcDbEntity
  8
0
100
AcDbBlockEnd
  0
BLOCK
  5
9B
330
9A
100
AcDbEntity
  8
0
100
AcDbBlockBegin
  2
SW_NOTE_5
 70
     0
 10
0.0
 20
0.0
 30
0.0
  3
SW_NOTE_5
  1
SW_NOTE_5
  0
MTEXT
  5
9D
330
9A
100
AcDbEntity
  8
0
  6
Continuous
 62
     0
370
     0
100
AcDbMText
 10
1.500000000000001
 20
2.578135479543931
 30
0.0
 40
2.0
 41
0.0
 71
     1
 72
     1
  1
>30
  7
SLDTEXTSTYLE0
 73
     1
 44
1.0
  0
MTEXT
  5
9E
330
9A
100
AcDbEntity
  8
0
  6
Continuous
 62
     0
370
     0
100
AcDbMText
 10
0.0
 20
-0.9218646284894876
 30
0.0
 40
2.0
 41
0.0
 71
     1
 72
     1
  1
=<120
  7
SLDTEXTSTYLE0
 73
     1
 44
1.0
  0
MTEXT
  5
9F
330
9A
100
AcDbEntity
  8
0
  6
Continuous
 62
     0
370
     0
100
AcDbMText
 10
0.0
 20
-7.921864844556325
 30
0.0
 40
2.0
 41
0.0
 71
     1
 72
     1
  1
%%p
  7
SLDTEXTSTYLE0
 73
     1
 44
1.0
  0
MTEXT
  5
A0
330
9A
100
AcDbEntity
  8
0
  6
Continuous
 62
     0
370
     0
100
AcDbMText
 10
1.841666758991778
 20
-7.921864844556325
 30
0.0
 40
2.0
 41
0.0
 71
     1
 72
     1
  1
0,15
  7
SLDTEXTSTYLE0
 73
     1
 44
1.0
  0
MTEXT
  5
A1
330
9A
100
AcDbEntity
  8
0
  6
Continuous
 62
     0
370
     0
100
AcDbMText
 10
0.0
 20
-11.42186495258974
 30
0.0
 40
2.0
 41
0.0
 71
     1
 72
     1
  1
%%p
  7
SLDTEXTSTYLE0
 73
     1
 44
1.0
  0
MTEXT
  5
A2
330
9A
100
AcDbEntity
  8
0
  6
Continuous
 62
     0
370
     0
100
AcDbMText
 10
1.841666758991778
 20
-11.42186495258974
 30
0.0
 40
2.0
 41
0.0
 71
     1
 72
     1
  1
0,3
  7
SLDTEXTSTYLE0
 73
     1
 44
1.0
  0
MTEXT
  5
A3
330
9A
100
AcDbEntity
  8
0
  6
Continuous
 62
     0
370
     0
100
AcDbMText
 10
0.0
 20
-14.92186506062316
 30
0.0
 40
2.0
 41
0.0
 71
     1
 72
     1
  1
%%p
  7
SLDTEXTSTYLE0
 73
     1
 44
1.0
  0
MTEXT
  5
A4
330
9A
100
AcDbEntity
  8
0
  6
Continuous
 62
     0
370
     0
100
AcDbMText
 10
1.841666758991778
 20
-14.92186506062316
 30
0.0
 40
2.0
 41
0.0
 71
     1
 72
     1
  1
0,8
  7
SLDTEXTSTYLE0
 73
     1
 44
1.0
  0
ENDBLK
  5
9C
330
9A
100
AcDbEntity
  8
0
100
AcDbBlockEnd
  0
BLOCK
  5
A7
330
A6
100
AcDbEntity
  8
0
100
AcDbBlockBegin
  2
SW_NOTE_6
 70
     0
 10
0.0
 20
0.0
 30
0.0
  3
SW_NOTE_6
  1
SW_NOTE_6
  0
MTEXT
  5
A9
330
A6
100
AcDbEntity
  8
0
  6
Continuous
 62
     0
370
     0
100
AcDbMText
 10
1.500000000000001
 20
2.578135479543931
 30
0.0
 40
2.0
 41
0.0
 71
     1
 72
     1
  1
>120
  7
SLDTEXTSTYLE0
 73
     1
 44
1.0
  0
MTEXT
  5
AA
330
A6
100
AcDbEntity
  8
0
  6
Continuous
 62
     0
370
     0
100
AcDbMText
 10
0.0
 20
-0.9218646284894876
 30
0.0
 40
2.0
 41
0.0
 71
     1
 72
     1
  1
=<400
  7
SLDTEXTSTYLE0
 73
     1
 44
1.0
  0
MTEXT
  5
AB
330
A6
100
AcDbEntity
  8
0
  6
Continuous
 62
     0
370
     0
100
AcDbMText
 10
0.0
 20
-7.921864844556325
 30
0.0
 40
2.0
 41
0.0
 71
     1
 72
     1
  1
%%p
  7
SLDTEXTSTYLE0
 73
     1
 44
1.0
  0
MTEXT
  5
AC
330
A6
100
AcDbEntity
  8
0
  6
Continuous
 62
     0
370
     0
100
AcDbMText
 10
1.841666758991778
 20
-7.921864844556325
 30
0.0
 40
2.0
 41
0.0
 71
     1
 72
     1
  1
0,2
  7
SLDTEXTSTYLE0
 73
     1
 44
1.0
  0
MTEXT
  5
AD
330
A6
100
AcDbEntity
  8
0
  6
Continuous
 62
     0
370
     0
100
AcDbMText
 10
0.0
 20
-11.42186495258974
 30
0.0
 40
2.0
 41
0.0
 71
     1
 72
     1
  1
%%p
  7
SLDTEXTSTYLE0
 73
     1
 44
1.0
  0
MTEXT
  5
AE
330
A6
100
AcDbEntity
  8
0
  6
Continuous
 62
     0
370
     0
100
AcDbMText
 10
1.841666758991778
 20
-11.42186495258974
 30
0.0
 40
2.0
 41
0.0
 71
     1
 72
     1
  1
0,5
  7
SLDTEXTSTYLE0
 73
     1
 44
1.0
  0
MTEXT
  5
AF
330
A6
100
AcDbEntity
  8
0
  6
Continuous
 62
     0
370
     0
100
AcDbMText
 10
0.0
 20
-14.92186506062316
 30
0.0
 40
2.0
 41
0.0
 71
     1
 72
     1
  1
%%p
  7
SLDTEXTSTYLE0
 73
     1
 44
1.0
  0
MTEXT
  5
B0
330
A6
100
AcDbEntity
  8
0
  6
Continuous
 62
     0
370
     0
100
AcDbMText
 10
1.841666758991778
 20
-14.92186506062316
 30
0.0
 40
2.0
 41
0.0
 71
     1
 72
     1
  1
1,2
  7
SLDTEXTSTYLE0
 73
     1
 44
1.0
  0
ENDBLK
  5
A8
330
A6
100
AcDbEntity
  8
0
100
AcDbBlockEnd
  0
BLOCK
  5
B3
330
B2
100
AcDbEntity
  8
0
100
AcDbBlockBegin
  2
SW_NOTE_7
 70
     0
 10
0.0
 20
0.0
 30
0.0
  3
SW_NOTE_7
  1
SW_NOTE_7
  0
MTEXT
  5
B5
330
B2
100
AcDbEntity
  8
0
  6
Continuous
 62
     0
370
     0
100
AcDbMText
 10
1.500000000000001
 20
2.578135479543931
 30
0.0
 40
2.0
 41
0.0
 71
     1
 72
     1
  1
>400
  7
SLDTEXTSTYLE0
 73
     1
 44
1.0
  0
MTEXT
  5
B6
330
B2
100
AcDbEntity
  8
0
  6
Continuous
 62
     0
370
     0
100
AcDbMText
 10
0.0
 20
-0.9218646284894876
 30
0.0
 40
2.0
 41
0.0
 71
     1
 72
     1
  1
=<1000
  7
SLDTEXTSTYLE0
 73
     1
 44
1.0
  0
MTEXT
  5
B7
330
B2
100
AcDbEntity
  8
0
  6
Continuous
 62
     0
370
     0
100
AcDbMText
 10
0.0
 20
-7.921864844556325
 30
0.0
 40
2.0
 41
0.0
 71
     1
 72
     1
  1
%%p
  7
SLDTEXTSTYLE0
 73
     1
 44
1.0
  0
MTEXT
  5
B8
330
B2
100
AcDbEntity
  8
0
  6
Continuous
 62
     0
370
     0
100
AcDbMText
 10
1.841666758991778
 20
-7.921864844556325
 30
0.0
 40
2.0
 41
0.0
 71
     1
 72
     1
  1
0,3
  7
SLDTEXTSTYLE0
 73
     1
 44
1.0
  0
MTEXT
  5
B9
330
B2
100
AcDbEntity
  8
0
  6
Continuous
 62
     0
370
     0
100
AcDbMText
 10
0.0
 20
-11.42186495258974
 30
0.0
 40
2.0
 41
0.0
 71
     1
 72
     1
  1
%%p
  7
SLDTEXTSTYLE0
 73
     1
 44
1.0
  0
MTEXT
  5
BA
330
B2
100
AcDbEntity
  8
0
  6
Continuous
 62
     0
370
     0
100
AcDbMText
 10
1.841666758991778
 20
-11.42186495258974
 30
0.0
 40
2.0
 41
0.0
 71
     1
 72
     1
  1
0,8
  7
SLDTEXTSTYLE0
 73
     1
 44
1.0
  0
MTEXT
  5
BB
330
B2
100
AcDbEntity
  8
0
  6
Continuous
 62
     0
370
     0
100
AcDbMText
 10
0.0
 20
-14.92186506062316
 30
0.0
 40
2.0
 41
0.0
 71
     1
 72
     1
  1
%%p
  7
SLDTEXTSTYLE0
 73
     1
 44
1.0
  0
MTEXT
  5
BC
330
B2
100
AcDbEntity
  8
0
  6
Continuous
 62
     0
370
     0
100
AcDbMText
 10
1.841666758991778
 20
-14.92186506062316
 30
0.0
 40
2.0
 41
0.0
 71
     1
 72
     1
  1
1,2
  7
SLDTEXTSTYLE0
 73
     1
 44
1.0
  0
ENDBLK
  5
B4
330
B2
100
AcDbEntity
  8
0
100
AcDbBlockEnd
  0
BLOCK
  5
BF
330
BE
100
AcDbEntity
  8
0
100
AcDbBlockBegin
  2
SW_NOTE_8
 70
     0
 10
0.0
 20
0.0
 30
0.0
  3
SW_NOTE_8
  1
SW_NOTE_8
  0
MTEXT
  5
C1
330
BE
100
AcDbEntity
  8
0
  6
Continuous
 62
     0
370
     0
100
AcDbMText
 10
1.500000000000001
 20
2.578135479543931
 30
0.0
 40
2.0
 41
0.0
 71
     1
 72
     1
  1
>1000
  7
SLDTEXTSTYLE0
 73
     1
 44
1.0
  0
MTEXT
  5
C2
330
BE
100
AcDbEntity
  8
0
  6
Continuous
 62
     0
370
     0
100
AcDbMText
 10
0.0
 20
-0.9218646284894876
 30
0.0
 40
2.0
 41
0.0
 71
     1
 72
     1
  1
=<2000
  7
SLDTEXTSTYLE0
 73
     1
 44
1.0
  0
MTEXT
  5
C3
330
BE
100
AcDbEntity
  8
0
  6
Continuous
 62
     0
370
     0
100
AcDbMText
 10
0.0
 20
-7.921864844556325
 30
0.0
 40
2.0
 41
0.0
 71
     1
 72
     1
  1
%%p
  7
SLDTEXTSTYLE0
 73
     1
 44
1.0
  0
MTEXT
  5
C4
330
BE
100
AcDbEntity
  8
0
  6
Continuous
 62
     0
370
     0
100
AcDbMText
 10
1.841666758991778
 20
-7.921864844556325
 30
0.0
 40
2.0
 41
0.0
 71
     1
 72
     1
  1
0,5
  7
SLDTEXTSTYLE0
 73
     1
 44
1.0
  0
MTEXT
  5
C5
330
BE
100
AcDbEntity
  8
0
  6
Continuous
 62
     0
370
     0
100
AcDbMText
 10
0.0
 20
-11.42186495258974
 30
0.0
 40
2.0
 41
0.0
 71
     1
 72
     1
  1
%%p
  7
SLDTEXTSTYLE0
 73
     1
 44
1.0
  0
MTEXT
  5
C6
330
BE
100
AcDbEntity
  8
0
  6
Continuous
 62
     0
370
     0
100
AcDbMText
 10
1.841666758991778
 20
-11.42186495258974
 30
0.0
 40
2.0
 41
0.0
 71
     1
 72
     1
  1
1,2
  7
SLDTEXTSTYLE0
 73
     1
 44
1.0
  0
MTEXT
  5
C7
330
BE
100
AcDbEntity
  8
0
  6
Continuous
 62
     0
370
     0
100
AcDbMText
 10
0.0
 20
-14.92186506062316
 30
0.0
 40
2.0
 41
0.0
 71
     1
 72
     1
  1
%%p
  7
SLDTEXTSTYLE0
 73
     1
 44
1.0
  0
MTEXT
  5
C8
330
BE
100
AcDbEntity
  8
0
  6
Continuous
 62
     0
370
     0
100
AcDbMText
 10
1.841666758991778
 20
-14.92186506062316
 30
0.0
 40
2.0
 41
0.0
 71
     1
 72
     1
  1
3
  7
SLDTEXTSTYLE0
 73
     1
 44
1.0
  0
ENDBLK
  5
C0
330
BE
100
AcDbEntity
  8
0
100
AcDbBlockEnd
  0
BLOCK
  5
CB
330
CA
100
AcDbEntity
  8
0
100
AcDbBlockBegin
  2
SW_NOTE_9
 70
     0
 10
0.0
 20
0.0
 30
0.0
  3
SW_NOTE_9
  1
SW_NOTE_9
  0
MTEXT
  5
CD
330
CA
100
AcDbEntity
  8
0
  6
Continuous
 62
     0
370
     0
100
AcDbMText
 10
1.5
 20
2.578135479543931
 30
0.0
 40
2.0
 41
0.0
 71
     1
 72
     1
  1
>2000
  7
SLDTEXTSTYLE0
 73
     1
 44
1.0
  0
MTEXT
  5
CE
330
CA
100
AcDbEntity
  8
0
  6
Continuous
 62
     0
370
     0
100
AcDbMText
 10
0.0
 20
-0.9218646284894876
 30
0.0
 40
2.0
 41
0.0
 71
     1
 72
     1
  1
=<4000
  7
SLDTEXTSTYLE0
 73
     1
 44
1.0
  0
MTEXT
  5
CF
330
CA
100
AcDbEntity
  8
0
  6
Continuous
 62
     0
370
     0
100
AcDbMText
 10
2.999999999999999
 20
-7.921864844556325
 30
0.0
 40
2.0
 41
0.0
 71
     1
 72
     1
  1
-
  7
SLDTEXTSTYLE0
 73
     1
 44
1.0
  0
MTEXT
  5
D0
330
CA
100
AcDbEntity
  8
0
  6
Continuous
 62
     0
370
     0
100
AcDbMText
 10
0.0
 20
-11.42186495258974
 30
0.0
 40
2.0
 41
0.0
 71
     1
 72
     1
  1
%%p
  7
SLDTEXTSTYLE0
 73
     1
 44
1.0
  0
MTEXT
  5
D1
330
CA
100
AcDbEntity
  8
0
  6
Continuous
 62
     0
370
     0
100
AcDbMText
 10
1.841666758991778
 20
-11.42186495258974
 30
0.0
 40
2.0
 41
0.0
 71
     1
 72
     1
  1
2,0
  7
SLDTEXTSTYLE0
 73
     1
 44
1.0
  0
MTEXT
  5
D2
330
CA
100
AcDbEntity
  8
0
  6
Continuous
 62
     0
370
     0
100
AcDbMText
 10
0.0
 20
-14.92186506062316
 30
0.0
 40
2.0
 41
0.0
 71
     1
 72
     1
  1
%%p
  7
SLDTEXTSTYLE0
 73
     1
 44
1.0
  0
MTEXT
  5
D3
330
CA
100
AcDbEntity
  8
0
  6
Continuous
 62
     0
370
     0
100
AcDbMText
 10
1.841666758991778
 20
-14.92186506062316
 30
0.0
 40
2.0
 41
0.0
 71
     1
 72
     1
  1
4
  7
SLDTEXTSTYLE0
 73
     1
 44
1.0
  0
ENDBLK
  5
CC
330
CA
100
AcDbEntity
  8
0
100
AcDbBlockEnd
  0
ENDSEC
  0
SECTION
  2
ENTITIES
  0
ARC
  5
D5
330
1F
100
AcDbEntity
  8
0
  6
Continuous
 62
     7
370
    15
100
AcDbCircle
 10
1122.845454545455
 20
542.0350868081943
 30
0.0
 40
25.0
100
AcDbArc
 50
0.0
 51
90.00000000000053
  0
ARC
  5
D6
330
1F
100
AcDbEntity
  8
0
  6
Continuous
 62
     7
370
    15
100
AcDbCircle
 10
1002.845454545455
 20
542.0350868081943
 30
0.0
 40
24.99999999999989
100
AcDbArc
 50
90.0
 51
180.0
  0
ARC
  5
D7
330
1F
100
AcDbEntity
  8
0
  6
Continuous
 62
     7
370
    15
100
AcDbCircle
 10
1002.845454545455
 20
252.0350868081942
 30
0.0
 40
24.99999999999997
100
AcDbArc
 50
180.0
 51
270.0000000000008
  0
LINE
  5
D8
330
1F
100
AcDbEntity
  8
0
  6
Continuous
 62
     7
370
    15
100
AcDbLine
 10
1122.845454861342
 20
567.0350887667179
 30
0.0
 11
1002.845457543551
 21
567.0350887667179
 31
0.0
  0
LINE
  5
D9
330
1F
100
AcDbEntity
  8
0
  6
Continuous
 62
     7
370
    15
100
AcDbLine
 10
1147.845453371226
 20
252.0350911509038
 30
0.0
 11
1147.845453371226
 21
542.035090256834
 31
0.0
  0
LINE
  5
DA
330
1F
100
AcDbEntity
  8
0
  6
Continuous
 62
     7
370
    15
100
AcDbLine
 10
977.845451583087
 20
542.035090256834
 30
0.0
 11
977.845451583087
 21
252.0350911509038
 31
0.0
  0
LINE
  5
DB
330
1F
100
AcDbEntity
  8
0
  6
Continuous
 62
     7
370
    15
100
AcDbLine
 10
1002.845457543551
 20
227.0350851904393
 30
0.0
 11
1122.845454861342
 21
227.0350851904393
 31
0.0
  0
ARC
  5
DC
330
1F
100
AcDbEntity
  8
0
  6
Continuous
 62
     7
370
    15
100
AcDbCircle
 10
1122.845454545455
 20
252.0350868081942
 30
0.0
 40
25.0
100
AcDbArc
 50
270.0000000000008
 51
0.0000000000001303
  0
LINE
  5
DD
330
1F
100
AcDbEntity
  8
0
  6
Continuous
 62
     7
370
    15
100
AcDbLine
 10
1002.845457543551
 20
227.0350851904393
 30
0.0
 11
1002.845457543551
 21
228.9822050224782
 31
0.0
  0
SPLINE
  5
DE
330
1F
100
AcDbEntity
  8
0
  6
Continuous
 62
     7
370
    15
100
AcDbSpline
210
0.0
220
0.0
230
1.0
 70
     8
 71
     3
 72
    12
 73
     8
 74
     0
 42
0.000000001
 43
0.00000001
 40
0.0
 40
0.0
 40
0.0
 40
0.0
 40
0.2046389146748268
 40
0.4030902121380977
 40
0.5969070264037097
 40
0.7953569403663402
 40
1.0
 40
1.0
 40
1.0
 40
1.0
 10
1122.845454861342
 20
228.9822050224782
 30
0.0
 10
1114.660698765671
 20
228.9988705371046
 30
0.0
 10
1098.538667058527
 20
229.0316976552353
 30
0.0
 10
1074.661011739212
 20
229.0541781231884
 30
0.0
 10
1051.030287332586
 20
229.0541783092267
 30
0.0
 10
1027.152521520234
 20
229.0316970511248
 30
0.0
 10
1011.030379402574
 20
228.9988704818486
 30
0.0
 10
1002.845457543551
 20
228.9822050224782
 30
0.0
  0
LINE
  5
DF
330
1F
100
AcDbEntity
  8
0
  6
Continuous
 62
     7
370
    15
100
AcDbLine
 10
1122.845454861342
 20
227.0350851904393
 30
0.0
 11
1122.845454861342
 21
228.9822795282842
 31
0.0
  0
LINE
  5
E0
330
1F
100
AcDbEntity
  8
0
  6
Continuous
 62
     7
370
    15
100
AcDbLine
 10
1147.845453371226
 20
542.035090256834
 30
0.0
 11
1145.88813369435
 21
542.035090256834
 31
0.0
  0
SPLINE
  5
E1
330
1F
100
AcDbEntity
  8
0
  6
Continuous
 62
     7
370
    15
100
AcDbSpline
210
0.0
220
0.0
230
1.0
 70
     8
 71
     3
 72
    15
 73
    11
 74
     0
 42
0.000000001
 43
0.00000001
 40
0.0
 40
0.0
 40
0.0
 40
0.0
 40
0.1129274782085487
 40
0.2293125396562327
 40
0.349151391761576
 40
0.4724400127031347
 40
0.5991740495013943
 40
0.7293488586509339
 40
0.8629593306040606
 40
1.0
 40
1.0
 40
1.0
 40
1.0
 10
1122.845454861342
 20
565.087968934679
 30
0.0
 10
1124.207999941599
 20
565.0182430673466
 30
0.0
 10
1126.974808141925
 20
564.8766564847772
 30
0.0
 10
1131.053834289894
 20
563.7109113394365
 30
0.0
 10
1134.969991666926
 20
561.8109030681779
 30
0.0
 10
1138.55204388524
 20
559.1103463045454
 30
0.0
 10
1141.628073047805
 20
555.6718172904716
 30
0.0
 10
1143.996760590611
 20
551.5761909435253
 30
0.0
 10
1145.585027719227
 20
546.9574262857612
 30
0.0
 10
1145.786243342025
 20
543.689673956132
 30
0.0
 10
1145.88812624377
 20
542.035090256834
 30
0.0
  0
LINE
  5
E2
330
1F
100
AcDbEntity
  8
0
  6
Continuous
 62
     7
370
    15
100
AcDbLine
 10
1122.845454861342
 20
567.0350887667179
 30
0.0
 11
1122.845454861342
 21
565.087968934679
 31
0.0
  0
LINE
  5
E3
330
1F
100
AcDbEntity
  8
0
  6
Continuous
 62
     7
370
    15
100
AcDbLine
 10
1002.845457543551
 20
567.0350887667179
 30
0.0
 11
1002.845457543551
 21
565.0878273736477
 31
0.0
  0
SPLINE
  5
E4
330
1F
100
AcDbEntity
  8
0
  6
Continuous
 62
     7
370
    15
100
AcDbSpline
210
0.0
220
0.0
230
1.0
 70
     8
 71
     3
 72
    15
 73
    11
 74
     0
 42
0.000000001
 43
0.00000001
 40
0.0
 40
0.0
 40
0.0
 40
0.0
 40
0.1370429758193443
 40
0.2706551927048021
 40
0.4008309671520872
 40
0.5275654389828996
 40
0.650853674821825
 40
0.7706915997783879
 40
0.8870749304116029
 40
1.0
 40
1.0
 40
1.0
 40
1.0
 10
979.8027787105436
 20
542.035090256834
 30
0.0
 10
979.9046666565408
 20
543.6897020027069
 30
0.0
 10
980.1058918670509
 20
546.9575036412322
 30
0.0
 10
981.694206195915
 20
551.576318202928
 30
0.0
 10
984.0629373832425
 20
555.6719643273161
 30
0.0
 10
987.1390078779282
 20
559.1104748098146
 30
0.0
 10
990.7210740871654
 20
561.8109935173271
 30
0.0
 10
994.637207049788
 20
563.7109701147714
 30
0.0
 10
998.7161840125012
 20
564.8766615642265
 30
0.0
 10
1001.482941770029
 20
565.0182448965066
 30
0.0
 10
1002.845457543551
 20
565.087968934679
 30
0.0
  0
LINE
  5
E5
330
1F
100
AcDbEntity
  8
0
  6
Continuous
 62
     7
370
    15
100
AcDbLine
 10
977.845451583087
 20
542.035090256834
 30
0.0
 11
979.8027787105436
 21
542.035090256834
 31
0.0
  0
SPLINE
  5
E6
330
1F
100
AcDbEntity
  8
0
  6
Continuous
 62
     7
370
    15
100
AcDbSpline
210
0.0
220
0.0
230
1.0
 70
     8
 71
     3
 72
    11
 73
     7
 74
     0
 42
0.000000001
 43
0.00000001
 40
0.0
 40
0.0
 40
0.0
 40
0.0
 40
0.2499425268303905
 40
0.4998839676938879
 40
0.7499414491308662
 40
1.0
 40
1.0
 40
1.0
 40
1.0
 10
1002.845457543551
 20
565.087968934679
 30
0.0
 10
1012.842288376457
 20
565.0680868437695
 30
0.0
 10
1032.835906607372
 20
565.0283227483352
 30
0.0
 10
1062.836172707402
 20
565.0109447874504
 30
0.0
 10
1092.841082492222
 20
565.0283017386236
 30
0.0
 10
1112.843983147114
 20
565.0680798409738
 30
0.0
 10
1122.845454861342
 20
565.087968934679
 30
0.0
  0
LINE
  5
E7
330
1F
100
AcDbEntity
  8
0
  6
Continuous
 62
     7
370
    15
100
AcDbLine
 10
1147.845453371226
 20
252.0350911509038
 30
0.0
 11
1145.88812624377
 21
252.0350911509038
 31
0.0
  0
SPLINE
  5
E8
330
1F
100
AcDbEntity
  8
0
  6
Continuous
 62
     7
370
    15
100
AcDbSpline
210
0.0
220
0.0
230
1.0
 70
     8
 71
     3
 72
    23
 73
    19
 74
     0
 42
0.000000001
 43
0.00000001
 40
0.0
 40
0.0
 40
0.0
 40
0.0
 40
0.0569686343272107
 40
0.1176844720576494
 40
0.1821503042428036
 40
0.2499422139120805
 40
0.2955170260887285
 40
0.3394545715278011
 40
0.3905454582695452
 40
0.4487898259085822
 40
0.5133944563287485
 40
0.5741292815795384
 40
0.6412346160107877
 40
0.6985479326722759
 40
0.7460691888702683
 40
0.8109229733056242
 40
0.9095853416533374
 40
1.0
 40
1.0
 40
1.0
 40
1.0
 10
1144.922218074023
 20
366.3648539077283
 30
0.0
 10
1144.936545370121
 20
364.1910002433502
 30
0.0
 10
1144.966142363225
 20
359.7003041990407
 30
0.0
 10
1145.019878601531
 20
352.7531694774995
 30
0.0
 10
1145.081627104551
 20
345.3959303735825
 30
0.0
 10
1145.142634701258
 20
338.6184944528957
 30
0.0
 10
1145.199438711739
 20
332.6254598770931
 30
0.0
 10
1145.251192491645
 20
327.2696068168385
 30
0.0
 10
1145.308014480666
 20
321.4317611709795
 30
0.0
 10
1145.372510443505
 20
314.8072629854284
 30
0.0
 10
1145.440548333403
 20
307.816074093904
 30
0.0
 10
1145.510380235888
 20
300.4871307177685
 30
0.0
 10
1145.575676700649
 20
293.4352301357984
 30
0.0
 10
1145.634287906991
 20
286.8857932216781
 30
0.0
 10
1145.689815335078
 20
280.4210034024684
 30
0.0
 10
1145.754264182891
 20
272.3784472961979
 30
0.0
 10
1145.825224661956
 20
262.697745366017
 30
0.0
 10
1145.867777785001
 20
255.4844253870422
 30
0.0
 10
1145.88812624377
 20
252.0350911509037
 30
0.0
  0
SPLINE
  5
E9
330
1F
100
AcDbEntity
  8
0
  6
Continuous
 62
     7
370
    15
100
AcDbSpline
210
0.0
220
0.0
230
1.0
 70
     8
 71
     3
 72
    18
 73
    14
 74
     0
 42
0.000000001
 43
0.00000001
 40
0.0
 40
0.0
 40
0.0
 40
0.0
 40
0.0898439656403781
 40
0.1868102141312312
 40
0.2832836224574136
 40
0.3809347316555987
 40
0.4700751617461432
 40
0.5507682750373795
 40
0.6357416332078025
 40
0.7331195720241737
 40
0.8239183945276985
 40
0.912062581757629
 40
1.0
 40
1.0
 40
1.0
 40
1.0
 10
1144.921480466544
 20
427.7020604204179
 30
0.0
 10
1144.905988558384
 20
425.8624928126228
 30
0.0
 10
1144.873776637862
 20
422.0375278717761
 30
0.0
 10
1144.793270548278
 20
416.2563924434497
 30
0.0
 10
1144.700008566402
 20
410.3246984088824
 30
0.0
 10
1144.631211491419
 20
404.533833032273
 30
0.0
 10
1144.596762175918
 20
399.0498314059098
 30
0.0
 10
1144.60269505512
 20
393.8201291902728
 30
0.0
 10
1144.645919506017
 20
388.4312568808079
 30
0.0
 10
1144.715821941029
 20
382.8502673265417
 30
0.0
 10
1144.797895283315
 20
377.2145572078854
 30
0.0
 10
1144.879214326568
 20
371.7723573227786
 30
0.0
 10
1144.907546887891
 20
368.1658142063512
 30
0.0
 10
1144.921696533381
 20
366.3646601926328
 30
0.0
  0
SPLINE
  5
EA
330
1F
100
AcDbEntity
  8
0
  6
Continuous
 62
     7
370
    15
100
AcDbSpline
210
0.0
220
0.0
230
1.0
 70
     8
 71
     3
 72
    24
 73
    20
 74
     0
 42
0.000000001
 43
0.00000001
 40
0.0
 40
0.0
 40
0.0
 40
0.0
 40
0.0576439579925696
 40
0.118752035636892
 40
0.1833264648111834
 40
0.2509879554365741
 40
0.2987502326930326
 40
0.3434079511402053
 40
0.3943404150616809
 40
0.4515477057864148
 40
0.5151769135152883
 40
0.5774418866956879
 40
0.6325644721919474
 40
0.6805447552128163
 40
0.7213828025269458
 40
0.7585782404615601
 40
0.8121133285331716
 40
0.9105240110516043
 40
1.0
 40
1.0
 40
1.0
 40
1.0
 10
1145.88812624377
 20
542.035090256834
 30
0.0
 10
1145.875441689934
 20
539.8357688082458
 30
0.0
 10
1145.84931030268
 20
535.3049574598404
 30
0.0
 10
1145.802353775827
 20
528.3135650000316
 30
0.0
 10
1145.748226363904
 20
520.9425259563923
 30
0.0
 10
1145.693371658957
 20
514.0825713727994
 30
0.0
 10
1145.64117226141
 20
507.9835051008315
 30
0.0
 10
1145.592587825006
 20
502.5227004994077
 30
0.0
 10
1145.539332635732
 20
496.702727805433
 30
0.0
 10
1145.477904876586
 20
490.1606759398763
 30
0.0
 10
1145.410597759001
 20
483.1876435571855
 30
0.0
 10
1145.343473891062
 20
476.2937402736169
 30
0.0
 10
1145.28209612288
 20
469.995334992775
 30
0.0
 10
1145.228845379119
 20
464.5125167337299
 30
0.0
 10
1145.182691063836
 20
459.7120017151808
 30
0.0
 10
1145.135693581496
 20
454.6989116625084
 30
0.0
 10
1145.071034157323
 20
447.4901865782689
 30
0.0
 10
1144.993480018461
 20
438.2853744500576
 30
0.0
 10
1144.945035267732
 20
431.1160716681724
 30
0.0
 10
1144.921964754283
 20
427.7018834691287
 30
0.0
  0
SPLINE
  5
EB
330
1F
100
AcDbEntity
  8
0
  6
Continuous
 62
     7
370
    15
100
AcDbSpline
210
0.0
220
0.0
230
1.0
 70
     8
 71
     3
 72
    23
 73
    19
 74
     0
 42
0.000000001
 43
0.00000001
 40
0.0
 40
0.0
 40
0.0
 40
0.0
 40
0.05695387525184
 40
0.1176587060488987
 40
0.1821172371500146
 40
0.2499061043459109
 40
0.2955028744599657
 40
0.339446937029363
 40
0.3905350079992176
 40
0.4487671626720679
 40
0.5133595476154873
 40
0.5741084424985208
 40
0.6412230916389554
 40
0.6985362261251568
 40
0.7460480627158781
 40
0.8109074709117653
 40
0.9095790270736323
 40
1.0
 40
1.0
 40
1.0
 40
1.0
 10
980.7689476506109
 20
427.7018834691287
 30
0.0
 10
980.7546287445846
 20
429.8752444067651
 30
0.0
 10
980.7250478960882
 20
434.3651028153249
 30
0.0
 10
980.6713153818952
 20
441.3111956143337
 30
0.0
 10
980.6095684144489
 20
448.6678483680166
 30
0.0
 10
980.5485431568695
 20
455.4459314614488
 30
0.0
 10
980.4917012094546
 20
461.4401138375868
 30
0.0
 10
980.4399242968785
 20
466.7971036700272
 30
0.0
 10
980.3830870444689
 20
472.6347978458166
 30
0.0
 10
980.3185786156637
 20
479.2584522368212
 30
0.0
 10
980.2505296996709
 20
486.2494502521787
 30
0.0
 10
980.1806573186086
 20
493.5790320853721
 30
0.0
 10
980.1153301103722
 20
500.6320230279443
 30
0.0
 10
980.0566954752031
 20
507.1816409738373
 30
0.0
 10
980.0011490086249
 20
513.6464697642964
 30
0.0
 10
979.9366818609469
 20
521.6894716733227
 30
0.0
 10
979.8656934859937
 20
531.3712720920171
 30
0.0
 10
979.8231312701397
 20
538.5854078385506
 30
0.0
 10
979.8027787105436
 20
542.035090256834
 30
0.0
  0
SPLINE
  5
EC
330
1F
100
AcDbEntity
  8
0
  6
Continuous
 62
     7
370
    15
100
AcDbSpline
210
0.0
220
0.0
230
1.0
 70
     8
 71
     3
 72
    18
 73
    14
 74
     0
 42
0.000000001
 43
0.00000001
 40
0.0
 40
0.0
 40
0.0
 40
0.0
 40
0.0898927465309761
 40
0.186938698529378
 40
0.2834602267361329
 40
0.3811333989323178
 40
0.4703095280902089
 40
0.5509927487323439
 40
0.6359363044231429
 40
0.7332943061603558
 40
0.8240390569709847
 40
0.9121113851711135
 40
1.0
 40
1.0
 40
1.0
 40
1.0
 10
980.7692084209318
 20
366.3646601926328
 30
0.0
 10
980.7847200634664
 20
368.2052227456698
 30
0.0
 10
980.8169776857925
 20
372.0328104154725
 30
0.0
 10
980.8975596947328
 20
377.8175152030486
 30
0.0
 10
980.9909221941833
 20
383.7522307828282
 30
0.0
 10
981.0597415352928
 20
389.5452629639416
 30
0.0
 10
981.0941593151922
 20
395.0302619030323
 30
0.0
 10
981.0881814115812
 20
400.2598782834444
 30
0.0
 10
981.0449590966391
 20
405.6475156350804
 30
0.0
 10
980.9750784619922
 20
411.2263877288775
 30
0.0
 10
980.8930760604868
 20
416.859146765662
 30
0.0
 10
980.8118688349053
 20
422.2978271496542
 30
0.0
 10
980.7835627524204
 20
425.9019036180502
 30
0.0
 10
980.7694244877691
 20
427.7020604204179
 30
0.0
  0
SPLINE
  5
ED
330
1F
100
AcDbEntity
  8
0
  6
Continuous
 62
     7
370
    15
100
AcDbSpline
210
0.0
220
0.0
230
1.0
 70
     8
 71
     3
 72
    24
 73
    20
 74
     0
 42
0.000000001
 43
0.00000001
 40
0.0
 40
0.0
 40
0.0
 40
0.0
 40
0.0576402161406874
 40
0.1187433302326392
 40
0.183311505913239
 40
0.2509658281044334
 40
0.2987382175427567
 40
0.3433972145053044
 40
0.3943249114765323
 40
0.4515215189953632
 40
0.5151431654750187
 40
0.5774257153970516
 40
0.6325564469310375
 40
0.6805354223969143
 40
0.7213628625572563
 40
0.7585419037279388
 40
0.8120798011769003
 40
0.9105027649165711
 40
1.0
 40
1.0
 40
1.0
 40
1.0
 10
979.8027787105436
 20
252.0350911509038
 30
0.0
 10
979.8154645211249
 20
254.2342012989521
 30
0.0
 10
979.8415982780047
 20
258.7645393166009
 30
0.0
 10
979.8885332615433
 20
265.7551471046993
 30
0.0
 10
979.9426524799654
 20
273.1252620805098
 30
0.0
 10
979.9974809361811
 20
279.9848856667294
 30
0.0
 10
980.0496633381346
 20
286.0839328626323
 30
0.0
 10
980.0982317160292
 20
291.5448296107567
 30
0.0
 10
980.1514667709152
 20
297.3640919573186
 30
0.0
 10
980.2128589361002
 20
303.9050760536326
 30
0.0
 10
980.2801348320697
 20
310.8778790759341
 30
0.0
 10
980.3472519787989
 20
317.772271667997
 30
0.0
 10
980.4086130049345
 20
324.0714211936715
 30
0.0
 10
980.4618385627982
 20
329.5539333460916
 30
0.0
 10
980.507974782137
 20
334.3532266251722
 30
0.0
 10
980.5549479176016
 20
339.3652451479344
 30
0.0
 10
980.6195839502152
 20
346.5737026013187
 30
0.0
 10
980.6971399253899
 20
355.7796148905391
 30
0.0
 10
980.7456052211743
 20
362.9499653356753
 30
0.0
 10
980.76868688029
 20
366.3648539077283
 30
0.0
  0
LINE
  5
EE
330
1F
100
AcDbEntity
  8
0
  6
Continuous
 62
     7
370
    15
100
AcDbLine
 10
977.845451583087
 20
252.0350911509038
 30
0.0
 11
979.8027787105436
 21
252.0350911509038
 31
0.0
  0
SPLINE
  5
EF
330
1F
100
AcDbEntity
  8
0
  6
Continuous
 62
     7
370
    15
100
AcDbSpline
210
0.0
220
0.0
230
1.0
 70
     8
 71
     3
 72
    15
 73
    11
 74
     0
 42
0.000000001
 43
0.00000001
 40
0.0
 40
0.0
 40
0.0
 40
0.0
 40
0.1129231566434236
 40
0.2293050464049973
 40
0.3491422085096064
 40
0.4724299576472489
 40
0.599164638772495
 40
0.7293415363862025
 40
0.8629547609226151
 40
1.0
 40
1.0
 40
1.0
 40
1.0
 10
1002.845457543551
 20
228.9822050224782
 30
0.0
 10
1001.482964525391
 20
229.0519256494817
 30
0.0
 10
998.7162465727368
 20
229.1935023825951
 30
0.0
 10
994.637311669325
 20
230.3591621810794
 30
0.0
 10
990.7212009040729
 20
232.2591109270683
 30
0.0
 10
987.1391206017029
 20
234.9595907308473
 30
0.0
 10
984.0630195294716
 20
238.3980902287903
 30
0.0
 10
981.6942490845524
 20
242.4937480492695
 30
0.0
 10
980.105898201481
 20
247.1126091799402
 30
0.0
 10
979.9046690854171
 20
250.380451484617
 30
0.0
 10
979.8027787105436
 20
252.0350911509038
 30
0.0
  0
SPLINE
  5
F0
330
1F
100
AcDbEntity
  8
0
  6
Continuous
 62
     7
370
    15
100
AcDbSpline
210
0.0
220
0.0
230
1.0
 70
     8
 71
     3
 72
    15
 73
    11
 74
     0
 42
0.000000001
 43
0.00000001
 40
0.0
 40
0.0
 40
0.0
 40
0.0
 40
0.1370473559408446
 40
0.270662101409017
 40
0.4008395399094756
 40
0.5275744847002745
 40
0.6508623365662601
 40
0.7706985137866681
 40
0.8870789132348637
 40
0.9999999999999999
 40
0.9999999999999999
 40
0.9999999999999999
 40
0.9999999999999999
 10
1145.88812624377
 20
252.0350911509038
 30
0.0
 10
1145.786233189232
 20
250.3804260863604
 30
0.0
 10
1145.584999184601
 20
247.1125401762468
 30
0.0
 10
1143.996611389478
 20
242.4936372669146
 30
0.0
 10
1141.627798423095
 20
238.3979714445819
 30
0.0
 10
1138.551663605212
 20
234.9594903279142
 30
0.0
 10
1134.969582925818
 20
232.2590236747113
 30
0.0
 10
1131.053480353465
 20
230.3591248319927
 30
0.0
 10
1126.974597698692
 20
229.1934915861794
 30
0.0
 10
1124.207922838086
 20
229.0519219560642
 30
0.0
 10
1122.845454861342
 20
228.9822050224782
 30
0.0
  0
SPLINE
  5
F1
330
1F
100
AcDbEntity
  8
0
  6
Continuous
 62
     7
370
    15
100
AcDbSpline
210
0.0
220
0.0
230
1.0
 70
     8
 71
     3
 72
     9
 73
     5
 74
     0
 42
0.000000001
 43
0.00000001
 40
0.0
 40
0.0
 40
0.0
 40
0.0
 40
0.4998997118142078
 40
1.0
 40
1.0
 40
1.0
 40
1.0
 10
1123.238327701509
 20
546.1733736883641
 30
0.0
 10
1103.111408338979
 20
546.1781265232898
 30
0.0
 10
1062.849494025235
 20
546.1876341001366
 30
0.0
 10
1022.587577190206
 20
546.178127794535
 30
0.0
 10
1002.452580978095
 20
546.173373688364
 30
0.0
  0
SPLINE
  5
F2
330
1F
100
AcDbEntity
  8
0
  6
Continuous
 62
     7
370
    15
100
AcDbSpline
210
0.0
220
0.0
230
1.0
 70
     8
 71
     3
 72
    15
 73
    11
 74
     0
 42
0.000000001
 43
0.00000001
 40
0.0
 40
0.0
 40
0.0
 40
0.0
 40
0.125000066585094
 40
0.250000072351829
 40
0.3750000779192607
 40
0.4999999493330599
 40
0.624999917170366
 40
0.749999988223326
 40
0.8749999834786881
 40
1.0
 40
1.0
 40
1.0
 40
1.0
 10
1002.452580978095
 20
546.173373688364
 30
0.0
 10
1002.45740851711
 20
547.3481351365913
 30
0.0
 10
1002.46706359279
 20
549.6976574614695
 30
0.0
 10
1002.496619140349
 20
553.0735503225648
 30
0.0
 10
1002.536201567072
 20
556.2062978863602
 30
0.0
 10
1002.58564702726
 20
558.9943171790718
 30
0.0
 10
1002.643147130652
 20
561.3554266859409
 30
0.0
 10
1002.706979331704
 20
563.2006327872116
 30
0.0
 10
1002.775113320492
 20
564.5288847873329
 30
0.0
 10
1002.822009467869
 20
564.901607541662
 30
0.0
 10
1002.845457543551
 20
565.087968934679
 30
0.0
  0
SPLINE
  5
F3
330
1F
100
AcDbEntity
  8
0
  6
Continuous
 62
     7
370
    15
100
AcDbSpline
210
0.0
220
0.0
230
1.0
 70
     8
 71
     3
 72
    15
 73
    11
 74
     0
 42
0.000000001
 43
0.00000001
 40
0.0
 40
0.0
 40
0.0
 40
0.0
 40
0.125000066246051
 40
0.2500000744510004
 40
0.3750000773618216
 40
0.4999999527384498
 40
0.6249999187360097
 40
0.7499999877148625
 40
0.8749999857946656
 40
1.0
 40
1.0
 40
1.0
 40
1.0
 10
1123.238327701509
 20
546.173373688364
 30
0.0
 10
1123.233502872559
 20
547.3481351474204
 30
0.0
 10
1123.223853216899
 20
549.6976575200576
 30
0.0
 10
1123.194279369919
 20
553.0735502212067
 30
0.0
 10
1123.15471731041
 20
556.206298004008
 30
0.0
 10
1123.105253377702
 20
558.9943170899296
 30
0.0
 10
1123.047762102851
 20
561.3554266937361
 30
0.0
 10
1122.983935407278
 20
563.2006328235406
 30
0.0
 10
1122.915792914383
 20
564.528884759951
 30
0.0
 10
1122.868900880031
 20
564.9016075350892
 30
0.0
 10
1122.845454861342
 20
565.087968934679
 30
0.0
  0
SPLINE
  5
F4
330
1F
100
AcDbEntity
  8
0
  6
Continuous
 62
     7
370
    15
100
AcDbSpline
210
0.0
220
0.0
230
1.0
 70
     8
 71
     3
 72
    11
 73
     7
 74
     0
 42
0.000000001
 43
0.00000001
 40
0.0
 40
0.0
 40
0.0
 40
0.0
 40
0.253215892960414
 40
0.5064267750497838
 40
0.7537829221055531
 40
1.0
 40
1.0
 40
1.0
 40
1.0
 10
1002.452580978095
 20
546.173373688364
 30
0.0
 10
1002.027830711146
 20
546.1292047650346
 30
0.0
 10
1001.178338582601
 20
546.0408677924312
 30
0.0
 10
1000.137314036818
 20
545.2736355975085
 30
0.0
 10
999.3921387160168
 20
544.2344136982545
 30
0.0
 10
999.3099631842407
 20
543.4073183338486
 30
0.0
 10
999.2689702407713
 20
542.9947250377178
 30
0.0
  0
SPLINE
  5
F5
330
1F
100
AcDbEntity
  8
0
  6
Continuous
 62
     7
370
    15
100
AcDbSpline
210
0.0
220
0.0
230
1.0
 70
     8
 71
     3
 72
    15
 73
    11
 74
     0
 42
0.000000001
 43
0.00000001
 40
0.0
 40
0.0
 40
0.0
 40
0.0
 40
0.1178530459927701
 40
0.2416255421974878
 40
0.3696846866103518
 40
0.4999999314332884
 40
0.630315225730804
 40
0.7583743581788569
 40
0.8821470109891688
 40
1.0
 40
1.0
 40
1.0
 40
1.0
 10
979.8027787105436
 20
542.0350902568341
 30
0.0
 10
979.9799921574595
 20
542.0899050039218
 30
0.0
 10
980.3433200191621
 20
542.2022876994548
 30
0.0
 10
981.6578392226087
 20
542.3691849751632
 30
0.0
 10
983.5718499956553
 20
542.5306771928849
 30
0.0
 10
986.0914979204452
 20
542.677706154654
 30
0.0
 10
989.0839322384488
 20
542.8024037605234
 30
0.0
 10
992.3883756414942
 20
542.8981782014508
 30
0.0
 10
995.8173504324967
 20
542.9651172497486
 30
0.0
 10
998.137376659276
 20
542.9850182957563
 30
0.0
 10
999.2689702407713
 20
542.9947250377178
 30
0.0
  0
SPLINE
  5
F6
330
1F
100
AcDbEntity
  8
0
  6
Continuous
 62
     7
370
    15
100
AcDbSpline
210
0.0
220
0.0
230
1.0
 70
     8
 71
     3
 72
    15
 73
    11
 74
     0
 42
0.000000001
 43
0.00000001
 40
0.0
 40
0.0
 40
0.0
 40
0.0
 40
0.1181237559355081
 40
0.2419505597739521
 40
0.3698940261986778
 40
0.5000000559309857
 40
0.6301060654616033
 40
0.7580494160342945
 40
0.8818762913162883
 40
1.0
 40
1.0
 40
1.0
 40
1.0
 10
1122.845454861342
 20
228.9822050224782
 30
0.0
 10
1122.86760710771
 20
229.1553262340038
 30
0.0
 10
1122.912981117082
 20
229.5099269974627
 30
0.0
 10
1122.980381348333
 20
230.784067671259
 30
0.0
 10
1123.045673963399
 20
232.6348444445933
 30
0.0
 10
1123.105369303031
 20
235.0698612913575
 30
0.0
 10
1123.156390134168
 20
237.9651988183313
 30
0.0
 10
1123.19614656604
 20
241.1719527932122
 30
0.0
 10
1123.224607027962
 20
244.5129202293177
 30
0.0
 10
1123.233826583606
 20
246.7867058572691
 30
0.0
 10
1123.238327701509
 20
247.8968002687932
 30
0.0
  0
SPLINE
  5
F7
330
1F
100
AcDbEntity
  8
0
  6
Continuous
 62
     7
370
    15
100
AcDbSpline
210
0.0
220
0.0
230
1.0
 70
     8
 71
     3
 72
    11
 73
     7
 74
     0
 42
0.000000001
 43
0.00000001
 40
0.0
 40
0.0
 40
0.0
 40
0.0
 40
0.2532150714434225
 40
0.50642626568358
 40
0.7537802277378781
 40
0.9999999999999999
 40
0.9999999999999999
 40
0.9999999999999999
 40
0.9999999999999999
 10
1123.238327701509
 20
247.8968002687932
 30
0.0
 10
1123.66307840069
 20
247.9409656225496
 30
0.0
 10
1124.512573295314
 20
248.0292956538069
 30
0.0
 10
1125.553590563987
 20
248.7965377903043
 30
0.0
 10
1126.298768792429
 20
249.8357595925375
 30
0.0
 10
1126.380947319943
 20
250.6628576441437
 30
0.0
 10
1126.421942164123
 20
251.0754563700199
 30
0.0
  0
SPLINE
  5
F8
330
1F
100
AcDbEntity
  8
0
  6
Continuous
 62
     7
370
    15
100
AcDbSpline
210
0.0
220
0.0
230
1.0
 70
     8
 71
     3
 72
    15
 73
    11
 74
     0
 42
0.000000001
 43
0.00000001
 40
0.0
 40
0.0
 40
0.0
 40
0.0
 40
0.1178529946053763
 40
0.2416255440446709
 40
0.3696846815860504
 40
0.4999998762554153
 40
0.6303153166365723
 40
0.7583744842041287
 40
0.8821469676621455
 40
0.9999999999999999
 40
0.9999999999999999
 40
0.9999999999999999
 40
0.9999999999999999
 10
1126.421942164123
 20
251.07545637002
 30
0.0
 10
1127.553535841365
 20
251.0851551352137
 30
0.0
 10
1129.873561215491
 20
251.1050398180286
 30
0.0
 10
1133.302533491621
 20
251.1720118764701
 30
0.0
 10
1136.606976515427
 20
251.267768505817
 30
0.0
 10
1139.599407178127
 20
251.3924576174382
 30
0.0
 10
1142.119063241088
 20
251.5394950171045
 30
0.0
 10
1144.03307191858
 20
251.7010050328645
 30
0.0
 10
1145.347594609741
 20
251.8678693991002
 30
0.0
 10
1145.7109159694
 20
251.9802684344296
 30
0.0
 10
1145.88812624377
 20
252.0350911509038
 30
0.0
  0
SPLINE
  5
F9
330
1F
100
AcDbEntity
  8
0
  6
Continuous
 62
     7
370
    15
100
AcDbSpline
210
0.0
220
0.0
230
1.0
 70
     8
 71
     3
 72
    15
 73
    11
 74
     0
 42
0.000000001
 43
0.00000001
 40
0.0
 40
0.0
 40
0.0
 40
0.0
 40
0.1178530696284509
 40
0.2416255402794428
 40
0.3696846945964211
 40
0.4999999481130336
 40
0.6303152323926162
 40
0.7583743566834208
 40
0.8821470175891456
 40
1.0
 40
1.0
 40
1.0
 40
1.0
 10
979.8027787105436
 20
252.0350911509038
 30
0.0
 10
979.9799920994118
 20
251.9802684417606
 30
0.0
 10
980.3433197663534
 20
251.867869445637
 30
0.0
 10
981.6578395142639
 20
251.7010050075858
 30
0.0
 10
983.5718499781398
 20
251.5394951691497
 30
0.0
 10
986.0914976923624
 20
251.3924574117239
 30
0.0
 10
989.0839322427216
 20
251.2677685950011
 30
0.0
 10
992.388375937183
 20
251.1720118092602
 30
0.0
 10
995.8173501572562
 20
251.1050398558914
 30
0.0
 10
998.137376616343
 20
251.0851551442739
 30
0.0
 10
999.2689702407713
 20
251.07545637002
 30
0.0
  0
SPLINE
  5
FA
330
1F
100
AcDbEntity
  8
0
  6
Continuous
 62
     7
370
    15
100
AcDbSpline
210
0.0
220
0.0
230
1.0
 70
     8
 71
     3
 72
    11
 73
     7
 74
     0
 42
0.000000001
 43
0.00000001
 40
0.0
 40
0.0
 40
0.0
 40
0.0
 40
0.2463002855472958
 40
0.4937934521839285
 40
0.7468658663797202
 40
1.0
 40
1.0
 40
1.0
 40
1.0
 10
999.2689702407713
 20
251.0754563700199
 30
0.0
 10
999.3100122451738
 20
250.6627247743085
 30
0.0
 10
999.392295028539
 20
249.8352626419813
 30
0.0
 10
1000.137798983662
 20
248.7960486609667
 30
0.0
 10
1001.178833024202
 20
248.029138242532
 30
0.0
 10
1002.0279638166
 20
247.9409165121953
 30
0.0
 10
1002.452580978095
 20
247.8968002687932
 30
0.0
  0
SPLINE
  5
FB
330
1F
100
AcDbEntity
  8
0
  6
Continuous
 62
     7
370
    15
100
AcDbSpline
210
0.0
220
0.0
230
1.0
 70
     8
 71
     3
 72
    15
 73
    11
 74
     0
 42
0.000000001
 43
0.00000001
 40
0.0
 40
0.0
 40
0.0
 40
0.0
 40
0.1181237581923563
 40
0.2419505591218263
 40
0.3698940299207754
 40
0.5000000592617889
 40
0.6301060665740607
 40
0.7580494167619618
 40
0.8818762916715457
 40
1.0
 40
1.0
 40
1.0
 40
1.0
 10
1002.845457543551
 20
228.9822050224782
 30
0.0
 10
1002.823303145486
 20
229.1553262264897
 30
0.0
 10
1002.777924729823
 20
229.5099269668272
 30
0.0
 10
1002.710535270266
 20
230.7840677341975
 30
0.0
 10
1002.645228098233
 20
232.6348443926694
 30
0.0
 10
1002.585535162407
 20
235.0698612713743
 30
0.0
 10
1002.534519654381
 20
237.965198845881
 30
0.0
 10
1002.494761829973
 20
241.171952790091
 30
0.0
 10
1002.466301717822
 20
244.5129202300462
 30
0.0
 10
1002.457082117708
 20
246.786705857508
 30
0.0
 10
1002.452580978095
 20
247.8968002687932
 30
0.0
  0
SPLINE
  5
FC
330
1F
100
AcDbEntity
  8
0
  6
Continuous
 62
     7
370
    15
100
AcDbSpline
210
0.0
220
0.0
230
1.0
 70
     8
 71
     3
 72
    11
 73
     7
 74
     0
 42
0.000000001
 43
0.00000001
 40
0.0
 40
0.0
 40
0.0
 40
0.0
 40
0.2462995642970695
 40
0.4937911304400467
 40
0.7468661143222618
 40
1.0
 40
1.0
 40
1.0
 40
1.0
 10
1126.421942164123
 20
542.9947250377178
 30
0.0
 10
1126.380896683321
 20
543.4074539290775
 30
0.0
 10
1126.298607076265
 20
544.2349091720916
 30
0.0
 10
1125.553109358467
 20
545.2741227447456
 30
0.0
 10
1124.5120762566
 20
546.0410344759506
 30
0.0
 10
1123.662943487862
 20
546.1292571957332
 30
0.0
 10
1123.238327701509
 20
546.1733736883641
 30
0.0
  0
SPLINE
  5
FD
330
1F
100
AcDbEntity
  8
0
  6
Continuous
 62
     7
370
    15
100
AcDbSpline
210
0.0
220
0.0
230
1.0
 70
     8
 71
     3
 72
    15
 73
    11
 74
     0
 42
0.000000001
 43
0.00000001
 40
0.0
 40
0.0
 40
0.0
 40
0.0
 40
0.1178530012053538
 40
0.2416255425492239
 40
0.3696846882478528
 40
0.4999998929351575
 40
0.630315324622653
 40
0.7583744822860944
 40
0.8821469912978398
 40
0.9999999999999999
 40
0.9999999999999999
 40
0.9999999999999999
 40
0.9999999999999999
 10
1126.421942164123
 20
542.9947250377179
 30
0.0
 10
1127.553535798432
 20
542.9850183048138
 30
0.0
 10
1129.873560940251
 20
542.9651172876116
 30
0.0
 10
1133.30253378731
 20
542.8981781342438
 30
0.0
 10
1136.6069765197
 20
542.8024038497093
 30
0.0
 10
1139.599406950044
 20
542.6777059489413
 30
0.0
 10
1142.119063223572
 20
542.5306773449206
 30
0.0
 10
1144.033072210235
 20
542.3691849498861
 30
0.0
 10
1145.347594356933
 20
542.2022877459921
 30
0.0
 10
1145.710915911352
 20
542.089905011254
 30
0.0
 10
1145.88812624377
 20
542.035090256834
 30
0.0
  0
SPLINE
  5
FE
330
1F
100
AcDbEntity
  8
0
  6
Continuous
 62
     7
370
    15
100
AcDbSpline
210
0.0
220
0.0
230
1.0
 70
     8
 71
     3
 72
    11
 73
     7
 74
     0
 42
0.000000001
 43
0.00000001
 40
0.0
 40
0.0
 40
0.0
 40
0.0
 40
0.24997333441987
 40
0.5
 40
0.75002666558013
 40
1.0
 40
1.0
 40
1.0
 40
1.0
 10
1002.452580978095
 20
247.8968002687932
 30
0.0
 10
1012.516223254054
 20
247.894786377703
 30
0.0
 10
1032.645654857857
 20
247.8907581658642
 30
0.0
 10
1062.845454339802
 20
247.8855607242113
 30
0.0
 10
1093.045253821747
 20
247.8907581658643
 30
0.0
 10
1113.17468542555
 20
247.894786377703
 30
0.0
 10
1123.238327701509
 20
247.8968002687932
 30
0.0
  0
SPLINE
  5
FF
330
1F
100
AcDbEntity
  8
0
  6
Continuous
 62
     7
370
    15
100
AcDbSpline
210
0.0
220
0.0
230
1.0
 70
     8
 71
     3
 72
    14
 73
    10
 74
     0
 42
0.000000001
 43
0.00000001
 40
0.0
 40
0.0
 40
0.0
 40
0.0
 40
0.1469404790719958
 40
0.287759273571375
 40
0.4320989215470172
 40
0.57499929326907
 40
0.7162284749364654
 40
0.8604613387732337
 40
0.9999999999999999
 40
0.9999999999999999
 40
0.9999999999999999
 40
0.9999999999999999
 10
1126.421942164123
 20
251.07545637002
 30
0.0
 10
1126.434336429061
 20
256.7052292506473
 30
0.0
 10
1126.458608601695
 20
267.7302331483642
 30
0.0
 10
1126.784089188335
 20
284.2839915864461
 30
0.0
 10
1127.241106088286
 20
300.6805752003455
 30
0.0
 10
1127.797566050665
 20
317.0917397082069
 30
0.0
 10
1128.377981708633
 20
333.5002887641547
 30
0.0
 10
1128.945166823979
 20
349.783236358187
 30
0.0
 10
1129.238916486871
 20
360.6607635420066
 30
0.0
 10
1129.383361686885
 20
366.0095580708028
 30
0.0
  0
SPLINE
  5
100
330
1F
100
AcDbEntity
  8
0
  6
Continuous
 62
     7
370
    15
100
AcDbSpline
210
0.0
220
0.0
230
1.0
 70
     8
 71
     3
 72
    15
 73
    11
 74
     0
 42
0.000000001
 43
0.00000001
 40
0.0
 40
0.0
 40
0.0
 40
0.0
 40
0.1183537213875066
 40
0.2422287751513288
 40
0.3700783858194987
 40
0.5000114231943891
 40
0.6299426565357625
 40
0.7577877002194635
 40
0.8816555461903152
 40
0.9999999999999999
 40
0.9999999999999999
 40
0.9999999999999999
 40
0.9999999999999999
 10
1129.383220125854
 20
366.0012581240178
 30
0.0
 10
1130.283886145242
 20
366.0058234417627
 30
0.0
 10
1132.12723525281
 20
366.0151670543889
 30
0.0
 10
1134.837349864729
 20
366.0423047253726
 30
0.0
 10
1137.442251430264
 20
366.0794779668614
 30
0.0
 10
1139.803354256124
 20
366.1266598525812
 30
0.0
 10
1141.803732253733
 20
366.1814815892685
 30
0.0
 10
1143.344695092476
 20
366.2412733674522
 30
0.0
 10
1144.429976318611
 20
366.302904438715
 30
0.0
 10
1144.760300693019
 20
366.3443902881191
 30
0.0
 10
1144.921696533381
 20
366.3646601926328
 30
0.0
  0
SPLINE
  5
101
330
1F
100
AcDbEntity
  8
0
  6
Continuous
 62
     7
370
    15
100
AcDbSpline
210
0.0
220
0.0
230
1.0
 70
     8
 71
     3
 72
    13
 73
     9
 74
     0
 42
0.000000001
 43
0.00000001
 40
0.0
 40
0.0
 40
0.0
 40
0.0
 40
0.1636095423757343
 40
0.3294089108448162
 40
0.5004202306007386
 40
0.662681150571407
 40
0.8296567333828632
 40
1.0
 40
1.0
 40
1.0
 40
1.0
 10
1129.384963561713
 20
428.0571588169576
 30
0.0
 10
1129.212573805835
 20
434.3286840428242
 30
0.0
 10
1128.865486949531
 20
446.9556755005972
 30
0.0
 10
1128.184358831957
 20
466.1272433275963
 30
0.0
 10
1127.502915581699
 20
485.2435286894977
 30
0.0
 10
1126.917889664308
 20
504.4050481470072
 30
0.0
 10
1126.479309275726
 20
523.5438284153053
 30
0.0
 10
1126.441191386938
 20
536.4680822874136
 30
0.0
 10
1126.421942164123
 20
542.9947250377178
 30
0.0
  0
SPLINE
  5
102
330
1F
100
AcDbEntity
  8
0
  6
Continuous
 62
     7
370
    15
100
AcDbSpline
210
0.0
220
0.0
230
1.0
 70
     8
 71
     3
 72
    15
 73
    11
 74
     0
 42
0.000000001
 43
0.00000001
 40
0.0
 40
0.0
 40
0.0
 40
0.0
 40
0.1183513016936742
 40
0.2422214986084538
 40
0.3700649796496932
 40
0.4999927360962765
 40
0.6299213239050732
 40
0.7577682822024907
 40
0.8816431360126148
 40
1.0
 40
1.0
 40
1.0
 40
1.0
 10
1129.38480337423
 20
428.0570843111516
 30
0.0
 10
1130.285359707158
 20
428.0474874019893
 30
0.0
 10
1132.128466638989
 20
428.0278460656792
 30
0.0
 10
1134.838275945642
 20
427.9900532398677
 30
0.0
 10
1137.4429000973
 20
427.9463223963199
 30
0.0
 10
1139.80378336755
 20
427.8977131974442
 30
0.0
 10
1141.804002956437
 20
427.846620846065
 30
0.0
 10
1143.344889314171
 20
427.7955770329416
 30
0.0
 10
1144.430125087273
 20
427.7466102294542
 30
0.0
 10
1144.760456957722
 20
427.7165642420534
 30
0.0
 10
1144.921860446155
 20
427.7018834691287
 30
0.0
  0
SPLINE
  5
103
330
1F
100
AcDbEntity
  8
0
  6
Continuous
 62
     7
370
    15
100
AcDbSpline
210
0.0
220
0.0
230
1.0
 70
     8
 71
     3
 72
    14
 73
    10
 74
     0
 42
0.000000001
 43
0.00000001
 40
0.0
 40
0.0
 40
0.0
 40
0.0
 40
0.1469533152244461
 40
0.287784103105286
 40
0.4321332209495674
 40
0.5750374939714882
 40
0.7162655906377283
 40
0.860480248407301
 40
0.9999999999999999
 40
0.9999999999999999
 40
0.9999999999999999
 40
0.9999999999999999
 10
999.2689702407713
 20
542.9947250377178
 30
0.0
 10
999.2565435768237
 20
537.3642887313003
 30
0.0
 10
999.2322079819903
 20
526.3379974219888
 30
0.0
 10
998.9063366424799
 20
509.7824257485161
 30
0.0
 10
998.4488597224092
 20
493.384381995926
 30
0.0
 10
997.8919607722474
 20
476.972259198519
 30
0.0
 10
997.3112356576079
 20
460.5638095369084
 30
0.0
 10
996.7438553306307
 20
444.2818349439249
 30
0.0
 10
996.4502985270964
 20
433.4053939714545
 30
0.0
 10
996.3059488431807
 20
428.0571588169576
 30
0.0
  0
SPLINE
  5
104
330
1F
100
AcDbEntity
  8
0
  6
Continuous
 62
     7
370
    15
100
AcDbSpline
210
0.0
220
0.0
230
1.0
 70
     8
 71
     3
 72
    15
 73
    11
 74
     0
 42
0.000000001
 43
0.00000001
 40
0.0
 40
0.0
 40
0.0
 40
0.0
 40
0.1183567978811416
 40
0.2422317763744226
 40
0.3700785656342619
 40
0.5000073755988337
 40
0.6299348767275861
 40
0.7577786508176708
 40
0.8816486952833349
 40
1.0
 40
1.0
 40
1.0
 40
1.0
 10
980.7690519587393
 20
427.7018834691287
 30
0.0
 10
980.930451535444
 20
427.7165642522861
 30
0.0
 10
981.2607756644435
 20
427.7466102846767
 30
0.0
 10
982.3460273720575
 20
427.7955769388967
 30
0.0
 10
983.886899187285
 20
427.8466209721668
 30
0.0
 10
985.8871298039518
 20
427.8977130496233
 30
0.0
 10
988.2480061719921
 20
427.9463225492817
 30
0.0
 10
990.852634394934
 20
427.9900531277703
 30
0.0
 10
993.562442867409
 20
428.0278461054344
 30
0.0
 10
995.4055488551713
 20
428.0474874108965
 30
0.0
 10
996.3061053053732
 20
428.0570843111516
 30
0.0
  0
SPLINE
  5
105
330
1F
100
AcDbEntity
  8
0
  6
Continuous
 62
     7
370
    15
100
AcDbSpline
210
0.0
220
0.0
230
1.0
 70
     8
 71
     3
 72
    15
 73
    11
 74
     0
 42
0.000000001
 43
0.00000001
 40
0.0
 40
0.0
 40
0.0
 40
0.0
 40
0.1183478951294246
 40
0.2422185801180194
 40
0.3700654524459873
 40
0.4999978088572765
 40
0.6299302414864205
 40
0.7577784642912463
 40
0.8816503063078281
 40
1.0
 40
1.0
 40
1.0
 40
1.0
 10
980.7692754761572
 20
366.374673772955
 30
0.0
 10
980.9306790918627
 20
366.3543405006908
 30
0.0
 10
981.2610183393781
 20
366.3127250893512
 30
0.0
 10
982.3463557196184
 20
366.2508731927618
 30
0.0
 10
983.8873671865234
 20
366.1908652237752
 30
0.0
 10
985.8877997475681
 20
366.1357973274193
 30
0.0
 10
988.2489065000153
 20
366.0883972443378
 30
0.0
 10
990.8537776975246
 20
366.0510115935094
 30
0.0
 10
993.5638111546804
 20
366.0236980894356
 30
0.0
 10
995.4070877658571
 20
366.0142492764421
 30
0.0
 10
996.3077146307821
 20
366.0096325766087
 30
0.0
  0
SPLINE
  5
106
330
1F
100
AcDbEntity
  8
0
  6
Continuous
 62
     7
370
    15
100
AcDbSpline
210
0.0
220
0.0
230
1.0
 70
     8
 71
     3
 72
    13
 73
     9
 74
     0
 42
0.000000001
 43
0.00000001
 40
0.0
 40
0.0
 40
0.0
 40
0.0
 40
0.1636321376075703
 40
0.3294462212723987
 40
0.5004593949757182
 40
0.6627091966785008
 40
0.8296717107792405
 40
0.9999999999999999
 40
0.9999999999999999
 40
0.9999999999999999
 40
0.9999999999999999
 10
996.307550718009
 20
366.0095580708028
 30
0.0
 10
996.480037938057
 20
359.7373604130724
 30
0.0
 10
996.8273124019453
 20
347.1093287340603
 30
0.0
 10
997.5081552275873
 20
327.9368364072734
 30
0.0
 10
998.1891635661233
 20
308.8209110392492
 30
0.0
 10
998.7736427737029
 20
289.6608165007216
 30
0.0
 10
999.211720898591
 20
270.5241113224617
 30
0.0
 10
999.2497605958706
 20
257.6013262089651
 30
0.0
 10
999.2689702407713
 20
251.07545637002
 30
0.0
  0
SPLINE
  5
107
330
1F
100
AcDbEntity
  8
0
  6
Continuous
 62
     7
370
    15
100
AcDbSpline
210
0.0
220
0.0
230
1.0
 70
     8
 71
     3
 72
    15
 73
    11
 74
     0
 42
0.000000001
 43
0.00000001
 40
0.0
 40
0.0
 40
0.0
 40
0.0
 40
0.1249999984517867
 40
0.2500000258925832
 40
0.3750000114262055
 40
0.5000000539192999
 40
0.625000034860935
 40
0.750000011259301
 40
0.8750000150573575
 40
1.0
 40
1.0
 40
1.0
 40
1.0
 10
1129.383194048821
 20
366.0096325766087
 30
0.0
 10
1130.434952105619
 20
368.4643106851997
 30
0.0
 10
1132.538468463129
 20
373.3736674716512
 30
0.0
 10
1134.653482242381
 20
381.1176837454246
 30
0.0
 10
1135.972142391665
 20
389.0245369702182
 30
0.0
 10
1136.405398168482
 20
397.0331783396207
 30
0.0
 10
1135.972556096779
 20
405.0418417205097
 30
0.0
 10
1134.654307801361
 20
412.9487616851845
 30
0.0
 10
1132.539692480671
 20
420.692885663399
 30
0.0
 10
1130.4364330235
 20
425.602351551994
 30
0.0
 10
1129.38480337423
 20
428.0570843111516
 30
0.0
  0
SPLINE
  5
108
330
1F
100
AcDbEntity
  8
0
  6
Continuous
 62
     7
370
    15
100
AcDbSpline
210
0.0
220
0.0
230
1.0
 70
     8
 71
     3
 72
    15
 73
    11
 74
     0
 42
0.000000001
 43
0.00000001
 40
0.0
 40
0.0
 40
0.0
 40
0.0
 40
0.1250000066305708
 40
0.2500000104426594
 40
0.374999977380032
 40
0.5000000164308313
 40
0.6250000040159189
 40
0.7499999800855697
 40
0.8750000232108681
 40
1.0
 40
1.0
 40
1.0
 40
1.0
 10
996.3061053053732
 20
428.0570843111516
 30
0.0
 10
995.2544742345115
 20
425.6023516551246
 30
0.0
 10
993.1512121164997
 20
420.6928863984194
 30
0.0
 10
991.0365959756285
 20
412.9487619970297
 30
0.0
 10
989.7183541122399
 20
405.0418401450491
 30
0.0
 10
989.285508355498
 20
397.0331769058042
 30
0.0
 10
989.7187733550878
 20
389.0245364111097
 30
0.0
 10
991.0374233769122
 20
381.1176825485923
 30
0.0
 10
993.1524461456763
 20
373.3736689575923
 30
0.0
 10
995.2559586551322
 20
368.4643109360459
 30
0.0
 10
996.3077146307821
 20
366.0096325766087
 30
0.0
  0
ARC
  5
109
330
1F
100
AcDbEntity
  8
0
  6
Continuous
 62
     7
370
    15
100
AcDbCircle
 10
1062.845454545455
 20
397.0350868081942
 30
0.0
 40
73.41559342890355
100
AcDbArc
 50
24.99588980778591
 51
155.0041101670229
  0
ARC
  5
10A
330
1F
100
AcDbEntity
  8
0
  6
Continuous
 62
     7
370
    15
100
AcDbCircle
 10
1062.845454545455
 20
397.0350868081942
 30
0.0
 40
73.41559342890345
100
AcDbArc
 50
204.9988638450936
 51
335.0011363465543
  0
CIRCLE
  5
10B
330
1F
100
AcDbEntity
  8
0
  6
Continuous
 62
     7
370
    15
100
AcDbCircle
 10
1062.845454545455
 20
397.0350868081942
 30
0.0
 40
58.61177143234613
  0
CIRCLE
  5
10C
330
1F
100
AcDbEntity
  8
0
  6
Continuous
 62
     7
370
    15
100
AcDbCircle
 10
1062.845454545455
 20
397.0350868081942
 30
0.0
 40
57.5
  0
CIRCLE
  5
10D
330
1F
100
AcDbEntity
  8
0
  6
Continuous
 62
     7
370
    15
100
AcDbCircle
 10
1062.845454545455
 20
397.0350868081942
 30
0.0
 40
56.58715574274777
  0
CIRCLE
  5
10E
330
1F
100
AcDbEntity
  8
0
  6
Continuous
 62
     7
370
    15
100
AcDbCircle
 10
1062.845454545455
 20
397.0350868081942
 30
0.0
 40
45.0
  0
LINE
  5
10F
330
1F
100
AcDbEntity
  8
0
  6
Continuous
 62
     7
370
    15
100
AcDbLine
 10
917.8454566494818
 20
627.2350796352863
 30
0.0
 11
627.8454500929709
 21
627.2350796352863
 31
0.0
  0
LINE
  5
110
330
1F
100
AcDbEntity
  8
0
  6
Continuous
 62
     7
370
    15
100
AcDbLine
 10
602.8454441325064
 20
602.235088575983
 30
0.0
 11
602.8454441325064
 21
252.2350796352864
 31
0.0
  0
LINE
  5
111
330
1F
100
AcDbEntity
  8
0
  6
Continuous
 62
     7
370
    15
100
AcDbLine
 10
942.8454477087851
 20
252.2350796352864
 30
0.0
 11
942.8454477087851
 21
602.235088575983
 31
0.0
  0
ARC
  5
112
330
1F
100
AcDbEntity
  8
0
  6
Continuous
 62
     7
370
    15
100
AcDbCircle
 10
917.8454545454549
 20
252.2350868081944
 30
0.0
 40
25.00000000000011
100
AcDbArc
 50
270.0000000000003
 51
0.0000000000001954
  0
LINE
  5
113
330
1F
100
AcDbEntity
  8
0
  6
Continuous
 62
     7
370
    15
100
AcDbLine
 10
627.8454500929709
 20
227.2350885759831
 30
0.0
 11
917.8454566494818
 21
227.2350885759831
 31
0.0
  0
ARC
  5
114
330
1F
100
AcDbEntity
  8
0
  6
Continuous
 62
     7
370
    15
100
AcDbCircle
 10
627.8454545454549
 20
602.2350868081944
 30
0.0
 40
25.0
100
AcDbArc
 50
89.99999999999947
 51
180.0000000000016
  0
ARC
  5
115
330
1F
100
AcDbEntity
  8
0
  6
Continuous
 62
     7
370
    15
100
AcDbCircle
 10
917.8454545454549
 20
602.2350868081945
 30
0.0
 40
25.00000000000011
100
AcDbArc
 50
0.0000000000005598
 51
90.00000000000053
  0
ARC
  5
116
330
1F
100
AcDbEntity
  8
0
  6
Continuous
 62
     7
370
    15
100
AcDbCircle
 10
627.8454545454549
 20
252.2350868081944
 30
0.0
 40
25.0
100
AcDbArc
 50
179.9999999999994
 51
270.0000000000011
  0
LINE
  5
117
330
1F
100
AcDbEntity
  8
0
  6
Continuous
 62
     7
370
    15
100
AcDbLine
 10
917.8454566494818
 20
232.5805523287297
 30
0.0
 11
917.8454566494818
 21
227.2350885759831
 31
0.0
  0
LINE
  5
118
330
1F
100
AcDbEntity
  8
0
  6
Continuous
 62
     7
370
    15
100
AcDbLine
 10
627.8454500929709
 20
231.7711510550023
 30
0.0
 11
627.8454500929709
 21
227.2350885759831
 31
0.0
  0
SPLINE
  5
119
330
1F
100
AcDbEntity
  8
0
  6
Continuous
 62
     7
370
    15
100
AcDbSpline
210
0.0
220
0.0
230
1.0
 70
     8
 71
     3
 72
    15
 73
    11
 74
     0
 42
0.000000001
 43
0.00000001
 40
0.0
 40
0.0
 40
0.0
 40
0.0
 40
0.1561792468539614
 40
0.312356929531108
 40
0.4690093846708593
 40
0.6256637016644256
 40
0.7192076651705014
 40
0.8127519419106285
 40
0.9063759075675327
 40
1.0
 40
1.0
 40
1.0
 40
1.0
 10
917.8230900065298
 20
232.6553114544392
 30
0.0
 10
902.7134547564436
 20
232.7157027542229
 30
0.0
 10
872.4943355832984
 20
232.8364847489553
 30
0.0
 10
827.0723109755027
 20
232.8760450148355
 30
0.0
 10
781.6134303373669
 20
232.8020995629217
 30
0.0
 10
742.2521282656675
 20
232.6392698091008
 30
0.0
 10
709.0373507543302
 20
232.4427163605594
 30
0.0
 10
681.943206509357
 20
232.2488458229221
 30
0.0
 10
654.8727281692536
 20
232.0266171722584
 30
0.0
 10
636.8545468514449
 20
231.8563064658571
 30
0.0
 10
627.8454500929709
 20
231.7711510550023
 30
0.0
  0
LINE
  5
11A
330
1F
100
AcDbEntity
  8
0
  6
Continuous
 62
     7
370
    15
100
AcDbLine
 10
917.8454566494818
 20
232.5805523287297
 30
0.0
 11
917.8230900065298
 21
232.6553114544392
 31
0.0
  0
LINE
  5
11B
330
1F
100
AcDbEntity
  8
0
  6
Continuous
 62
     7
370
    15
100
AcDbLine
 10
937.4999839560385
 20
602.235088575983
 30
0.0
 11
942.8454477087851
 21
602.235088575983
 31
0.0
  0
SPLINE
  5
11C
330
1F
100
AcDbEntity
  8
0
  6
Continuous
 62
     7
370
    15
100
AcDbSpline
210
0.0
220
0.0
230
1.0
 70
     8
 71
     3
 72
    15
 73
    11
 74
     0
 42
0.000000001
 43
0.00000001
 40
0.0
 40
0.0
 40
0.0
 40
0.0
 40
0.1277197616231326
 40
0.2499999822512169
 40
0.3758254470863449
 40
0.5000006669481301
 40
0.6241724153600738
 40
0.7499974523653029
 40
0.8722787386675472
 40
0.9999999999999999
 40
0.9999999999999999
 40
0.9999999999999999
 40
0.9999999999999999
 10
917.8454566494818
 20
621.8896158825397
 30
0.0
 10
919.1536436432964
 20
621.8040963304004
 30
0.0
 10
921.7143023939756
 20
621.636699474618
 30
0.0
 10
925.414590773387
 20
620.4447484494415
 30
0.0
 10
928.7995543005892
 20
618.6327584408857
 30
0.0
 10
931.7831582840302
 20
616.1728111249539
 30
0.0
 10
934.243113904126
 20
613.1892203847095
 30
0.0
 10
936.0550928646466
 20
609.804282984878
 30
0.0
 10
937.2470539405114
 20
606.1039750286411
 30
0.0
 10
937.4144597188973
 20
603.5432906166135
 30
0.0
 10
937.4999839560385
 20
602.235088575983
 30
0.0
  0
LINE
  5
11D
330
1F
100
AcDbEntity
  8
0
  6
Continuous
 62
     7
370
    15
100
AcDbLine
 10
917.8454566494818
 20
621.8896158825397
 30
0.0
 11
917.8454566494818
 21
627.2350796352863
 31
0.0
  0
LINE
  5
11E
330
1F
100
AcDbEntity
  8
0
  6
Continuous
 62
     7
370
    15
100
AcDbLine
 10
607.3815066115255
 20
252.2350796352864
 30
0.0
 11
602.8454441325064
 21
252.2350796352864
 31
0.0
  0
SPLINE
  5
11F
330
1F
100
AcDbEntity
  8
0
  6
Continuous
 62
     7
370
    15
100
AcDbSpline
210
0.0
220
0.0
230
1.0
 70
     8
 71
     3
 72
    15
 73
    11
 74
     0
 42
0.000000001
 43
0.00000001
 40
0.0
 40
0.0
 40
0.0
 40
0.0
 40
0.1277215425070737
 40
0.2499996332779585
 40
0.3758234932335064
 40
0.5000010290483035
 40
0.6241749358375149
 40
0.7499983849652581
 40
0.8722769172251316
 40
1.0
 40
1.0
 40
1.0
 40
1.0
 10
627.8454500929709
 20
231.7711510550023
 30
0.0
 10
626.4823800389546
 20
231.8587302159639
 30
0.0
 10
623.8143335454091
 20
232.030155941753
 30
0.0
 10
619.9593494496012
 20
233.2690985116667
 30
0.0
 10
616.4334792018595
 20
235.1546862381051
 30
0.0
 10
613.3262572658873
 20
237.71587722628
 30
0.0
 10
610.7650717400024
 20
240.8230942366277
 30
0.0
 10
608.8794890880775
 20
244.3489262752969
 30
0.0
 10
607.640564830409
 20
248.2039314898043
 30
0.0
 10
607.4691040456511
 20
250.8719951686131
 30
0.0
 10
607.3815066115255
 20
252.2350796352864
 30
0.0
  0
SPLINE
  5
120
330
1F
100
AcDbEntity
  8
0
  6
Continuous
 62
     7
370
    15
100
AcDbSpline
210
0.0
220
0.0
230
1.0
 70
     8
 71
     3
 72
    15
 73
    11
 74
     0
 42
0.000000001
 43
0.00000001
 40
0.0
 40
0.0
 40
0.0
 40
0.0
 40
0.1277192821636826
 40
0.2499999639526361
 40
0.3758254287877305
 40
0.5000006486494827
 40
0.6241723970613935
 40
0.749997434066589
 40
0.8722782592082649
 40
1.0
 40
1.0
 40
1.0
 40
1.0
 10
937.4999839560385
 20
252.2350796352864
 30
0.0
 10
937.4144633471881
 20
250.926897865371
 30
0.0
 10
937.2470638068241
 20
248.3662399147321
 30
0.0
 10
936.0551200541003
 20
244.6659493071749
 30
0.0
 10
934.2431261778667
 20
241.2809820671262
 30
0.0
 10
931.7831792614238
 20
238.2973780637122
 30
0.0
 10
928.7995885411536
 20
235.8374220441351
 30
0.0
 10
925.4146548541629
 20
234.0254469512834
 30
0.0
 10
921.714349126104
 20
232.8334786029055
 30
0.0
 10
919.1536639140193
 20
232.6660755091408
 30
0.0
 10
917.8454566494818
 20
232.5805523287297
 30
0.0
  0
LINE
  5
121
330
1F
100
AcDbEntity
  8
0
  6
Continuous
 62
     7
370
    15
100
AcDbLine
 10
937.4999839560385
 20
252.2350796352864
 30
0.0
 11
942.8454477087851
 21
252.2350796352864
 31
0.0
  0
SPLINE
  5
122
330
1F
100
AcDbEntity
  8
0
  6
Continuous
 62
     7
370
    15
100
AcDbSpline
210
0.0
220
0.0
230
1.0
 70
     8
 71
     3
 72
    12
 73
     8
 74
     0
 42
0.000000001
 43
0.00000001
 40
0.0
 40
0.0
 40
0.0
 40
0.0
 40
0.2145938714823482
 40
0.4291866410192248
 40
0.643816764458693
 40
0.8585237665239851
 40
1.0
 40
1.0
 40
1.0
 40
1.0
 10
942.349015523612
 20
450.4850867524535
 30
0.0
 10
942.3493251161132
 20
450.5974792027469
 30
0.0
 10
942.3499442995256
 20
450.8222635261951
 30
0.0
 10
942.3546883927756
 20
451.1218649211028
 30
0.0
 10
942.3616082791078
 20
451.3480226439104
 30
0.0
 10
942.3692462545896
 20
451.4679750333544
 30
0.0
 10
942.3742410912802
 20
451.4802222952611
 30
0.0
 10
942.376225043952
 20
451.4850869163663
 30
0.0
  0
LINE
  5
123
330
1F
100
AcDbEntity
  8
0
  6
Continuous
 62
     7
370
    15
100
AcDbLine
 10
942.349015523612
 20
403.985085416937
 30
0.0
 11
942.349015523612
 21
450.4850867524535
 31
0.0
  0
SPLINE
  5
124
330
1F
100
AcDbEntity
  8
0
  6
Continuous
 62
     7
370
    15
100
AcDbSpline
210
0.0
220
0.0
230
1.0
 70
     8
 71
     3
 72
    12
 73
     8
 74
     0
 42
0.000000001
 43
0.00000001
 40
0.0
 40
0.0
 40
0.0
 40
0.0
 40
0.2147916272359007
 40
0.4295852988311352
 40
0.6443456211594443
 40
0.8590316996653036
 40
1.0
 40
1.0
 40
1.0
 40
1.0
 10
942.376225043952
 20
402.9850871156693
 30
0.0
 10
942.3731989579879
 20
402.9961482485633
 30
0.0
 10
942.3671467572582
 20
403.0182706196298
 30
0.0
 10
942.3589836484377
 20
403.1907741781191
 30
0.0
 10
942.3527952921573
 20
403.4446505756999
 30
0.0
 10
942.3494839498791
 20
403.7258044064486
 30
0.0
 10
942.34914848825
 20
403.9114874825488
 30
0.0
 10
942.349015523612
 20
403.985085416937
 30
0.0
  0
LINE
  5
125
330
1F
100
AcDbEntity
  8
0
  6
Continuous
 62
     7
370
    15
100
AcDbLine
 10
942.7807319657202
 20
402.9850871156693
 30
0.0
 11
942.376225043952
 21
402.9850871156693
 31
0.0
  0
SPLINE
  5
126
330
1F
100
AcDbEntity
  8
0
  6
Continuous
 62
     7
370
    15
100
AcDbSpline
210
0.0
220
0.0
230
1.0
 70
     8
 71
     3
 72
    12
 73
     8
 74
     0
 42
0.000000001
 43
0.00000001
 40
0.0
 40
0.0
 40
0.0
 40
0.0
 40
0.2146803458856517
 40
0.4293653095678328
 40
0.6440482368587558
 40
0.8587433746100116
 40
1.0
 40
1.0
 40
1.0
 40
1.0
 10
942.7902985112066
 20
403.985085416937
 30
0.0
 10
942.7902034057302
 20
403.8726657760004
 30
0.0
 10
942.7900131927315
 20
403.647824075969
 30
0.0
 10
942.7883999056797
 20
403.3481634866914
 30
0.0
 10
942.7860188917502
 20
403.1220043911887
 30
0.0
 10
942.7832912248468
 20
403.0021620767695
 30
0.0
 10
942.7814590498083
 20
402.989938102578
 30
0.0
 10
942.7807319657202
 20
402.9850871156693
 30
0.0
  0
LINE
  5
127
330
1F
100
AcDbEntity
  8
0
  6
Continuous
 62
     7
370
    15
100
AcDbLine
 10
942.7902985112066
 20
450.4850867524535
 30
0.0
 11
942.7902985112066
 21
403.985085416937
 31
0.0
  0
SPLINE
  5
128
330
1F
100
AcDbEntity
  8
0
  6
Continuous
 62
     7
370
    15
100
AcDbSpline
210
0.0
220
0.0
230
1.0
 70
     8
 71
     3
 72
    12
 73
     8
 74
     0
 42
0.000000001
 43
0.00000001
 40
0.0
 40
0.0
 40
0.0
 40
0.0
 40
0.214705569806307
 40
0.4294108689577324
 40
0.6441123076426601
 40
0.8588058826905539
 40
1.0
 40
1.0
 40
1.0
 40
1.0
 10
942.7807319657202
 20
451.4850869163663
 30
0.0
 10
942.7818405995893
 20
451.4740317246491
 30
0.0
 10
942.7840578659296
 20
451.4519213551505
 30
0.0
 10
942.7869190574759
 20
451.2794987945079
 30
0.0
 10
942.7890462023095
 20
451.0257353524869
 30
0.0
 10
942.7901416773905
 20
450.744567881773
 30
0.0
 10
942.790253963183
 20
450.5587913385
 30
0.0
 10
942.7902985112066
 20
450.4850867524535
 30
0.0
  0
LINE
  5
129
330
1F
100
AcDbEntity
  8
0
  6
Continuous
 62
     7
370
    15
100
AcDbLine
 10
942.376225043952
 20
451.4850869163663
 30
0.0
 11
942.7807319657202
 21
451.4850869163663
 31
0.0
  0
SPLINE
  5
12A
330
1F
100
AcDbEntity
  8
0
  6
Continuous
 62
     7
370
    15
100
AcDbSpline
210
0.0
220
0.0
230
1.0
 70
     8
 71
     3
 72
    17
 73
    13
 74
     0
 42
0.000000001
 43
0.00000001
 40
0.0
 40
0.0
 40
0.0
 40
0.0
 40
0.1254783878928181
 40
0.2509556237027499
 40
0.3348150559442361
 40
0.4186802375960599
 40
0.502534361022902
 40
0.5853258941939478
 40
0.6681279490470214
 40
0.7509245118580412
 40
0.8754617042864214
 40
1.0
 40
1.0
 40
1.0
 40
1.0
 10
937.4999839560385
 20
602.235088575983
 30
0.0
 10
937.3689630998269
 20
587.6358781633992
 30
0.0
 10
937.106922590375
 20
558.4375913812385
 30
0.0
 10
936.8473353792143
 20
519.3857174062964
 30
0.0
 10
936.6782120487765
 20
485.1534090501275
 30
0.0
 10
936.5851304188975
 20
455.756506252879
 30
0.0
 10
936.5525344564
 20
426.470331564875
 30
0.0
 10
936.5884849418451
 20
397.3089612454512
 30
0.0
 10
936.6826521258848
 20
368.2854916106759
 30
0.0
 10
936.8515474494383
 20
334.412051152146
 30
0.0
 10
937.1097203776103
 20
295.7042293559647
 30
0.0
 10
937.3698957124117
 20
266.7248389971222
 30
0.0
 10
937.4999839560385
 20
252.2350796352864
 30
0.0
  0
LINE
  5
12B
330
1F
100
AcDbEntity
  8
0
  6
Continuous
 62
     7
370
    15
100
AcDbLine
 10
917.8230900065298
 20
621.8148567568302
 30
0.0
 11
917.8454566494818
 21
621.8896158825397
 31
0.0
  0
SPLINE
  5
12C
330
1F
100
AcDbEntity
  8
0
  6
Continuous
 62
     7
370
    15
100
AcDbSpline
210
0.0
220
0.0
230
1.0
 70
     8
 71
     3
 72
    14
 73
    10
 74
     0
 42
0.000000001
 43
0.00000001
 40
0.0
 40
0.0
 40
0.0
 40
0.0
 40
0.1660797719803704
 40
0.3321849945392483
 40
0.4982577750771505
 40
0.6236772842311984
 40
0.7491276816609039
 40
0.8745790477409705
 40
1.0
 40
1.0
 40
1.0
 40
1.0
 10
627.8454500929709
 20
622.6990171562671
 30
0.0
 10
643.8325567820798
 20
622.5511493708713
 30
0.0
 10
675.8092200740286
 20
622.2553911403622
 30
0.0
 10
723.9218488086319
 20
621.9239645696065
 30
0.0
 10
768.1771942221259
 20
621.7137735834922
 30
0.0
 10
808.5406281133487
 20
621.6177147137118
 30
0.0
 10
844.9825390809599
 20
621.6074350491664
 30
0.0
 10
881.4214536823076
 20
621.6654424687626
 30
0.0
 10
905.6901919498789
 20
621.7650560196001
 30
0.0
 10
917.8230900065298
 20
621.8148567568302
 30
0.0
  0
LINE
  5
12D
330
1F
100
AcDbEntity
  8
0
  6
Continuous
 62
     7
370
    15
100
AcDbLine
 10
627.8454500929709
 20
622.6990171562671
 30
0.0
 11
627.8454500929709
 21
627.2350796352863
 31
0.0
  0
SPLINE
  5
12E
330
1F
100
AcDbEntity
  8
0
  6
Continuous
 62
     7
370
    15
100
AcDbSpline
210
0.0
220
0.0
230
1.0
 70
     8
 71
     3
 72
    15
 73
    11
 74
     0
 42
0.000000001
 43
0.00000001
 40
0.0
 40
0.0
 40
0.0
 40
0.0
 40
0.1277211051246927
 40
0.2499996142952848
 40
0.3758234488474061
 40
0.5000006643665134
 40
0.6241745460854182
 40
0.7499983786676561
 40
0.8722765805422391
 40
1.0
 40
1.0
 40
1.0
 40
1.0
 10
607.3815066115255
 20
602.235088575983
 30
0.0
 10
607.4690931739451
 20
603.5981532190497
 30
0.0
 10
607.6405339612837
 20
606.2661980554412
 30
0.0
 10
608.8794636283203
 20
610.1211861236136
 30
0.0
 10
610.765058836497
 20
613.6470542460479
 30
0.0
 10
613.3262321244952
 20
616.7542851228201
 30
0.0
 10
616.4334524923788
 20
619.3154732286898
 30
0.0
 10
619.9592928853874
 20
621.2010360279432
 30
0.0
 10
623.8142909142945
 20
622.4400049432743
 30
0.0
 10
626.4823595401124
 20
622.6114351271394
 30
0.0
 10
627.8454500929709
 20
622.6990171562671
 30
0.0
  0
LINE
  5
12F
330
1F
100
AcDbEntity
  8
0
  6
Continuous
 62
     7
370
    15
100
AcDbLine
 10
607.3815066115255
 20
602.235088575983
 30
0.0
 11
602.8454441325064
 21
602.235088575983
 31
0.0
  0
LINE
  5
130
330
1F
100
AcDbEntity
  8
0
  6
Continuous
 62
     7
370
    15
100
AcDbLine
 10
607.3815066115255
 20
252.2350796352864
 30
0.0
 11
607.402070213973
 21
252.2371956001759
 31
0.0
  0
LINE
  5
131
330
1F
100
AcDbEntity
  8
0
  6
Continuous
 62
     7
370
    15
100
AcDbLine
 10
607.402070213973
 20
602.2329875122547
 30
0.0
 11
607.3815066115255
 21
602.235088575983
 31
0.0
  0
SPLINE
  5
132
330
1F
100
AcDbEntity
  8
0
  6
Continuous
 62
     7
370
    15
100
AcDbSpline
210
0.0
220
0.0
230
1.0
 70
     8
 71
     3
 72
    15
 73
    11
 74
     0
 42
0.000000001
 43
0.00000001
 40
0.0
 40
0.0
 40
0.0
 40
0.0
 40
0.1236912948454656
 40
0.247398962065574
 40
0.3710869157077838
 40
0.4954712366015703
 40
0.61987684912403
 40
0.7442623784922788
 40
0.8720922842645874
 40
1.0
 40
1.0
 40
1.0
 40
1.0
 10
607.402070213973
 20
252.2371956001759
 30
0.0
 10
607.5151617790859
 20
266.630367992543
 30
0.0
 10
607.7413598786552
 20
295.4186179267948
 30
0.0
 10
607.9824373470581
 20
338.7044161170336
 30
0.0
 10
608.1391859050013
 20
382.1200180396026
 30
0.0
 10
608.1924319499758
 20
425.6495367864665
 30
0.0
 10
608.1449053251396
 20
469.2614057559745
 30
0.0
 10
607.995479475027
 20
513.2458098830928
 30
0.0
 10
607.752444258667
 20
557.5894885048018
 30
0.0
 10
607.518885249526
 20
587.3488030164567
 30
0.0
 10
607.402070213973
 20
602.2329875122547
 30
0.0
  0
LINE
  5
133
330
1F
100
AcDbEntity
  8
0
  6
Continuous
 62
     7
370
    15
100
AcDbLine
 10
627.8070647017355
 20
622.6456709991932
 30
0.0
 11
627.8454500929709
 21
622.6990171562671
 31
0.0
  0
SPLINE
  5
134
330
1F
100
AcDbEntity
  8
0
  6
Continuous
 62
     7
370
    15
100
AcDbSpline
210
0.0
220
0.0
230
1.0
 70
     8
 71
     3
 72
    20
 73
    16
 74
     0
 42
0.000000001
 43
0.00000001
 40
0.0
 40
0.0
 40
0.0
 40
0.0
 40
0.0478258328321606
 40
0.085703578095593
 40
0.1255943413923859
 40
0.1704321671785333
 40
0.211879790167047
 40
0.2499385758834161
 40
0.335580658349784
 40
0.4182548145155519
 40
0.4998424785533454
 40
0.6249938286061126
 40
0.7499341255571438
 40
0.8737502236576761
 40
0.9999999999999999
 40
0.9999999999999999
 40
0.9999999999999999
 40
0.9999999999999999
 10
903.9247471587057
 20
590.146357644701
 30
0.0
 10
904.2733376726411
 20
590.8802810530748
 30
0.0
 10
904.8980095824705
 20
592.1954669771019
 30
0.0
 10
905.8047020699322
 20
594.1038523896533
 30
0.0
 10
906.6814668120575
 20
595.9497740060209
 30
0.0
 10
907.5702216238287
 20
597.8252838898158
 30
0.0
 10
908.4297546973706
 20
599.6441541090212
 30
0.0
 10
909.5473177576514
 20
602.0176449454684
 30
0.0
 10
910.8893752331337
 20
604.8939482912294
 30
0.0
 10
912.3990060625695
 20
608.181742824267
 30
0.0
 10
913.9872472711126
 20
611.7175321943928
 30
0.0
 10
915.5433652467872
 20
615.3126850603614
 30
0.0
 10
916.8422242535495
 20
618.534448861365
 30
0.0
 10
917.6834229795035
 20
620.8836842255465
 30
0.0
 10
917.7762332497415
 20
621.502458578425
 30
0.0
 10
917.8230900065298
 20
621.8148567568302
 30
0.0
  0
SPLINE
  5
135
330
1F
100
AcDbEntity
  8
0
  6
Continuous
 62
     7
370
    15
100
AcDbSpline
210
0.0
220
0.0
230
1.0
 70
     8
 71
     3
 72
    13
 73
     9
 74
     0
 42
0.000000001
 43
0.00000001
 40
0.0
 40
0.0
 40
0.0
 40
0.0
 40
0.1596466996803323
 40
0.3192926173712113
 40
0.4793213634479895
 40
0.6393513855384794
 40
0.8196202262431235
 40
1.0
 40
1.0
 40
1.0
 40
1.0
 10
903.9247471587057
 20
590.146357644701
 30
0.0
 10
889.8003704292927
 20
590.1209319651902
 30
0.0
 10
861.5516861551954
 20
590.0700807307095
 30
0.0
 10
819.1160690453161
 20
590.0671923012329
 30
0.0
 10
776.6575912975852
 20
590.1056822173772
 30
0.0
 10
732.4101884438942
 20
590.2163327537226
 30
0.0
 10
686.4182530435536
 20
590.4166862752609
 30
0.0
 10
654.6473049144197
 20
590.6393419554579
 30
0.0
 10
638.7569445864553
 20
590.75070403924
 30
0.0
  0
SPLINE
  5
136
330
1F
100
AcDbEntity
  8
0
  6
Continuous
 62
     7
370
    15
100
AcDbSpline
210
0.0
220
0.0
230
1.0
 70
     8
 71
     3
 72
    22
 73
    18
 74
     0
 42
0.000000001
 43
0.00000001
 40
0.0
 40
0.0
 40
0.0
 40
0.0
 40
0.1040200560757899
 40
0.1872816227040265
 40
0.2497636280508569
 40
0.2953705152133809
 40
0.3393893585880461
 40
0.3818251818154139
 40
0.4226839163406375
 40
0.4619725271370028
 40
0.4996982696264158
 40
0.5668034699286896
 40
0.6324723431329942
 40
0.6967701465946463
 40
0.7597665574740509
 40
0.8820171479897831
 40
1.0
 40
1.0
 40
1.0
 40
1.0
 10
638.7569445864553
 20
590.7507040392398
 30
0.0
 10
638.0635656268242
 20
592.3540925752224
 30
0.0
 10
636.815180059584
 20
595.2408936227532
 30
0.0
 10
635.2399468952123
 20
598.9800227393732
 30
0.0
 10
634.0849499833128
 20
601.7616609651684
 30
0.0
 10
633.2189012236441
 20
603.9152625448265
 30
0.0
 10
632.500955672583
 20
605.7352295319142
 30
0.0
 10
631.8441923081215
 20
607.4375750094507
 30
0.0
 10
631.246718284974
 20
609.0225871184454
 30
0.0
 10
630.7073080287732
 20
610.4918231658245
 30
0.0
 10
630.0925685787781
 20
612.2178793447097
 30
0.0
 10
629.4447460914076
 20
614.1394576134775
 30
0.0
 10
628.819026034348
 20
616.1559059703021
 30
0.0
 10
628.3277216836633
 20
617.9137812599231
 30
0.0
 10
627.8581042102272
 20
619.8723799844437
 30
0.0
 10
627.5514137541691
 20
621.7367609886479
 30
0.0
 10
627.7228629823469
 20
622.3463105376496
 30
0.0
 10
627.8070647017355
 20
622.6456709991932
 30
0.0
  0
SPLINE
  5
137
330
1F
100
AcDbEntity
  8
0
  6
Continuous
 62
     7
370
    15
100
AcDbSpline
210
0.0
220
0.0
230
1.0
 70
     8
 71
     3
 72
    20
 73
    16
 74
     0
 42
0.000000001
 43
0.00000001
 40
0.0
 40
0.0
 40
0.0
 40
0.0
 40
0.1180104800468195
 40
0.2402899295853474
 40
0.367474932974066
 40
0.5001404201507319
 40
0.5573300804837182
 40
0.6180375543853921
 40
0.6822861001068808
 40
0.7500959759113321
 40
0.7850839974624761
 40
0.8275699830053935
 40
0.8775528954367834
 40
0.9350305019077153
 40
1.0
 40
1.0
 40
1.0
 40
1.0
 10
607.402070213973
 20
602.2329875122548
 30
0.0
 10
607.6692600391389
 20
602.2846817407171
 30
0.0
 10
608.2133051464
 20
602.3899402102381
 30
0.0
 10
610.3687559481122
 20
601.926261158001
 30
0.0
 10
613.5286533447612
 20
600.9899489648923
 30
0.0
 10
616.9027852031244
 20
599.8093661059715
 30
0.0
 10
619.8896955462031
 20
598.6744161659459
 30
0.0
 10
622.1956328767684
 20
597.769370555416
 30
0.0
 10
624.7664545465948
 20
596.7323259465012
 30
0.0
 10
627.0972569791411
 20
595.7706084201717
 30
0.0
 10
629.1780777771389
 20
594.8913447660622
 30
0.0
 10
631.036944504382
 20
594.097017478326
 30
0.0
 10
633.266377726705
 20
593.1388686138293
 30
0.0
 10
635.8747296165342
 20
592.0121959532789
 30
0.0
 10
637.7578011950129
 20
591.18801052832
 30
0.0
 10
638.7569445864553
 20
590.7507040392398
 30
0.0
  0
SPLINE
  5
138
330
1F
100
AcDbEntity
  8
0
  6
Continuous
 62
     7
370
    15
100
AcDbSpline
210
0.0
220
0.0
230
1.0
 70
     8
 71
     3
 72
    15
 73
    11
 74
     0
 42
0.000000001
 43
0.00000001
 40
0.0
 40
0.0
 40
0.0
 40
0.0
 40
0.1166561000059312
 40
0.2333587332695967
 40
0.3608164823648672
 40
0.488291219852821
 40
0.6157479359164036
 40
0.7438252292727123
 40
0.8719200678593707
 40
1.0
 40
1.0
 40
1.0
 40
1.0
 10
638.7569445864553
 20
590.7507040392398
 30
0.0
 10
638.8293521256758
 20
578.0607312312914
 30
0.0
 10
638.9741960869499
 20
552.6757236788532
 30
0.0
 10
639.1203783069095
 20
513.3527989495864
 30
0.0
 10
639.2130443237721
 20
472.8120965896133
 30
0.0
 10
639.2456167861365
 20
431.0719017159948
 30
0.0
 10
639.2221613031934
 20
389.2616995190288
 30
0.0
 10
639.1385371520665
 20
347.4067344391113
 30
0.0
 10
638.9923188038496
 20
305.5212765077625
 30
0.0
 10
638.8353996152853
 20
277.6528610761043
 30
0.0
 10
638.7569445864553
 20
263.7194641720296
 30
0.0
  0
SPLINE
  5
139
330
1F
100
AcDbEntity
  8
0
  6
Continuous
 62
     7
370
    15
100
AcDbSpline
210
0.0
220
0.0
230
1.0
 70
     8
 71
     3
 72
    23
 73
    19
 74
     0
 42
0.000000001
 43
0.00000001
 40
0.0
 40
0.0
 40
0.0
 40
0.0
 40
0.0841423572974359
 40
0.167146858622732
 40
0.2502009225502702
 40
0.3328889276495283
 40
0.4159968211364144
 40
0.5003556063932368
 40
0.5611000801922235
 40
0.6246975201133497
 40
0.6852526884401355
 40
0.7501957720502421
 40
0.7882233400407657
 40
0.8296467312963426
 40
0.8744656745123105
 40
0.914346660613454
 40
0.9519405492458549
 40
1.0
 40
1.0
 40
1.0
 40
1.0
 10
607.402070213973
 20
252.2371956001759
 30
0.0
 10
607.5718078568156
 20
252.1891504940328
 30
0.0
 10
607.9089877826267
 20
252.0937099950742
 30
0.0
 10
609.0528443806048
 20
252.2479775987562
 30
0.0
 10
610.6183040856373
 20
252.6129435324181
 30
0.0
 10
612.6213158274653
 20
253.1991082952854
 30
0.0
 10
615.0174625796276
 20
253.9945702312451
 30
0.0
 10
617.5165522593633
 20
254.8942710539364
 30
0.0
 10
620.0121660167391
 20
255.8412771973277
 30
0.0
 10
622.3653987997466
 20
256.7657760722859
 30
0.0
 10
624.8965809405973
 20
257.7901734122909
 30
0.0
 10
627.1801393903576
 20
258.735444247186
 30
0.0
 10
629.2520346873811
 20
259.6078224644194
 30
0.0
 10
631.0687114815973
 20
260.3805358250657
 30
0.0
 10
632.9442024165616
 20
261.1858004126569
 30
0.0
 10
634.7878582953275
 20
261.9843274408659
 30
0.0
 10
636.6990460930466
 20
262.8166670100852
 30
0.0
 10
638.017288558061
 20
263.3949781172565
 30
0.0
 10
638.7569445864553
 20
263.7194641720296
 30
0.0
  0
SPLINE
  5
13A
330
1F
100
AcDbEntity
  8
0
  6
Continuous
 62
     7
370
    15
100
AcDbSpline
210
0.0
220
0.0
230
1.0
 70
     8
 71
     3
 72
    20
 73
    16
 74
     0
 42
0.000000001
 43
0.00000001
 40
0.0
 40
0.0
 40
0.0
 40
0.0
 40
0.1180126760036899
 40
0.2402937499008405
 40
0.367478427286406
 40
0.5001391443524091
 40
0.5573308437152803
 40
0.6180394318784691
 40
0.6822885897727083
 40
0.7500973000557232
 40
0.7850906602415118
 40
0.8275796476194915
 40
0.877562765994833
 40
0.9350375997986072
 40
1.0
 40
1.0
 40
1.0
 40
1.0
 10
627.8070647017355
 20
231.8244972120762
 30
0.0
 10
627.723052366896
 20
232.1243033069418
 30
0.0
 10
627.5519890569182
 20
232.7347591767509
 30
0.0
 10
627.920553685565
 20
234.9865989929908
 30
0.0
 10
628.7664489268806
 20
238.2382391845588
 30
0.0
 10
629.8815709917196
 20
241.6787449311769
 30
0.0
 10
630.9715243318585
 20
244.7114042350634
 30
0.0
 10
631.8467881501743
 20
247.0476253014073
 30
0.0
 10
632.8558971061547
 20
249.6468822108156
 30
0.0
 10
633.796732166617
 20
251.9990185465055
 30
0.0
 10
634.6601944157483
 20
254.0960775341437
 30
0.0
 10
635.4422016845298
 20
255.9676909037543
 30
0.0
 10
636.3880096205554
 20
258.2097226449346
 30
0.0
 10
637.5031716535373
 20
260.8296476854497
 30
0.0
 10
638.3223220783874
 20
262.7177043985667
 30
0.0
 10
638.7569445864553
 20
263.7194641720296
 30
0.0
  0
SPLINE
  5
13B
330
1F
100
AcDbEntity
  8
0
  6
Continuous
 62
     7
370
    15
100
AcDbSpline
210
0.0
220
0.0
230
1.0
 70
     8
 71
     3
 72
    13
 73
     9
 74
     0
 42
0.000000001
 43
0.00000001
 40
0.0
 40
0.0
 40
0.0
 40
0.0
 40
0.1802879017549026
 40
0.3606835686431467
 40
0.520323733085259
 40
0.6799626920126048
 40
0.839980971022926
 40
1.0
 40
1.0
 40
1.0
 40
1.0
 10
638.7569445864553
 20
263.7194641720295
 30
0.0
 10
654.6392055754798
 20
263.8307746610553
 30
0.0
 10
686.413221002377
 20
264.0534621737418
 30
0.0
 10
732.3738084582816
 20
264.2536781785938
 30
0.0
 10
776.5634126156127
 20
264.3643003939678
 30
0.0
 10
818.985742788501
 20
264.4029237862431
 30
0.0
 10
861.452827728889
 20
264.4002335183145
 30
0.0
 10
889.7674185648851
 20
264.3492849236143
 30
0.0
 10
903.9247471587057
 20
264.3238105665685
 30
0.0
  0
SPLINE
  5
13C
330
1F
100
AcDbEntity
  8
0
  6
Continuous
 62
     7
370
    15
100
AcDbSpline
210
0.0
220
0.0
230
1.0
 70
     8
 71
     3
 72
    23
 73
    19
 74
     0
 42
0.000000001
 43
0.00000001
 40
0.0
 40
0.0
 40
0.0
 40
0.0
 40
0.0840870637301235
 40
0.1670643639498585
 40
0.2501755896081698
 40
0.3328613346609142
 40
0.4159615294897114
 40
0.5003408851169553
 40
0.5610157774627376
 40
0.624692329096686
 40
0.6852262474142413
 40
0.7501800541613002
 40
0.7882163675271859
 40
0.8296441882780337
 40
0.8744651591600437
 40
0.91432973609396
 40
0.9519874099393862
 40
1.0
 40
1.0
 40
1.0
 40
1.0
 10
917.8230900065298
 20
232.6553114544392
 30
0.0
 10
917.8040853048781
 20
232.8374364832126
 30
0.0
 10
917.766326721659
 20
233.1992828926558
 30
0.0
 10
917.3956064615094
 20
234.3866448222113
 30
0.0
 10
916.8076646082496
 20
235.9977319695504
 30
0.0
 10
915.9938975170737
 20
238.0466275545205
 30
0.0
 10
914.9697166095166
 20
240.4855084579448
 30
0.0
 10
913.8652348964412
 20
243.0179527231745
 30
0.0
 10
912.7359700251136
 20
245.5396509895338
 30
0.0
 10
911.6556854621621
 20
247.9112014659465
 30
0.0
 10
910.4782796951661
 20
250.4576054416636
 30
0.0
 10
909.4076170534497
 20
252.7493205415115
 30
0.0
 10
908.4298021101177
 20
254.8259081955057
 30
0.0
 10
907.5702822236583
 20
256.6447533746465
 30
0.0
 10
906.6815449221212
 20
258.5202179729098
 30
0.0
 10
905.8062683940752
 20
260.3630596092426
 30
0.0
 10
904.8995636641357
 20
262.2713725300383
 30
0.0
 10
904.2748553728168
 20
263.5866714111064
 30
0.0
 10
903.9247471587057
 20
264.3238105665685
 30
0.0
  0
LINE
  5
13D
330
1F
100
AcDbEntity
  8
0
  6
Continuous
 62
     7
370
    15
100
AcDbLine
 10
627.8454500929709
 20
231.7711510550023
 30
0.0
 11
627.8070647017355
 21
231.8244972120763
 31
0.0
  0
LINE
  5
13E
330
1F
100
AcDbEntity
  8
0
  6
Continuous
 62
     7
370
    15
100
AcDbLine
 10
937.284557868659
 20
252.1314569603444
 30
0.0
 11
937.4999839560385
 21
252.2350796352864
 31
0.0
  0
SPLINE
  5
13F
330
1F
100
AcDbEntity
  8
0
  6
Continuous
 62
     7
370
    15
100
AcDbSpline
210
0.0
220
0.0
230
1.0
 70
     8
 71
     3
 72
    20
 73
    16
 74
     0
 42
0.000000001
 43
0.00000001
 40
0.0
 40
0.0
 40
0.0
 40
0.0
 40
0.048018784556725
 40
0.0857081558653618
 40
0.1255887874460503
 40
0.17043122353623
 40
0.2118787893814652
 40
0.2499320727725201
 40
0.3355772159880622
 40
0.4182536100322353
 40
0.4998468628917287
 40
0.625006158062697
 40
0.7499510672089974
 40
0.8737642437150142
 40
1.0
 40
1.0
 40
1.0
 40
1.0
 10
903.9247471587057
 20
264.3238105665685
 30
0.0
 10
904.6671476483324
 20
263.9800280490452
 30
0.0
 10
905.9922494281218
 20
263.3664147335967
 30
0.0
 10
907.9222471217143
 20
262.4832514463787
 30
0.0
 10
909.7909976448171
 20
261.6352474024141
 30
0.0
 10
911.6985817440951
 20
260.7803090976357
 30
0.0
 10
913.5545476215809
 20
259.9593891824946
 30
0.0
 10
915.9839014837596
 20
258.899633578234
 30
0.0
 10
918.9428442868581
 20
257.6423617919371
 30
0.0
 10
922.3512974990044
 20
256.2553009397263
 30
0.0
 10
926.0490585650215
 20
254.8307222319619
 30
0.0
 10
929.8606621538252
 20
253.4920444037112
 30
0.0
 10
933.3630969230444
 20
252.4739024149463
 30
0.0
 10
936.0222020269669
 20
251.9416292641841
 30
0.0
 10
936.8610635065363
 20
252.0677736814752
 30
0.0
 10
937.284557868659
 20
252.1314569603444
 30
0.0
  0
SPLINE
  5
140
330
1F
100
AcDbEntity
  8
0
  6
Continuous
 62
     7
370
    15
100
AcDbSpline
210
0.0
220
0.0
230
1.0
 70
     8
 71
     3
 72
    15
 73
    11
 74
     0
 42
0.000000001
 43
0.00000001
 40
0.0
 40
0.0
 40
0.0
 40
0.0
 40
0.125501637279505
 40
0.2510021378139241
 40
0.3767604953222048
 40
0.502513719436597
 40
0.6267425646199002
 40
0.7509762972975363
 40
0.875487600641035
 40
1.0
 40
1.0
 40
1.0
 40
1.0
 10
903.9247471587057
 20
264.3238105665685
 30
0.0
 10
903.8362683097671
 20
277.9238757847595
 30
0.0
 10
903.6593114132968
 20
305.1238830370331
 30
0.0
 10
903.5194986227987
 20
346.0338361929655
 30
0.0
 10
903.536369305294
 20
387.0137204631625
 30
0.0
 10
903.595796649677
 20
427.8898239281558
 30
0.0
 10
903.534600374977
 20
468.59922440312
 30
0.0
 10
903.5213214979564
 20
509.1391812723072
 30
0.0
 10
903.6612078181627
 20
549.6680537249418
 30
0.0
 10
903.8369004541023
 20
576.6535500814799
 30
0.0
 10
903.9247471587057
 20
590.146357644701
 30
0.0
  0
SPLINE
  5
141
330
1F
100
AcDbEntity
  8
0
  6
Continuous
 62
     7
370
    15
100
AcDbSpline
210
0.0
220
0.0
230
1.0
 70
     8
 71
     3
 72
    22
 73
    18
 74
     0
 42
0.000000001
 43
0.00000001
 40
0.0
 40
0.0
 40
0.0
 40
0.0
 40
0.1041433951071352
 40
0.1874096689772888
 40
0.2497778430690954
 40
0.2954182526032985
 40
0.3394568919906495
 40
0.3818994273373987
 40
0.4227527849299721
 40
0.4620239903682874
 40
0.4997216213339675
 40
0.5669578695263651
 40
0.6327026702633547
 40
0.6970293450871042
 40
0.760015551070659
 40
0.8821619059371448
 40
1.0
 40
1.0
 40
1.0
 40
1.0
 10
903.9247471587057
 20
590.146357644701
 30
0.0
 10
905.5355459127238
 20
590.8877582322707
 30
0.0
 10
908.4342344082257
 20
592.2219344280156
 30
0.0
 10
912.216889847691
 20
593.9166551820185
 30
0.0
 10
915.0436408227392
 20
595.1644552941742
 30
0.0
 10
917.2425168625265
 20
596.1046304419738
 30
0.0
 10
919.1096715454518
 20
596.8876425003897
 30
0.0
 10
920.8628299725203
 20
597.6067679860199
 30
0.0
 10
922.501634032309
 20
598.2636712672065
 30
0.0
 10
924.0269779339533
 20
598.8595117419765
 30
0.0
 10
925.8291047501871
 20
599.542990762285
 30
0.0
 10
927.8501879056613
 20
600.2700681073316
 30
0.0
 10
929.9926649559652
 20
600.9826628594511
 30
0.0
 10
931.8813336914743
 20
601.5530103910788
 30
0.0
 10
934.0159725995599
 20
602.115654660703
 30
0.0
 10
936.1062741341754
 20
602.5208203638246
 30
0.0
 10
936.896525554161
 20
602.398683410857
 30
0.0
 10
937.284557868659
 20
602.338711250925
 30
0.0
  0
LINE
  5
142
330
1F
100
AcDbEntity
  8
0
  6
Continuous
 62
     7
370
    15
100
AcDbLine
 10
937.4999839560385
 20
602.235088575983
 30
0.0
 11
937.284557868659
 21
602.338711250925
 31
0.0
  0
SPLINE
  5
143
330
1F
100
AcDbEntity
  8
0
  6
Continuous
 62
     7
370
    15
100
AcDbSpline
210
0.0
220
0.0
230
1.0
 70
     8
 71
     3
 72
    15
 73
    11
 74
     0
 42
0.000000001
 43
0.00000001
 40
0.0
 40
0.0
 40
0.0
 40
0.0
 40
0.1250384847195525
 40
0.2500419959761089
 40
0.3750271637312098
 40
0.5000005266244931
 40
0.6249686511662429
 40
0.7499555890321458
 40
0.8749634650459799
 40
1.0
 40
1.0
 40
1.0
 40
1.0
 10
607.402070213973
 20
602.2329875122547
 30
0.0
 10
607.4878162261986
 20
603.561182558065
 30
0.0
 10
607.6592842673535
 20
606.2172011514192
 30
0.0
 10
608.8873295033861
 20
610.0508814399391
 30
0.0
 10
610.7798484989463
 20
613.5883260598451
 30
0.0
 10
613.3363231170243
 20
616.6930876656036
 30
0.0
 10
616.4409317169215
 20
619.2516040330744
 30
0.0
 10
619.9801518750044
 20
621.1479289019777
 30
0.0
 10
623.817331247794
 20
622.3813664032358
 30
0.0
 10
626.4770519354381
 20
622.557562735603
 30
0.0
 10
627.8070647017355
 20
622.6456709991932
 30
0.0
  0
SPLINE
  5
144
330
1F
100
AcDbEntity
  8
0
  6
Continuous
 62
     7
370
    15
100
AcDbSpline
210
0.0
220
0.0
230
1.0
 70
     8
 71
     3
 72
    15
 73
    11
 74
     0
 42
0.000000001
 43
0.00000001
 40
0.0
 40
0.0
 40
0.0
 40
0.0
 40
0.1250360001150619
 40
0.2500444610599729
 40
0.3750303837507053
 40
0.4999996172570918
 40
0.6249720379383695
 40
0.7499576508718189
 40
0.8749616196397154
 40
1.0
 40
1.0
 40
1.0
 40
1.0
 10
607.402070213973
 20
252.2371956001759
 30
0.0
 10
607.4878050277446
 20
250.9090248428226
 30
0.0
 10
607.6592557722009
 20
248.2529758576309
 30
0.0
 10
608.8873539825039
 20
244.4192736210425
 30
0.0
 10
610.7798354036681
 20
240.8817870031866
 30
0.0
 10
613.3363632649495
 20
237.7770504917511
 30
0.0
 10
616.4409708204395
 20
235.2185517251662
 30
0.0
 10
619.9801885452065
 20
233.3222402742058
 30
0.0
 10
623.8173311113917
 20
232.0888059374709
 30
0.0
 10
626.4770314929223
 20
231.9126082034981
 30
0.0
 10
627.8070647017355
 20
231.8244972120763
 30
0.0
  0
SPLINE
  5
145
330
1F
100
AcDbEntity
  8
0
  6
Continuous
 62
     7
370
    15
100
AcDbSpline
210
0.0
220
0.0
230
1.0
 70
     8
 71
     3
 72
    15
 73
    11
 74
     0
 42
0.000000001
 43
0.00000001
 40
0.0
 40
0.0
 40
0.0
 40
0.0
 40
0.1251105756377198
 40
0.2501297196285144
 40
0.3750837206442897
 40
0.4999994131900917
 40
0.6249189879943791
 40
0.7498725111381351
 40
0.8748874164329599
 40
1.0
 40
1.0
 40
1.0
 40
1.0
 10
937.284557868659
 20
602.338711250925
 30
0.0
 10
937.1911416086618
 20
603.6066158499813
 30
0.0
 10
937.004377357896
 20
606.1414984549177
 30
0.0
 10
935.8108132926712
 20
609.7961404446779
 30
0.0
 10
933.9939154489139
 20
613.1663618459362
 30
0.0
 10
931.5547050198871
 20
616.1238043224838
 30
0.0
 10
928.6022562783438
 20
618.562091031837
 30
0.0
 10
925.2428739069267
 20
620.3720320197908
 30
0.0
 10
921.6041740502299
 20
621.5533322851609
 30
0.0
 10
919.0837794375102
 20
621.7276592405715
 30
0.0
 10
917.8230900065298
 20
621.8148567568302
 30
0.0
  0
SPLINE
  5
146
330
1F
100
AcDbEntity
  8
0
  6
Continuous
 62
     7
370
    15
100
AcDbSpline
210
0.0
220
0.0
230
1.0
 70
     8
 71
     3
 72
    15
 73
    11
 74
     0
 42
0.000000001
 43
0.00000001
 40
0.0
 40
0.0
 40
0.0
 40
0.0
 40
0.1251101589695487
 40
0.2501296105443001
 40
0.375084044583209
 40
0.4999991310009071
 40
0.6249190416750378
 40
0.7498724041911276
 40
0.8748873949895429
 40
1.0
 40
1.0
 40
1.0
 40
1.0
 10
917.8230900065298
 20
232.6553114544392
 30
0.0
 10
919.0837534881116
 20
232.7425138873244
 30
0.0
 10
921.6041664447621
 20
232.9168555295677
 30
0.0
 10
925.2429045525218
 20
234.0981402012531
 30
0.0
 10
928.6022807224062
 20
235.9081147306744
 30
0.0
 10
931.5547414425902
 20
238.3463921994368
 30
0.0
 10
933.9939307333751
 20
241.3038420184849
 30
0.0
 10
935.8108305671093
 20
244.6740540446549
 30
0.0
 10
937.0043691469452
 20
248.3286727521779
 30
0.0
 10
937.1911373321824
 20
250.8635324748082
 30
0.0
 10
937.284557868659
 20
252.1314569603444
 30
0.0
  0
CIRCLE
  5
147
330
1F
100
AcDbEntity
  8
0
  6
Continuous
 62
     7
370
    15
100
AcDbCircle
 10
832.8454545454549
 20
427.2350868081944
 30
0.0
 40
69.99999999999898
  0
CIRCLE
  5
148
330
1F
100
AcDbEntity
  8
0
  6
Continuous
 62
     7
370
    15
100
AcDbCircle
 10
832.8454545454549
 20
427.2350868081944
 30
0.0
 40
63.73194421635662
  0
CIRCLE
  5
149
330
1F
100
AcDbEntity
  8
0
  6
Continuous
 62
     7
370
    15
100
AcDbCircle
 10
832.8454545454549
 20
427.2350868081944
 30
0.0
 40
63.1124949497779
  0
CIRCLE
  5
14A
330
1F
100
AcDbEntity
  8
0
  6
Continuous
 62
     7
370
    15
100
AcDbCircle
 10
832.8454545454549
 20
427.2350868081944
 30
0.0
 40
58.61177143234625
  0
CIRCLE
  5
14B
330
1F
100
AcDbEntity
  8
0
  6
Continuous
 62
     7
370
    15
100
AcDbCircle
 10
832.8454545454549
 20
427.2350868081944
 30
0.0
 40
57.5
  0
CIRCLE
  5
14C
330
1F
100
AcDbEntity
  8
0
  6
Continuous
 62
     7
370
    15
100
AcDbCircle
 10
832.8454545454549
 20
427.2350868081944
 30
0.0
 40
56.58715574274765
  0
CIRCLE
  5
14D
330
1F
100
AcDbEntity
  8
0
  6
Continuous
 62
     7
370
    15
100
AcDbCircle
 10
832.8454545454549
 20
427.2350868081944
 30
0.0
 40
45.0
  0
LINE
  5
14E
330
1F
100
AcDbEntity
  8
0
  6
Continuous
 62
     7
370
    15
100
AcDbLine
 10
1434.945448090255
 20
204.9369909655095
 30
0.0
 11
602.1454471842642
 21
204.9369909655095
 31
0.0
  0
LINE
  5
14F
330
1F
100
AcDbEntity
  8
0
  6
Continuous
 62
     7
370
    15
100
AcDbLine
 10
602.1454471842642
 20
204.9369909655095
 30
0.0
 11
602.1454471842642
 21
206.8163850199223
 31
0.0
  0
LINE
  5
150
330
1F
100
AcDbEntity
  8
0
  6
Continuous
 62
     7
370
    15
100
AcDbLine
 10
602.1454471842642
 20
206.8163850199223
 30
0.0
 11
1434.945448090255
 21
206.8163850199223
 31
0.0
  0
LINE
  5
151
330
1F
100
AcDbEntity
  8
0
  6
Continuous
 62
     7
370
    15
100
AcDbLine
 10
1434.945448090255
 20
204.9369909655095
 30
0.0
 11
1434.945448090255
 21
206.8163850199223
 31
0.0
  0
ARC
  5
152
330
1F
100
AcDbEntity
  8
0
  6
Continuous
 62
     7
370
    15
100
AcDbCircle
 10
1012.460403911571
 20
637.7374125874125
 30
0.0
 40
35.47897016515253
100
AcDbArc
 50
225.0000000000007
 51
270.0000000000008
  0
LWPOLYLINE
  5
153
330
1F
100
AcDbEntity
  8
0
  6
Continuous
 62
     7
370
    15
100
AcDbPolyline
 90
        9
 70
   128
 43
0.0
 10
987.3729858295317
 20
612.6499869715213
 10
987.4620277182455
 20
612.7390363108158
 10
987.5799406067724
 20
612.8569491993427
 10
987.723960329711
 20
613.0009689222812
 10
987.8907490269537
 20
613.167757619524
 10
988.076417495429
 20
613.3534260879993
 10
988.2766443983908
 20
613.553652990961
 10
988.4867731229658
 20
613.7637891661167
 10
988.701908637702
 20
613.9789172302723
  0
ARC
  5
154
330
1F
100
AcDbEntity
  8
0
  6
Continuous
 62
     7
370
    15
100
AcDbCircle
 10
1012.460403911571
 20
637.7374125874125
 30
0.0
 40
33.59958492358079
100
AcDbArc
 50
225.0000000000007
 51
270.0000000000008
  0
LINE
  5
155
330
1F
100
AcDbEntity
  8
0
  6
Continuous
 62
     7
370
    15
100
AcDbLine
 10
1012.460402001559
 20
602.2584386955738
 30
0.0
 11
1012.460402001559
 21
604.1378327499866
 31
0.0
  0
ARC
  5
156
330
1F
100
AcDbEntity
  8
0
  6
Continuous
 62
     7
370
    15
100
AcDbCircle
 10
602.1454545454548
 20
226.3374125874124
 30
0.0
 40
21.40041507641939
100
AcDbArc
 50
180.000000000001
 51
270.0000000000008
  0
LINE
  5
157
330
1F
100
AcDbEntity
  8
0
  6
Continuous
 62
     7
370
    15
100
AcDbLine
 10
580.7450253264303
 20
226.3374128233434
 30
0.0
 11
582.6244193808432
 21
226.3374128233434
 31
0.0
  0
ARC
  5
158
330
1F
100
AcDbEntity
  8
0
  6
Continuous
 62
     7
370
    15
100
AcDbCircle
 10
602.1454545454548
 20
226.3374125874124
 30
0.0
 40
19.52102983484761
100
AcDbArc
 50
180.0000000000011
 51
270.0000000000008
  0
LINE
  5
159
330
1F
100
AcDbEntity
  8
0
  6
Continuous
 62
     7
370
    15
100
AcDbLine
 10
1454.466475893676
 20
226.3374128233434
 30
0.0
 11
1454.466475893676
 21
582.7374108921528
 31
0.0
  0
LINE
  5
15A
330
1F
100
AcDbEntity
  8
0
  6
Continuous
 62
     7
370
    15
100
AcDbLine
 10
1454.466475893676
 20
582.7374108921528
 30
0.0
 11
1456.345869948089
 21
582.7374108921528
 31
0.0
  0
LINE
  5
15B
330
1F
100
AcDbEntity
  8
0
  6
Continuous
 62
     7
370
    15
100
AcDbLine
 10
1456.345869948089
 20
582.7374108921528
 30
0.0
 11
1456.345869948089
 21
226.3374128233434
 31
0.0
  0
LINE
  5
15C
330
1F
100
AcDbEntity
  8
0
  6
Continuous
 62
     7
370
    15
100
AcDbLine
 10
1456.345869948089
 20
226.3374128233434
 30
0.0
 11
1454.466475893676
 21
226.3374128233434
 31
0.0
  0
ARC
  5
15D
330
1F
100
AcDbEntity
  8
0
  6
Continuous
 62
     7
370
    15
100
AcDbCircle
 10
1434.945454545455
 20
582.7374125874125
 30
0.0
 40
19.52102983484758
100
AcDbArc
 50
0.0000000000001668
 51
90.0
  0
LINE
  5
15E
330
1F
100
AcDbEntity
  8
0
  6
Continuous
 62
     7
370
    15
100
AcDbLine
 10
1434.945448090255
 20
602.2584386955738
 30
0.0
 11
1434.945448090255
 21
604.1378327499866
 31
0.0
  0
ARC
  5
15F
330
1F
100
AcDbEntity
  8
0
  6
Continuous
 62
     7
370
    15
100
AcDbCircle
 10
1434.945454545455
 20
582.7374125874125
 30
0.0
 40
21.40041507641945
100
AcDbArc
 50
0.0
 51
90.0
  0
ARC
  5
160
330
1F
100
AcDbEntity
  8
0
  6
Continuous
 62
     7
370
    15
100
AcDbCircle
 10
1434.945454545455
 20
226.3374125874124
 30
0.0
 40
21.40041507641945
100
AcDbArc
 50
270.0000000000008
 51
0.0
  0
ARC
  5
161
330
1F
100
AcDbEntity
  8
0
  6
Continuous
 62
     7
370
    15
100
AcDbCircle
 10
1434.945454545455
 20
226.3374125874124
 30
0.0
 40
19.52102983484761
100
AcDbArc
 50
270.0000000000008
 51
0.0000000000001668
  0
LINE
  5
162
330
1F
100
AcDbEntity
  8
0
  6
Continuous
 62
     7
370
    15
100
AcDbLine
 10
1434.945448090255
 20
602.2584386955738
 30
0.0
 11
1012.460402001559
 21
602.2584386955738
 31
0.0
  0
LINE
  5
163
330
1F
100
AcDbEntity
  8
0
  6
Continuous
 62
     7
370
    15
100
AcDbLine
 10
1012.460402001559
 20
604.1378327499866
 30
0.0
 11
1434.945448090255
 21
604.1378327499866
 31
0.0
  0
LINE
  5
164
330
1F
100
AcDbEntity
  8
0
  6
Continuous
 62
     7
370
    15
100
AcDbLine
 10
938.0654532210226
 20
647.6584472548008
 30
0.0
 11
602.1454471842642
 21
647.6584472548008
 31
0.0
  0
LINE
  5
165
330
1F
100
AcDbEntity
  8
0
  6
Continuous
 62
     7
370
    15
100
AcDbLine
 10
602.1454471842642
 20
649.5378264080524
 30
0.0
 11
602.1454471842642
 21
647.6584472548008
 31
0.0
  0
LINE
  5
166
330
1F
100
AcDbEntity
  8
0
  6
Continuous
 62
     7
370
    15
100
AcDbLine
 10
602.1454471842642
 20
649.5378264080524
 30
0.0
 11
938.0654532210226
 21
649.5378264080524
 31
0.0
  0
LINE
  5
167
330
1F
100
AcDbEntity
  8
0
  6
Continuous
 62
     7
370
    15
100
AcDbLine
 10
938.0654532210226
 20
647.6584472548008
 30
0.0
 11
938.0654532210226
 21
649.5378264080524
 31
0.0
  0
LINE
  5
168
330
1F
100
AcDbEntity
  8
0
  6
Continuous
 62
     7
370
    15
100
AcDbLine
 10
588.5454553858633
 20
188.7187161337376
 30
0.0
 11
1448.545439888656
 21
188.7187161337376
 31
0.0
  0
LINE
  5
169
330
1F
100
AcDbEntity
  8
0
  6
Continuous
 62
     7
370
    15
100
AcDbLine
 10
1448.545439888656
 20
188.7187161337376
 30
0.0
 11
1448.545439888656
 21
187.737415064478
 31
0.0
  0
LINE
  5
16A
330
1F
100
AcDbEntity
  8
0
  6
Continuous
 62
     7
370
    15
100
AcDbLine
 10
1448.545439888656
 20
187.737415064478
 30
0.0
 11
588.5454553858633
 21
187.737415064478
 31
0.0
  0
LINE
  5
16B
330
1F
100
AcDbEntity
  8
0
  6
Continuous
 62
     7
370
    15
100
AcDbLine
 10
588.5454553858633
 20
187.737415064478
 30
0.0
 11
588.5454553858633
 21
188.7187161337376
 31
0.0
  0
ARC
  5
16C
330
1F
100
AcDbEntity
  8
0
  6
Continuous
 62
     7
370
    15
100
AcDbCircle
 10
1448.545454545455
 20
212.7374125874124
 30
0.0
 40
24.01869474724739
100
AcDbArc
 50
270.0000000000008
 51
0.0
  0
LINE
  5
16D
330
1F
100
AcDbEntity
  8
0
  6
Continuous
 62
     7
370
    15
100
AcDbLine
 10
1472.56414477986
 20
212.7374061237813
 30
0.0
 11
1473.54544584912
 21
212.7374061237813
 31
0.0
  0
ARC
  5
16E
330
1F
100
AcDbEntity
  8
0
  6
Continuous
 62
     7
370
    15
100
AcDbCircle
 10
1448.545454545455
 20
212.7374125874124
 30
0.0
 40
25.00000000000003
100
AcDbArc
 50
270.0000000000008
 51
0.0
  0
LINE
  5
16F
330
1F
100
AcDbEntity
  8
0
  6
Continuous
 62
     7
370
    15
100
AcDbLine
 10
987.3729858295317
 20
612.6499869715213
 30
0.0
 11
962.4755073086615
 21
637.5474729429721
 31
0.0
  0
LWPOLYLINE
  5
170
330
1F
100
AcDbEntity
  8
0
  6
Continuous
 62
     7
370
    15
100
AcDbPolyline
 90
        9
 70
   128
 43
0.0
 10
962.4755073086615
 20
637.5474729429721
 10
962.5645566479559
 20
637.6365073811054
 10
962.6824620859022
 20
637.7544202696323
 10
962.8264892594214
 20
637.8984399925708
 10
962.9932779566641
 20
638.0652286898136
 10
963.1789464251394
 20
638.2508971582889
 10
963.3791733281012
 20
638.4511240612507
 10
963.5893020526762
 20
638.6612602364063
 10
963.8044375674124
 20
638.8763883005619
  0
LINE
  5
171
330
1F
100
AcDbEntity
  8
0
  6
Continuous
 62
     7
370
    15
100
AcDbLine
 10
963.8044375674124
 20
638.8763883005619
 30
0.0
 11
988.701908637702
 21
613.9789172302723
 31
0.0
  0
LINE
  5
172
330
1F
100
AcDbEntity
  8
0
  6
Continuous
 62
     7
370
    15
100
AcDbLine
 10
580.7450253264303
 20
226.3374128233434
 30
0.0
 11
580.7450253264303
 21
628.1374194513797
 31
0.0
  0
LINE
  5
173
330
1F
100
AcDbEntity
  8
0
  6
Continuous
 62
     7
370
    15
100
AcDbLine
 10
580.7450253264303
 20
628.1374194513797
 30
0.0
 11
582.6244193808432
 21
628.1374194513797
 31
0.0
  0
LINE
  5
174
330
1F
100
AcDbEntity
  8
0
  6
Continuous
 62
     7
370
    15
100
AcDbLine
 10
582.6244193808432
 20
628.1374194513797
 30
0.0
 11
582.6244193808432
 21
226.3374128233434
 31
0.0
  0
ARC
  5
175
330
1F
100
AcDbEntity
  8
0
  6
Continuous
 62
     7
370
    15
100
AcDbCircle
 10
938.0654545454547
 20
613.1374125874125
 30
0.0
 40
34.52102983484762
100
AcDbArc
 50
44.99999999999986
 51
90.0
  0
ARC
  5
176
330
1F
100
AcDbEntity
  8
0
  6
Continuous
 62
     7
370
    15
100
AcDbCircle
 10
938.0654545454547
 20
613.1374125874125
 30
0.0
 40
36.40041507641934
100
AcDbArc
 50
44.99999999999962
 51
90.0
  0
ARC
  5
177
330
1F
100
AcDbEntity
  8
0
  6
Continuous
 62
     7
370
    15
100
AcDbCircle
 10
602.1454545454548
 20
628.1374125874124
 30
0.0
 40
21.40041507641945
100
AcDbArc
 50
90.0
 51
180.0
  0
ARC
  5
178
330
1F
100
AcDbEntity
  8
0
  6
Continuous
 62
     7
370
    15
100
AcDbCircle
 10
602.1454545454548
 20
628.1374125874124
 30
0.0
 40
19.52102983484758
100
AcDbArc
 50
90.0
 51
180.0
  0
LINE
  5
179
330
1F
100
AcDbEntity
  8
0
  6
Continuous
 62
     7
370
    15
100
AcDbLine
 10
1448.545439888656
 20
686.7561139952182
 30
0.0
 11
588.5454553858633
 21
686.7561139952182
 31
0.0
  0
LINE
  5
17A
330
1F
100
AcDbEntity
  8
0
  6
Continuous
 62
     7
370
    15
100
AcDbLine
 10
588.5454553858633
 20
687.7374150644779
 30
0.0
 11
588.5454553858633
 21
686.7561139952182
 31
0.0
  0
LINE
  5
17B
330
1F
100
AcDbEntity
  8
0
  6
Continuous
 62
     7
370
    15
100
AcDbLine
 10
588.5454553858633
 20
687.7374150644779
 30
0.0
 11
1448.545439888656
 21
687.7374150644779
 31
0.0
  0
LINE
  5
17C
330
1F
100
AcDbEntity
  8
0
  6
Continuous
 62
     7
370
    15
100
AcDbLine
 10
1448.545439888656
 20
686.7561139952182
 30
0.0
 11
1448.545439888656
 21
687.7374150644779
 31
0.0
  0
LINE
  5
17E
330
1F
100
AcDbEntity
  8
0
  6
Continuous
 62
     7
370
    15
100
AcDbLine
 10
1472.56414477986
 20
212.7374061237813
 30
0.0
 11
1472.56414477986
 21
662.7374091040134
 31
0.0
  0
ARC
  5
17F
330
1F
100
AcDbEntity
  8
0
  6
Continuous
 62
     7
370
    15
100
AcDbCircle
 10
588.5454545454548
 20
212.7374125874124
 30
0.0
 40
24.01869474724742
100
AcDbArc
 50
180.0
 51
270.0000000000008
  0
LINE
  5
180
330
1F
100
AcDbEntity
  8
0
  6
Continuous
 62
     7
370
    15
100
AcDbLine
 10
564.5267504946585
 20
662.7374091040134
 30
0.0
 11
564.5267504946585
 21
212.7374061237813
 31
0.0
  0
ARC
  5
181
330
1F
100
AcDbEntity
  8
0
  6
Continuous
 62
     7
370
    15
100
AcDbCircle
 10
588.5454545454547
 20
662.7374125874123
 30
0.0
 40
24.01869474724742
100
AcDbArc
 50
90.0
 51
180.0
  0
ARC
  5
182
330
1F
100
AcDbEntity
  8
0
  6
Continuous
 62
     7
370
    15
100
AcDbCircle
 10
1448.545454545455
 20
662.7374125874123
 30
0.0
 40
24.01869474724754
100
AcDbArc
 50
0.0
 51
90.0
  0
CIRCLE
  5
183
330
1F
100
AcDbEntity
  8
0
  6
Continuous
 62
     7
370
    15
100
AcDbCircle
 10
1013.545454545455
 20
637.7374125874123
 30
0.0
 40
17.5
  0
ARC
  5
184
330
1F
100
AcDbEntity
  8
0
  6
Continuous
 62
     7
370
    15
100
AcDbCircle
 10
588.5454545454548
 20
212.7374125874124
 30
0.0
 40
25.00000000000003
100
AcDbArc
 50
180.0
 51
270.0000000000008
  0
LINE
  5
185
330
1F
100
AcDbEntity
  8
0
  6
Continuous
 62
     7
370
    15
100
AcDbLine
 10
563.5454792277212
 20
212.7374061237813
 30
0.0
 11
564.5267504946585
 21
212.7374061237813
 31
0.0
  0
LINE
  5
186
330
1F
100
AcDbEntity
  8
0
  6
Continuous
 62
     7
370
    15
100
AcDbLine
 10
1472.56414477986
 20
662.7374091040134
 30
0.0
 11
1473.54544584912
 21
662.7374091040134
 31
0.0
  0
LINE
  5
187
330
1F
100
AcDbEntity
  8
0
  6
Continuous
 62
     7
370
    15
100
AcDbLine
 10
1473.54544584912
 20
662.7374091040134
 30
0.0
 11
1473.54544584912
 21
212.7374061237813
 31
0.0
  0
ARC
  5
188
330
1F
100
AcDbEntity
  8
0
  6
Continuous
 62
     7
370
    15
100
AcDbCircle
 10
588.5454545454547
 20
662.7374125874123
 30
0.0
 40
25.0
100
AcDbArc
 50
90.0
 51
180.0
  0
LINE
  5
189
330
1F
100
AcDbEntity
  8
0
  6
Continuous
 62
     7
370
    15
100
AcDbLine
 10
563.5454792277212
 20
662.7374091040134
 30
0.0
 11
564.5267504946585
 21
662.7374091040134
 31
0.0
  0
LINE
  5
18A
330
1F
100
AcDbEntity
  8
0
  6
Continuous
 62
     7
370
    15
100
AcDbLine
 10
563.5454792277212
 20
212.7374061237813
 30
0.0
 11
563.5454792277212
 21
662.7374091040134
 31
0.0
  0
ARC
  5
18B
330
1F
100
AcDbEntity
  8
0
  6
Continuous
 62
     7
370
    15
100
AcDbCircle
 10
1448.545454545455
 20
662.7374125874123
 30
0.0
 40
25.0
100
AcDbArc
 50
0.0
 51
90.0
  0
ARC
  5
18C
330
1F
100
AcDbEntity
  8
0
  6
Continuous
 62
     7
370
    15
100
AcDbCircle
 10
602.1454545454548
 20
628.1374125874124
 30
0.0
 40
19.3870594623537
100
AcDbArc
 50
90.0
 51
180.0
  0
LINE
  5
18D
330
1F
100
AcDbEntity
  8
0
  6
Continuous
 62
     7
370
    15
100
AcDbLine
 10
582.7583808199759
 20
628.1374194513797
 30
0.0
 11
582.6244193808432
 21
628.1374194513797
 31
0.0
  0
LINE
  5
18E
330
1F
100
AcDbEntity
  8
0
  6
Continuous
 62
     7
370
    15
100
AcDbLine
 10
602.1454471842642
 20
647.5244709145069
 30
0.0
 11
602.1454471842642
 21
647.6584472548008
 31
0.0
  0
LINE
  5
18F
330
1F
100
AcDbEntity
  8
0
  6
Continuous
 62
     7
370
    15
100
AcDbLine
 10
582.7583808199759
 20
226.3374128233434
 30
0.0
 11
582.7583808199759
 21
628.1374194513797
 31
0.0
  0
LINE
  5
190
330
1F
100
AcDbEntity
  8
0
  6
Continuous
 62
     7
370
    15
100
AcDbLine
 10
582.7583808199759
 20
226.3374128233434
 30
0.0
 11
582.6244193808432
 21
226.3374128233434
 31
0.0
  0
ARC
  5
191
330
1F
100
AcDbEntity
  8
0
  6
Continuous
 62
     7
370
    15
100
AcDbCircle
 10
1012.460403911571
 20
637.7374125874125
 30
0.0
 40
35.6129405376464
100
AcDbArc
 50
225.0000000000007
 51
270.0000000000008
  0
LINE
  5
192
330
1F
100
AcDbEntity
  8
0
  6
Continuous
 62
     7
370
    15
100
AcDbLine
 10
987.2782516972418
 20
612.555260289812
 30
0.0
 11
987.3729858295317
 21
612.6499869715213
 31
0.0
  0
LINE
  5
193
330
1F
100
AcDbEntity
  8
0
  6
Continuous
 62
     7
370
    15
100
AcDbLine
 10
1012.460402001559
 20
602.1244772564411
 30
0.0
 11
1012.460402001559
 21
602.2584386955738
 31
0.0
  0
LINE
  5
194
330
1F
100
AcDbEntity
  8
0
  6
Continuous
 62
     7
370
    15
100
AcDbLine
 10
602.1454471842642
 20
647.5244709145069
 30
0.0
 11
938.0654532210226
 21
647.5244709145069
 31
0.0
  0
LINE
  5
195
330
1F
100
AcDbEntity
  8
0
  6
Continuous
 62
     7
370
    15
100
AcDbLine
 10
938.0654532210226
 20
647.5244709145069
 30
0.0
 11
938.0654532210226
 21
647.6584472548008
 31
0.0
  0
ARC
  5
196
330
1F
100
AcDbEntity
  8
0
  6
Continuous
 62
     7
370
    15
100
AcDbCircle
 10
1434.945454545455
 20
582.7374125874125
 30
0.0
 40
19.38705946235382
100
AcDbArc
 50
0.0
 51
90.0
  0
LINE
  5
197
330
1F
100
AcDbEntity
  8
0
  6
Continuous
 62
     7
370
    15
100
AcDbLine
 10
1434.945448090255
 20
602.1244772564411
 30
0.0
 11
1434.945448090255
 21
602.2584386955738
 31
0.0
  0
LINE
  5
198
330
1F
100
AcDbEntity
  8
0
  6
Continuous
 62
     7
370
    15
100
AcDbLine
 10
1454.332514454543
 20
582.7374108921528
 30
0.0
 11
1454.466475893676
 21
582.7374108921528
 31
0.0
  0
ARC
  5
199
330
1F
100
AcDbEntity
  8
0
  6
Continuous
 62
     7
370
    15
100
AcDbCircle
 10
602.1454545454548
 20
226.3374125874124
 30
0.0
 40
19.38705946235376
100
AcDbArc
 50
180.000000000001
 51
270.0000000000008
  0
LINE
  5
19A
330
1F
100
AcDbEntity
  8
0
  6
Continuous
 62
     7
370
    15
100
AcDbLine
 10
602.1454471842642
 20
206.950346459055
 30
0.0
 11
602.1454471842642
 21
206.8163850199223
 31
0.0
  0
LINE
  5
19B
330
1F
100
AcDbEntity
  8
0
  6
Continuous
 62
     7
370
    15
100
AcDbLine
 10
1012.460402001559
 20
602.1244772564411
 30
0.0
 11
1434.945448090255
 21
602.1244772564411
 31
0.0
  0
LINE
  5
19C
330
1F
100
AcDbEntity
  8
0
  6
Continuous
 62
     7
370
    15
100
AcDbLine
 10
962.3807806269522
 20
637.4527313601017
 30
0.0
 11
987.2782516972418
 21
612.555260289812
 31
0.0
  0
LINE
  5
19D
330
1F
100
AcDbEntity
  8
0
  6
Continuous
 62
     7
370
    15
100
AcDbLine
 10
962.3807806269522
 20
637.4527313601017
 30
0.0
 11
962.4755073086615
 21
637.5474729429721
 31
0.0
  0
LINE
  5
19E
330
1F
100
AcDbEntity
  8
0
  6
Continuous
 62
     7
370
    15
100
AcDbLine
 10
1434.945448090255
 20
206.950346459055
 30
0.0
 11
602.1454471842642
 21
206.950346459055
 31
0.0
  0
LINE
  5
19F
330
1F
100
AcDbEntity
  8
0
  6
Continuous
 62
     7
370
    15
100
AcDbLine
 10
1434.945448090255
 20
206.950346459055
 30
0.0
 11
1434.945448090255
 21
206.8163850199223
 31
0.0
  0
ARC
  5
1A0
330
1F
100
AcDbEntity
  8
0
  6
Continuous
 62
     7
370
    15
100
AcDbCircle
 10
938.0654545454547
 20
613.1374125874125
 30
0.0
 40
34.38705946235368
100
AcDbArc
 50
44.9999999999996
 51
90.0
  0
ARC
  5
1A1
330
1F
100
AcDbEntity
  8
0
  6
Continuous
 62
     7
370
    15
100
AcDbCircle
 10
1434.945454545455
 20
226.3374125874124
 30
0.0
 40
19.38705946235382
100
AcDbArc
 50
270.0000000000008
 51
0.0
  0
LINE
  5
1A2
330
1F
100
AcDbEntity
  8
0
  6
Continuous
 62
     7
370
    15
100
AcDbLine
 10
1454.332514454543
 20
226.3374128233434
 30
0.0
 11
1454.466475893676
 21
226.3374128233434
 31
0.0
  0
LINE
  5
1A3
330
1F
100
AcDbEntity
  8
0
  6
Continuous
 62
     7
370
    15
100
AcDbLine
 10
1454.332514454543
 20
582.7374108921528
 30
0.0
 11
1454.332514454543
 21
226.3374128233434
 31
0.0
  0
LINE
  5
1A4
330
1F
100
AcDbEntity
  8
0
  6
Continuous
 62
     7
370
    15
100
AcDbLine
 10
602.1454471842642
 20
647.5244709145069
 30
0.0
 11
602.1454471842642
 21
645.6450917612552
 31
0.0
  0
ARC
  5
1A5
330
1F
100
AcDbEntity
  8
0
  6
Continuous
 62
     7
370
    15
100
AcDbCircle
 10
602.1454545454548
 20
628.1374125874124
 30
0.0
 40
17.50767422078206
100
AcDbArc
 50
90.0
 51
180.0
  0
LINE
  5
1A6
330
1F
100
AcDbEntity
  8
0
  6
Continuous
 62
     7
370
    15
100
AcDbLine
 10
582.7583808199759
 20
628.1374194513797
 30
0.0
 11
584.6377748743887
 21
628.1374194513797
 31
0.0
  0
LINE
  5
1A7
330
1F
100
AcDbEntity
  8
0
  6
Continuous
 62
     7
370
    15
100
AcDbLine
 10
938.0654532210226
 20
645.6450917612552
 30
0.0
 11
602.1454471842642
 21
645.6450917612552
 31
0.0
  0
LINE
  5
1A8
330
1F
100
AcDbEntity
  8
0
  6
Continuous
 62
     7
370
    15
100
AcDbLine
 10
938.0654532210226
 20
645.6450917612552
 30
0.0
 11
938.0654532210226
 21
647.5244709145069
 31
0.0
  0
ARC
  5
1A9
330
1F
100
AcDbEntity
  8
0
  6
Continuous
 62
     7
370
    15
100
AcDbCircle
 10
1434.945454545455
 20
582.7374125874125
 30
0.0
 40
17.50767422078206
100
AcDbArc
 50
0.0
 51
90.0
  0
LINE
  5
1AA
330
1F
100
AcDbEntity
  8
0
  6
Continuous
 62
     7
370
    15
100
AcDbLine
 10
1434.945448090255
 20
600.2450832020282
 30
0.0
 11
1434.945448090255
 21
602.1244772564411
 31
0.0
  0
LINE
  5
1AB
330
1F
100
AcDbEntity
  8
0
  6
Continuous
 62
     7
370
    15
100
AcDbLine
 10
1452.45312040013
 20
582.7374108921528
 30
0.0
 11
1454.332514454543
 21
582.7374108921528
 31
0.0
  0
LINE
  5
1AC
330
1F
100
AcDbEntity
  8
0
  6
Continuous
 62
     7
370
    15
100
AcDbLine
 10
1434.945448090255
 20
600.2450832020282
 30
0.0
 11
1012.460402001559
 21
600.2450832020282
 31
0.0
  0
LINE
  5
1AD
330
1F
100
AcDbEntity
  8
0
  6
Continuous
 62
     7
370
    15
100
AcDbLine
 10
1012.460402001559
 20
600.2450832020282
 30
0.0
 11
1012.460402001559
 21
602.1244772564411
 31
0.0
  0
LINE
  5
1AE
330
1F
100
AcDbEntity
  8
0
  6
Continuous
 62
     7
370
    15
100
AcDbLine
 10
584.6377748743887
 20
628.1374194513797
 30
0.0
 11
584.6377748743887
 21
226.3374128233434
 31
0.0
  0
LINE
  5
1AF
330
1F
100
AcDbEntity
  8
0
  6
Continuous
 62
     7
370
    15
100
AcDbLine
 10
582.7583808199759
 20
226.3374128233434
 30
0.0
 11
584.6377748743887
 21
226.3374128233434
 31
0.0
  0
ARC
  5
1B0
330
1F
100
AcDbEntity
  8
0
  6
Continuous
 62
     7
370
    15
100
AcDbCircle
 10
938.0654545454547
 20
613.1374125874125
 30
0.0
 40
32.50767422078195
100
AcDbArc
 50
44.99999999999986
 51
90.0
  0
LWPOLYLINE
  5
1B1
330
1F
100
AcDbEntity
  8
0
  6
Continuous
 62
     7
370
    15
100
AcDbPolyline
 90
        9
 70
   128
 43
0.0
 10
961.0518503682013
 20
636.123816002512
 10
961.2669858829374
 20
636.3389440666675
 10
961.4771146075125
 20
636.549065340662
 10
961.6773415104742
 20
636.7493071447849
 10
961.8630099789495
 20
636.9349756132602
 10
962.0297986761923
 20
637.1017494093418
 10
962.1738258497114
 20
637.2457840334415
 10
962.2917312876577
 20
637.3636820208072
 10
962.3807806269522
 20
637.4527313601017
  0
ARC
  5
1B2
330
1F
100
AcDbEntity
  8
0
  6
Continuous
 62
     7
370
    15
100
AcDbCircle
 10
1012.460403911571
 20
637.7374125874125
 30
0.0
 40
37.49232577921816
100
AcDbArc
 50
225.0000000000006
 51
270.0000000000008
  0
LWPOLYLINE
  5
1B3
330
1F
100
AcDbEntity
  8
0
  6
Continuous
 62
     7
370
    15
100
AcDbPolyline
 90
        9
 70
   128
 43
0.0
 10
985.9493288890715
 20
611.2263300310611
 10
986.1644644038076
 20
611.4414729963779
 10
986.3745856778021
 20
611.6515942703724
 10
986.5748200313444
 20
611.8518211733341
 10
986.7604884998198
 20
612.0374896418094
 10
986.9272697464819
 20
612.2042783390522
 10
987.071296920001
 20
612.3483129631519
 10
987.1892023579474
 20
612.4662109505176
 10
987.2782516972418
 20
612.555260289812
  0
LINE
  5
1B4
330
1F
100
AcDbEntity
  8
0
  6
Continuous
 62
     7
370
    15
100
AcDbLine
 10
1452.45312040013
 20
226.3374128233434
 30
0.0
 11
1452.45312040013
 21
582.7374108921528
 31
0.0
  0
LINE
  5
1B5
330
1F
100
AcDbEntity
  8
0
  6
Continuous
 62
     7
370
    15
100
AcDbLine
 10
1454.332514454543
 20
226.3374128233434
 30
0.0
 11
1452.45312040013
 21
226.3374128233434
 31
0.0
  0
LINE
  5
1B6
330
1F
100
AcDbEntity
  8
0
  6
Continuous
 62
     7
370
    15
100
AcDbLine
 10
985.9493288890715
 20
611.2263300310611
 30
0.0
 11
961.0518503682013
 21
636.123816002512
 31
0.0
  0
LINE
  5
1B7
330
1F
100
AcDbEntity
  8
0
  6
Continuous
 62
     7
370
    15
100
AcDbLine
 10
602.1454471842642
 20
206.950346459055
 30
0.0
 11
602.1454471842642
 21
208.8297405134679
 31
0.0
  0
LINE
  5
1B8
330
1F
100
AcDbEntity
  8
0
  6
Continuous
 62
     7
370
    15
100
AcDbLine
 10
602.1454471842642
 20
208.8297405134679
 30
0.0
 11
1434.945448090255
 21
208.8297405134679
 31
0.0
  0
LINE
  5
1B9
330
1F
100
AcDbEntity
  8
0
  6
Continuous
 62
     7
370
    15
100
AcDbLine
 10
1434.945448090255
 20
206.950346459055
 30
0.0
 11
1434.945448090255
 21
208.8297405134679
 31
0.0
  0
ARC
  5
1BA
330
1F
100
AcDbEntity
  8
0
  6
Continuous
 62
     7
370
    15
100
AcDbCircle
 10
1434.945454545455
 20
226.3374125874124
 30
0.0
 40
17.50767422078206
100
AcDbArc
 50
270.0000000000008
 51
0.0
  0
ARC
  5
1BB
330
1F
100
AcDbEntity
  8
0
  6
Continuous
 62
     7
370
    15
100
AcDbCircle
 10
602.1454545454548
 20
226.3374125874124
 30
0.0
 40
17.50767422078192
100
AcDbArc
 50
180.000000000001
 51
270.0000000000008
  0
ARC
  5
1BC
330
1F
100
AcDbEntity
  8
0
  6
Continuous
 62
     7
370
    15
100
AcDbCircle
 10
628.0454545454548
 20
602.2350868081944
 30
0.0
 40
31.00000000000023
100
AcDbArc
 50
90.0
 51
180.0
  0
LINE
  5
1BD
330
1F
100
AcDbEntity
  8
0
  6
Continuous
 62
     7
370
    15
100
AcDbLine
 10
628.0454534785147
 20
633.2350917946338
 30
0.0
 11
628.0454534785147
 21
628.2350816618442
 31
0.0
  0
ARC
  5
1BE
330
1F
100
AcDbEntity
  8
0
  6
Continuous
 62
     7
370
    15
100
AcDbCircle
 10
628.0454545454548
 20
602.2350868081944
 30
0.0
 40
26.00000000000011
100
AcDbArc
 50
90.0
 51
180.0
  0
LINE
  5
1BF
330
1F
100
AcDbEntity
  8
0
  6
Continuous
 62
     7
370
    15
100
AcDbLine
 10
597.045465161025
 20
602.235088575983
 30
0.0
 11
602.0454603926535
 21
602.235088575983
 31
0.0
  0
LINE
  5
1C0
330
1F
100
AcDbEntity
  8
0
  6
Continuous
 62
     7
370
    15
100
AcDbLine
 10
628.0454534785147
 20
633.2350917946338
 30
0.0
 11
917.645453263938
 21
633.2350917946338
 31
0.0
  0
LINE
  5
1C1
330
1F
100
AcDbEntity
  8
0
  6
Continuous
 62
     7
370
    15
100
AcDbLine
 10
917.645453263938
 20
633.2350917946338
 30
0.0
 11
917.645453263938
 21
628.2350816618442
 31
0.0
  0
LINE
  5
1C2
330
1F
100
AcDbEntity
  8
0
  6
Continuous
 62
     7
370
    15
100
AcDbLine
 10
628.0454534785147
 20
628.2350816618442
 30
0.0
 11
917.645453263938
 21
628.2350816618442
 31
0.0
  0
LINE
  5
1C3
330
1F
100
AcDbEntity
  8
0
  6
Continuous
 62
     7
370
    15
100
AcDbLine
 10
597.045465161025
 20
252.2350796352864
 30
0.0
 11
597.045465161025
 21
602.235088575983
 31
0.0
  0
ARC
  5
1C4
330
1F
100
AcDbEntity
  8
0
  6
Continuous
 62
     7
370
    15
100
AcDbCircle
 10
628.0454545454548
 20
252.2350868081944
 30
0.0
 40
31.00000000000023
100
AcDbArc
 50
180.0
 51
270.0000000000008
  0
LINE
  5
1C5
330
1F
100
AcDbEntity
  8
0
  6
Continuous
 62
     7
370
    15
100
AcDbLine
 10
917.645453263938
 20
221.2350913177968
 30
0.0
 11
628.0454534785147
 21
221.2350913177968
 31
0.0
  0
ARC
  5
1C6
330
1F
100
AcDbEntity
  8
0
  6
Continuous
 62
     7
370
    15
100
AcDbCircle
 10
917.6454545454548
 20
252.2350868081944
 30
0.0
 40
31.00000000000009
100
AcDbArc
 50
270.0000000000008
 51
0.0
  0
LINE
  5
1C7
330
1F
100
AcDbEntity
  8
0
  6
Continuous
 62
     7
370
    15
100
AcDbLine
 10
948.6454564825888
 20
602.235088575983
 30
0.0
 11
948.6454564825888
 21
252.2350796352864
 31
0.0
  0
ARC
  5
1C8
330
1F
100
AcDbEntity
  8
0
  6
Continuous
 62
     7
370
    15
100
AcDbCircle
 10
917.6454545454548
 20
602.2350868081944
 30
0.0
 40
31.00000000000011
100
AcDbArc
 50
0.0000000000002101
 51
90.0
  0
LINE
  5
1C9
330
1F
100
AcDbEntity
  8
0
  6
Continuous
 62
     7
370
    15
100
AcDbLine
 10
1002.845457543551
 20
572.835090089941
 30
0.0
 11
1122.845454861342
 21
572.835090089941
 31
0.0
  0
ARC
  5
1CA
330
1F
100
AcDbEntity
  8
0
  6
Continuous
 62
     7
370
    15
100
AcDbCircle
 10
1002.845454545455
 20
541.8350868081943
 30
0.0
 40
31.0
100
AcDbArc
 50
90.0
 51
180.0
  0
LINE
  5
1CB
330
1F
100
AcDbEntity
  8
0
  6
Continuous
 62
     7
370
    15
100
AcDbLine
 10
971.8454543249006
 20
252.2350796352864
 30
0.0
 11
971.8454543249006
 21
541.8350868712902
 31
0.0
  0
ARC
  5
1CC
330
1F
100
AcDbEntity
  8
0
  6
Continuous
 62
     7
370
    15
100
AcDbCircle
 10
1002.845454545455
 20
252.2350868081944
 30
0.0
 40
30.99999999999989
100
AcDbArc
 50
180.0
 51
270.0000000000008
  0
LINE
  5
1CD
330
1F
100
AcDbEntity
  8
0
  6
Continuous
 62
     7
370
    15
100
AcDbLine
 10
1122.845454861342
 20
221.2350913177968
 30
0.0
 11
1002.845457543551
 21
221.2350913177968
 31
0.0
  0
ARC
  5
1CE
330
1F
100
AcDbEntity
  8
0
  6
Continuous
 62
     7
370
    15
100
AcDbCircle
 10
1122.845454545455
 20
252.2350868081944
 30
0.0
 40
31.0
100
AcDbArc
 50
270.0000000000008
 51
0.0
  0
LINE
  5
1CF
330
1F
100
AcDbEntity
  8
0
  6
Continuous
 62
     7
370
    15
100
AcDbLine
 10
1153.845458079993
 20
541.8350868712902
 30
0.0
 11
1153.845458079993
 21
252.2350796352864
 31
0.0
  0
ARC
  5
1D0
330
1F
100
AcDbEntity
  8
0
  6
Continuous
 62
     7
370
    15
100
AcDbCircle
 10
1122.845454545455
 20
541.8350868081943
 30
0.0
 40
31.0
100
AcDbArc
 50
0.0
 51
90.0
  0
LINE
  5
1D1
330
1F
100
AcDbEntity
  8
0
  6
Continuous
 62
     7
370
    15
100
AcDbLine
 10
948.6454564825888
 20
602.235088575983
 30
0.0
 11
943.6454612509604
 21
602.235088575983
 31
0.0
  0
ARC
  5
1D2
330
1F
100
AcDbEntity
  8
0
  6
Continuous
 62
     7
370
    15
100
AcDbCircle
 10
917.6454545454548
 20
602.2350868081944
 30
0.0
 40
26.0
100
AcDbArc
 50
0.0000000000002505
 51
90.0
  0
LINE
  5
1D3
330
1F
100
AcDbEntity
  8
0
  6
Continuous
 62
     7
370
    15
100
AcDbLine
 10
602.0454603926535
 20
252.2350796352864
 30
0.0
 11
602.0454603926535
 21
602.235088575983
 31
0.0
  0
LINE
  5
1D4
330
1F
100
AcDbEntity
  8
0
  6
Continuous
 62
     7
370
    15
100
AcDbLine
 10
602.0454603926535
 20
252.2350796352864
 30
0.0
 11
597.045465161025
 21
252.2350796352864
 31
0.0
  0
LINE
  5
1D5
330
1F
100
AcDbEntity
  8
0
  6
Continuous
 62
     7
370
    15
100
AcDbLine
 10
943.6454612509604
 20
602.235088575983
 30
0.0
 11
943.6454612509604
 21
252.2350796352864
 31
0.0
  0
LINE
  5
1D6
330
1F
100
AcDbEntity
  8
0
  6
Continuous
 62
     7
370
    15
100
AcDbLine
 10
943.6454612509604
 20
252.2350796352864
 30
0.0
 11
948.6454564825888
 21
252.2350796352864
 31
0.0
  0
LINE
  5
1D7
330
1F
100
AcDbEntity
  8
0
  6
Continuous
 62
     7
370
    15
100
AcDbLine
 10
1002.845457543551
 20
572.835090089941
 30
0.0
 11
1002.845457543551
 21
567.835087407732
 31
0.0
  0
ARC
  5
1D8
330
1F
100
AcDbEntity
  8
0
  6
Continuous
 62
     7
370
    15
100
AcDbCircle
 10
1002.845454545455
 20
541.8350868081943
 30
0.0
 40
26.00000000000011
100
AcDbArc
 50
90.0
 51
180.0
  0
LINE
  5
1D9
330
1F
100
AcDbEntity
  8
0
  6
Continuous
 62
     7
370
    15
100
AcDbLine
 10
971.8454543249006
 20
541.8350868712902
 30
0.0
 11
976.8454570071096
 21
541.8350868712902
 31
0.0
  0
LINE
  5
1DA
330
1F
100
AcDbEntity
  8
0
  6
Continuous
 62
     7
370
    15
100
AcDbLine
 10
976.8454570071096
 20
252.2350796352864
 30
0.0
 11
976.8454570071096
 21
541.8350868712902
 31
0.0
  0
LINE
  5
1DB
330
1F
100
AcDbEntity
  8
0
  6
Continuous
 62
     7
370
    15
100
AcDbLine
 10
976.8454570071096
 20
252.2350796352864
 30
0.0
 11
971.8454543249006
 21
252.2350796352864
 31
0.0
  0
LINE
  5
1DC
330
1F
100
AcDbEntity
  8
0
  6
Continuous
 62
     7
370
    15
100
AcDbLine
 10
1148.845455397784
 20
541.8350868712902
 30
0.0
 11
1148.845455397784
 21
252.2350796352864
 31
0.0
  0
LINE
  5
1DD
330
1F
100
AcDbEntity
  8
0
  6
Continuous
 62
     7
370
    15
100
AcDbLine
 10
1153.845458079993
 20
541.8350868712902
 30
0.0
 11
1148.845455397784
 21
541.8350868712902
 31
0.0
  0
LINE
  5
1DE
330
1F
100
AcDbEntity
  8
0
  6
Continuous
 62
     7
370
    15
100
AcDbLine
 10
1148.845455397784
 20
252.2350796352864
 30
0.0
 11
1153.845458079993
 21
252.2350796352864
 31
0.0
  0
ARC
  5
1DF
330
1F
100
AcDbEntity
  8
0
  6
Continuous
 62
     7
370
    15
100
AcDbCircle
 10
1122.845454545455
 20
541.8350868081943
 30
0.0
 40
26.00000000000011
100
AcDbArc
 50
0.0
 51
90.0
  0
LINE
  5
1E0
330
1F
100
AcDbEntity
  8
0
  6
Continuous
 62
     7
370
    15
100
AcDbLine
 10
1122.845454861342
 20
572.835090089941
 30
0.0
 11
1122.845454861342
 21
567.835087407732
 31
0.0
  0
LINE
  5
1E1
330
1F
100
AcDbEntity
  8
0
  6
Continuous
 62
     7
370
    15
100
AcDbLine
 10
1002.845457543551
 20
567.835087407732
 30
0.0
 11
1122.845454861342
 21
567.835087407732
 31
0.0
  0
ARC
  5
1E2
330
1F
100
AcDbEntity
  8
0
  6
Continuous
 62
     7
370
    15
100
AcDbCircle
 10
917.6454545454548
 20
252.2350868081944
 30
0.0
 40
26.0
100
AcDbArc
 50
270.0000000000011
 51
0.0
  0
LINE
  5
1E3
330
1F
100
AcDbEntity
  8
0
  6
Continuous
 62
     7
370
    15
100
AcDbLine
 10
917.645453263938
 20
226.2350865494252
 30
0.0
 11
917.645453263938
 21
221.2350913177968
 31
0.0
  0
ARC
  5
1E4
330
1F
100
AcDbEntity
  8
0
  6
Continuous
 62
     7
370
    15
100
AcDbCircle
 10
628.0454545454548
 20
252.2350868081944
 30
0.0
 40
26.00000000000011
100
AcDbArc
 50
180.0
 51
270.0000000000008
  0
LINE
  5
1E5
330
1F
100
AcDbEntity
  8
0
  6
Continuous
 62
     7
370
    15
100
AcDbLine
 10
628.0454534785147
 20
226.2350865494252
 30
0.0
 11
628.0454534785147
 21
221.2350913177968
 31
0.0
  0
ARC
  5
1E6
330
1F
100
AcDbEntity
  8
0
  6
Continuous
 62
     7
370
    15
100
AcDbCircle
 10
1122.845454545455
 20
252.2350868081944
 30
0.0
 40
26.0
100
AcDbArc
 50
270.0000000000008
 51
0.0
  0
LINE
  5
1E7
330
1F
100
AcDbEntity
  8
0
  6
Continuous
 62
     7
370
    15
100
AcDbLine
 10
1122.845454861342
 20
226.2350865494252
 30
0.0
 11
1122.845454861342
 21
221.2350913177968
 31
0.0
  0
LINE
  5
1E8
330
1F
100
AcDbEntity
  8
0
  6
Continuous
 62
     7
370
    15
100
AcDbLine
 10
1122.845454861342
 20
226.2350865494252
 30
0.0
 11
1002.845457543551
 21
226.2350865494252
 31
0.0
  0
LINE
  5
1E9
330
1F
100
AcDbEntity
  8
0
  6
Continuous
 62
     7
370
    15
100
AcDbLine
 10
1002.845457543551
 20
226.2350865494252
 30
0.0
 11
1002.845457543551
 21
221.2350913177968
 31
0.0
  0
ARC
  5
1EA
330
1F
100
AcDbEntity
  8
0
  6
Continuous
 62
     7
370
    15
100
AcDbCircle
 10
1002.845454545455
 20
252.2350868081944
 30
0.0
 40
26.0
100
AcDbArc
 50
180.0
 51
270.0000000000008
  0
LINE
  5
1EB
330
1F
100
AcDbEntity
  8
0
  6
Continuous
 62
     7
370
    15
100
AcDbLine
 10
917.645453263938
 20
226.2350865494252
 30
0.0
 11
628.0454534785147
 21
226.2350865494252
 31
0.0
  0
LINE
  5
1EC
330
1F
100
AcDbEntity
  8
0
  6
Continuous
 62
     8
370
    15
100
AcDbLine
 10
1148.844687987983
 20
542.035090256834
 30
0.0
 11
1147.845453371226
 21
542.035090256834
 31
0.0
  0
LINE
  5
1ED
330
1F
100
AcDbEntity
  8
0
  6
Continuous
 62
     8
370
    15
100
AcDbLine
 10
1122.845454861342
 20
567.835087407732
 30
0.0
 11
1122.845454861342
 21
567.0350887667179
 31
0.0
  0
LINE
  5
1EE
330
1F
100
AcDbEntity
  8
0
  6
Continuous
 62
     8
370
    15
100
AcDbLine
 10
977.845451583087
 20
542.035090256834
 30
0.0
 11
976.8462244169111
 21
542.035090256834
 31
0.0
  0
LINE
  5
1EF
330
1F
100
AcDbEntity
  8
0
  6
Continuous
 62
     8
370
    15
100
AcDbLine
 10
1002.845457543551
 20
567.835087407732
 30
0.0
 11
1002.845457543551
 21
567.0350887667179
 31
0.0
  0
LINE
  5
1F0
330
1F
100
AcDbEntity
  8
0
  6
Continuous
 62
     8
370
    15
100
AcDbLine
 10
1002.845457543551
 20
227.0350851904393
 30
0.0
 11
1002.845457543551
 21
226.2350865494252
 31
0.0
  0
LINE
  5
1F1
330
1F
100
AcDbEntity
  8
0
  6
Continuous
 62
     8
370
    15
100
AcDbLine
 10
977.845451583087
 20
252.0350911509038
 30
0.0
 11
976.8462244169111
 21
252.0350911509038
 31
0.0
  0
LINE
  5
1F2
330
1F
100
AcDbEntity
  8
0
  6
Continuous
 62
     8
370
    15
100
AcDbLine
 10
1148.844687987983
 20
252.0350911509038
 30
0.0
 11
1147.845453371226
 21
252.0350911509038
 31
0.0
  0
LINE
  5
1F3
330
1F
100
AcDbEntity
  8
0
  6
Continuous
 62
     8
370
    15
100
AcDbLine
 10
1122.845454861342
 20
227.0350851904393
 30
0.0
 11
1122.845454861342
 21
226.2350865494252
 31
0.0
  0
LINE
  5
1F4
330
1F
100
AcDbEntity
  8
0
  6
Continuous
 62
     8
370
    15
100
AcDbLine
 10
627.8454500929709
 20
627.2350796352863
 30
0.0
 11
627.8454500929709
 21
628.2343217026233
 31
0.0
  0
LINE
  5
1F5
330
1F
100
AcDbEntity
  8
0
  6
Continuous
 62
     8
370
    15
100
AcDbLine
 10
917.8454566494818
 20
628.2343217026233
 30
0.0
 11
917.8454566494818
 21
627.2350796352863
 31
0.0
  0
LINE
  5
1F6
330
1F
100
AcDbEntity
  8
0
  6
Continuous
 62
     8
370
    15
100
AcDbLine
 10
602.8454441325064
 20
252.2350796352864
 30
0.0
 11
602.0454603926535
 21
252.2350796352864
 31
0.0
  0
LINE
  5
1F7
330
1F
100
AcDbEntity
  8
0
  6
Continuous
 62
     8
370
    15
100
AcDbLine
 10
602.8454441325064
 20
602.235088575983
 30
0.0
 11
602.0454603926535
 21
602.235088575983
 31
0.0
  0
LINE
  5
1F8
330
1F
100
AcDbEntity
  8
0
  6
Continuous
 62
     8
370
    15
100
AcDbLine
 10
943.6454612509604
 20
252.2350796352864
 30
0.0
 11
942.8454477087851
 21
252.2350796352864
 31
0.0
  0
LINE
  5
1F9
330
1F
100
AcDbEntity
  8
0
  6
Continuous
 62
     8
370
    15
100
AcDbLine
 10
943.6454612509604
 20
602.235088575983
 30
0.0
 11
942.8454477087851
 21
602.235088575983
 31
0.0
  0
LINE
  5
1FA
330
1F
100
AcDbEntity
  8
0
  6
Continuous
 62
     8
370
    15
100
AcDbLine
 10
917.8454566494818
 20
226.2358614098073
 30
0.0
 11
917.8454566494818
 21
227.2350885759831
 31
0.0
  0
LINE
  5
1FB
330
1F
100
AcDbEntity
  8
0
  6
Continuous
 62
     8
370
    15
100
AcDbLine
 10
627.8454500929709
 20
227.2350885759831
 30
0.0
 11
627.8454500929709
 21
226.2358614098073
 31
0.0
  0
LINE
  5
1FC
330
1F
100
AcDbEntity
  8
0
  6
Continuous
 62
     8
370
    15
100
AcDbLine
 10
942.349015523612
 20
403.985085416937
 30
0.0
 11
942.7902985112066
 21
403.985085416937
 31
0.0
  0
LINE
  5
1FD
330
1F
100
AcDbEntity
  8
0
  6
Continuous
 62
     8
370
    15
100
AcDbLine
 10
942.349015523612
 20
450.4850867524535
 30
0.0
 11
942.7902985112066
 21
450.4850867524535
 31
0.0
  0
ENDSEC
  0
SECTION
  2
OBJECTS
  0
DICTIONARY
  5
C
330
0
100
AcDbDictionary
281
     1
  3
ACAD_DETAILVIEWSTYLE
350
247
  3
ACAD_GROUP
350
D
  3
ACAD_IMAGE_VARS
350
241
  3
ACAD_LAYOUT
350
1A
  3
ACAD_MLINESTYLE
350
17
  3
ACAD_PLOTSETTINGS
350
19
  3
ACAD_PLOTSTYLENAME
350
E
  3
ACAD_SCALELIST
350
217
  3
ACAD_SECTIONVIEWSTYLE
350
248
  3
AcDbVariableDictionary
350
242
  3
APPDATA
350
23F
  3
DWGPROPS
350
249
  0
DICTIONARY
  5
247
102
{ACAD_REACTORS
330
C
102
}
330
C
100
AcDbDictionary
281
     1
  0
DICTIONARY
  5
D
102
{ACAD_REACTORS
330
C
102
}
330
C
100
AcDbDictionary
281
     1
  0
RASTERVARIABLES
  5
241
102
{ACAD_REACTORS
330
C
102
}
330
C
100
AcDbRasterVariables
 90
        0
 70
     1
 71
     1
 72
     1
  0
DICTIONARY
  5
1A
102
{ACAD_REACTORS
330
C
102
}
330
C
100
AcDbDictionary
281
     1
  3
Layout1
350
1E
  3
Layout2
350
26
  3
Model
350
22
  0
DICTIONARY
  5
17
102
{ACAD_REACTORS
330
C
102
}
330
C
100
AcDbDictionary
281
     1
  3
Standard
350
18
  0
DICTIONARY
  5
19
102
{ACAD_REACTORS
330
C
102
}
330
C
100
AcDbDictionary
281
     1
  0
ACDBDICTIONARYWDFLT
  5
E
102
{ACAD_REACTORS
330
C
102
}
330
C
100
AcDbDictionary
281
     1
  3
Normal
350
F
100
AcDbDictionaryWithDefault
340
F
  0
DICTIONARY
  5
217
102
{ACAD_REACTORS
330
C
102
}
330
C
100
AcDbDictionary
281
     1
  3
A0
350
218
  3
A1
350
219
  3
A2
350
21A
  3
A3
350
21B
  3
A4
350
21C
  3
A5
350
21D
  3
A6
350
21E
  3
A7
350
21F
  3
A8
350
220
  3
A9
350
221
  3
B0
350
222
  3
B1
350
223
  3
B2
350
224
  3
B3
350
225
  3
B4
350
226
  3
B5
350
227
  3
B6
350
228
  3
B7
350
229
  3
B8
350
22A
  3
B9
350
22B
  3
C0
350
22C
  3
C1
350
22D
  3
C2
350
22E
  3
C3
350
22F
  3
C4
350
230
  3
C5
350
231
  3
C6
350
232
  3
C7
350
233
  3
C8
350
234
  3
C9
350
235
  3
D0
350
236
  3
D1
350
237
  3
D2
350
238
  0
DICTIONARY
  5
248
102
{ACAD_REACTORS
330
C
102
}
330
C
100
AcDbDictionary
281
     1
  0
DICTIONARY
  5
242
102
{ACAD_REACTORS
330
C
102
}
330
C
100
AcDbDictionary
281
     1
  0
DICTIONARY
  5
23F
102
{ACAD_REACTORS
330
C
102
}
330
C
100
AcDbDictionary
281
     1
  0
XRECORD
  5
249
102
{ACAD_REACTORS
330
C
102
}
330
C
100
AcDbXrecord
280
     1
  1
DWGPROPS COOKIE
  2

  3

  4

  6

  7

  8
Ismo
  9

300
=
301
=
302
=
303
=
304
=
305
=
306
=
307
=
308
=
309
=
 40
0.0
 41
2456338.350405949
 42
2457758.275350162
  1

 90
        0
  0
LAYOUT
  5
1E
102
{ACAD_REACTORS
330
1A
102
}
330
1A
100
AcDbPlotSettings
  1

  2
none_device
  4

  6

 40
0.0
 41
0.0
 42
0.0
 43
0.0
 44
0.0
 45
0.0
 46
0.0
 47
0.0
 48
0.0
 49
0.0
140
0.0
141
0.0
142
1.0
143
1.0
 70
   688
 72
     0
 73
     0
 74
     5
  7

 75
    16
147
1.0
148
0.0
149
0.0
100
AcDbLayout
  1
Layout1
 70
     1
 71
     1
 10
0.0
 20
0.0
 11
420.0
 21
297.0
 12
0.0
 22
0.0
 32
0.0
 14
1.000000000000000E+20
 24
1.000000000000000E+20
 34
1.000000000000000E+20
 15
-1.000000000000000E+20
 25
-1.000000000000000E+20
 35
-1.000000000000000E+20
146
0.0
 13
0.0
 23
0.0
 33
0.0
 16
1.0
 26
0.0
 36
0.0
 17
0.0
 27
1.0
 37
0.0
 76
     0
330
1B
  0
LAYOUT
  5
26
102
{ACAD_REACTORS
330
1A
102
}
330
1A
100
AcDbPlotSettings
  1

  2
none_device
  4

  6

 40
0.0
 41
0.0
 42
0.0
 43
0.0
 44
0.0
 45
0.0
 46
0.0
 47
0.0
 48
0.0
 49
0.0
140
0.0
141
0.0
142
1.0
143
1.0
 70
   688
 72
     0
 73
     0
 74
     5
  7

 75
    16
147
1.0
148
0.0
149
0.0
100
AcDbLayout
  1
Layout2
 70
     1
 71
     2
 10
0.0
 20
0.0
 11
0.0
 21
0.0
 12
0.0
 22
0.0
 32
0.0
 14
0.0
 24
0.0
 34
0.0
 15
0.0
 25
0.0
 35
0.0
146
0.0
 13
0.0
 23
0.0
 33
0.0
 16
1.0
 26
0.0
 36
0.0
 17
0.0
 27
1.0
 37
0.0
 76
     0
330
23
  0
LAYOUT
  5
22
102
{ACAD_REACTORS
330
1A
102
}
330
1A
100
AcDbPlotSettings
  1

  2
none_device
  4

  6

 40
0.0
 41
0.0
 42
0.0
 43
0.0
 44
0.0
 45
0.0
 46
0.0
 47
0.0
 48
0.0
 49
0.0
140
0.0
141
0.0
142
1.0
143
1.0
 70
  1712
 72
     0
 73
     0
 74
     0
  7

 75
     0
147
1.0
148
0.0
149
0.0
100
AcDbLayout
  1
Model
 70
     1
 71
     0
 10
0.0
 20
0.0
 11
2000.0
 21
900.0
 12
0.0
 22
0.0
 32
0.0
 14
0.0
 24
0.0
 34
0.0
 15
2000.0
 25
900.0
 35
0.0
146
0.0
 13
0.0
 23
0.0
 33
0.0
 16
1.0
 26
0.0
 36
0.0
 17
0.0
 27
1.0
 37
0.0
 76
     0
330
1F
331
29
  0
MLINESTYLE
  5
18
102
{ACAD_REACTORS
330
17
102
}
330
17
100
AcDbMlineStyle
  2
Standard
 70
     0
  3

 62
   256
 51
90.0
 52
90.0
 71
     2
 49
0.5
 62
   256
  6
BYLAYER
 49
-0.5
 62
   256
  6
BYLAYER
  0
ACDBPLACEHOLDER
  5
F
102
{ACAD_REACTORS
330
E
102
}
330
E
  0
SCALE
  5
218
102
{ACAD_REACTORS
330
217
102
}
330
217
100
AcDbScale
 70
     0
300
1:1
140
1.0
141
1.0
290
     1
  0
SCALE
  5
219
102
{ACAD_REACTORS
330
217
102
}
330
217
100
AcDbScale
 70
     0
300
1:2
140
1.0
141
2.0
290
     0
  0
SCALE
  5
21A
102
{ACAD_REACTORS
330
217
102
}
330
217
100
AcDbScale
 70
     0
300
1:4
140
1.0
141
4.0
290
     0
  0
SCALE
  5
21B
102
{ACAD_REACTORS
330
217
102
}
330
217
100
AcDbScale
 70
     0
300
1:5
140
1.0
141
5.0
290
     0
  0
SCALE
  5
21C
102
{ACAD_REACTORS
330
217
102
}
330
217
100
AcDbScale
 70
     0
300
1:8
140
1.0
141
8.0
290
     0
  0
SCALE
  5
21D
102
{ACAD_REACTORS
330
217
102
}
330
217
100
AcDbScale
 70
     0
300
1:10
140
1.0
141
10.0
290
     0
  0
SCALE
  5
21E
102
{ACAD_REACTORS
330
217
102
}
330
217
100
AcDbScale
 70
     0
300
1:16
140
1.0
141
16.0
290
     0
  0
SCALE
  5
21F
102
{ACAD_REACTORS
330
217
102
}
330
217
100
AcDbScale
 70
     0
300
1:20
140
1.0
141
20.0
290
     0
  0
SCALE
  5
220
102
{ACAD_REACTORS
330
217
102
}
330
217
100
AcDbScale
 70
     0
300
1:30
140
1.0
141
30.0
290
     0
  0
SCALE
  5
221
102
{ACAD_REACTORS
330
217
102
}
330
217
100
AcDbScale
 70
     0
300
1:40
140
1.0
141
40.0
290
     0
  0
SCALE
  5
222
102
{ACAD_REACTORS
330
217
102
}
330
217
100
AcDbScale
 70
     0
300
1:50
140
1.0
141
50.0
290
     0
  0
SCALE
  5
223
102
{ACAD_REACTORS
330
217
102
}
330
217
100
AcDbScale
 70
     0
300
1:100
140
1.0
141
100.0
290
     0
  0
SCALE
  5
224
102
{ACAD_REACTORS
330
217
102
}
330
217
100
AcDbScale
 70
     0
300
2:1
140
2.0
141
1.0
290
     0
  0
SCALE
  5
225
102
{ACAD_REACTORS
330
217
102
}
330
217
100
AcDbScale
 70
     0
300
4:1
140
4.0
141
1.0
290
     0
  0
SCALE
  5
226
102
{ACAD_REACTORS
330
217
102
}
330
217
100
AcDbScale
 70
     0
300
8:1
140
8.0
141
1.0
290
     0
  0
SCALE
  5
227
102
{ACAD_REACTORS
330
217
102
}
330
217
100
AcDbScale
 70
     0
300
10:1
140
10.0
141
1.0
290
     0
  0
SCALE
  5
228
102
{ACAD_REACTORS
330
217
102
}
330
217
100
AcDbScale
 70
     0
300
100:1
140
100.0
141
1.0
290
     0
  0
SCALE
  5
229
102
{ACAD_REACTORS
330
217
102
}
330
217
100
AcDbScale
 70
     0
300
1/128" = 1'-0"
140
0.0078125
141
12.0
290
     0
  0
SCALE
  5
22A
102
{ACAD_REACTORS
330
217
102
}
330
217
100
AcDbScale
 70
     0
300
1/64" = 1'-0"
140
0.015625
141
12.0
290
     0
  0
SCALE
  5
22B
102
{ACAD_REACTORS
330
217
102
}
330
217
100
AcDbScale
 70
     0
300
1/32" = 1'-0"
140
0.03125
141
12.0
290
     0
  0
SCALE
  5
22C
102
{ACAD_REACTORS
330
217
102
}
330
217
100
AcDbScale
 70
     0
300
1/16" = 1'-0"
140
0.0625
141
12.0
290
     0
  0
SCALE
  5
22D
102
{ACAD_REACTORS
330
217
102
}
330
217
100
AcDbScale
 70
     0
300
3/32" = 1'-0"
140
0.09375
141
12.0
290
     0
  0
SCALE
  5
22E
102
{ACAD_REACTORS
330
217
102
}
330
217
100
AcDbScale
 70
     0
300
1/8" = 1'-0"
140
0.125
141
12.0
290
     0
  0
SCALE
  5
22F
102
{ACAD_REACTORS
330
217
102
}
330
217
100
AcDbScale
 70
     0
300
3/16" = 1'-0"
140
0.1875
141
12.0
290
     0
  0
SCALE
  5
230
102
{ACAD_REACTORS
330
217
102
}
330
217
100
AcDbScale
 70
     0
300
1/4" = 1'-0"
140
0.25
141
12.0
290
     0
  0
SCALE
  5
231
102
{ACAD_REACTORS
330
217
102
}
330
217
100
AcDbScale
 70
     0
300
3/8" = 1'-0"
140
0.375
141
12.0
290
     0
  0
SCALE
  5
232
102
{ACAD_REACTORS
330
217
102
}
330
217
100
AcDbScale
 70
     0
300
1/2" = 1'-0"
140
0.5
141
12.0
290
     0
  0
SCALE
  5
233
102
{ACAD_REACTORS
330
217
102
}
330
217
100
AcDbScale
 70
     0
300
3/4" = 1'-0"
140
0.75
141
12.0
290
     0
  0
SCALE
  5
234
102
{ACAD_REACTORS
330
217
102
}
330
217
100
AcDbScale
 70
     0
300
1" = 1'-0"
140
1.0
141
12.0
290
     0
  0
SCALE
  5
235
102
{ACAD_REACTORS
330
217
102
}
330
217
100
AcDbScale
 70
     0
300
1-1/2" = 1'-0"
140
1.5
141
12.0
290
     0
  0
SCALE
  5
236
102
{ACAD_REACTORS
330
217
102
}
330
217
100
AcDbScale
 70
     0
300
3" = 1'-0"
140
3.0
141
12.0
290
     0
  0
SCALE
  5
237
102
{ACAD_REACTORS
330
217
102
}
330
217
100
AcDbScale
 70
     0
300
6" = 1'-0"
140
6.0
141
12.0
290
     0
  0
SCALE
  5
238
102
{ACAD_REACTORS
330
217
102
}
330
217
100
AcDbScale
 70
     0
300
1'-0" = 1'-0"
140
12.0
141
12.0
290
     0
  0
ENDSEC
  0
EOF
