  0
SECTION
  2
HEADER
  9
$ACADVER
  1
AC1015
  9
$ACADMAINTVER
 70
     6
  9
$DWGCODEPAGE
  3
ANSI_1252
  9
$INSBASE
 10
0.0
 20
0.0
 30
0.0
  9
$EXTMIN
 10
0.0
 20
0.0
 30
0.0
  9
$EXTMAX
 10
2000.0
 20
900.0
 30
0.0
  9
$LIMMIN
 10
0.0
 20
0.0
  9
$LIMMAX
 10
2000.0
 20
900.0
  9
$ORTHOMODE
 70
     0
  9
$REGENMODE
 70
     1
  9
$FILLMODE
 70
     1
  9
$QTEXTMODE
 70
     0
  9
$MIRRTEXT
 70
     1
  9
$LTSCALE
 40
1.0
  9
$ATTMODE
 70
     1
  9
$TEXTSIZE
 40
4.2333333333
  9
$TRACEWID
 40
1.0
  9
$TEXTSTYLE
  7
Standard
  9
$CLAYER
  8
0
  9
$CELTYPE
  6
ByLayer
  9
$CECOLOR
 62
   256
  9
$CELTSCALE
 40
1.0
  9
$DISPSILH
 70
     0
  9
$DIMSCALE
 40
1.0
  9
$DIMASZ
 40
5.0
  9
$DIMEXO
 40
1.0
  9
$DIMDLI
 40
3.75
  9
$DIMRND
 40
0.0
  9
$DIMDLE
 40
0.0
  9
$DIMEXE
 40
1.0
  9
$DIMTP
 40
0.0
  9
$DIMTM
 40
0.0
  9
$DIMTXT
 40
5.0
  9
$DIMCEN
 40
2.5
  9
$DIMTSZ
 40
0.0
  9
$DIMTOL
 70
     0
  9
$DIMLIM
 70
     0
  9
$DIMTIH
 70
     1
  9
$DIMTOH
 70
     1
  9
$DIMSE1
 70
     0
  9
$DIMSE2
 70
     0
  9
$DIMTAD
 70
     1
  9
$DIMZIN
 70
     0
  9
$DIMBLK
  1

  9
$DIMASO
 70
     1
  9
$DIMSHO
 70
     1
  9
$DIMPOST
  1

  9
$DIMAPOST
  1

  9
$DIMALT
 70
     0
  9
$DIMALTD
 70
     3
  9
$DIMALTF
 40
0.0393700787
  9
$DIMLFAC
 40
1.0
  9
$DIMTOFL
 70
     1
  9
$DIMTVP
 40
0.0
  9
$DIMTIX
 70
     0
  9
$DIMSOXD
 70
     0
  9
$DIMSAH
 70
     0
  9
$DIMBLK1
  1

  9
$DIMBLK2
  1

  9
$DIMSTYLE
  2
ISO-25
  9
$DIMCLRD
 70
     0
  9
$DIMCLRE
 70
     0
  9
$DIMCLRT
 70
     0
  9
$DIMTFAC
 40
1.0
  9
$DIMGAP
 40
1.524
  9
$DIMJUST
 70
     0
  9
$DIMSD1
 70
     0
  9
$DIMSD2
 70
     0
  9
$DIMTOLJ
 70
     0
  9
$DIMTZIN
 70
     0
  9
$DIMALTZ
 70
     0
  9
$DIMALTTZ
 70
     0
  9
$DIMUPT
 70
     0
  9
$DIMDEC
 70
     2
  9
$DIMTDEC
 70
     2
  9
$DIMALTU
 70
     2
  9
$DIMALTTD
 70
     3
  9
$DIMTXSTY
  7
Standard
  9
$DIMAUNIT
 70
     0
  9
$DIMADEC
 70
     2
  9
$DIMALTRND
 40
0.0
  9
$DIMAZIN
 70
     0
  9
$DIMDSEP
 70
    44
  9
$DIMATFIT
 70
     3
  9
$DIMFRAC
 70
     0
  9
$DIMLDRBLK
  1

  9
$DIMLUNIT
 70
     2
  9
$DIMLWD
 70
    -2
  9
$DIMLWE
 70
    -2
  9
$DIMTMOVE
 70
     0
  9
$LUNITS
 70
     2
  9
$LUPREC
 70
     2
  9
$SKETCHINC
 40
1.0
  9
$FILLETRAD
 40
10.0
  9
$AUNITS
 70
     0
  9
$AUPREC
 70
     2
  9
$MENU
  1
.
  9
$ELEVATION
 40
0.0
  9
$PELEVATION
 40
0.0
  9
$THICKNESS
 40
0.0
  9
$LIMCHECK
 70
     0
  9
$CHAMFERA
 40
0.0
  9
$CHAMFERB
 40
0.0
  9
$CHAMFERC
 40
0.0
  9
$CHAMFERD
 40
0.0
  9
$SKPOLY
 70
     0
  9
$TDCREATE
 40
2459314.479973623
  9
$TDUCREATE
 40
2459314.354973623
  9
$TDUPDATE
 40
2459314.479974294
  9
$TDUUPDATE
 40
2459314.354974294
  9
$TDINDWG
 40
0.0000000116
  9
$TDUSRTIMER
 40
0.0000000116
  9
$USRTIMER
 70
     1
  9
$ANGBASE
 50
0.0
  9
$ANGDIR
 70
     0
  9
$PDMODE
 70
     0
  9
$PDSIZE
 40
-1.0
  9
$PLINEWID
 40
0.0
  9
$SPLFRAME
 70
     0
  9
$SPLINETYPE
 70
     6
  9
$SPLINESEGS
 70
     8
  9
$HANDSEED
  5
15D
  9
$SURFTAB1
 70
     6
  9
$SURFTAB2
 70
     6
  9
$SURFTYPE
 70
     6
  9
$SURFU
 70
     6
  9
$SURFV
 70
     6
  9
$UCSBASE
  2

  9
$UCSNAME
  2

  9
$UCSORG
 10
0.0
 20
0.0
 30
0.0
  9
$UCSXDIR
 10
1.0
 20
0.0
 30
0.0
  9
$UCSYDIR
 10
0.0
 20
1.0
 30
0.0
  9
$UCSORTHOREF
  2

  9
$UCSORTHOVIEW
 70
     0
  9
$UCSORGTOP
 10
0.0
 20
0.0
 30
0.0
  9
$UCSORGBOTTOM
 10
0.0
 20
0.0
 30
0.0
  9
$UCSORGLEFT
 10
0.0
 20
0.0
 30
0.0
  9
$UCSORGRIGHT
 10
0.0
 20
0.0
 30
0.0
  9
$UCSORGFRONT
 10
0.0
 20
0.0
 30
0.0
  9
$UCSORGBACK
 10
0.0
 20
0.0
 30
0.0
  9
$PUCSBASE
  2

  9
$PUCSNAME
  2

  9
$PUCSORG
 10
0.0
 20
0.0
 30
0.0
  9
$PUCSXDIR
 10
1.0
 20
0.0
 30
0.0
  9
$PUCSYDIR
 10
0.0
 20
1.0
 30
0.0
  9
$PUCSORTHOREF
  2

  9
$PUCSORTHOVIEW
 70
     0
  9
$PUCSORGTOP
 10
0.0
 20
0.0
 30
0.0
  9
$PUCSORGBOTTOM
 10
0.0
 20
0.0
 30
0.0
  9
$PUCSORGLEFT
 10
0.0
 20
0.0
 30
0.0
  9
$PUCSORGRIGHT
 10
0.0
 20
0.0
 30
0.0
  9
$PUCSORGFRONT
 10
0.0
 20
0.0
 30
0.0
  9
$PUCSORGBACK
 10
0.0
 20
0.0
 30
0.0
  9
$USERI1
 70
     0
  9
$USERI2
 70
     0
  9
$USERI3
 70
     0
  9
$USERI4
 70
     0
  9
$USERI5
 70
     0
  9
$USERR1
 40
0.0
  9
$USERR2
 40
0.0
  9
$USERR3
 40
0.0
  9
$USERR4
 40
0.0
  9
$USERR5
 40
0.0
  9
$WORLDVIEW
 70
     1
  9
$SHADEDGE
 70
     3
  9
$SHADEDIF
 70
    70
  9
$TILEMODE
 70
     1
  9
$MAXACTVP
 70
    64
  9
$PINSBASE
 10
0.0
 20
0.0
 30
0.0
  9
$PLIMCHECK
 70
     0
  9
$PEXTMIN
 10
1.0000000000E+20
 20
1.0000000000E+20
 30
1.0000000000E+20
  9
$PEXTMAX
 10
-1.0000000000E+20
 20
-1.0000000000E+20
 30
-1.0000000000E+20
  9
$PLIMMIN
 10
0.0
 20
0.0
  9
$PLIMMAX
 10
420.0
 20
297.0
  9
$UNITMODE
 70
     0
  9
$VISRETAIN
 70
     1
  9
$PLINEGEN
 70
     0
  9
$PSLTSCALE
 70
     1
  9
$TREEDEPTH
 70
  3020
  9
$CMLSTYLE
  2
Standard
  9
$CMLJUST
 70
     0
  9
$CMLSCALE
 40
20.0
  9
$PROXYGRAPHICS
 70
     1
  9
$MEASUREMENT
 70
     1
  9
$CELWEIGHT
370
    -1
  9
$ENDCAPS
280
     0
  9
$JOINSTYLE
280
     0
  9
$LWDISPLAY
290
     1
  9
$INSUNITS
 70
     4
  9
$HYPERLINKBASE
  1

  9
$STYLESHEET
  1

  9
$XEDIT
290
     1
  9
$CEPSNTYPE
380
     0
  9
$PSTYLEMODE
290
     1
  9
$FINGERPRINTGUID
  2
{2e79ab58-6487-4fbb-8c53-efafb664c64d}
  9
$VERSIONGUID
  2
{FAEB1C32-E019-11D5-929B-00C0DF256EC4}
  9
$EXTNAMES
290
     1
  9
$PSVPSCALE
 40
0.0
  9
$OLESTARTUP
290
     0
  0
ENDSEC
  0
SECTION
  2
CLASSES
  0
CLASS
  1
ACDBDICTIONARYWDFLT
  2
AcDbDictionaryWithDefault
  3
ObjectDBX Classes
 90
        0
280
     0
281
     0
  0
CLASS
  1
VISUALSTYLE
  2
AcDbVisualStyle
  3
ObjectDBX Classes
 90
     4095
280
     0
281
     0
  0
CLASS
  1
MATERIAL
  2
AcDbMaterial
  3
ObjectDBX Classes
 90
     1153
280
     0
281
     0
  0
CLASS
  1
SCALE
  2
AcDbScale
  3
ObjectDBX Classes
 90
     1153
280
     0
281
     0
  0
CLASS
  1
TABLESTYLE
  2
AcDbTableStyle
  3
ObjectDBX Classes
 90
     4095
280
     0
281
     0
  0
CLASS
  1
MLEADERSTYLE
  2
AcDbMLeaderStyle
  3
ACDB_MLEADERSTYLE_CLASS
 90
     4095
280
     0
281
     0
  0
CLASS
  1
SUN
  2
AcDbSun
  3
SCENEOE
 90
     1153
280
     0
281
     0
  0
CLASS
  1
ACDBPLACEHOLDER
  2
AcDbPlaceHolder
  3
ObjectDBX Classes
 90
        0
280
     0
281
     0
  0
CLASS
  1
LAYOUT
  2
AcDbLayout
  3
ObjectDBX Classes
 90
        0
280
     0
281
     0
  0
ENDSEC
  0
SECTION
  2
TABLES
  0
TABLE
  2
VPORT
  5
8
330
0
100
AcDbSymbolTable
 70
     1
  0
VPORT
  5
29
330
8
100
AcDbSymbolTableRecord
100
AcDbViewportTableRecord
  2
*Active
 70
     0
 10
0.0
 20
0.0
 11
1.0
 21
1.0
 12
1000.0
 22
450.0
 13
0.0
 23
0.0
 14
10.0
 24
10.0
 15
10.0
 25
10.0
 16
0.0
 26
0.0
 36
1.0
 17
0.0
 27
0.0
 37
0.0
 40
900.0
 41
2.2222222222
 42
50.0
 43
0.0
 44
0.0
 50
0.0
 51
0.0
 71
     0
 72
  2000
 73
     1
 74
     3
 75
     0
 76
     0
 77
     0
 78
     0
281
     0
 65
     1
110
0.0
120
0.0
130
0.0
111
1.0
121
0.0
131
0.0
112
0.0
122
1.0
132
0.0
 79
     0
146
0.0
  0
ENDTAB
  0
TABLE
  2
LTYPE
  5
5
330
0
100
AcDbSymbolTable
 70
     6
  0
LTYPE
  5
14
330
5
100
AcDbSymbolTableRecord
100
AcDbLinetypeTableRecord
  2
ByBlock
 70
     0
  3

 72
    65
 73
     0
 40
0.0
  0
LTYPE
  5
15
330
5
100
AcDbSymbolTableRecord
100
AcDbLinetypeTableRecord
  2
ByLayer
 70
     0
  3

 72
    65
 73
     0
 40
0.0
  0
LTYPE
  5
16
330
5
100
AcDbSymbolTableRecord
100
AcDbLinetypeTableRecord
  2
Continuous
 70
     0
  3
Solid line
 72
    65
 73
     0
 40
0.0
  0
LTYPE
  5
6E
330
5
100
AcDbSymbolTableRecord
100
AcDbLinetypeTableRecord
  2
HIDDEN
 70
     0
  3
Hidden __ __ __ __ __ __ __ __ __ __ __ __ __ __
 72
    65
 73
     2
 40
1.905
 49
1.27
 74
     0
 49
-0.635
 74
     0
  0
LTYPE
  5
6F
330
5
100
AcDbSymbolTableRecord
100
AcDbLinetypeTableRecord
  2
PHANTOM
 70
     0
  3
Phantom ______  __  __  ______  __  __  ______
 72
    65
 73
     6
 40
12.7
 49
6.35
 74
     0
 49
-1.27
 74
     0
 49
1.27
 74
     0
 49
-1.27
 74
     0
 49
1.27
 74
     0
 49
-1.27
 74
     0
  0
LTYPE
  5
70
330
5
100
AcDbSymbolTableRecord
100
AcDbLinetypeTableRecord
  2
CENTER
 70
     0
  3
Center ____ _ ____ _ ____ _ ____ _ ____ _ ____
 72
    65
 73
     4
 40
10.16
 49
6.35
 74
     0
 49
-1.27
 74
     0
 49
1.27
 74
     0
 49
-1.27
 74
     0
  0
LTYPE
  5
71
330
5
100
AcDbSymbolTableRecord
100
AcDbLinetypeTableRecord
  2
CENTERX2
 70
     0
  3
Center (2x) ________  __  ________  __  _____
 72
    65
 73
     4
 40
20.32
 49
12.7
 74
     0
 49
-2.54
 74
     0
 49
2.54
 74
     0
 49
-2.54
 74
     0
  0
LTYPE
  5
72
330
5
100
AcDbSymbolTableRecord
100
AcDbLinetypeTableRecord
  2
DOT2
 70
     0
  3
Dot (.5x) ........................................
 72
    65
 73
     2
 40
0.635
 49
0.0
 74
     0
 49
-0.635
 74
     0
  0
ENDTAB
  0
TABLE
  2
LAYER
  5
2
330
0
100
AcDbSymbolTable
 70
     2
  0
LAYER
  5
10
330
2
100
AcDbSymbolTableRecord
100
AcDbLayerTableRecord
  2
0
 70
     0
 62
     7
  6
Continuous
370
    -3
390
F
  0
LAYER
  5
73
330
2
100
AcDbSymbolTableRecord
100
AcDbLayerTableRecord
  2
TABLE_BL1
 70
     0
 62
   179
  6
Continuous
370
    -3
390
F
  0
ENDTAB
  0
TABLE
  2
STYLE
  5
3
330
0
100
AcDbSymbolTable
 70
     1
  0
STYLE
  5
11
330
3
100
AcDbSymbolTableRecord
100
AcDbTextStyleTableRecord
  2
Standard
 70
     0
 40
0.0
 41
1.0
 50
0.0
 71
     0
 42
4.2333333333
  3
txt
  4

  0
ENDTAB
  0
TABLE
  2
VIEW
  5
6
330
0
100
AcDbSymbolTable
 70
     0
  0
ENDTAB
  0
TABLE
  2
UCS
  5
7
330
0
100
AcDbSymbolTable
 70
     0
  0
ENDTAB
  0
TABLE
  2
APPID
  5
9
330
0
100
AcDbSymbolTable
 70
     1
  0
APPID
  5
12
330
9
100
AcDbSymbolTableRecord
100
AcDbRegAppTableRecord
  2
ACAD
 70
     0
  0
ENDTAB
  0
TABLE
  2
DIMSTYLE
  5
A
330
0
100
AcDbSymbolTable
 70
     1
100
AcDbDimStyleTable
  0
DIMSTYLE
105
27
330
A
100
AcDbSymbolTableRecord
100
AcDbDimStyleTableRecord
  2
ISO-25
 70
     0
 41
2.5
 42
0.625
 43
3.75
 44
1.25
 73
     0
 74
     0
 77
     1
 78
     8
140
2.5
141
2.5
143
0.0393700787
147
0.625
171
     3
172
     1
178
     0
271
     2
272
     2
274
     3
278
    44
283
     0
284
     8
340
11
  0
ENDTAB
  0
TABLE
  2
BLOCK_RECORD
  5
1
330
0
100
AcDbSymbolTable
 70
     1
  0
BLOCK_RECORD
  5
1F
330
1
100
AcDbSymbolTableRecord
100
AcDbBlockTableRecord
  2
*Model_Space
340
22
  0
BLOCK_RECORD
  5
1B
330
1
100
AcDbSymbolTableRecord
100
AcDbBlockTableRecord
  2
*Paper_Space
340
1E
  0
BLOCK_RECORD
  5
23
330
1
100
AcDbSymbolTableRecord
100
AcDbBlockTableRecord
  2
*Paper_Space0
340
26
  0
ENDTAB
  0
ENDSEC
  0
SECTION
  2
BLOCKS
  0
BLOCK
  5
20
330
1F
100
AcDbEntity
  8
0
100
AcDbBlockBegin
  2
*Model_Space
 70
     0
 10
0.0
 20
0.0
 30
0.0
  3
*Model_Space
  1

  0
ENDBLK
  5
21
330
1F
100
AcDbEntity
  8
0
100
AcDbBlockEnd
  0
BLOCK
  5
1C
330
1B
100
AcDbEntity
 67
     1
  8
0
100
AcDbBlockBegin
  2
*Paper_Space
 70
     0
 10
0.0
 20
0.0
 30
0.0
  3
*Paper_Space
  1

  0
ENDBLK
  5
1D
330
1B
100
AcDbEntity
 67
     1
  8
0
100
AcDbBlockEnd
  0
BLOCK
  5
24
330
23
100
AcDbEntity
  8
0
100
AcDbBlockBegin
  2
*Paper_Space0
 70
     0
 10
0.0
 20
0.0
 30
0.0
  3
*Paper_Space0
  1

  0
ENDBLK
  5
25
330
23
100
AcDbEntity
  8
0
100
AcDbBlockEnd
  0
ENDSEC
  0
SECTION
  2
ENTITIES
  0
SPLINE
  5
74
330
1F
100
AcDbEntity
  8
0
  6
Continuous
 62
     7
370
    25
100
AcDbSpline
210
0.0
220
0.0
230
1.0
 70
     8
 71
     3
 72
    29
 73
    25
 74
     0
 42
0.000000001
 43
0.00000001
 40
0.0
 40
0.0
 40
0.0
 40
0.0
 40
0.0349321406882635
 40
0.0633980643159913
 40
0.0838985515737896
 40
0.1410481598295769
 40
0.1993926718331194
 40
0.2579538570990189
 40
0.316735887686743
 40
0.3756685440136576
 40
0.4347110736298805
 40
0.4938368192040541
 40
0.5530116495173845
 40
0.6120983013386024
 40
0.6710428299972759
 40
0.7298261731686604
 40
0.7884258360426928
 40
0.8467958145206173
 40
0.8655669647427026
 40
0.8834823951604176
 40
0.9012873219477363
 40
0.9267778521638325
 40
0.9604934909203238
 40
1.0
 40
1.0
 40
1.0
 40
1.0
 10
953.3512263065586
 20
512.7089831329787
 30
0.0
 10
952.8181789779487
 20
511.4551700774614
 30
0.0
 10
951.8507556206384
 20
509.1796347347159
 30
0.0
 10
950.9669285612986
 20
506.0246590422651
 30
0.0
 10
950.1328642352181
 20
501.9742762489083
 30
0.0
 10
949.708548319492
 20
496.6598085870473
 30
0.0
 10
950.398569974044
 20
489.8765118193551
 30
0.0
 10
952.3349595798394
 20
483.2700532619834
 30
0.0
 10
955.4599714899871
 20
477.1101726367295
 30
0.0
 10
959.6761676903278
 20
471.6148032318723
 30
0.0
 10
964.8430779562843
 20
466.9815787882011
 30
0.0
 10
970.7847088659048
 20
463.376827397072
 30
0.0
 10
977.2918668844577
 20
460.9315977041803
 30
0.0
 10
984.1316629641898
 20
459.7319197480679
 30
0.0
 10
991.0597713454453
 20
459.813746047352
 30
0.0
 10
997.836022748151
 20
461.1649319304072
 30
0.0
 10
1004.227301274871
 20
463.7262955483964
 30
0.0
 10
1008.72196328682
 20
466.57639507344
 30
0.0
 10
1011.588373436573
 20
468.9239046097361
 30
0.0
 10
1013.151654884968
 20
470.3622491137746
 30
0.0
 10
1014.815115629497
 20
472.0732355496299
 30
0.0
 10
1016.753046266632
 20
474.3666347426965
 30
0.0
 10
1018.984357662168
 20
477.5138380228897
 30
0.0
 10
1020.274412013094
 20
480.0625961199372
 30
0.0
 10
1020.970452015119
 20
481.4377611195791
 30
0.0
  0
SPLINE
  5
75
330
1F
100
AcDbEntity
  8
0
  6
Continuous
 62
     7
370
    25
100
AcDbSpline
210
0.0
220
0.0
230
1.0
 70
     8
 71
     3
 72
    29
 73
    25
 74
     0
 42
0.000000001
 43
0.00000001
 40
0.0
 40
0.0
 40
0.0
 40
0.0
 40
0.0349321406882635
 40
0.0633980643159913
 40
0.0838985515737895
 40
0.1410481598295769
 40
0.1993926718331194
 40
0.2579538570990187
 40
0.3167358876867429
 40
0.3756685440136575
 40
0.4347110736298804
 40
0.4938368192040539
 40
0.5530116495173845
 40
0.6120983013386024
 40
0.6710428299972759
 40
0.7298261731686602
 40
0.7884258360426927
 40
0.8467958145206174
 40
0.8655669647427027
 40
0.8834823951604176
 40
0.9012873219477363
 40
0.9267778521638325
 40
0.9604934909203238
 40
1.0
 40
1.0
 40
1.0
 40
1.0
 10
1020.970452015119
 20
481.4377611195791
 30
0.0
 10
1021.503499343729
 20
482.6915741750963
 30
0.0
 10
1022.470922701039
 20
484.9671095178418
 30
0.0
 10
1023.354749760379
 20
488.1220852102926
 30
0.0
 10
1024.188814086459
 20
492.1724680036494
 30
0.0
 10
1024.613130002185
 20
497.4869356655104
 30
0.0
 10
1023.923108347634
 20
504.2702324332026
 30
0.0
 10
1021.986718741838
 20
510.8766909905743
 30
0.0
 10
1018.86170683169
 20
517.0365716158282
 30
0.0
 10
1014.64551063135
 20
522.5319410206855
 30
0.0
 10
1009.478600365393
 20
527.1651654643566
 30
0.0
 10
1003.536969455773
 20
530.7699168554858
 30
0.0
 10
997.0298114372198
 20
533.2151465483774
 30
0.0
 10
990.1900153574877
 20
534.4148245044898
 30
0.0
 10
983.2619069762322
 20
534.3329982052057
 30
0.0
 10
976.4856555735265
 20
532.9818123221506
 30
0.0
 10
970.0943770468062
 20
530.4204487041613
 30
0.0
 10
965.5997150348576
 20
527.5703491791177
 30
0.0
 10
962.7333048851048
 20
525.2228396428217
 30
0.0
 10
961.1700234367091
 20
523.7844951387832
 30
0.0
 10
959.506562692181
 20
522.0735087029278
 30
0.0
 10
957.5686320550454
 20
519.7801095098613
 30
0.0
 10
955.3373206595093
 20
516.632906229668
 30
0.0
 10
954.0472663085833
 20
514.0841481326205
 30
0.0
 10
953.3512263065586
 20
512.7089831329787
 30
0.0
  0
CIRCLE
  5
76
330
1F
100
AcDbEntity
  8
0
  6
Continuous
 62
     7
370
    25
100
AcDbCircle
 10
987.1608391608
 20
659.972027972
 30
0.0
 40
17.5
  0
LINE
  5
77
330
1F
100
AcDbEntity
  8
0
  6
Continuous
 62
     7
370
    25
100
AcDbLine
 10
762.1608391608
 20
612.572027972
 30
0.0
 11
1212.1608391608
 21
612.572027972
 31
0.0
  0
ARC
  5
78
330
1F
100
AcDbEntity
  8
0
  6
Continuous
 62
     7
370
    25
100
AcDbCircle
 10
762.1608391608
 20
581.572027972
 30
0.0
 40
31.00000000000023
100
AcDbArc
 50
90.0
 51
180.0
  0
LINE
  5
79
330
1F
100
AcDbEntity
  8
0
  6
Continuous
 62
     7
370
    25
100
AcDbLine
 10
731.1608391608
 20
291.972027972
 30
0.0
 11
731.1608391608
 21
581.572027972
 31
0.0
  0
ARC
  5
7A
330
1F
100
AcDbEntity
  8
0
  6
Continuous
 62
     7
370
    25
100
AcDbCircle
 10
762.1608391608
 20
291.972027972
 30
0.0
 40
31.00000000000023
100
AcDbArc
 50
180.0
 51
270.0
  0
LINE
  5
7B
330
1F
100
AcDbEntity
  8
0
  6
Continuous
 62
     7
370
    25
100
AcDbLine
 10
1212.1608391608
 20
260.972027972
 30
0.0
 11
762.1608391608
 21
260.972027972
 31
0.0
  0
ARC
  5
7C
330
1F
100
AcDbEntity
  8
0
  6
Continuous
 62
     7
370
    25
100
AcDbCircle
 10
1212.1608391608
 20
291.972027972
 30
0.0
 40
31.00000000000023
100
AcDbArc
 50
270.0
 51
0.0
  0
LINE
  5
7D
330
1F
100
AcDbEntity
  8
0
  6
Continuous
 62
     7
370
    25
100
AcDbLine
 10
1243.1608391608
 20
581.572027972
 30
0.0
 11
1243.1608391608
 21
291.972027972
 31
0.0
  0
ARC
  5
7E
330
1F
100
AcDbEntity
  8
0
  6
Continuous
 62
     7
370
    25
100
AcDbCircle
 10
1212.1608391608
 20
581.572027972
 30
0.0
 40
31.00000000000023
100
AcDbArc
 50
0.0
 51
90.0
  0
LINE
  5
7F
330
1F
100
AcDbEntity
  8
0
  6
Continuous
 62
     7
370
    25
100
AcDbLine
 10
1275.6795339081
 20
244.972027972
 30
0.0
 11
1275.6795339081
 21
694.972027972
 31
0.0
  0
ARC
  5
80
330
1F
100
AcDbEntity
  8
0
  6
Continuous
 62
     7
370
    25
100
AcDbCircle
 10
1251.6608391608
 20
244.972027972
 30
0.0
 40
24.01869474724754
100
AcDbArc
 50
270.0
 51
0.0
  0
LINE
  5
81
330
1F
100
AcDbEntity
  8
0
  6
Continuous
 62
     7
370
    25
100
AcDbLine
 10
722.6608391608
 20
220.9533332248
 30
0.0
 11
1251.6608391608
 21
220.9533332248
 31
0.0
  0
ARC
  5
82
330
1F
100
AcDbEntity
  8
0
  6
Continuous
 62
     7
370
    25
100
AcDbCircle
 10
722.6608391608
 20
244.972027972
 30
0.0
 40
24.01869474724754
100
AcDbArc
 50
180.0
 51
270.0
  0
LINE
  5
83
330
1F
100
AcDbEntity
  8
0
  6
Continuous
 62
     7
370
    25
100
AcDbLine
 10
698.6421444136
 20
694.972027972
 30
0.0
 11
698.6421444136
 21
244.972027972
 31
0.0
  0
ARC
  5
84
330
1F
100
AcDbEntity
  8
0
  6
Continuous
 62
     7
370
    25
100
AcDbCircle
 10
722.6608391608
 20
694.972027972
 30
0.0
 40
24.01869474724754
100
AcDbArc
 50
90.0
 51
180.0
  0
LINE
  5
85
330
1F
100
AcDbEntity
  8
0
  6
Continuous
 62
     7
370
    25
100
AcDbLine
 10
1251.6608391608
 20
718.9907227193
 30
0.0
 11
722.6608391608
 21
718.9907227193
 31
0.0
  0
ARC
  5
86
330
1F
100
AcDbEntity
  8
0
  6
Continuous
 62
     7
370
    25
100
AcDbCircle
 10
1251.6608391608
 20
694.972027972
 30
0.0
 40
24.01869474724754
100
AcDbArc
 50
0.0
 51
90.0
  0
LINE
  5
87
330
1F
100
AcDbEntity
  8
0
  6
Continuous
 62
     7
370
    25
100
AcDbLine
 10
1243.1608391608
 20
581.572027972
 30
0.0
 11
1238.1608391608
 21
581.572027972
 31
0.0
  0
ARC
  5
88
330
1F
100
AcDbEntity
  8
0
  6
Continuous
 62
     7
370
    25
100
AcDbCircle
 10
1212.1608391608
 20
581.572027972
 30
0.0
 40
26.00000000000011
100
AcDbArc
 50
0.0
 51
90.0
  0
LINE
  5
89
330
1F
100
AcDbEntity
  8
0
  6
Continuous
 62
     7
370
    25
100
AcDbLine
 10
1212.1608391608
 20
612.572027972
 30
0.0
 11
1212.1608391608
 21
607.572027972
 31
0.0
  0
ARC
  5
8A
330
1F
100
AcDbEntity
  8
0
  6
Continuous
 62
     7
370
    25
100
AcDbCircle
 10
1212.1608391608
 20
291.972027972
 30
0.0
 40
26.00000000000011
100
AcDbArc
 50
270.0
 51
0.0
  0
LINE
  5
8B
330
1F
100
AcDbEntity
  8
0
  6
Continuous
 62
     7
370
    25
100
AcDbLine
 10
1238.1608391608
 20
291.972027972
 30
0.0
 11
1243.1608391608
 21
291.972027972
 31
0.0
  0
LINE
  5
8C
330
1F
100
AcDbEntity
  8
0
  6
Continuous
 62
     7
370
    25
100
AcDbLine
 10
1212.1608391608
 20
265.972027972
 30
0.0
 11
1212.1608391608
 21
260.972027972
 31
0.0
  0
LINE
  5
8D
330
1F
100
AcDbEntity
  8
0
  6
Continuous
 62
     7
370
    25
100
AcDbLine
 10
1238.1608391608
 20
291.972027972
 30
0.0
 11
1238.1608391608
 21
581.572027972
 31
0.0
  0
LINE
  5
8E
330
1F
100
AcDbEntity
  8
0
  6
Continuous
 62
     7
370
    25
100
AcDbLine
 10
1251.6608391608
 20
220.9533332248
 30
0.0
 11
1251.6608391608
 21
219.972027972
 31
0.0
  0
LINE
  5
8F
330
1F
100
AcDbEntity
  8
0
  6
Continuous
 62
     7
370
    25
100
AcDbLine
 10
1251.6608391608
 20
219.972027972
 30
0.0
 11
722.6608391608
 21
219.972027972
 31
0.0
  0
LINE
  5
90
330
1F
100
AcDbEntity
  8
0
  6
Continuous
 62
     7
370
    25
100
AcDbLine
 10
722.6608391608
 20
219.972027972
 30
0.0
 11
722.6608391608
 21
220.9533332248
 31
0.0
  0
LINE
  5
91
330
1F
100
AcDbEntity
  8
0
  6
Continuous
 62
     7
370
    25
100
AcDbLine
 10
1275.6795339081
 20
244.972027972
 30
0.0
 11
1276.6608391608
 21
244.972027972
 31
0.0
  0
ARC
  5
92
330
1F
100
AcDbEntity
  8
0
  6
Continuous
 62
     7
370
    25
100
AcDbCircle
 10
1251.6608391608
 20
244.972027972
 30
0.0
 40
25.0
100
AcDbArc
 50
270.0
 51
0.0
  0
ARC
  5
93
330
1F
100
AcDbEntity
  8
0
  6
Continuous
 62
     7
370
    25
100
AcDbCircle
 10
722.6608391608
 20
244.972027972
 30
0.0
 40
24.99999999999997
100
AcDbArc
 50
180.0
 51
270.0
  0
LINE
  5
94
330
1F
100
AcDbEntity
  8
0
  6
Continuous
 62
     7
370
    25
100
AcDbLine
 10
697.6608391608
 20
244.972027972
 30
0.0
 11
698.6421444136
 21
244.972027972
 31
0.0
  0
LINE
  5
95
330
1F
100
AcDbEntity
  8
0
  6
Continuous
 62
     7
370
    25
100
AcDbLine
 10
1275.6795339081
 20
694.972027972
 30
0.0
 11
1276.6608391608
 21
694.972027972
 31
0.0
  0
LINE
  5
96
330
1F
100
AcDbEntity
  8
0
  6
Continuous
 62
     7
370
    25
100
AcDbLine
 10
1276.6608391608
 20
694.972027972
 30
0.0
 11
1276.6608391608
 21
244.972027972
 31
0.0
  0
LINE
  5
97
330
1F
100
AcDbEntity
  8
0
  6
Continuous
 62
     7
370
    25
100
AcDbLine
 10
697.6608391608
 20
244.972027972
 30
0.0
 11
697.6608391608
 21
694.972027972
 31
0.0
  0
LINE
  5
98
330
1F
100
AcDbEntity
  8
0
  6
Continuous
 62
     7
370
    25
100
AcDbLine
 10
697.6608391608
 20
694.972027972
 30
0.0
 11
698.6421444136
 21
694.972027972
 31
0.0
  0
LINE
  5
99
330
1F
100
AcDbEntity
  8
0
  6
Continuous
 62
     7
370
    25
100
AcDbLine
 10
1251.6608391608
 20
718.9907227193
 30
0.0
 11
1251.6608391608
 21
719.972027972
 31
0.0
  0
ARC
  5
9A
330
1F
100
AcDbEntity
  8
0
  6
Continuous
 62
     7
370
    25
100
AcDbCircle
 10
1251.6608391608
 20
694.972027972
 30
0.0
 40
25.0
100
AcDbArc
 50
0.0
 51
90.0
  0
LINE
  5
9B
330
1F
100
AcDbEntity
  8
0
  6
Continuous
 62
     7
370
    25
100
AcDbLine
 10
731.1608391608
 20
581.572027972
 30
0.0
 11
736.1608391608
 21
581.572027972
 31
0.0
  0
LINE
  5
9C
330
1F
100
AcDbEntity
  8
0
  6
Continuous
 62
     7
370
    25
100
AcDbLine
 10
736.1608391608
 20
291.972027972
 30
0.0
 11
736.1608391608
 21
581.572027972
 31
0.0
  0
LINE
  5
9D
330
1F
100
AcDbEntity
  8
0
  6
Continuous
 62
     7
370
    25
100
AcDbLine
 10
736.1608391608
 20
291.972027972
 30
0.0
 11
731.1608391608
 21
291.972027972
 31
0.0
  0
LINE
  5
9E
330
1F
100
AcDbEntity
  8
0
  6
Continuous
 62
     7
370
    25
100
AcDbLine
 10
762.1608391608
 20
612.572027972
 30
0.0
 11
762.1608391608
 21
607.572027972
 31
0.0
  0
ARC
  5
9F
330
1F
100
AcDbEntity
  8
0
  6
Continuous
 62
     7
370
    25
100
AcDbCircle
 10
762.1608391608
 20
581.572027972
 30
0.0
 40
26.00000000000011
100
AcDbArc
 50
90.0
 51
180.0
  0
ARC
  5
A0
330
1F
100
AcDbEntity
  8
0
  6
Continuous
 62
     7
370
    25
100
AcDbCircle
 10
762.1608391608
 20
291.972027972
 30
0.0
 40
26.00000000000011
100
AcDbArc
 50
180.0
 51
270.0
  0
LINE
  5
A1
330
1F
100
AcDbEntity
  8
0
  6
Continuous
 62
     7
370
    25
100
AcDbLine
 10
762.1608391608
 20
265.972027972
 30
0.0
 11
762.1608391608
 21
260.972027972
 31
0.0
  0
LINE
  5
A2
330
1F
100
AcDbEntity
  8
0
  6
Continuous
 62
     7
370
    25
100
AcDbLine
 10
1212.1608391608
 20
607.572027972
 30
0.0
 11
762.1608391608
 21
607.572027972
 31
0.0
  0
LINE
  5
A3
330
1F
100
AcDbEntity
  8
0
  6
Continuous
 62
     7
370
    25
100
AcDbLine
 10
1212.1608391608
 20
265.972027972
 30
0.0
 11
762.1608391608
 21
265.972027972
 31
0.0
  0
LINE
  5
A4
330
1F
100
AcDbEntity
  8
0
  6
Continuous
 62
     7
370
    25
100
AcDbLine
 10
722.6608391608
 20
719.972027972
 30
0.0
 11
722.6608391608
 21
718.9907227193
 31
0.0
  0
LINE
  5
A5
330
1F
100
AcDbEntity
  8
0
  6
Continuous
 62
     7
370
    25
100
AcDbLine
 10
722.6608391608
 20
719.972027972
 30
0.0
 11
1251.6608391608
 21
719.972027972
 31
0.0
  0
ARC
  5
A6
330
1F
100
AcDbEntity
  8
0
  6
Continuous
 62
     7
370
    25
100
AcDbCircle
 10
722.6608391608
 20
694.972027972
 30
0.0
 40
25.0
100
AcDbArc
 50
90.0
 51
180.0
  0
LINE
  5
A7
330
1F
100
AcDbEntity
  8
0
  6
Continuous
 62
     7
370
    25
100
AcDbLine
 10
1014.6608391608
 20
605.472027972
 30
0.0
 11
1012.6608391608
 21
605.472027972
 31
0.0
  0
LINE
  5
A8
330
1F
100
AcDbEntity
  8
0
  6
Continuous
 62
     7
370
    25
100
AcDbLine
 10
1012.6608391608
 20
606.072027972
 30
0.0
 11
1012.6608391608
 21
605.472027972
 31
0.0
  0
LINE
  5
A9
330
1F
100
AcDbEntity
  8
0
  6
Continuous
 62
     7
370
    25
100
AcDbLine
 10
1014.6608391608
 20
606.072027972
 30
0.0
 11
1014.6608391608
 21
605.472027972
 31
0.0
  0
LINE
  5
AA
330
1F
100
AcDbEntity
  8
0
  6
Continuous
 62
     7
370
    25
100
AcDbLine
 10
1014.6608391608
 20
606.072027972
 30
0.0
 11
1012.6608391608
 21
606.072027972
 31
0.0
  0
LINE
  5
AB
330
1F
100
AcDbEntity
  8
0
  6
Continuous
 62
     7
370
    25
100
AcDbLine
 10
961.6608391604
 20
606.072027972
 30
0.0
 11
961.6608391604
 21
605.472027972
 31
0.0
  0
LINE
  5
AC
330
1F
100
AcDbEntity
  8
0
  6
Continuous
 62
     7
370
    25
100
AcDbLine
 10
1012.6608391608
 20
605.472027972
 30
0.0
 11
961.6608391604
 21
605.472027972
 31
0.0
  0
LINE
  5
AD
330
1F
100
AcDbEntity
  8
0
  6
Continuous
 62
     7
370
    25
100
AcDbLine
 10
1012.6608391608
 20
606.072027972
 30
0.0
 11
961.6608391604
 21
606.072027972
 31
0.0
  0
LINE
  5
AE
330
1F
100
AcDbEntity
  8
0
  6
Continuous
 62
     7
370
    25
100
AcDbLine
 10
959.6608391608
 20
606.072027972
 30
0.0
 11
959.6608391608
 21
605.472027972
 31
0.0
  0
LINE
  5
AF
330
1F
100
AcDbEntity
  8
0
  6
Continuous
 62
     7
370
    25
100
AcDbLine
 10
961.6608391604
 20
605.472027972
 30
0.0
 11
959.6608391608
 21
605.472027972
 31
0.0
  0
LINE
  5
B0
330
1F
100
AcDbEntity
  8
0
  6
Continuous
 62
     7
370
    25
100
AcDbLine
 10
961.6608391604
 20
606.072027972
 30
0.0
 11
959.6608391608
 21
606.072027972
 31
0.0
  0
SPLINE
  5
B1
330
1F
100
AcDbEntity
  8
0
  6
Continuous
 62
     7
370
    25
100
AcDbSpline
210
0.0
220
0.0
230
1.0
 70
    24
 71
     3
 72
    11
 73
     7
 74
     0
 42
0.000000001
 43
0.00000001
 40
0.0
 40
0.0
 40
0.0
 40
0.0
 40
0.2412018823447323
 40
0.5000000000837455
 40
0.758798117771145
 40
1.0
 40
1.0
 40
1.0
 40
1.0
 10
966.4677099239782
 20
606.8023033780316
 30
0.0
 10
966.4677099239793
 20
606.7080768919656
 30
0.0
 10
966.4677099239815
 20
606.5127498796597
 30
0.0
 10
966.4677099239918
 20
606.2689972933566
 30
0.0
 10
966.4677099240062
 20
606.1027013726832
 30
0.0
 10
966.4677099240172
 20
606.0820097086513
 30
0.0
 10
966.4677099240224
 20
606.0720279720279
 30
0.0
  0
LINE
  5
B2
330
1F
100
AcDbEntity
  8
0
  6
Continuous
 62
     7
370
    25
100
AcDbLine
 10
966.4677099339
 20
606.802303378
 30
0.0
 11
1007.8539683973
 21
606.802303378
 31
0.0
  0
LINE
  5
B3
330
1F
100
AcDbEntity
  8
0
  6
Continuous
 62
     7
370
    25
100
AcDbLine
 10
1007.8539683983
 20
606.0720279722
 30
0.0
 11
1007.8539683982
 21
606.8023033685
 31
0.0
  0
SPLINE
  5
B4
330
1F
100
AcDbEntity
  8
0
  6
Continuous
 62
     7
370
    25
100
AcDbSpline
210
0.0
220
0.0
230
1.0
 70
     8
 71
     3
 72
     9
 73
     5
 74
     0
 42
0.000000001
 43
0.00000001
 40
0.0
 40
0.0
 40
0.0
 40
0.0
 40
0.4991094071361996
 40
0.9999999999999999
 40
0.9999999999999999
 40
0.9999999999999999
 40
0.9999999999999999
 10
1009.618646237447
 20
606.7737948962637
 30
0.0
 10
1009.361228795637
 20
606.7751306247173
 30
0.0
 10
1008.84547525918
 20
606.7778068484762
 30
0.0
 10
1008.184862909025
 20
606.7941281792204
 30
0.0
 10
1007.853968397303
 20
606.8023033802532
 30
0.0
  0
ARC
  5
B5
330
1F
100
AcDbEntity
  8
0
  6
Continuous
 62
     7
370
    25
100
AcDbCircle
 10
1010.2983942443
 20
606.7421429167
 30
0.0
 40
0.6804845325219728
100
AcDbArc
 50
177.3339888627
 51
259.9847382345
  0
ARC
  5
B6
330
1F
100
AcDbEntity
  8
0
  6
Continuous
 62
     7
370
    25
100
AcDbCircle
 10
964.0232840774
 20
606.7421429167
 30
0.0
 40
0.6804845325219531
100
AcDbArc
 50
280.0152617655
 51
2.6660111373
  0
SPLINE
  5
B7
330
1F
100
AcDbEntity
  8
0
  6
Continuous
 62
     7
370
    25
100
AcDbSpline
210
0.0
220
0.0
230
1.0
 70
     8
 71
     3
 72
     9
 73
     5
 74
     0
 42
0.000000001
 43
0.00000001
 40
0.0
 40
0.0
 40
0.0
 40
0.0
 40
0.500890591605587
 40
1.0
 40
1.0
 40
1.0
 40
1.0
 10
966.4677099235948
 20
606.8023033805971
 30
0.0
 10
966.1368154126329
 20
606.7941281795029
 30
0.0
 10
965.4762030623365
 20
606.7778068485944
 30
0.0
 10
964.9604495257208
 20
606.7751306249592
 30
0.0
 10
964.7030320831832
 20
606.7737948965639
 30
0.0
  0
SPLINE
  5
B8
330
1F
100
AcDbEntity
  8
0
  6
Continuous
 62
     7
370
    25
100
AcDbSpline
210
0.0
220
0.0
230
1.0
 70
     8
 71
     3
 72
     9
 73
     5
 74
     0
 42
0.000000001
 43
0.00000001
 40
0.0
 40
0.0
 40
0.0
 40
0.0
 40
0.4991094083940548
 40
1.0
 40
1.0
 40
1.0
 40
1.0
 10
964.7030320831832
 20
606.7737948965639
 30
0.0
 10
964.4942895413719
 20
606.7751306249604
 30
0.0
 10
964.0760595134448
 20
606.7778068485981
 30
0.0
 10
964.0102077211881
 20
606.794128179508
 30
0.0
 10
963.9772231780063
 20
606.8023033806033
 30
0.0
  0
LINE
  5
B9
330
1F
100
AcDbEntity
  8
0
  6
Continuous
 62
     7
370
    25
100
AcDbLine
 10
963.9772231778
 20
606.802303378
 30
0.0
 11
963.9930641977
 21
606.9833670632
 31
0.0
  0
LINE
  5
BA
330
1F
100
AcDbEntity
  8
0
  6
Continuous
 62
     7
370
    25
100
AcDbLine
 10
1010.328614124
 20
606.9833670632
 30
0.0
 11
1010.3444551438
 21
606.802303378
 31
0.0
  0
SPLINE
  5
BB
330
1F
100
AcDbEntity
  8
0
  6
Continuous
 62
     7
370
    25
100
AcDbSpline
210
0.0
220
0.0
230
1.0
 70
     8
 71
     3
 72
     9
 73
     5
 74
     0
 42
0.000000001
 43
0.00000001
 40
0.0
 40
0.0
 40
0.0
 40
0.0
 40
0.5008905916060877
 40
1.0
 40
1.0
 40
1.0
 40
1.0
 10
1010.344455142972
 20
606.802303380398
 30
0.0
 10
1010.311470599696
 20
606.7941281792853
 30
0.0
 10
1010.24561880725
 20
606.7778068483402
 30
0.0
 10
1009.82738877928
 20
606.7751306246744
 30
0.0
 10
1009.618646237447
 20
606.7737948962637
 30
0.0
  0
SPLINE
  5
BC
330
1F
100
AcDbEntity
  8
0
  6
Continuous
 62
     7
370
    25
100
AcDbSpline
210
0.0
220
0.0
230
1.0
 70
     8
 71
     3
 72
    11
 73
     7
 74
     0
 42
0.000000001
 43
0.00000001
 40
0.0
 40
0.0
 40
0.0
 40
0.0
 40
0.2412018823447296
 40
0.5000000000837468
 40
0.7587981177711535
 40
1.0
 40
1.0
 40
1.0
 40
1.0
 10
1010.344455143839
 20
606.8023033780316
 30
0.0
 10
1010.362718758365
 20
606.7080768919657
 30
0.0
 10
1010.400578360354
 20
606.5127498796599
 30
0.0
 10
1010.588835092213
 20
606.2689972933565
 30
0.0
 10
1010.848067781448
 20
606.1027013726832
 30
0.0
 10
1011.04595119716
 20
606.0820097086513
 30
0.0
 10
1011.141410901839
 20
606.0720279720279
 30
0.0
  0
ARC
  5
BD
330
1F
100
AcDbEntity
  8
0
  6
Continuous
 62
     7
370
    25
100
AcDbCircle
 10
963.1802674198
 20
606.872027972
 30
0.0
 40
0.8000000000000682
100
AcDbArc
 50
270.0000000118
 51
355.0000000521
  0
LINE
  5
BE
330
1F
100
AcDbEntity
  8
0
  6
Continuous
 62
     7
370
    25
100
AcDbLine
 10
969.0608391608
 20
604.917724982
 30
0.0
 11
1005.2608391608
 21
604.917724982
 31
0.0
  0
ARC
  5
BF
330
1F
100
AcDbEntity
  8
0
  6
Continuous
 62
     7
370
    25
100
AcDbCircle
 10
1005.7608391608
 20
605.917724982
 30
0.0
 40
1.000000000000103
100
AcDbArc
 50
270.0
 51
333.5320581101
  0
LINE
  5
C0
330
1F
100
AcDbEntity
  8
0
  6
Continuous
 62
     7
370
    25
100
AcDbLine
 10
1005.2608391608
 20
604.917724982
 30
0.0
 11
1005.7608391608
 21
604.917724982
 31
0.0
  0
LINE
  5
C1
330
1F
100
AcDbEntity
  8
0
  6
Continuous
 62
     7
370
    25
100
AcDbLine
 10
968.5608391609
 20
604.917724982
 30
0.0
 11
969.0608391608
 21
604.917724982
 31
0.0
  0
ARC
  5
C2
330
1F
100
AcDbEntity
  8
0
  6
Continuous
 62
     7
370
    25
100
AcDbCircle
 10
968.5608391608
 20
605.917724982
 30
0.0
 40
1.000000000000001
100
AcDbArc
 50
206.4679418899
 51
270.0000000059
  0
ARC
  5
C3
330
1F
100
AcDbEntity
  8
0
  6
Continuous
 62
     7
370
    25
100
AcDbCircle
 10
987.1608391608
 20
497.0733721263
 30
0.0
 40
36.31056399417613
100
AcDbArc
 50
155.1813223123
 51
335.1813223292
  0
ARC
  5
C4
330
1F
100
AcDbEntity
  8
0
  6
Continuous
 62
     7
370
    25
100
AcDbCircle
 10
987.1608391608
 20
497.0733721263
 30
0.0
 40
36.31056399417613
100
AcDbArc
 50
335.1813223292
 51
155.1813223123
  0
SPLINE
  5
C5
330
1F
100
AcDbEntity
  8
0
  6
Continuous
 62
     7
370
    25
100
AcDbSpline
210
0.0
220
0.0
230
1.0
 70
    24
 71
     3
 72
     9
 73
     5
 74
     0
 42
0.000000001
 43
0.00000001
 40
0.0
 40
0.0
 40
0.0
 40
0.0
 40
0.5599999999871783
 40
1.0
 40
1.0
 40
1.0
 40
1.0
 10
956.6767575898123
 20
473.8885921404986
 30
0.0
 10
956.5218963397305
 20
473.7708118490668
 30
0.0
 10
956.2453583931497
 20
473.5604899000766
 30
0.0
 10
955.8810958145025
 20
473.2834486605919
 30
0.0
 10
955.7208202798931
 20
473.1615505152151
 30
0.0
  0
SPLINE
  5
C6
330
1F
100
AcDbEntity
  8
0
  6
Continuous
 62
     7
370
    25
100
AcDbSpline
210
0.0
220
0.0
230
1.0
 70
    24
 71
     3
 72
     9
 73
     5
 74
     0
 42
0.000000001
 43
0.00000001
 40
0.0
 40
0.0
 40
0.0
 40
0.0
 40
0.5600000000054155
 40
1.0
 40
1.0
 40
1.0
 40
1.0
 10
1018.600858041784
 20
520.9851937373427
 30
0.0
 10
1018.395974046474
 20
520.8293684636567
 30
0.0
 10
1018.030109769139
 20
520.5511090463632
 30
0.0
 10
1017.762617381742
 20
520.3476667305691
 30
0.0
 10
1017.644920731289
 20
520.2581521116208
 30
0.0
  0
ARC
  5
C7
330
1F
100
AcDbEntity
  8
0
  6
Continuous
 62
     7
370
    25
100
AcDbCircle
 10
987.1608391608
 20
497.0733721263
 30
0.0
 40
38.29899805700003
100
AcDbArc
 50
37.2549368278
 51
217.2549368278
  0
ARC
  5
C8
330
1F
100
AcDbEntity
  8
0
  6
Continuous
 62
     7
370
    25
100
AcDbCircle
 10
987.1608391608
 20
497.0733721263
 30
0.0
 40
39.50000000000009
100
AcDbArc
 50
37.2549368278
 51
217.2549368513
  0
ARC
  5
C9
330
1F
100
AcDbEntity
  8
0
  6
Continuous
 62
     7
370
    25
100
AcDbCircle
 10
987.1608391608
 20
497.0733721263
 30
0.0
 40
38.29899805700003
100
AcDbArc
 50
217.2549368278
 51
37.2549368278
  0
ARC
  5
CA
330
1F
100
AcDbEntity
  8
0
  6
Continuous
 62
     7
370
    25
100
AcDbCircle
 10
987.1608391608
 20
497.0733721263
 30
0.0
 40
39.50000000000009
100
AcDbArc
 50
217.2549368513
 51
37.2549368176
  0
CIRCLE
  5
CB
330
1F
100
AcDbEntity
  8
0
  6
Continuous
 62
     7
370
    25
100
AcDbCircle
 10
987.1608391608
 20
497.0733721263
 30
0.0
 40
57.00000000000001
  0
SPLINE
  5
CC
330
1F
100
AcDbEntity
  8
0
  6
Continuous
 62
     7
370
    25
100
AcDbSpline
210
0.0
220
0.0
230
1.0
 70
     8
 71
     3
 72
    35
 73
    31
 74
     0
 42
0.000000001
 43
0.00000001
 40
0.0
 40
0.0
 40
0.0
 40
0.0
 40
0.0282546077220527
 40
0.058383442663794
 40
0.0903495399278272
 40
0.1258616479012822
 40
0.164010475049188
 40
0.2048405213069455
 40
0.237462481584744
 40
0.2716127104071188
 40
0.3071914351681354
 40
0.3440550017625771
 40
0.3820151215667331
 40
0.4208413631481727
 40
0.4602672732901846
 40
0.5000000044809544
 40
0.5397327356717241
 40
0.579158645813736
 40
0.6179848873951755
 40
0.6559450071993316
 40
0.6928085737937733
 40
0.7283872985547898
 40
0.7625375273771647
 40
0.7951594876549631
 40
0.835992837618201
 40
0.8741415922595377
 40
0.9096504660940498
 40
0.9416198397637137
 40
0.9717470283705448
 40
1.0
 40
1.0
 40
1.0
 40
1.0
 10
1031.168700065598
 20
492.4277405992261
 30
0.0
 10
1031.272621625393
 20
493.733099188419
 30
0.0
 10
1031.487358226498
 20
496.4304053799451
 30
0.0
 10
1031.336561650199
 20
500.6215869192065
 30
0.0
 10
1030.762808476093
 20
505.1118893902604
 30
0.0
 10
1029.622325228719
 20
509.8805186541383
 30
0.0
 10
1027.799857916853
 20
514.8733208906622
 30
0.0
 10
1025.432627088274
 20
519.4851189911956
 30
0.0
 10
1022.657089048971
 20
523.634293959642
 30
0.0
 10
1019.617518264457
 20
527.284058642973
 30
0.0
 10
1016.054981440815
 20
530.7166991030995
 30
0.0
 10
1011.984626039127
 20
533.830585011076
 30
0.0
 10
1007.446946082873
 20
536.5229443429254
 30
0.0
 10
1002.508849861931
 20
538.6979039431741
 30
0.0
 10
997.2620961980156
 20
540.2747480055571
 30
0.0
 10
991.8185530793514
 20
541.195688989132
 30
0.0
 10
986.3027022153611
 20
541.4316619101793
 30
0.0
 10
980.8423503012109
 20
540.9850992625891
 30
0.0
 10
975.5589656386766
 20
539.8891567444989
 30
0.0
 10
970.5591379920622
 20
538.20361178054
 30
0.0
 10
965.9283193717904
 20
536.0082537266458
 30
0.0
 10
961.7275696357137
 20
533.3951345124455
 30
0.0
 10
957.992924458277
 20
530.4604803073485
 30
0.0
 10
954.4121004549131
 20
526.9821903872765
 30
0.0
 10
951.1340433038697
 20
522.9661757186024
 30
0.0
 10
948.3092629065278
 20
518.4639445553761
 30
0.0
 10
946.1982769369267
 20
514.0385385395356
 30
0.0
 10
944.699598889946
 20
509.7670833685567
 30
0.0
 10
943.677103044974
 20
505.6997466007531
 30
0.0
 10
943.3239068889479
 20
503.0172115691201
 30
0.0
 10
943.1529782560793
 20
501.7190036533316
 30
0.0
  0
SPLINE
  5
CD
330
1F
100
AcDbEntity
  8
0
  6
Continuous
 62
     7
370
    25
100
AcDbSpline
210
0.0
220
0.0
230
1.0
 70
     8
 71
     3
 72
    35
 73
    31
 74
     0
 42
0.000000001
 43
0.00000001
 40
0.0
 40
0.0
 40
0.0
 40
0.0
 40
0.0282546077224729
 40
0.0583834426636159
 40
0.0903495399278291
 40
0.1258616479030814
 40
0.1640104750499177
 40
0.2048405213069399
 40
0.2374624815847385
 40
0.2716127104071134
 40
0.3071914351681302
 40
0.3440550017625721
 40
0.3820151215667283
 40
0.420841363148168
 40
0.4602672732901802
 40
0.5000000044809502
 40
0.53973273567172
 40
0.579158645813732
 40
0.6179848873951717
 40
0.6559450071993278
 40
0.6928085737937698
 40
0.7283872985547866
 40
0.7625375273771615
 40
0.79515948765496
 40
0.8359928376182582
 40
0.8741415922594717
 40
0.9096504660940464
 40
0.941619839764785
 40
0.9717470283710186
 40
1.0
 40
1.0
 40
1.0
 40
1.0
 10
943.1529782560793
 20
501.7190036533316
 30
0.0
 10
943.0490566962799
 20
500.4136450641194
 30
0.0
 10
942.8343200951682
 20
497.7163388726015
 30
0.0
 10
942.9851166714985
 20
493.5251573333412
 30
0.0
 10
943.5588698455902
 20
489.0348548622225
 30
0.0
 10
944.6993530929803
 20
484.2662255983017
 30
0.0
 10
946.521820404899
 20
479.2734233617994
 30
0.0
 10
948.8890512334174
 20
474.6616252613309
 30
0.0
 10
951.6645892727074
 20
470.5124502929156
 30
0.0
 10
954.7041600572202
 20
466.8626856095839
 30
0.0
 10
958.2666968808628
 20
463.4300451494576
 30
0.0
 10
962.3370522825502
 20
460.316159241481
 30
0.0
 10
966.8747322388045
 20
457.6237999096317
 30
0.0
 10
971.812828459746
 20
455.4488403093831
 30
0.0
 10
977.0595821236619
 20
453.8719962469999
 30
0.0
 10
982.5031252423262
 20
452.9510552634251
 30
0.0
 10
988.0189761063165
 20
452.7150823423778
 30
0.0
 10
993.4793280204666
 20
453.1616449899679
 30
0.0
 10
998.7627126830009
 20
454.2575875080582
 30
0.0
 10
1003.762540329615
 20
455.9431324720171
 30
0.0
 10
1008.393358949887
 20
458.1384905259113
 30
0.0
 10
1012.594108685964
 20
460.7516097401116
 30
0.0
 10
1016.328753863401
 20
463.6862639452084
 30
0.0
 10
1019.909577866766
 20
467.164553865283
 30
0.0
 10
1023.187635017812
 20
471.1805685339515
 30
0.0
 10
1026.012415415144
 20
475.6827996971837
 30
0.0
 10
1028.123401384771
 20
480.1082057130636
 30
0.0
 10
1029.62207943176
 20
484.3796608840676
 30
0.0
 10
1030.644575276705
 20
488.4469976518773
 30
0.0
 10
1030.99777143273
 20
491.12953268346
 30
0.0
 10
1031.168700065598
 20
492.4277405992261
 30
0.0
  0
SPLINE
  5
CE
330
1F
100
AcDbEntity
  8
0
  6
Continuous
 62
     7
370
    25
100
AcDbSpline
210
0.0
220
0.0
230
1.0
 70
    24
 71
     3
 72
    11
 73
     7
 74
     0
 42
0.000000001
 43
0.00000001
 40
0.0
 40
0.0
 40
0.0
 40
0.0
 40
0.2706996604071852
 40
0.5623161110113803
 40
0.7892984430189686
 40
1.0
 40
1.0
 40
1.0
 40
1.0
 10
943.1529782560795
 20
501.7190036533316
 30
0.0
 10
943.6912326564251
 20
501.6621835407333
 30
0.0
 10
944.8093320315105
 20
501.5441528616571
 30
0.0
 10
946.0929537653851
 20
501.4086490340886
 30
0.0
 10
946.8625688543086
 20
501.3274056369479
 30
0.0
 10
946.9749600829298
 20
501.3155412058141
 30
0.0
 10
947.0290653572096
 20
501.309829654223
 30
0.0
  0
ARC
  5
CF
330
1F
100
AcDbEntity
  8
0
  6
Continuous
 62
     7
370
    25
100
AcDbCircle
 10
987.1608391608
 20
497.0733721263
 30
0.0
 40
40.3547623089486
100
AcDbArc
 50
173.973964907
 51
353.973964907
  0
SPLINE
  5
D0
330
1F
100
AcDbEntity
  8
0
  6
Continuous
 62
     7
370
    25
100
AcDbSpline
210
0.0
220
0.0
230
1.0
 70
    24
 71
     3
 72
    11
 73
     7
 74
     0
 42
0.000000001
 43
0.00000001
 40
0.0
 40
0.0
 40
0.0
 40
0.0
 40
0.2706996603325184
 40
0.5623161109123166
 40
0.7892984429590854
 40
1.0
 40
1.0
 40
1.0
 40
1.0
 10
1027.292612964468
 20
492.8369145983346
 30
0.0
 10
1027.376879600319
 20
492.8280191025722
 30
0.0
 10
1027.551924101273
 20
492.8095407617585
 30
0.0
 10
1028.600827753926
 20
492.6988146374385
 30
0.0
 10
1029.882712847236
 20
492.56349413603
 30
0.0
 10
1030.750801251148
 20
492.4718555338675
 30
0.0
 10
1031.168700065598
 20
492.4277405992261
 30
0.0
  0
ARC
  5
D1
330
1F
100
AcDbEntity
  8
0
  6
Continuous
 62
     7
370
    25
100
AcDbCircle
 10
987.1608391608
 20
497.0733721263
 30
0.0
 40
40.3547623089486
100
AcDbArc
 50
353.973964907
 51
173.973964907
  0
CIRCLE
  5
D2
330
1F
100
AcDbEntity
  8
0
  6
Continuous
 62
     7
370
    25
100
AcDbCircle
 10
987.1608391608
 20
497.0733721263
 30
0.0
 40
39.93812333100002
  0
LINE
  5
D3
330
1F
100
AcDbEntity
  8
0
  6
Continuous
 62
     7
370
    25
100
AcDbLine
 10
1277.4355407063
 20
498.9896327082
 30
0.0
 11
1277.4355407063
 21
499.472027972
 31
0.0
  0
LINE
  5
D4
330
1F
100
AcDbEntity
  8
0
  6
Continuous
 62
     7
370
    25
100
AcDbLine
 10
1276.6608391608
 20
498.4971080044
 30
0.0
 11
1277.4355407063
 21
498.9896327082
 31
0.0
  0
LINE
  5
D5
330
1F
100
AcDbEntity
  8
0
  6
Continuous
 62
     7
370
    25
100
AcDbLine
 10
1277.4355407063
 20
499.472027972
 30
0.0
 11
1276.6608391608
 21
499.472027972
 31
0.0
  0
ELLIPSE
  5
D6
330
1F
100
AcDbEntity
  8
0
  6
Continuous
 62
     7
370
    25
100
AcDbEllipse
 10
1270.1117097391
 20
494.3334296852
 30
0.0
 11
7.837202391757727
 21
7.313111706629059
 31
0.0
210
0.0
220
0.0
230
1.0
 40
0.2453475563
 41
5.439317159903798
 42
5.632854447922842
  0
LINE
  5
D7
330
1F
100
AcDbEntity
  8
0
  6
Continuous
 62
     7
370
    25
100
AcDbLine
 10
1277.4355407063
 20
475.472027972
 30
0.0
 11
1277.4355407063
 21
475.9544232359
 31
0.0
  0
LINE
  5
D8
330
1F
100
AcDbEntity
  8
0
  6
Continuous
 62
     7
370
    25
100
AcDbLine
 10
1276.6608391608
 20
476.4469479397
 30
0.0
 11
1277.4355407063
 21
475.9544232359
 31
0.0
  0
LINE
  5
D9
330
1F
100
AcDbEntity
  8
0
  6
Continuous
 62
     7
370
    25
100
AcDbLine
 10
1277.4355407063
 20
475.472027972
 30
0.0
 11
1276.6608391608
 21
475.472027972
 31
0.0
  0
ELLIPSE
  5
DA
330
1F
100
AcDbEntity
  8
0
  6
Continuous
 62
     7
370
    25
100
AcDbEllipse
 10
1270.1117097391
 20
480.6106262589
 30
0.0
 11
7.837202391757729
 21
-7.313111706629116
 31
0.0
210
0.0
220
0.0
230
1.0
 40
0.2453475563
 41
0.6503308592568144
 42
0.8438681472757996
  0
LINE
  5
DB
330
1F
100
AcDbEntity
  8
0
  6
Continuous
 62
     7
370
    25
100
AcDbLine
 10
696.8861376154
 20
285.9544232359
 30
0.0
 11
696.8861376154
 21
285.472027972
 31
0.0
  0
LINE
  5
DC
330
1F
100
AcDbEntity
  8
0
  6
Continuous
 62
     7
370
    25
100
AcDbLine
 10
697.6608391608
 20
286.4469479397
 30
0.0
 11
696.8861376154
 21
285.9544232359
 31
0.0
  0
LINE
  5
DD
330
1F
100
AcDbEntity
  8
0
  6
Continuous
 62
     7
370
    25
100
AcDbLine
 10
696.8861376154
 20
285.472027972
 30
0.0
 11
697.6608391608
 21
285.472027972
 31
0.0
  0
LINE
  5
DE
330
1F
100
AcDbEntity
  8
0
  6
Continuous
 62
     7
370
    25
100
AcDbLine
 10
696.8861376154
 20
309.472027972
 30
0.0
 11
696.8861376154
 21
308.9896327082
 31
0.0
  0
LINE
  5
DF
330
1F
100
AcDbEntity
  8
0
  6
Continuous
 62
     7
370
    25
100
AcDbLine
 10
697.6608391608
 20
308.4971080044
 30
0.0
 11
696.8861376154
 21
308.9896327082
 31
0.0
  0
LINE
  5
E0
330
1F
100
AcDbEntity
  8
0
  6
Continuous
 62
     7
370
    25
100
AcDbLine
 10
696.8861376154
 20
309.472027972
 30
0.0
 11
697.6608391608
 21
309.472027972
 31
0.0
  0
ELLIPSE
  5
E1
330
1F
100
AcDbEntity
  8
0
  6
Continuous
 62
     7
370
    25
100
AcDbEllipse
 10
704.2099685826
 20
304.3334296852
 30
0.0
 11
7.837202391757615
 21
-7.313111706629003
 31
0.0
210
0.0
220
0.0
230
1.0
 40
0.2453475563
 41
3.791923512846645
 42
3.985460800865571
  0
ELLIPSE
  5
E2
330
1F
100
AcDbEntity
  8
0
  6
Continuous
 62
     7
370
    25
100
AcDbEllipse
 10
704.2099685826
 20
290.6106262589
 30
0.0
 11
7.837202391757727
 21
7.313111706629059
 31
0.0
210
0.0
220
0.0
230
1.0
 40
0.2453475563
 41
2.297724506314018
 42
2.491261794333023
  0
LINE
  5
E3
330
1F
100
AcDbEntity
  8
0
  6
Continuous
 62
     7
370
    25
100
AcDbLine
 10
1277.4355407063
 20
668.9896327082
 30
0.0
 11
1277.4355407063
 21
669.472027972
 31
0.0
  0
LINE
  5
E4
330
1F
100
AcDbEntity
  8
0
  6
Continuous
 62
     7
370
    25
100
AcDbLine
 10
1276.6608391608
 20
668.4971080044
 30
0.0
 11
1277.4355407063
 21
668.9896327082
 31
0.0
  0
LINE
  5
E5
330
1F
100
AcDbEntity
  8
0
  6
Continuous
 62
     7
370
    25
100
AcDbLine
 10
1277.4355407063
 20
669.472027972
 30
0.0
 11
1276.6608391608
 21
669.472027972
 31
0.0
  0
ELLIPSE
  5
E6
330
1F
100
AcDbEntity
  8
0
  6
Continuous
 62
     7
370
    25
100
AcDbEllipse
 10
1270.1117097391
 20
664.3334296852
 30
0.0
 11
7.837202391757729
 21
7.313111706629229
 31
0.0
210
0.0
220
0.0
230
1.0
 40
0.2453475563
 41
5.439317159903785
 42
5.632854447922814
  0
LINE
  5
E7
330
1F
100
AcDbEntity
  8
0
  6
Continuous
 62
     7
370
    25
100
AcDbLine
 10
1277.4355407063
 20
645.472027972
 30
0.0
 11
1277.4355407063
 21
645.9544232359
 31
0.0
  0
LINE
  5
E8
330
1F
100
AcDbEntity
  8
0
  6
Continuous
 62
     7
370
    25
100
AcDbLine
 10
1276.6608391608
 20
646.4469479397
 30
0.0
 11
1277.4355407063
 21
645.9544232359
 31
0.0
  0
LINE
  5
E9
330
1F
100
AcDbEntity
  8
0
  6
Continuous
 62
     7
370
    25
100
AcDbLine
 10
1277.4355407063
 20
645.472027972
 30
0.0
 11
1276.6608391608
 21
645.472027972
 31
0.0
  0
ELLIPSE
  5
EA
330
1F
100
AcDbEntity
  8
0
  6
Continuous
 62
     7
370
    25
100
AcDbEllipse
 10
1270.1117097391
 20
650.6106262589
 30
0.0
 11
7.837202391757727
 21
-7.313111706629001
 31
0.0
210
0.0
220
0.0
230
1.0
 40
0.2453475563
 41
0.6503308592568124
 42
0.8438681472757876
  0
LINE
  5
EB
330
1F
100
AcDbEntity
  8
0
  6
Continuous
 62
     7
370
    25
100
AcDbLine
 10
696.8861376154
 20
455.9544232359
 30
0.0
 11
696.8861376154
 21
455.472027972
 31
0.0
  0
LINE
  5
EC
330
1F
100
AcDbEntity
  8
0
  6
Continuous
 62
     7
370
    25
100
AcDbLine
 10
697.6608391608
 20
456.4469479397
 30
0.0
 11
696.8861376154
 21
455.9544232359
 31
0.0
  0
LINE
  5
ED
330
1F
100
AcDbEntity
  8
0
  6
Continuous
 62
     7
370
    25
100
AcDbLine
 10
696.8861376154
 20
455.472027972
 30
0.0
 11
697.6608391608
 21
455.472027972
 31
0.0
  0
ELLIPSE
  5
EE
330
1F
100
AcDbEntity
  8
0
  6
Continuous
 62
     7
370
    25
100
AcDbEllipse
 10
704.2099685826
 20
460.6106262589
 30
0.0
 11
7.837202391757729
 21
7.313111706629116
 31
0.0
210
0.0
220
0.0
230
1.0
 40
0.2453475563
 41
2.29772450631397
 42
2.491261794333044
  0
ELLIPSE
  5
EF
330
1F
100
AcDbEntity
  8
0
  6
Continuous
 62
     7
370
    25
100
AcDbEllipse
 10
704.2099685826
 20
474.3334296852
 30
0.0
 11
7.837202391757727
 21
-7.313111706629059
 31
0.0
210
0.0
220
0.0
230
1.0
 40
0.2453475563
 41
3.791923512846678
 42
3.985460800865631
  0
LINE
  5
F0
330
1F
100
AcDbEntity
  8
0
  6
Continuous
 62
     7
370
    25
100
AcDbLine
 10
697.6608391608
 20
478.4971080044
 30
0.0
 11
696.8861376154
 21
478.9896327082
 31
0.0
  0
LINE
  5
F1
330
1F
100
AcDbEntity
  8
0
  6
Continuous
 62
     7
370
    25
100
AcDbLine
 10
696.8861376154
 20
479.472027972
 30
0.0
 11
696.8861376154
 21
478.9896327082
 31
0.0
  0
LINE
  5
F2
330
1F
100
AcDbEntity
  8
0
  6
Continuous
 62
     7
370
    25
100
AcDbLine
 10
696.8861376154
 20
479.472027972
 30
0.0
 11
697.6608391608
 21
479.472027972
 31
0.0
  0
LINE
  5
F3
330
1F
100
AcDbEntity
  8
0
  6
Continuous
 62
     7
370
    25
100
AcDbLine
 10
1001.178443897
 20
219.1973264266
 30
0.0
 11
1001.6608391608
 21
219.1973264266
 31
0.0
  0
LINE
  5
F4
330
1F
100
AcDbEntity
  8
0
  6
Continuous
 62
     7
370
    25
100
AcDbLine
 10
1000.6859191932
 20
219.972027972
 30
0.0
 11
1001.178443897
 21
219.1973264266
 31
0.0
  0
LINE
  5
F5
330
1F
100
AcDbEntity
  8
0
  6
Continuous
 62
     7
370
    25
100
AcDbLine
 10
1001.6608391608
 20
219.1973264266
 30
0.0
 11
1001.6608391608
 21
219.972027972
 31
0.0
  0
ELLIPSE
  5
F6
330
1F
100
AcDbEntity
  8
0
  6
Continuous
 62
     7
370
    25
100
AcDbEllipse
 10
996.522240874
 20
226.5211573938
 30
0.0
 11
-7.313111706629115
 21
7.837202391757643
 31
0.0
210
0.0
220
0.0
230
1.0
 40
0.2453475563
 41
2.297724506313671
 42
2.491261794333016
  0
ELLIPSE
  5
F7
330
1F
100
AcDbEntity
  8
0
  6
Continuous
 62
     7
370
    25
100
AcDbEllipse
 10
982.7994374477
 20
226.5211573938
 30
0.0
 11
7.313111706629001
 21
7.837202391757727
 31
0.0
210
0.0
220
0.0
230
1.0
 40
0.2453475563
 41
3.791923512846639
 42
3.985460800865879
  0
LINE
  5
F8
330
1F
100
AcDbEntity
  8
0
  6
Continuous
 62
     7
370
    25
100
AcDbLine
 10
978.6357591285
 20
219.972027972
 30
0.0
 11
978.1432344247
 21
219.1973264266
 31
0.0
  0
LINE
  5
F9
330
1F
100
AcDbEntity
  8
0
  6
Continuous
 62
     7
370
    25
100
AcDbLine
 10
977.6608391608
 20
219.1973264266
 30
0.0
 11
978.1432344247
 21
219.1973264266
 31
0.0
  0
LINE
  5
FA
330
1F
100
AcDbEntity
  8
0
  6
Continuous
 62
     7
370
    25
100
AcDbLine
 10
977.6608391608
 20
219.1973264266
 30
0.0
 11
977.6608391608
 21
219.972027972
 31
0.0
  0
LINE
  5
FB
330
1F
100
AcDbEntity
  8
0
  6
Continuous
 62
     7
370
    25
100
AcDbLine
 10
811.178443897
 20
219.1973264266
 30
0.0
 11
811.6608391608
 21
219.1973264266
 31
0.0
  0
LINE
  5
FC
330
1F
100
AcDbEntity
  8
0
  6
Continuous
 62
     7
370
    25
100
AcDbLine
 10
810.6859191932
 20
219.972027972
 30
0.0
 11
811.178443897
 21
219.1973264266
 31
0.0
  0
LINE
  5
FD
330
1F
100
AcDbEntity
  8
0
  6
Continuous
 62
     7
370
    25
100
AcDbLine
 10
811.6608391608
 20
219.1973264266
 30
0.0
 11
811.6608391608
 21
219.972027972
 31
0.0
  0
ELLIPSE
  5
FE
330
1F
100
AcDbEntity
  8
0
  6
Continuous
 62
     7
370
    25
100
AcDbEllipse
 10
806.522240874
 20
226.5211573938
 30
0.0
 11
-7.313111706629002
 21
7.837202391757642
 31
0.0
210
0.0
220
0.0
230
1.0
 40
0.2453475563
 41
2.297724506313705
 42
2.491261794333055
  0
LINE
  5
FF
330
1F
100
AcDbEntity
  8
0
  6
Continuous
 62
     7
370
    25
100
AcDbLine
 10
787.6608391608
 20
219.1973264266
 30
0.0
 11
788.1432344247
 21
219.1973264266
 31
0.0
  0
LINE
  5
100
330
1F
100
AcDbEntity
  8
0
  6
Continuous
 62
     7
370
    25
100
AcDbLine
 10
788.6357591285
 20
219.972027972
 30
0.0
 11
788.1432344247
 21
219.1973264266
 31
0.0
  0
LINE
  5
101
330
1F
100
AcDbEntity
  8
0
  6
Continuous
 62
     7
370
    25
100
AcDbLine
 10
787.6608391608
 20
219.1973264266
 30
0.0
 11
787.6608391608
 21
219.972027972
 31
0.0
  0
ELLIPSE
  5
102
330
1F
100
AcDbEntity
  8
0
  6
Continuous
 62
     7
370
    25
100
AcDbEllipse
 10
792.7994374477
 20
226.5211573938
 30
0.0
 11
7.313111706629001
 21
7.837202391757727
 31
0.0
210
0.0
220
0.0
230
1.0
 40
0.2453475563
 41
3.791923512846654
 42
3.985460800865868
  0
ARC
  5
103
330
1F
100
AcDbEntity
  8
0
  6
Continuous
 62
     7
370
    25
100
AcDbCircle
 10
1212.1608391608
 20
582.0733721263
 30
0.0
 40
25.0
100
AcDbArc
 50
0.0
 51
90.0
  0
ARC
  5
104
330
1F
100
AcDbEntity
  8
0
  6
Continuous
 62
     7
370
    25
100
AcDbCircle
 10
762.1608391608
 20
292.0733721263
 30
0.0
 40
25.0
100
AcDbArc
 50
180.0
 51
270.0
  0
LINE
  5
105
330
1F
100
AcDbEntity
  8
0
  6
Continuous
 62
     7
370
    25
100
AcDbLine
 10
762.1608391608
 20
267.0733721263
 30
0.0
 11
762.1608391608
 21
265.5733721263
 31
0.0
  0
LINE
  5
106
330
1F
100
AcDbEntity
  8
0
  6
Continuous
 62
     7
370
    25
100
AcDbLine
 10
762.1608391608
 20
267.0733721263
 30
0.0
 11
1212.1608391608
 21
267.0733721263
 31
0.0
  0
LINE
  5
107
330
1F
100
AcDbEntity
  8
0
  6
Continuous
 62
     7
370
    25
100
AcDbLine
 10
1212.1608391608
 20
267.0733721263
 30
0.0
 11
1212.1608391608
 21
265.5733721263
 31
0.0
  0
LINE
  5
108
330
1F
100
AcDbEntity
  8
0
  6
Continuous
 62
     7
370
    25
100
AcDbLine
 10
1212.1608391608
 20
265.5733721263
 30
0.0
 11
762.1608391608
 21
265.5733721263
 31
0.0
  0
ARC
  5
109
330
1F
100
AcDbEntity
  8
0
  6
Continuous
 62
     7
370
    25
100
AcDbCircle
 10
762.1608391608
 20
582.0733721263
 30
0.0
 40
25.0
100
AcDbArc
 50
90.0
 51
180.0
  0
LINE
  5
10A
330
1F
100
AcDbEntity
  8
0
  6
Continuous
 62
     7
370
    25
100
AcDbLine
 10
737.1608391608
 20
582.0733721263
 30
0.0
 11
737.1608391608
 21
292.0733721263
 31
0.0
  0
LINE
  5
10B
330
1F
100
AcDbEntity
  8
0
  6
Continuous
 62
     7
370
    25
100
AcDbLine
 10
1212.1608391608
 20
607.0733721263
 30
0.0
 11
762.1608391608
 21
607.0733721263
 31
0.0
  0
LINE
  5
10C
330
1F
100
AcDbEntity
  8
0
  6
Continuous
 62
     7
370
    25
100
AcDbLine
 10
1237.1608391608
 20
292.0733721263
 30
0.0
 11
1237.1608391608
 21
582.0733721263
 31
0.0
  0
ARC
  5
10D
330
1F
100
AcDbEntity
  8
0
  6
Continuous
 62
     7
370
    25
100
AcDbCircle
 10
1212.1608391608
 20
292.0733721263
 30
0.0
 40
25.0
100
AcDbArc
 50
270.0
 51
0.0
  0
LINE
  5
10E
330
1F
100
AcDbEntity
  8
0
  6
Continuous
 62
     7
370
    25
100
AcDbLine
 10
1237.1608391608
 20
582.0733721263
 30
0.0
 11
1228.0751681947
 21
582.0733721263
 31
0.0
  0
SPLINE
  5
10F
330
1F
100
AcDbEntity
  8
0
  6
Continuous
 62
     7
370
    25
100
AcDbSpline
210
0.0
220
0.0
230
1.0
 70
     8
 71
     3
 72
    15
 73
    11
 74
     0
 42
0.000000001
 43
0.00000001
 40
0.0
 40
0.0
 40
0.0
 40
0.0
 40
0.1277050631469756
 40
0.2500052846528075
 40
0.3758494975980122
 40
0.5000006215684636
 40
0.6241484129071292
 40
0.7499931831291219
 40
0.8722930816936403
 40
1.0
 40
1.0
 40
1.0
 40
1.0
 10
1212.160839160839
 20
597.987701160102
 30
0.0
 10
1213.211049697594
 20
597.9052854398127
 30
0.0
 10
1215.267022872946
 20
597.74394206702
 30
0.0
 10
1218.242292278866
 20
596.7598307364794
 30
0.0
 10
1220.96934780392
 20
595.2833103473105
 30
0.0
 10
1223.378368803324
 20
593.2909186989848
 30
0.0
 10
1225.370764037205
 20
590.8818964149125
 30
0.0
 10
1226.847279946399
 20
588.1548673847656
 30
0.0
 10
1227.831404360332
 20
585.1795836912916
 30
0.0
 10
1227.992750413211
 20
583.1235979180129
 30
0.0
 10
1228.075168194662
 20
582.0733721262789
 30
0.0
  0
LINE
  5
110
330
1F
100
AcDbEntity
  8
0
  6
Continuous
 62
     7
370
    25
100
AcDbLine
 10
1212.1608391608
 20
607.0733721263
 30
0.0
 11
1212.1608391608
 21
597.9877011601
 31
0.0
  0
LINE
  5
111
330
1F
100
AcDbEntity
  8
0
  6
Continuous
 62
     7
370
    25
100
AcDbLine
 10
762.1608391608
 20
267.0733721263
 30
0.0
 11
762.1608391608
 21
275.3981531609
 31
0.0
  0
SPLINE
  5
112
330
1F
100
AcDbEntity
  8
0
  6
Continuous
 62
     7
370
    25
100
AcDbSpline
210
0.0
220
0.0
230
1.0
 70
     8
 71
     3
 72
    17
 73
    13
 74
     0
 42
0.000000001
 43
0.00000001
 40
0.0
 40
0.0
 40
0.0
 40
0.0
 40
0.1085136308778242
 40
0.2170329054978721
 40
0.3255447414885865
 40
0.4343233022142365
 40
0.5431104170965741
 40
0.6518887751952513
 40
0.7388885502812218
 40
0.8258885983332589
 40
0.9129442178536803
 40
0.9999999999999999
 40
0.9999999999999999
 40
0.9999999999999999
 40
0.9999999999999999
 10
1212.160839160839
 20
275.3981531608625
 30
0.0
 10
1195.908340247983
 20
275.5658882456702
 30
0.0
 10
1163.402497137548
 20
275.9013671391073
 30
0.0
 10
1114.5858158198
 20
276.2844948764982
 30
0.0
 10
1065.697966587675
 20
276.563380377051
 30
0.0
 10
1016.744517351022
 20
276.7116806754873
 30
0.0
 10
967.7418080964314
 20
276.7261825027829
 30
0.0
 10
922.0150121569679
 20
276.6133023723909
 30
0.0
 10
879.5764314254886
 20
276.4053270664763
 30
0.0
 10
840.4183326174187
 20
276.1376795473809
 30
0.0
 10
801.2744267173196
 20
275.8056099381476
 30
0.0
 10
775.1987097981975
 20
275.5339721711971
 30
0.0
 10
762.1608391608388
 20
275.3981531608625
 30
0.0
  0
LINE
  5
113
330
1F
100
AcDbEntity
  8
0
  6
Continuous
 62
     7
370
    25
100
AcDbLine
 10
1212.1608391608
 20
267.0733721263
 30
0.0
 11
1212.1608391608
 21
275.3981531609
 31
0.0
  0
LINE
  5
114
330
1F
100
AcDbEntity
  8
0
  6
Continuous
 62
     7
370
    25
100
AcDbLine
 10
762.1608391608
 20
607.0733721263
 30
0.0
 11
762.1608391608
 21
597.9877011601
 31
0.0
  0
SPLINE
  5
115
330
1F
100
AcDbEntity
  8
0
  6
Continuous
 62
     7
370
    25
100
AcDbSpline
210
0.0
220
0.0
230
1.0
 70
     8
 71
     3
 72
    15
 73
    11
 74
     0
 42
0.000000001
 43
0.00000001
 40
0.0
 40
0.0
 40
0.0
 40
0.0
 40
0.1277050628998627
 40
0.2500052846527333
 40
0.3758494972421252
 40
0.5000006215683037
 40
0.6241484130710099
 40
0.7499931831290739
 40
0.8722930822815916
 40
1.0
 40
1.0
 40
1.0
 40
1.0
 10
746.2465101270157
 20
582.0733721262789
 30
0.0
 10
746.3289258470343
 20
583.1235826610016
 30
0.0
 10
746.4902692196088
 20
585.1795558363531
 30
0.0
 10
747.4743805487427
 20
588.1548252396922
 30
0.0
 10
748.9509009381035
 20
590.8818807668121
 30
0.0
 10
750.9432925866869
 20
593.290901767962
 30
0.0
 10
753.3523148734818
 20
595.2832970033397
 30
0.0
 10
756.0793439079126
 20
596.7598129146229
 30
0.0
 10
759.0546276007146
 20
597.7439373268799
 30
0.0
 10
761.110613373958
 20
597.905283379277
 30
0.0
 10
762.1608391608388
 20
597.987701160102
 30
0.0
  0
LINE
  5
116
330
1F
100
AcDbEntity
  8
0
  6
Continuous
 62
     7
370
    25
100
AcDbLine
 10
737.1608391608
 20
582.0733721263
 30
0.0
 11
746.246510127
 21
582.0733721263
 31
0.0
  0
SPLINE
  5
117
330
1F
100
AcDbEntity
  8
0
  6
Continuous
 62
     7
370
    25
100
AcDbSpline
210
0.0
220
0.0
230
1.0
 70
     8
 71
     3
 72
    15
 73
    11
 74
     0
 42
0.000000001
 43
0.00000001
 40
0.0
 40
0.0
 40
0.0
 40
0.0
 40
0.1277067818565643
 40
0.2500045648689302
 40
0.3758463447789225
 40
0.5000006532279117
 40
0.6241516109428699
 40
0.7499937477421916
 40
0.8722917587037718
 40
1.0
 40
1.0
 40
1.0
 40
1.0
 10
1228.836058126255
 20
292.0733721262789
 30
0.0
 10
1228.751490294821
 20
290.9717266502836
 30
0.0
 10
1228.58593648795
 20
288.8150957034999
 30
0.0
 10
1227.557351555392
 20
285.6947424231479
 30
0.0
 10
1226.011502735765
 20
282.8354302531314
 30
0.0
 10
1223.923923883522
 20
280.3103041858861
 30
0.0
 10
1221.398797640094
 20
278.2227229100866
 30
0.0
 10
1218.539510948064
 20
276.6768771347224
 30
0.0
 10
1215.419142609935
 20
275.6482791284031
 30
0.0
 10
1213.262497186132
 20
275.4827227179282
 30
0.0
 10
1212.160839160839
 20
275.3981531608625
 30
0.0
  0
LINE
  5
118
330
1F
100
AcDbEntity
  8
0
  6
Continuous
 62
     7
370
    25
100
AcDbLine
 10
1237.1608391608
 20
292.0733721263
 30
0.0
 11
1228.8360581263
 21
292.0733721263
 31
0.0
  0
LINE
  5
119
330
1F
100
AcDbEntity
  8
0
  6
Continuous
 62
     7
370
    25
100
AcDbLine
 10
962.9108391608
 20
606.9677401525
 30
0.0
 11
962.9108391608
 21
606.3073804117
 31
0.0
  0
SPLINE
  5
11A
330
1F
100
AcDbEntity
  8
0
  6
Continuous
 62
     7
370
    25
100
AcDbSpline
210
0.0
220
0.0
230
1.0
 70
     8
 71
     3
 72
    11
 73
     7
 74
     0
 42
0.000000001
 43
0.00000001
 40
0.0
 40
0.0
 40
0.0
 40
0.0
 40
0.2525397430932605
 40
0.5050830058898225
 40
0.7575216087128532
 40
0.9999999999999999
 40
0.9999999999999999
 40
0.9999999999999999
 40
0.9999999999999999
 10
962.9108391608388
 20
606.3073804117122
 30
0.0
 10
962.9218814050209
 20
606.3024326962125
 30
0.0
 10
962.9439660472838
 20
606.2925371962554
 30
0.0
 10
963.1170568914083
 20
606.2793050162626
 30
0.0
 10
963.3663055409542
 20
606.268944690375
 30
0.0
 10
963.5770342714306
 20
606.2658080291947
 30
0.0
 10
963.6802781773218
 20
606.2642712612798
 30
0.0
  0
SPLINE
  5
11B
330
1F
100
AcDbEntity
  8
0
  6
Continuous
 62
     7
370
    25
100
AcDbSpline
210
0.0
220
0.0
230
1.0
 70
     8
 71
     3
 72
    12
 73
     8
 74
     0
 42
0.000000001
 43
0.00000001
 40
0.0
 40
0.0
 40
0.0
 40
0.0
 40
0.0845961128197657
 40
0.334457287574449
 40
0.5844346159043444
 40
0.834651275414086
 40
1.0
 40
1.0
 40
1.0
 40
1.0
 10
1010.629612097439
 20
606.2646372884666
 30
0.0
 10
1010.667310537585
 20
606.26486160394
 30
0.0
 10
1010.816354242042
 20
606.2657484525469
 30
0.0
 10
1011.046415610057
 20
606.2723446165337
 30
0.0
 10
1011.273751423105
 20
606.2834651994367
 30
0.0
 10
1011.39362108276
 20
606.2959744191003
 30
0.0
 10
1011.405938286152
 20
606.3041338623466
 30
0.0
 10
1011.410839160839
 20
606.3073804117122
 30
0.0
  0
LINE
  5
11C
330
1F
100
AcDbEntity
  8
0
  6
Continuous
 62
     7
370
    25
100
AcDbLine
 10
1011.4108391608
 20
606.3073804117
 30
0.0
 11
1011.4108391608
 21
606.9677401525
 31
0.0
  0
SPLINE
  5
11D
330
1F
100
AcDbEntity
  8
0
  6
Continuous
 62
     7
370
    25
100
AcDbSpline
210
0.0
220
0.0
230
1.0
 70
     8
 71
     3
 72
    12
 73
     8
 74
     0
 42
0.000000001
 43
0.00000001
 40
0.0
 40
0.0
 40
0.0
 40
0.0
 40
0.2147272999791002
 40
0.4294551206243619
 40
0.644168702743075
 40
0.8588570896271043
 40
1.0
 40
1.0
 40
1.0
 40
1.0
 10
1011.410839160839
 20
606.9677401524576
 30
0.0
 10
1011.39978288598
 20
606.9695532465004
 30
0.0
 10
1011.377670309452
 20
606.9731794389824
 30
0.0
 10
1011.205228356735
 20
606.9778520191578
 30
0.0
 10
1010.951439686431
 20
606.9813096392028
 30
0.0
 10
1010.670273532748
 20
606.9831112773765
 30
0.0
 10
1010.484519689405
 20
606.9832944188822
 30
0.0
 10
1010.410839160839
 20
606.9833670632092
 30
0.0
  0
LINE
  5
11E
330
1F
100
AcDbEntity
  8
0
  6
Continuous
 62
     7
370
    25
100
AcDbLine
 10
1010.4108391608
 20
606.9833670632
 30
0.0
 11
963.9108391608
 21
606.9833670632
 31
0.0
  0
SPLINE
  5
11F
330
1F
100
AcDbEntity
  8
0
  6
Continuous
 62
     7
370
    25
100
AcDbSpline
210
0.0
220
0.0
230
1.0
 70
     8
 71
     3
 72
    12
 73
     8
 74
     0
 42
0.000000001
 43
0.00000001
 40
0.0
 40
0.0
 40
0.0
 40
0.0
 40
0.2146620845835761
 40
0.4293238139032809
 40
0.643995907080507
 40
0.858691289833754
 40
1.0
 40
1.0
 40
1.0
 40
1.0
 10
963.9108391608388
 20
606.9833670632092
 30
0.0
 10
963.7984248473804
 20
606.9832016232315
 30
0.0
 10
963.5735964065083
 20
606.9828707435496
 30
0.0
 10
963.2739443874066
 20
606.9802673118531
 30
0.0
 10
963.0477908096912
 20
606.9763618515858
 30
0.0
 10
962.927922944161
 20
606.9719373878885
 30
0.0
 10
962.9156934243346
 20
606.9689327739251
 30
0.0
 10
962.9108391608388
 20
606.9677401524576
 30
0.0
  0
SPLINE
  5
120
330
1F
100
AcDbEntity
  8
0
  6
Continuous
 62
     7
370
    25
100
AcDbSpline
210
0.0
220
0.0
230
1.0
 70
     8
 71
     3
 72
    11
 73
     7
 74
     0
 42
0.000000001
 43
0.00000001
 40
0.0
 40
0.0
 40
0.0
 40
0.0
 40
0.2498141199733741
 40
0.4997214832093028
 40
0.7498353064937643
 40
0.9999999999999999
 40
0.9999999999999999
 40
0.9999999999999999
 40
0.9999999999999999
 10
1010.087895517954
 20
596.4534461556399
 30
0.0
 10
1026.934563657686
 20
596.5073437606244
 30
0.0
 10
1060.634187965627
 20
596.6151590879052
 30
0.0
 10
1111.163285619908
 20
596.9714392324356
 30
0.0
 10
1161.683796738119
 20
597.4176840859158
 30
0.0
 10
1195.334017792458
 20
597.797682588809
 30
0.0
 10
1212.160839160839
 20
597.987701160102
 30
0.0
  0
LINE
  5
121
330
1F
100
AcDbEntity
  8
0
  6
Continuous
 62
     7
370
    25
100
AcDbLine
 10
964.2337828037
 20
596.4534461556
 30
0.0
 11
1010.087895518
 21
596.4534461556
 31
0.0
  0
SPLINE
  5
122
330
1F
100
AcDbEntity
  8
0
  6
Continuous
 62
     7
370
    25
100
AcDbSpline
210
0.0
220
0.0
230
1.0
 70
     8
 71
     3
 72
    11
 73
     7
 74
     0
 42
0.000000001
 43
0.00000001
 40
0.0
 40
0.0
 40
0.0
 40
0.0
 40
0.2498572747263396
 40
0.4997639547473462
 40
0.7498433433767429
 40
1.0
 40
1.0
 40
1.0
 40
1.0
 10
762.1608391608388
 20
597.987701160102
 30
0.0
 10
778.9669759216273
 20
597.7979063516163
 30
0.0
 10
812.5825725889475
 20
597.4182792057458
 30
0.0
 10
863.0799409722326
 20
596.9720661344081
 30
0.0
 10
913.629696335351
 20
596.6154185902491
 30
0.0
 10
947.3640170787315
 20
596.5074425266141
 30
0.0
 10
964.2337828037473
 20
596.4534461556397
 30
0.0
  0
LINE
  5
123
330
1F
100
AcDbEntity
  8
0
  6
Continuous
 62
     7
370
    25
100
AcDbLine
 10
1228.8360581263
 20
292.0733721263
 30
0.0
 11
1228.8187512008
 21
292.0733721263
 31
0.0
  0
SPLINE
  5
124
330
1F
100
AcDbEntity
  8
0
  6
Continuous
 62
     7
370
    25
100
AcDbSpline
210
0.0
220
0.0
230
1.0
 70
     8
 71
     3
 72
    13
 73
     9
 74
     0
 42
0.000000001
 43
0.00000001
 40
0.0
 40
0.0
 40
0.0
 40
0.0
 40
0.1924273684046396
 40
0.3848540625697078
 40
0.5775806705232984
 40
0.7703086629675899
 40
0.8851481468487646
 40
0.9999999999999999
 40
0.9999999999999999
 40
0.9999999999999999
 40
0.9999999999999999
 10
1227.935892770657
 20
582.0502477223199
 30
0.0
 10
1227.866498872679
 20
563.444019879699
 30
0.0
 10
1227.72771131987
 20
526.2316293881728
 30
0.0
 10
1227.731655530753
 20
470.3633906466098
 30
0.0
 10
1227.898281693091
 20
414.4793335828984
 30
0.0
 10
1228.183305227429
 20
366.1259006072223
 30
0.0
 10
1228.502148467514
 20
325.3259812438091
 30
0.0
 10
1228.71321316764
 20
303.1582458893922
 30
0.0
 10
1228.8187512008
 20
292.0737813270143
 30
0.0
  0
LINE
  5
125
330
1F
100
AcDbEntity
  8
0
  6
Continuous
 62
     7
370
    25
100
AcDbLine
 10
1228.0751681947
 20
582.0733721263
 30
0.0
 11
1227.93589277
 21
582.0502477224
 31
0.0
  0
LINE
  5
126
330
1F
100
AcDbEntity
  8
0
  6
Continuous
 62
     7
370
    25
100
AcDbLine
 10
737.1608391608
 20
292.0733721263
 30
0.0
 11
745.4856201954
 21
292.0733721263
 31
0.0
  0
LINE
  5
127
330
1F
100
AcDbEntity
  8
0
  6
Continuous
 62
     7
370
    25
100
AcDbLine
 10
746.3857855524
 20
582.0502475627
 30
0.0
 11
746.246510127
 21
582.0733721263
 31
0.0
  0
SPLINE
  5
128
330
1F
100
AcDbEntity
  8
0
  6
Continuous
 62
     7
370
    25
100
AcDbSpline
210
0.0
220
0.0
230
1.0
 70
     8
 71
     3
 72
    15
 73
    11
 74
     0
 42
0.000000001
 43
0.00000001
 40
0.0
 40
0.0
 40
0.0
 40
0.0
 40
0.1248152672026935
 40
0.2496303390880329
 40
0.3745128275168828
 40
0.499395056649666
 40
0.6245040410371238
 40
0.7496129182490825
 40
0.8748063615152051
 40
1.0
 40
1.0
 40
1.0
 40
1.0
 10
745.5029271205964
 20
292.0737812986314
 30
0.0
 10
745.6172551681743
 20
304.1201083988643
 30
0.0
 10
745.8459110844236
 20
328.2127437486175
 30
0.0
 10
746.1215321917385
 20
364.3888666724849
 30
0.0
 10
746.3408694418893
 20
400.5890750063555
 30
0.0
 10
746.4945370906213
 20
436.8333436801897
 30
0.0
 10
746.578893908394
 20
473.1094857478791
 30
0.0
 10
746.5898754667749
 20
509.4196325983447
 30
0.0
 10
746.5320936653773
 20
545.7367862719948
 30
0.0
 10
746.4345549483081
 20
569.9457541740758
 30
0.0
 10
746.3857855517497
 20
582.0502475625891
 30
0.0
  0
LINE
  5
129
330
1F
100
AcDbEntity
  8
0
  6
Continuous
 62
     7
370
    25
100
AcDbLine
 10
745.4856201954
 20
292.0733721263
 30
0.0
 11
745.5029271206
 21
292.0733721263
 31
0.0
  0
SPLINE
  5
12A
330
1F
100
AcDbEntity
  8
0
  6
Continuous
 62
     7
370
    25
100
AcDbSpline
210
0.0
220
0.0
230
1.0
 70
     8
 71
     3
 72
    15
 73
    11
 74
     0
 42
0.000000001
 43
0.00000001
 40
0.0
 40
0.0
 40
0.0
 40
0.0
 40
0.1277063548676993
 40
0.2500045650795152
 40
0.37584634519181
 40
0.5000006534385009
 40
0.6241516114679484
 40
0.7499937479527545
 40
0.8722913321338951
 40
1.0
 40
1.0
 40
1.0
 40
1.0
 10
762.1608391608388
 20
275.3981531608624
 30
0.0
 10
761.0591974161575
 20
275.4827205507638
 30
0.0
 10
758.9025665614301
 20
275.6482740469397
 30
0.0
 10
755.7822126996233
 20
276.6768579297436
 30
0.0
 10
752.9228972956779
 20
278.222708559391
 30
0.0
 10
750.3977712165834
 20
280.3102874073113
 30
0.0
 10
748.3101899360692
 20
282.835413639907
 30
0.0
 10
746.7643459692105
 20
285.6946971012595
 30
0.0
 10
745.7357469144171
 20
288.8150648575143
 30
0.0
 10
745.5701901935784
 20
290.9717103733149
 30
0.0
 10
745.4856201954225
 20
292.0733721262789
 30
0.0
  0
SPLINE
  5
12B
330
1F
100
AcDbEntity
  8
0
  6
Continuous
 62
     7
370
    25
100
AcDbSpline
210
0.0
220
0.0
230
1.0
 70
     8
 71
     3
 72
    21
 73
    17
 74
     0
 42
0.000000001
 43
0.00000001
 40
0.0
 40
0.0
 40
0.0
 40
0.0
 40
0.117689439950126
 40
0.2395304377820279
 40
0.3666526845216506
 40
0.5000592029695308
 40
0.556984719505999
 40
0.6176003779313224
 40
0.6819444817521173
 40
0.7500485441532562
 40
0.7780369754780517
 40
0.8114945557602844
 40
0.850421076976308
 40
0.8948154678722394
 40
0.9446759371137471
 40
1.0
 40
1.0
 40
1.0
 40
1.0
 10
762.1530714978136
 20
275.4314361901357
 30
0.0
 10
762.1476540387939
 20
275.837424793023
 30
0.0
 10
762.1366280169927
 20
276.6637234637051
 30
0.0
 10
762.9521266995032
 20
279.2420288309777
 30
0.0
 10
764.3862894615312
 20
282.7886043154475
 30
0.0
 10
766.077533782862
 20
286.3985389572034
 30
0.0
 10
767.6507360498427
 20
289.5048857757121
 30
0.0
 10
768.8818378736289
 20
291.860194281349
 30
0.0
 10
770.2759011660145
 20
294.4574139162161
 30
0.0
 10
771.4988706408484
 20
296.687147746502
 30
0.0
 10
772.5235801972781
 20
298.5162262509334
 30
0.0
 10
773.3332748210416
 20
299.947065209343
 30
0.0
 10
774.2893471968173
 20
301.6306177843357
 30
0.0
 10
775.3950245473629
 20
303.5721341246102
 30
0.0
 10
776.6517601144915
 20
305.7736432484025
 30
0.0
 10
777.549389468726
 20
307.3339802232836
 30
0.0
 10
778.0215168988495
 20
308.1546729541997
 30
0.0
  0
SPLINE
  5
12C
330
1F
100
AcDbEntity
  8
0
  6
Continuous
 62
     7
370
    25
100
AcDbSpline
210
0.0
220
0.0
230
1.0
 70
     8
 71
     3
 72
    19
 73
    15
 74
     0
 42
0.000000001
 43
0.00000001
 40
0.0
 40
0.0
 40
0.0
 40
0.0
 40
0.0836286581051256
 40
0.167265968271454
 40
0.2509311252570119
 40
0.3346065000110099
 40
0.4176692727329391
 40
0.5007319543873038
 40
0.5838420523102951
 40
0.6669522428905618
 40
0.7501948977117936
 40
0.8334377045347222
 40
0.9167187998244638
 40
1.0
 40
1.0
 40
1.0
 40
1.0
 10
778.0215168988495
 20
308.1546729541998
 30
0.0
 10
789.6671034263264
 20
308.2505493067097
 30
0.0
 10
812.9594813114142
 20
308.4423119309137
 30
0.0
 10
847.9288878553248
 20
308.6658922673628
 30
0.0
 10
882.9203162805138
 20
308.83923267418
 30
0.0
 10
917.8457828626584
 20
308.9576349280997
 30
0.0
 10
952.6967492999432
 20
309.025801690759
 30
0.0
 10
987.4738663941482
 20
309.0472347552934
 30
0.0
 10
1022.257554825273
 20
309.0249841334607
 30
0.0
 10
1057.061244727692
 20
308.9560895694539
 30
0.0
 10
1091.873866601323
 20
308.8369732757325
 30
0.0
 10
1126.696239174995
 20
308.6641569350394
 30
0.0
 10
1161.508610815246
 20
308.4410528988452
 30
0.0
 10
1184.7029730184
 20
308.2501329758229
 30
0.0
 10
1196.300161422828
 20
308.1546729541997
 30
0.0
  0
SPLINE
  5
12D
330
1F
100
AcDbEntity
  8
0
  6
Continuous
 62
     7
370
    25
100
AcDbSpline
210
0.0
220
0.0
230
1.0
 70
     8
 71
     3
 72
    25
 73
    21
 74
     0
 42
0.000000001
 43
0.00000001
 40
0.0
 40
0.0
 40
0.0
 40
0.0
 40
0.0629848338605901
 40
0.1261681282428666
 40
0.1875325564491236
 40
0.2501812864320307
 40
0.332928240781596
 40
0.4160528763108652
 40
0.5003501005511186
 40
0.5610451207327969
 40
0.6247628837102387
 40
0.6851979254795899
 40
0.7501900433466523
 40
0.7824189934390804
 40
0.8172692183535561
 40
0.854741487568342
 40
0.8904510976189732
 40
0.9270535403988471
 40
0.9565486800231964
 40
1.0
 40
1.0
 40
1.0
 40
1.0
 10
1212.168606795501
 20
275.4314361904429
 30
0.0
 10
1212.188375605986
 20
275.6231371437631
 30
0.0
 10
1212.227975517007
 20
276.0071430858334
 30
0.0
 10
1212.06129366476
 20
276.9452779433141
 30
0.0
 10
1211.73290444799
 20
278.1278609434071
 30
0.0
 10
1211.185046899855
 20
279.7130333190232
 30
0.0
 10
1210.356012423344
 20
281.786172044359
 30
0.0
 10
1209.188470613944
 20
284.4002382202605
 30
0.0
 10
1207.914555682731
 20
287.0488959089742
 30
0.0
 10
1206.60380473849
 20
289.6402611471445
 30
0.0
 10
1205.345560440392
 20
292.0449075834788
 30
0.0
 10
1203.97109913996
 20
294.596869376094
 30
0.0
 10
1202.764798634882
 20
296.7891266647505
 30
0.0
 10
1201.720973315094
 20
298.6578991736369
 30
0.0
 10
1200.878812689234
 20
300.1536202456054
 30
0.0
 10
1199.993804463222
 20
301.7151745133677
 30
0.0
 10
1199.080789058322
 20
303.315518909231
 30
0.0
 10
1198.224435714499
 20
304.8105089474192
 30
0.0
 10
1197.295586818015
 20
306.4271561829597
 30
0.0
 10
1196.671753969663
 20
307.509790515165
 30
0.0
 10
1196.300161422828
 20
308.1546729541996
 30
0.0
  0
LINE
  5
12E
330
1F
100
AcDbEntity
  8
0
  6
Continuous
 62
     7
370
    25
100
AcDbLine
 10
1212.1608391608
 20
275.3981531609
 30
0.0
 11
1212.1686067955
 21
275.4314361904
 31
0.0
  0
LINE
  5
12F
330
1F
100
AcDbEntity
  8
0
  6
Continuous
 62
     7
370
    25
100
AcDbLine
 10
762.1608391608
 20
275.3981531609
 30
0.0
 11
762.1530714978
 21
275.4314361901
 31
0.0
  0
SPLINE
  5
130
330
1F
100
AcDbEntity
  8
0
  6
Continuous
 62
     7
370
    25
100
AcDbSpline
210
0.0
220
0.0
230
1.0
 70
     8
 71
     3
 72
    21
 73
    17
 74
     0
 42
0.000000001
 43
0.00000001
 40
0.0
 40
0.0
 40
0.0
 40
0.0
 40
0.1173306655534768
 40
0.2389926936901299
 40
0.3661992977062034
 40
0.500024120758911
 40
0.5568694526281232
 40
0.6174584874390878
 40
0.6818322635298389
 40
0.7500248916401461
 40
0.7780635784662638
 40
0.8115510288045822
 40
0.8504882861982895
 40
0.8948757246319626
 40
0.944713186058398
 40
1.0
 40
1.0
 40
1.0
 40
1.0
 10
746.3857855517497
 20
582.0502475625877
 30
0.0
 10
746.7914451950813
 20
581.95303358186
 30
0.0
 10
747.6177397568981
 20
581.7550168825695
 30
0.0
 10
750.1770358459962
 20
580.6054241242564
 30
0.0
 10
753.6915091676119
 20
578.8282683479713
 30
0.0
 10
757.2591701427438
 20
576.8674635514079
 30
0.0
 10
760.3222765076024
 20
575.0968734201412
 30
0.0
 10
762.6384198232439
 20
573.7324611214196
 30
0.0
 10
765.1925968866325
 20
572.2046678287458
 30
0.0
 10
767.3853584095187
 20
570.8779922129632
 30
0.0
 10
769.1840299048664
 20
569.7743685113202
 30
0.0
 10
770.5903744736796
 20
568.9063991761651
 30
0.0
 10
772.244132248213
 20
567.8864800123562
 30
0.0
 10
774.1507428213641
 20
566.7130299411862
 30
0.0
 10
776.3125020191263
 20
565.3858021721776
 30
0.0
 10
777.845348718383
 20
564.4445468914661
 30
0.0
 10
778.651501340754
 20
563.9495232121678
 30
0.0
  0
SPLINE
  5
131
330
1F
100
AcDbEntity
  8
0
  6
Continuous
 62
     7
370
    25
100
AcDbSpline
210
0.0
220
0.0
230
1.0
 70
     8
 71
     3
 72
    12
 73
     8
 74
     0
 42
0.000000001
 43
0.00000001
 40
0.0
 40
0.0
 40
0.0
 40
0.0
 40
0.202063313434155
 40
0.404187677320765
 40
0.6064920211469236
 40
0.8088531507959944
 40
1.0
 40
1.0
 40
1.0
 40
1.0
 10
778.651501340754
 20
563.949523212168
 30
0.0
 10
778.6860116054836
 20
546.7146442409442
 30
0.0
 10
778.7550425617105
 20
512.2396790337965
 30
0.0
 10
778.728545807545
 20
460.4989711308207
 30
0.0
 10
778.6039045972885
 20
408.7464542226371
 30
0.0
 10
778.3764215676428
 20
357.9517117339505
 30
0.0
 10
778.1375493096878
 20
324.4352997542399
 30
0.0
 10
778.0215168988495
 20
308.1546729541996
 30
0.0
  0
SPLINE
  5
132
330
1F
100
AcDbEntity
  8
0
  6
Continuous
 62
     7
370
    25
100
AcDbSpline
210
0.0
220
0.0
230
1.0
 70
     8
 71
     3
 72
    24
 73
    20
 74
     0
 42
0.000000001
 43
0.00000001
 40
0.0
 40
0.0
 40
0.0
 40
0.0
 40
0.0629856791539513
 40
0.126169947807841
 40
0.187534709994834
 40
0.2501839170245885
 40
0.3329309170782712
 40
0.4160556537076334
 40
0.5003528844835415
 40
0.5610480211653677
 40
0.6247657965577021
 40
0.6852014556213307
 40
0.7501934868077655
 40
0.7880497459522635
 40
0.8294723423449825
 40
0.8744624211010893
 40
0.9141731599212649
 40
0.9514477795079801
 40
1.0
 40
1.0
 40
1.0
 40
1.0
 10
745.5029271205966
 20
292.0737812986314
 30
0.0
 10
745.6879051678886
 20
292.0607976305053
 30
0.0
 10
746.0584444854909
 20
292.0347893576435
 30
0.0
 10
746.9769850388082
 20
292.2213163412299
 30
0.0
 10
748.1405790875497
 20
292.5689921533976
 30
0.0
 10
749.7056091758261
 20
293.1373708995685
 30
0.0
 10
751.7577704684568
 20
293.987869427651
 30
0.0
 10
754.3507781336132
 20
295.1770723579821
 30
0.0
 10
756.9821592880013
 20
296.4688748643632
 30
0.0
 10
759.5593425156279
 20
297.7944027410804
 30
0.0
 10
761.9526875597588
 20
299.0645049785899
 30
0.0
 10
764.494397643073
 20
300.4498221201418
 30
0.0
 10
766.7571650702891
 20
301.7073859112709
 30
0.0
 10
768.7946809248253
 20
302.8562471658651
 30
0.0
 10
770.5728712200848
 20
303.8668009386962
 30
0.0
 10
772.3992554031538
 20
304.9117284551414
 30
0.0
 10
774.182150551064
 20
305.9374653393213
 30
0.0
 10
776.0296158436832
 20
307.0029029207956
 30
0.0
 10
777.3018272476646
 20
307.7385293051786
 30
0.0
 10
778.0215168988495
 20
308.1546729541997
 30
0.0
  0
SPLINE
  5
133
330
1F
100
AcDbEntity
  8
0
  6
Continuous
 62
     7
370
    25
100
AcDbSpline
210
0.0
220
0.0
230
1.0
 70
     8
 71
     3
 72
    12
 73
     8
 74
     0
 42
0.000000001
 43
0.00000001
 40
0.0
 40
0.0
 40
0.0
 40
0.0
 40
0.1912926221321265
 40
0.3933255625434198
 40
0.5954131564951419
 40
0.7976757204889446
 40
1.0
 40
1.0
 40
1.0
 40
1.0
 10
1196.300161422828
 20
308.1546729541998
 30
0.0
 10
1196.184046183875
 20
324.44771857171
 30
0.0
 10
1195.945296298115
 20
357.9485993773817
 30
0.0
 10
1195.717952067355
 20
408.7093002244145
 30
0.0
 10
1195.593237205506
 20
460.4270943005645
 30
0.0
 10
1195.566561569881
 20
512.183364418589
 30
0.0
 10
1195.635634998432
 20
546.6923822836582
 30
0.0
 10
1195.670176980923
 20
563.9495232121678
 30
0.0
  0
SPLINE
  5
134
330
1F
100
AcDbEntity
  8
0
  6
Continuous
 62
     7
370
    25
100
AcDbSpline
210
0.0
220
0.0
230
1.0
 70
     8
 71
     3
 72
    22
 73
    18
 74
     0
 42
0.000000001
 43
0.00000001
 40
0.0
 40
0.0
 40
0.0
 40
0.0
 40
0.1050841440713071
 40
0.1883657926375801
 40
0.2498377008031451
 40
0.2957363315474676
 40
0.339926558999388
 40
0.38241762005983
 40
0.4232199475113452
 40
0.4623453396586077
 40
0.499807168864487
 40
0.5676703167958244
 40
0.63375531337395
 40
0.6981827515151454
 40
0.7610822093153449
 40
0.8827093039482697
 40
1.0
 40
1.0
 40
1.0
 40
1.0
 10
1195.670176980924
 20
563.9495232121678
 30
0.0
 10
1197.202141819308
 20
564.8896547464249
 30
0.0
 10
1199.948224719117
 20
566.5748625691552
 30
0.0
 10
1203.510390085837
 20
568.7697670756224
 30
0.0
 10
1206.169030181368
 20
570.4107092753994
 30
0.0
 10
1208.246411045482
 20
571.6704111680612
 30
0.0
 10
1210.027913135641
 20
572.7430403611019
 30
0.0
 10
1211.703270375247
 20
573.7422493229074
 30
0.0
 10
1213.27218688701
 20
574.6688461464233
 30
0.0
 10
1214.73562667574
 20
575.5230797063091
 30
0.0
 10
1216.482691704735
 20
576.5282779598417
 30
0.0
 10
1218.461264090058
 20
577.6360667145904
 30
0.0
 10
1220.579616588058
 20
578.7794197584528
 30
0.0
 10
1222.456981662033
 20
579.7527359022004
 30
0.0
 10
1224.589612675197
 20
580.8044397856756
 30
0.0
 10
1226.705420904369
 20
581.7558397293532
 30
0.0
 10
1227.53072864054
 20
581.9533064092855
 30
0.0
 10
1227.935892770657
 20
582.0502477223199
 30
0.0
  0
SPLINE
  5
135
330
1F
100
AcDbEntity
  8
0
  6
Continuous
 62
     7
370
    25
100
AcDbSpline
210
0.0
220
0.0
230
1.0
 70
     8
 71
     3
 72
    21
 73
    17
 74
     0
 42
0.000000001
 43
0.00000001
 40
0.0
 40
0.0
 40
0.0
 40
0.0
 40
0.1176881341801246
 40
0.2395275573540707
 40
0.3666495337083215
 40
0.5000590177938657
 40
0.5569839870518198
 40
0.6175991341134363
 40
0.6819430437091689
 40
0.7500475302050496
 40
0.7780628231638902
 40
0.8115363195725088
 40
0.8504679905693951
 40
0.8948569739616864
 40
0.9447017165172569
 40
1.0
 40
1.0
 40
1.0
 40
1.0
 10
1228.8187512008
 20
292.0737813270144
 30
0.0
 10
1228.42531712018
 20
292.0810286173603
 30
0.0
 10
1227.624571106427
 20
292.09577883637
 30
0.0
 10
1225.083135354246
 20
292.9486832095693
 30
0.0
 10
1221.571361149463
 20
294.4184766366509
 30
0.0
 10
1217.986301826765
 20
296.1354923191628
 30
0.0
 10
1214.89700122614
 20
297.7265087204617
 30
0.0
 10
1212.552923767985
 20
298.9693710207983
 30
0.0
 10
1209.966275549734
 20
300.3746084596165
 30
0.0
 10
1207.743767578743
 20
301.6059149236731
 30
0.0
 10
1205.919494088323
 20
302.6368173670076
 30
0.0
 10
1204.491806005293
 20
303.4510852777951
 30
0.0
 10
1202.81201515104
 20
304.4116989167476
 30
0.0
 10
1200.874643655593
 20
305.5216469697709
 30
0.0
 10
1198.677492212632
 20
306.7822067276353
 30
0.0
 10
1197.119540872792
 20
307.6816337681346
 30
0.0
 10
1196.300161422828
 20
308.1546729541996
 30
0.0
  0
LINE
  5
136
330
1F
100
AcDbEntity
  8
0
  6
Continuous
 62
     7
370
    25
100
AcDbLine
 10
762.1060425338
 20
597.6983532603
 30
0.0
 11
762.1608391608
 21
597.9877011601
 31
0.0
  0
LWPOLYLINE
  5
137
330
1F
100
AcDbEntity
  8
0
  6
Continuous
 62
     7
370
    25
100
AcDbPolyline
 90
       14
 70
   128
 43
0.0
 10
963.8266063126
 20
563.0696870036
 10
963.8374154569
 20
566.7556718055
 10
963.8526532417
 20
570.3876057151
 10
963.8721494142
 20
573.9249088765
 10
963.8956861424
 20
577.3280587499
 10
963.9230004486
 20
580.5590316996
 10
963.9537871481
 20
583.5817278352
 10
963.987702259
 20
586.3623743576
 10
964.0243668453
 20
588.8699029056
 10
964.0633712511
 20
591.0762966842
 10
964.1042796772
 20
592.956903499
 10
964.146635051
 20
594.4907111962
 10
964.1899641328
 20
595.6605824332
 10
964.2337828037
 20
596.4534461556
  0
SPLINE
  5
138
330
1F
100
AcDbEntity
  8
0
  6
Continuous
 62
     7
370
    25
100
AcDbSpline
210
0.0
220
0.0
230
1.0
 70
     8
 71
     3
 72
    11
 73
     7
 74
     0
 42
0.000000001
 43
0.00000001
 40
0.0
 40
0.0
 40
0.0
 40
0.0
 40
0.249853047576705
 40
0.4997794229799642
 40
0.7498696533239781
 40
1.0
 40
1.0
 40
1.0
 40
1.0
 10
963.8266063125757
 20
563.0696870035737
 30
0.0
 10
948.3900063253396
 20
563.0602905048415
 30
0.0
 10
917.5122759585533
 20
563.041494749657
 30
0.0
 10
871.2104412865376
 20
563.2170179250986
 30
0.0
 10
824.915306807785
 20
563.518853322903
 30
0.0
 10
794.0735943036299
 20
563.8059589073833
 30
0.0
 10
778.6515013407538
 20
563.9495232121677
 30
0.0
  0
SPLINE
  5
139
330
1F
100
AcDbEntity
  8
0
  6
Continuous
 62
     7
370
    25
100
AcDbSpline
210
0.0
220
0.0
230
1.0
 70
     8
 71
     3
 72
    22
 73
    18
 74
     0
 42
0.000000001
 43
0.00000001
 40
0.0
 40
0.0
 40
0.0
 40
0.0
 40
0.1051959624412124
 40
0.1884782389937786
 40
0.2498268101044469
 40
0.2957276218044761
 40
0.3399204474658389
 40
0.3824138462343089
 40
0.4232175932020484
 40
0.4623428520223503
 40
0.4998023864823908
 40
0.5676520474213691
 40
0.6337315305854693
 40
0.6981592891378983
 40
0.7610628660263089
 40
0.8827022177203818
 40
1.0
 40
1.0
 40
1.0
 40
1.0
 10
778.651501340754
 20
563.949523212168
 30
0.0
 10
777.7275330694303
 20
565.4969769044802
 30
0.0
 10
776.0720711237059
 20
568.2695295774446
 30
0.0
 10
773.943299367124
 20
571.8898219968568
 30
0.0
 10
772.3636398632914
 20
574.6013418775718
 30
0.0
 10
771.1596477308229
 20
576.7273351754404
 30
0.0
 10
770.1396021657375
 20
578.5577044186108
 30
0.0
 10
769.1953712209075
 20
580.2845036764274
 30
0.0
 10
768.3255991428672
 20
581.9068626769124
 30
0.0
 10
767.5295521848369
 20
583.4252257023986
 30
0.0
 10
766.6003181102914
 20
585.24405448347
 30
0.0
 10
765.5896655824903
 20
587.3149061096183
 30
0.0
 10
764.5683662238614
 20
589.5501999777596
 30
0.0
 10
763.7225277218798
 20
591.5507861667401
 30
0.0
 10
762.8444923052167
 20
593.8524940643168
 30
0.0
 10
762.1187710524171
 20
596.1895507064061
 30
0.0
 10
762.110233664266
 20
597.2015485244806
 30
0.0
 10
762.1060425338211
 20
597.6983532603447
 30
0.0
  0
SPLINE
  5
13A
330
1F
100
AcDbEntity
  8
0
  6
Continuous
 62
     7
370
    25
100
AcDbSpline
210
0.0
220
0.0
230
1.0
 70
     8
 71
     3
 72
    23
 73
    19
 74
     0
 42
0.000000001
 43
0.00000001
 40
0.0
 40
0.0
 40
0.0
 40
0.0
 40
0.0487441636285954
 40
0.0858467674925781
 40
0.1255376839558199
 40
0.1705683585940935
 40
0.2119984934689129
 40
0.2498290818713541
 40
0.3354593840439414
 40
0.4180681583459189
 40
0.4996513908389571
 40
0.5839594505534382
 40
0.6670938832229251
 40
0.7497850647093833
 40
0.8123915236138489
 40
0.8737048248261503
 40
0.9369780413399973
 40
1.0
 40
1.0
 40
1.0
 40
1.0
 10
1195.670176980924
 20
563.9495232121678
 30
0.0
 10
1196.100043525063
 20
564.6662738344464
 30
0.0
 10
1196.857111664518
 20
565.9285936577945
 30
0.0
 10
1197.95272919275
 20
567.7670713011186
 30
0.0
 10
1199.006016940419
 20
569.5429359341526
 30
0.0
 10
1200.080419664425
 20
571.3698338887222
 30
0.0
 10
1201.1193925191
 20
573.1537492076485
 30
0.0
 10
1202.469075059298
 20
575.4963969964415
 30
0.0
 10
1204.090754615058
 20
578.3728056985703
 30
0.0
 10
1205.918286537673
 20
581.7355499185535
 30
0.0
 10
1207.569154588527
 20
584.9226958715121
 30
0.0
 10
1209.022654168653
 20
587.9106096194707
 30
0.0
 10
1210.249420482127
 20
590.646904584948
 30
0.0
 10
1211.127093668635
 20
592.8531012556323
 30
0.0
 10
1211.712803099792
 20
594.5737188165178
 30
0.0
 10
1212.070552814231
 20
595.8904606456681
 30
0.0
 10
1212.261006877696
 20
596.9714885579563
 30
0.0
 10
1212.230739518874
 20
597.4563865874887
 30
0.0
 10
1212.215635947152
 20
597.6983532622208
 30
0.0
  0
SPLINE
  5
13B
330
1F
100
AcDbEntity
  8
0
  6
Continuous
 62
     7
370
    25
100
AcDbSpline
210
0.0
220
0.0
230
1.0
 70
     8
 71
     3
 72
    11
 73
     7
 74
     0
 42
0.000000001
 43
0.00000001
 40
0.0
 40
0.0
 40
0.0
 40
0.0
 40
0.2498865268773859
 40
0.4998117341158349
 40
0.7498746690037484
 40
1.0
 40
1.0
 40
1.0
 40
1.0
 10
1195.670176980924
 20
563.9495232121678
 30
0.0
 10
1180.263120841305
 20
563.8060909323326
 30
0.0
 10
1149.446623677609
 20
563.519204170535
 30
0.0
 10
1103.168336420752
 20
563.2173300078827
 30
0.0
 10
1056.851480928224
 20
563.041506409857
 30
0.0
 10
1025.948493315756
 20
563.0602926911683
 30
0.0
 10
1010.495072009123
 20
563.0696870035736
 30
0.0
  0
LWPOLYLINE
  5
13C
330
1F
100
AcDbEntity
  8
0
  6
Continuous
 62
     7
370
    25
100
AcDbPolyline
 90
       14
 70
   128
 43
0.0
 10
1010.4950720091
 20
563.0696870036
 10
1010.4842628648
 20
566.7556718055
 10
1010.46902508
 20
570.3876057151
 10
1010.4495289074
 20
573.9249088765
 10
1010.4259921793
 20
577.3280587499
 10
1010.3986778731
 20
580.5590316996
 10
1010.3678911736
 20
583.5817278352
 10
1010.3339760627
 20
586.3623743576
 10
1010.2973114764
 20
588.8699029056
 10
1010.2583070706
 20
591.0762966842
 10
1010.2173986445
 20
592.956903499
 10
1010.1750432707
 20
594.4907111962
 10
1010.1317141889
 20
595.6605824332
 10
1010.087895518
 20
596.4534461556
  0
LINE
  5
13D
330
1F
100
AcDbEntity
  8
0
  6
Continuous
 62
     7
370
    25
100
AcDbLine
 10
1212.2156359472
 20
597.6983532622
 30
0.0
 11
1212.1608391608
 21
597.9877011601
 31
0.0
  0
SPLINE
  5
13E
330
1F
100
AcDbEntity
  8
0
  6
Continuous
 62
     7
370
    25
100
AcDbSpline
210
0.0
220
0.0
230
1.0
 70
     8
 71
     3
 72
    15
 73
    11
 74
     0
 42
0.000000001
 43
0.00000001
 40
0.0
 40
0.0
 40
0.0
 40
0.0
 40
0.12501758615993
 40
0.2500243465757332
 40
0.3750141314741717
 40
0.4999993491598725
 40
0.6249854214514592
 40
0.7499773342916894
 40
0.874978966906172
 40
0.9999999999999999
 40
0.9999999999999999
 40
0.9999999999999999
 40
0.9999999999999999
 10
745.5029271205966
 20
292.0737812986313
 30
0.0
 10
745.5853889641769
 20
290.998539505884
 30
0.0
 10
745.7503055106556
 20
288.84814902963
 30
0.0
 10
746.7707211176524
 20
285.740300215131
 30
0.0
 10
748.3243895222399
 20
282.8674835170098
 30
0.0
 10
750.4117399430153
 20
280.341160546871
 30
0.0
 10
752.9394647055178
 20
278.2545663548586
 30
0.0
 10
755.8142321353545
 20
276.701018973454
 30
0.0
 10
758.9245162274997
 20
275.6800991152328
 30
0.0
 10
761.0768307381785
 20
275.5143281194951
 30
0.0
 10
762.1530714978136
 20
275.4314361901358
 30
0.0
  0
SPLINE
  5
13F
330
1F
100
AcDbEntity
  8
0
  6
Continuous
 62
     7
370
    25
100
AcDbSpline
210
0.0
220
0.0
230
1.0
 70
     8
 71
     3
 72
    15
 73
    11
 74
     0
 42
0.000000001
 43
0.00000001
 40
0.0
 40
0.0
 40
0.0
 40
0.0
 40
0.1250210332022319
 40
0.250022665708438
 40
0.3750145785479203
 40
0.5000006508387351
 40
0.6249858685252024
 40
0.7499756534243904
 40
0.874982413948465
 40
1.0
 40
1.0
 40
1.0
 40
1.0
 10
1228.8187512008
 20
292.0737813270143
 30
0.0
 10
1228.736285667938
 20
290.9985097228206
 30
0.0
 10
1228.571367399171
 20
288.8481333744966
 30
0.0
 10
1227.550947478822
 20
285.740284124778
 30
0.0
 10
1225.997290528374
 20
282.8674814883645
 30
0.0
 10
1223.90992462841
 20
280.3411468202214
 30
0.0
 10
1221.3822115591
 20
278.2545680913398
 30
0.0
 10
1218.507430050048
 20
276.7010092546923
 30
0.0
 10
1215.397146381022
 20
275.6800937025371
 30
0.0
 10
1213.244817721107
 20
275.5143244202945
 30
0.0
 10
1212.168606795501
 20
275.4314361904429
 30
0.0
  0
SPLINE
  5
140
330
1F
100
AcDbEntity
  8
0
  6
Continuous
 62
     7
370
    25
100
AcDbSpline
210
0.0
220
0.0
230
1.0
 70
     8
 71
     3
 72
    15
 73
    11
 74
     0
 42
0.000000001
 43
0.00000001
 40
0.0
 40
0.0
 40
0.0
 40
0.0
 40
0.1251302371343369
 40
0.2501416319049701
 40
0.3750909220886519
 40
0.4999994222122435
 40
0.6249092593690373
 40
0.7498598872286187
 40
0.8748716523674656
 40
0.9999999999999999
 40
0.9999999999999999
 40
0.9999999999999999
 40
0.9999999999999999
 10
1227.935892770352
 20
582.0502477223779
 30
0.0
 10
1227.849994169225
 20
583.0550645910251
 30
0.0
 10
1227.678278549114
 20
585.0637440041331
 30
0.0
 10
1226.703578058144
 20
587.9686226019846
 30
0.0
 10
1225.228242937779
 20
590.6536934726047
 30
0.0
 10
1223.26109936434
 20
593.0223161240233
 30
0.0
 10
1220.880064222558
 20
594.981909908941
 30
0.0
 10
1218.178202941729
 20
596.454859087866
 30
0.0
 10
1215.252946244921
 20
597.4320180674001
 30
0.0
 10
1213.228387240981
 20
597.6095472836731
 30
0.0
 10
1212.215635947153
 20
597.698353262221
 30
0.0
  0
SPLINE
  5
141
330
1F
100
AcDbEntity
  8
0
  6
Continuous
 62
     7
370
    25
100
AcDbSpline
210
0.0
220
0.0
230
1.0
 70
     8
 71
     3
 72
    15
 73
    11
 74
     0
 42
0.000000001
 43
0.00000001
 40
0.0
 40
0.0
 40
0.0
 40
0.0
 40
0.1251283509382355
 40
0.2501401128305226
 40
0.3750907407025414
 40
0.5000005778709913
 40
0.6249090779814032
 40
0.7498583681518058
 40
0.8748697661694127
 40
0.9999999999999999
 40
0.9999999999999999
 40
0.9999999999999999
 40
0.9999999999999999
 10
746.3857855523597
 20
582.0502475627023
 30
0.0
 10
746.4716840410559
 20
583.0550489338781
 30
0.0
 10
746.6434009820478
 20
585.0637154468908
 30
0.0
 10
747.6180849764942
 20
587.9685975683174
 30
0.0
 10
749.0934363663252
 20
590.6536889137711
 30
0.0
 10
751.0605844015516
 20
593.0223214463515
 30
0.0
 10
753.4416096449514
 20
594.9819108098989
 30
0.0
 10
756.1434503955379
 20
596.4548438083348
 30
0.0
 10
759.0687035395214
 20
597.4320191567373
 30
0.0
 10
761.0932755951324
 20
597.6095471128302
 30
0.0
 10
762.1060425338211
 20
597.6983532603444
 30
0.0
  0
LINE
  5
142
330
1F
100
AcDbEntity
  8
0
  6
Continuous
 62
     7
370
    25
100
AcDbLine
 10
1010.4950720091
 20
563.0696870036
 30
0.0
 11
993.4774512574
 21
563.112959906
 31
0.0
  0
SPLINE
  5
143
330
1F
100
AcDbEntity
  8
0
  6
Continuous
 62
     7
370
    25
100
AcDbSpline
210
0.0
220
0.0
230
1.0
 70
     8
 71
     3
 72
    11
 73
     7
 74
     0
 42
0.000000001
 43
0.00000001
 40
0.0
 40
0.0
 40
0.0
 40
0.0
 40
0.2487789199336237
 40
0.4980295361054489
 40
0.7487648420133775
 40
1.0
 40
1.0
 40
1.0
 40
1.0
 10
980.8442270643196
 20
563.1129599060246
 30
0.0
 10
981.8902946914408
 20
563.1928596980623
 30
0.0
 10
983.9844133378641
 20
563.3528107758066
 30
0.0
 10
987.1421594386835
 20
563.4166359354033
 30
0.0
 10
990.3103284220485
 20
563.3545056984761
 30
0.0
 10
992.4210430432167
 20
563.1935286027585
 30
0.0
 10
993.4774512573567
 20
563.1129599060247
 30
0.0
  0
LINE
  5
144
330
1F
100
AcDbEntity
  8
0
  6
Continuous
 62
     7
370
    25
100
AcDbLine
 10
980.8442270643
 20
563.112959906
 30
0.0
 11
963.8266063126
 21
563.0696870036
 31
0.0
  0
ARC
  5
145
330
1F
100
AcDbEntity
  8
0
  6
Continuous
 62
     7
370
    25
100
AcDbCircle
 10
987.1608391608
 20
497.0733721263
 30
0.0
 40
70.00000000000006
100
AcDbArc
 50
109.4720015612
 51
70.5279984388
  0
SPLINE
  5
146
330
1F
100
AcDbEntity
  8
0
  6
Continuous
 62
     7
370
    25
100
AcDbSpline
210
0.0
220
0.0
230
1.0
 70
     8
 71
     3
 72
    11
 73
     7
 74
     0
 42
0.000000001
 43
0.00000001
 40
0.0
 40
0.0
 40
0.0
 40
0.0
 40
0.2485647878461301
 40
0.4976824781479461
 40
0.7485467000954924
 40
1.0
 40
1.0
 40
1.0
 40
1.0
 10
993.4134902147757
 20
562.4442531971956
 30
0.0
 10
992.3791789221186
 20
562.5299618793781
 30
0.0
 10
990.3082556358136
 20
562.7015698923915
 30
0.0
 10
987.182592989454
 20
562.770357187168
 30
0.0
 10
984.044780780489
 20
562.7037110484888
 30
0.0
 10
981.9545360888936
 20
562.5308067370921
 30
0.0
 10
980.9081881069008
 20
562.4442531971955
 30
0.0
  0
LINE
  5
147
330
1F
100
AcDbEntity
  8
0
  6
Continuous
 62
     7
370
    25
100
AcDbLine
 10
980.8442270643
 20
563.112959906
 30
0.0
 11
980.9081881069
 21
562.4442531972
 31
0.0
  0
LINE
  5
148
330
1F
100
AcDbEntity
  8
0
  6
Continuous
 62
     7
370
    25
100
AcDbLine
 10
993.4134902148
 20
562.4442531972
 30
0.0
 11
993.4774512574
 21
563.112959906
 31
0.0
  0
CIRCLE
  5
149
330
1F
100
AcDbEntity
  8
0
  6
Continuous
 62
     7
370
    25
100
AcDbCircle
 10
987.1608391608
 20
497.0733721263
 30
0.0
 40
58.61177143234625
  0
ARC
  5
14A
330
1F
100
AcDbEntity
  8
0
  6
Continuous
 62
     7
370
    25
100
AcDbCircle
 10
987.1608391608
 20
497.0733721263
 30
0.0
 40
65.66922975938002
100
AcDbArc
 50
95.4636553582
 51
84.5363446418
  0
ARC
  5
14B
330
1F
100
AcDbEntity
  8
0
  6
Continuous
 62
     7
370
    25
100
AcDbCircle
 10
987.1608391608
 20
497.0733721263
 30
0.0
 40
66.34098840458012
100
AcDbArc
 50
95.4636553582
 51
84.5363446418
  0
CIRCLE
  5
14C
330
1F
100
AcDbEntity
  8
0
  6
Continuous
 62
     7
370
    25
100
AcDbCircle
 10
987.1608391608
 20
497.0733721263
 30
0.0
 40
57.5
  0
LINE
  5
14D
330
1F
100
AcDbEntity
  8
0
  6
Continuous
 62
     8
370
    25
100
AcDbLine
 10
966.4835509432
 20
606.9833670632
 30
0.0
 11
966.4677099236
 21
606.8023033806
 31
0.0
  0
LINE
  5
14E
330
1F
100
AcDbEntity
  8
0
  6
Continuous
 62
     8
370
    25
100
AcDbLine
 10
1007.8539683973
 20
606.8023033803
 30
0.0
 11
1007.8381273777
 21
606.9833670632
 31
0.0
  0
LINE
  5
14F
330
1F
100
AcDbEntity
  8
0
  6
Continuous
 62
     8
370
    25
100
AcDbLine
 10
1005.2608391608
 20
605.472027972
 30
0.0
 11
1005.2608391608
 21
604.917724982
 31
0.0
  0
LINE
  5
150
330
1F
100
AcDbEntity
  8
0
  6
Continuous
 62
     8
370
    25
100
AcDbLine
 10
969.0608391608
 20
604.917724982
 30
0.0
 11
969.0608391608
 21
605.472027972
 31
0.0
  0
SPLINE
  5
151
330
1F
100
AcDbEntity
  8
0
  6
Continuous
 62
     8
370
    25
100
AcDbSpline
210
0.0
220
0.0
230
1.0
 70
     8
 71
     3
 72
    12
 73
     8
 74
     0
 42
0.000000001
 43
0.00000001
 40
0.0
 40
0.0
 40
0.0
 40
0.0
 40
0.2636006187124968
 40
0.4531132151778237
 40
0.6509915694254619
 40
0.8488699236487195
 40
1.0
 40
1.0
 40
1.0
 40
1.0
 10
1020.117784679952
 20
481.8320861035909
 30
0.0
 10
1020.2372738148
 20
481.7768270930545
 30
0.0
 10
1020.442668272273
 20
481.6818402601175
 30
0.0
 10
1020.689608390857
 20
481.5676402073407
 30
0.0
 10
1020.857012243635
 20
481.4902225347352
 30
0.0
 10
1020.956736212852
 20
481.4441041365914
 30
0.0
 10
1020.962154553764
 20
481.4415983678444
 30
0.0
 10
1020.964500841716
 20
481.440513302302
 30
0.0
  0
SPLINE
  5
152
330
1F
100
AcDbEntity
  8
0
  6
Continuous
 62
     8
370
    25
100
AcDbSpline
210
0.0
220
0.0
230
1.0
 70
     8
 71
     3
 72
    12
 73
     8
 74
     0
 42
0.000000001
 43
0.00000001
 40
0.0
 40
0.0
 40
0.0
 40
0.0
 40
0.1511300494418598
 40
0.3490079504455482
 40
0.5468858514736168
 40
0.7363980138802649
 40
1.0
 40
1.0
 40
1.0
 40
1.0
 10
953.3571774420316
 20
512.706230967797
 30
0.0
 10
953.3595237308373
 20
512.7051459018675
 30
0.0
 10
953.3649420672324
 20
512.702640135228
 30
0.0
 10
953.4646660733941
 20
512.6565217198277
 30
0.0
 10
953.6320699309091
 20
512.579104045704
 30
0.0
 10
953.879010801475
 20
512.4649036424518
 30
0.0
 10
954.0844062791344
 20
512.3699163465591
 30
0.0
 10
954.2038963811917
 20
512.3146568938696
 30
0.0
  0
LINE
  5
153
330
1F
100
AcDbEntity
  8
0
  6
Continuous
 62
     8
370
    25
100
AcDbLine
 10
1238.1560051353
 20
582.0733721263
 30
0.0
 11
1237.1608391608
 21
582.0733721263
 31
0.0
  0
LINE
  5
154
330
1F
100
AcDbEntity
  8
0
  6
Continuous
 62
     8
370
    25
100
AcDbLine
 10
1212.1608391608
 20
607.572027972
 30
0.0
 11
1212.1608391608
 21
607.0733721263
 31
0.0
  0
ARC
  5
155
330
1F
100
AcDbEntity
  8
0
  6
Continuous
 62
     8
370
    25
100
AcDbCircle
 10
762.1608391608
 20
292.0733721263
 30
0.0
 40
26.49999999999994
100
AcDbArc
 50
236.8567591403
 51
270.0
  0
LINE
  5
156
330
1F
100
AcDbEntity
  8
0
  6
Continuous
 62
     8
370
    25
100
AcDbLine
 10
737.1608391608
 20
292.0733721263
 30
0.0
 11
736.1608391608
 21
292.0733721263
 31
0.0
  0
ARC
  5
157
330
1F
100
AcDbEntity
  8
0
  6
Continuous
 62
     8
370
    25
100
AcDbCircle
 10
1212.1608391608
 20
292.0733721263
 30
0.0
 40
26.49999999999994
100
AcDbArc
 50
270.0
 51
319.2779895898
  0
LINE
  5
158
330
1F
100
AcDbEntity
  8
0
  6
Continuous
 62
     8
370
    25
100
AcDbLine
 10
737.1608391608
 20
582.0733721263
 30
0.0
 11
736.1656731864
 21
582.0733721263
 31
0.0
  0
LINE
  5
159
330
1F
100
AcDbEntity
  8
0
  6
Continuous
 62
     8
370
    25
100
AcDbLine
 10
762.1608391608
 20
607.572027972
 30
0.0
 11
762.1608391608
 21
607.0733721263
 31
0.0
  0
LINE
  5
15A
330
1F
100
AcDbEntity
  8
0
  6
Continuous
 62
     8
370
    25
100
AcDbLine
 10
1238.1608391608
 20
292.0733721263
 30
0.0
 11
1237.1608391608
 21
292.0733721263
 31
0.0
  0
LINE
  5
15B
330
1F
100
AcDbEntity
  8
0
  6
Continuous
 62
     8
370
    25
100
AcDbLine
 10
963.9108391608
 20
606.5460449491
 30
0.0
 11
963.9108391608
 21
606.9833670632
 31
0.0
  0
LINE
  5
15C
330
1F
100
AcDbEntity
  8
0
  6
Continuous
 62
     8
370
    25
100
AcDbLine
 10
1010.4108391608
 20
606.5587550093
 30
0.0
 11
1010.4108391608
 21
606.9833670632
 31
0.0
  0
ENDSEC
  0
SECTION
  2
OBJECTS
  0
DICTIONARY
  5
C
330
0
100
AcDbDictionary
281
     1
  3
ACAD_GROUP
350
D
  3
ACAD_LAYOUT
350
1A
  3
ACAD_MLINESTYLE
350
17
  3
ACAD_PLOTSETTINGS
350
19
  3
ACAD_PLOTSTYLENAME
350
E
  3
ACAD_SCALELIST
350
47
  0
DICTIONARY
  5
D
102
{ACAD_REACTORS
330
C
102
}
330
C
100
AcDbDictionary
281
     1
  0
DICTIONARY
  5
1A
102
{ACAD_REACTORS
330
C
102
}
330
C
100
AcDbDictionary
281
     1
  3
Layout1
350
1E
  3
Layout2
350
26
  3
Model
350
22
  0
DICTIONARY
  5
17
102
{ACAD_REACTORS
330
C
102
}
330
C
100
AcDbDictionary
281
     1
  3
Standard
350
18
  0
DICTIONARY
  5
19
102
{ACAD_REACTORS
330
C
102
}
330
C
100
AcDbDictionary
281
     1
  0
ACDBDICTIONARYWDFLT
  5
E
102
{ACAD_REACTORS
330
C
102
}
330
C
100
AcDbDictionary
281
     1
  3
Normal
350
F
100
AcDbDictionaryWithDefault
340
F
  0
DICTIONARY
  5
47
102
{ACAD_REACTORS
330
C
102
}
330
C
100
AcDbDictionary
281
     1
  3
A0
350
48
  3
A1
350
49
  3
A2
350
4A
  3
A3
350
4B
  3
A4
350
4C
  3
A5
350
4D
  3
A6
350
4E
  3
A7
350
4F
  3
A8
350
50
  3
A9
350
51
  3
B0
350
52
  3
B1
350
53
  3
B2
350
54
  3
B3
350
55
  3
B4
350
56
  3
B5
350
57
  3
B6
350
58
  3
B7
350
59
  3
B8
350
5A
  3
B9
350
5B
  3
C0
350
5C
  3
C1
350
5D
  3
C2
350
5E
  3
C3
350
5F
  3
C4
350
60
  3
C5
350
61
  3
C6
350
62
  3
C7
350
63
  3
C8
350
64
  3
C9
350
65
  3
D0
350
66
  3
D1
350
67
  3
D2
350
68
  0
LAYOUT
  5
1E
102
{ACAD_REACTORS
330
1A
102
}
330
1A
100
AcDbPlotSettings
  1

  2
none_device
  4

  6

 40
0.0
 41
0.0
 42
0.0
 43
0.0
 44
0.0
 45
0.0
 46
0.0
 47
0.0
 48
0.0
 49
0.0
140
0.0
141
0.0
142
1.0
143
1.0
 70
   688
 72
     1
 73
     0
 74
     5
  7

 75
    16
147
1.0
148
0.0
149
0.0
100
AcDbLayout
  1
Layout1
 70
     1
 71
     1
 10
0.0
 20
0.0
 11
420.0
 21
297.0
 12
0.0
 22
0.0
 32
0.0
 14
1.0000000000E+20
 24
1.0000000000E+20
 34
1.0000000000E+20
 15
-1.0000000000E+20
 25
-1.0000000000E+20
 35
-1.0000000000E+20
146
0.0
 13
0.0
 23
0.0
 33
0.0
 16
1.0
 26
0.0
 36
0.0
 17
0.0
 27
1.0
 37
0.0
 76
     0
330
1B
  0
LAYOUT
  5
26
102
{ACAD_REACTORS
330
1A
102
}
330
1A
100
AcDbPlotSettings
  1

  2
none_device
  4

  6

 40
0.0
 41
0.0
 42
0.0
 43
0.0
 44
0.0
 45
0.0
 46
0.0
 47
0.0
 48
0.0
 49
0.0
140
0.0
141
0.0
142
1.0
143
1.0
 70
   688
 72
     1
 73
     0
 74
     5
  7

 75
    16
147
1.0
148
0.0
149
0.0
100
AcDbLayout
  1
Layout2
 70
     1
 71
     2
 10
0.0
 20
0.0
 11
0.0
 21
0.0
 12
0.0
 22
0.0
 32
0.0
 14
0.0
 24
0.0
 34
0.0
 15
0.0
 25
0.0
 35
0.0
146
0.0
 13
0.0
 23
0.0
 33
0.0
 16
1.0
 26
0.0
 36
0.0
 17
0.0
 27
1.0
 37
0.0
 76
     0
330
23
  0
LAYOUT
  5
22
102
{ACAD_REACTORS
330
1A
102
}
330
1A
100
AcDbPlotSettings
  1

  2
none_device
  4
Letter_(8.50_x_11.00_Inches)
  6

 40
6.35
 41
6.35
 42
6.35000508
 43
6.35000508
 44
215.9
 45
279.4
 46
0.0
 47
0.0
 48
0.0
 49
0.0
140
0.0
141
0.0
142
1.0
143
1.0
 70
  1712
 72
     1
 73
     0
 74
     0
  7

 75
     0
147
1.0
148
0.0
149
0.0
100
AcDbLayout
  1
Model
 70
     1
 71
     0
 10
0.0
 20
0.0
 11
2000.0
 21
900.0
 12
0.0
 22
0.0
 32
0.0
 14
0.0
 24
0.0
 34
0.0
 15
2000.0
 25
900.0
 35
0.0
146
0.0
 13
0.0
 23
0.0
 33
0.0
 16
1.0
 26
0.0
 36
0.0
 17
0.0
 27
1.0
 37
0.0
 76
     0
330
1F
331
29
  0
MLINESTYLE
  5
18
102
{ACAD_REACTORS
330
17
102
}
330
17
100
AcDbMlineStyle
  2
Standard
 70
     0
  3

 62
   256
 51
90.0
 52
90.0
 71
     2
 49
0.5
 62
   256
  6
BYLAYER
 49
-0.5
 62
   256
  6
BYLAYER
  0
ACDBPLACEHOLDER
  5
F
102
{ACAD_REACTORS
330
E
102
}
330
E
  0
SCALE
  5
48
102
{ACAD_REACTORS
330
47
102
}
330
47
100
AcDbScale
 70
     0
300
1:1
140
1.0
141
1.0
290
     1
  0
SCALE
  5
49
102
{ACAD_REACTORS
330
47
102
}
330
47
100
AcDbScale
 70
     0
300
1:2
140
1.0
141
2.0
290
     0
  0
SCALE
  5
4A
102
{ACAD_REACTORS
330
47
102
}
330
47
100
AcDbScale
 70
     0
300
1:4
140
1.0
141
4.0
290
     0
  0
SCALE
  5
4B
102
{ACAD_REACTORS
330
47
102
}
330
47
100
AcDbScale
 70
     0
300
1:5
140
1.0
141
5.0
290
     0
  0
SCALE
  5
4C
102
{ACAD_REACTORS
330
47
102
}
330
47
100
AcDbScale
 70
     0
300
1:8
140
1.0
141
8.0
290
     0
  0
SCALE
  5
4D
102
{ACAD_REACTORS
330
47
102
}
330
47
100
AcDbScale
 70
     0
300
1:10
140
1.0
141
10.0
290
     0
  0
SCALE
  5
4E
102
{ACAD_REACTORS
330
47
102
}
330
47
100
AcDbScale
 70
     0
300
1:16
140
1.0
141
16.0
290
     0
  0
SCALE
  5
4F
102
{ACAD_REACTORS
330
47
102
}
330
47
100
AcDbScale
 70
     0
300
1:20
140
1.0
141
20.0
290
     0
  0
SCALE
  5
50
102
{ACAD_REACTORS
330
47
102
}
330
47
100
AcDbScale
 70
     0
300
1:30
140
1.0
141
30.0
290
     0
  0
SCALE
  5
51
102
{ACAD_REACTORS
330
47
102
}
330
47
100
AcDbScale
 70
     0
300
1:40
140
1.0
141
40.0
290
     0
  0
SCALE
  5
52
102
{ACAD_REACTORS
330
47
102
}
330
47
100
AcDbScale
 70
     0
300
1:50
140
1.0
141
50.0
290
     0
  0
SCALE
  5
53
102
{ACAD_REACTORS
330
47
102
}
330
47
100
AcDbScale
 70
     0
300
1:100
140
1.0
141
100.0
290
     0
  0
SCALE
  5
54
102
{ACAD_REACTORS
330
47
102
}
330
47
100
AcDbScale
 70
     0
300
2:1
140
2.0
141
1.0
290
     0
  0
SCALE
  5
55
102
{ACAD_REACTORS
330
47
102
}
330
47
100
AcDbScale
 70
     0
300
4:1
140
4.0
141
1.0
290
     0
  0
SCALE
  5
56
102
{ACAD_REACTORS
330
47
102
}
330
47
100
AcDbScale
 70
     0
300
8:1
140
8.0
141
1.0
290
     0
  0
SCALE
  5
57
102
{ACAD_REACTORS
330
47
102
}
330
47
100
AcDbScale
 70
     0
300
10:1
140
10.0
141
1.0
290
     0
  0
SCALE
  5
58
102
{ACAD_REACTORS
330
47
102
}
330
47
100
AcDbScale
 70
     0
300
100:1
140
100.0
141
1.0
290
     0
  0
SCALE
  5
59
102
{ACAD_REACTORS
330
47
102
}
330
47
100
AcDbScale
 70
     0
300
1/128" = 1'-0"
140
0.0078125
141
12.0
290
     0
  0
SCALE
  5
5A
102
{ACAD_REACTORS
330
47
102
}
330
47
100
AcDbScale
 70
     0
300
1/64" = 1'-0"
140
0.015625
141
12.0
290
     0
  0
SCALE
  5
5B
102
{ACAD_REACTORS
330
47
102
}
330
47
100
AcDbScale
 70
     0
300
1/32" = 1'-0"
140
0.03125
141
12.0
290
     0
  0
SCALE
  5
5C
102
{ACAD_REACTORS
330
47
102
}
330
47
100
AcDbScale
 70
     0
300
1/16" = 1'-0"
140
0.0625
141
12.0
290
     0
  0
SCALE
  5
5D
102
{ACAD_REACTORS
330
47
102
}
330
47
100
AcDbScale
 70
     0
300
3/32" = 1'-0"
140
0.09375
141
12.0
290
     0
  0
SCALE
  5
5E
102
{ACAD_REACTORS
330
47
102
}
330
47
100
AcDbScale
 70
     0
300
1/8" = 1'-0"
140
0.125
141
12.0
290
     0
  0
SCALE
  5
5F
102
{ACAD_REACTORS
330
47
102
}
330
47
100
AcDbScale
 70
     0
300
3/16" = 1'-0"
140
0.1875
141
12.0
290
     0
  0
SCALE
  5
60
102
{ACAD_REACTORS
330
47
102
}
330
47
100
AcDbScale
 70
     0
300
1/4" = 1'-0"
140
0.25
141
12.0
290
     0
  0
SCALE
  5
61
102
{ACAD_REACTORS
330
47
102
}
330
47
100
AcDbScale
 70
     0
300
3/8" = 1'-0"
140
0.375
141
12.0
290
     0
  0
SCALE
  5
62
102
{ACAD_REACTORS
330
47
102
}
330
47
100
AcDbScale
 70
     0
300
1/2" = 1'-0"
140
0.5
141
12.0
290
     0
  0
SCALE
  5
63
102
{ACAD_REACTORS
330
47
102
}
330
47
100
AcDbScale
 70
     0
300
3/4" = 1'-0"
140
0.75
141
12.0
290
     0
  0
SCALE
  5
64
102
{ACAD_REACTORS
330
47
102
}
330
47
100
AcDbScale
 70
     0
300
1" = 1'-0"
140
1.0
141
12.0
290
     0
  0
SCALE
  5
65
102
{ACAD_REACTORS
330
47
102
}
330
47
100
AcDbScale
 70
     0
300
1-1/2" = 1'-0"
140
1.5
141
12.0
290
     0
  0
SCALE
  5
66
102
{ACAD_REACTORS
330
47
102
}
330
47
100
AcDbScale
 70
     0
300
3" = 1'-0"
140
3.0
141
12.0
290
     0
  0
SCALE
  5
67
102
{ACAD_REACTORS
330
47
102
}
330
47
100
AcDbScale
 70
     0
300
6" = 1'-0"
140
6.0
141
12.0
290
     0
  0
SCALE
  5
68
102
{ACAD_REACTORS
330
47
102
}
330
47
100
AcDbScale
 70
     0
300
1'-0" = 1'-0"
140
12.0
141
12.0
290
     0
  0
ENDSEC
  0
EOF
