  0
SECTION
  2
HEADER
  9
$ACADVER
  1
AC1015
  9
$ACADMAINTVER
 70
     6
  9
$DWGCODEPAGE
  3
ANSI_1252
  9
$INSBASE
 10
0.0
 20
0.0
 30
0.0
  9
$EXTMIN
 10
0.0
 20
0.0
 30
0.0
  9
$EXTMAX
 10
2000.0
 20
900.0
 30
0.0
  9
$LIMMIN
 10
0.0
 20
0.0
  9
$LIMMAX
 10
2000.0
 20
900.0
  9
$ORTHOMODE
 70
     0
  9
$REGENMODE
 70
     1
  9
$FILLMODE
 70
     1
  9
$QTEXTMODE
 70
     0
  9
$MIRRTEXT
 70
     1
  9
$LTSCALE
 40
1.0
  9
$ATTMODE
 70
     1
  9
$TEXTSIZE
 40
5.0
  9
$TRACEWID
 40
1.0
  9
$TEXTSTYLE
  7
Standard
  9
$CLAYER
  8
0
  9
$CELTYPE
  6
ByLayer
  9
$CECOLOR
 62
   256
  9
$CELTSCALE
 40
1.0
  9
$DISPSILH
 70
     0
  9
$DIMSCALE
 40
1.0
  9
$DIMASZ
 40
6.0
  9
$DIMEXO
 40
1.0
  9
$DIMDLI
 40
3.75
  9
$DIMRND
 40
0.0
  9
$DIMDLE
 40
0.0
  9
$DIMEXE
 40
1.0
  9
$DIMTP
 40
0.0
  9
$DIMTM
 40
0.0
  9
$DIMTXT
 40
5.0
  9
$DIMCEN
 40
2.5
  9
$DIMTSZ
 40
0.0
  9
$DIMTOL
 70
     0
  9
$DIMLIM
 70
     0
  9
$DIMTIH
 70
     1
  9
$DIMTOH
 70
     1
  9
$DIMSE1
 70
     0
  9
$DIMSE2
 70
     0
  9
$DIMTAD
 70
     1
  9
$DIMZIN
 70
     0
  9
$DIMBLK
  1

  9
$DIMASO
 70
     1
  9
$DIMSHO
 70
     1
  9
$DIMPOST
  1

  9
$DIMAPOST
  1

  9
$DIMALT
 70
     0
  9
$DIMALTD
 70
     3
  9
$DIMALTF
 40
0.0393700787401575
  9
$DIMLFAC
 40
1.0
  9
$DIMTOFL
 70
     1
  9
$DIMTVP
 40
0.0
  9
$DIMTIX
 70
     0
  9
$DIMSOXD
 70
     0
  9
$DIMSAH
 70
     0
  9
$DIMBLK1
  1

  9
$DIMBLK2
  1

  9
$DIMSTYLE
  2
ISO-25
  9
$DIMCLRD
 70
     0
  9
$DIMCLRE
 70
     0
  9
$DIMCLRT
 70
     0
  9
$DIMTFAC
 40
1.0
  9
$DIMGAP
 40
1.524
  9
$DIMJUST
 70
     0
  9
$DIMSD1
 70
     0
  9
$DIMSD2
 70
     0
  9
$DIMTOLJ
 70
     0
  9
$DIMTZIN
 70
     0
  9
$DIMALTZ
 70
     0
  9
$DIMALTTZ
 70
     0
  9
$DIMUPT
 70
     0
  9
$DIMDEC
 70
     2
  9
$DIMTDEC
 70
     2
  9
$DIMALTU
 70
     2
  9
$DIMALTTD
 70
     3
  9
$DIMTXSTY
  7
Standard
  9
$DIMAUNIT
 70
     0
  9
$DIMADEC
 70
     2
  9
$DIMALTRND
 40
0.0
  9
$DIMAZIN
 70
     0
  9
$DIMDSEP
 70
    44
  9
$DIMATFIT
 70
     3
  9
$DIMFRAC
 70
     0
  9
$DIMLDRBLK
  1

  9
$DIMLUNIT
 70
     2
  9
$DIMLWD
 70
    -2
  9
$DIMLWE
 70
    -2
  9
$DIMTMOVE
 70
     0
  9
$LUNITS
 70
     2
  9
$LUPREC
 70
     2
  9
$SKETCHINC
 40
1.0
  9
$FILLETRAD
 40
10.0
  9
$AUNITS
 70
     0
  9
$AUPREC
 70
     2
  9
$MENU
  1
.
  9
$ELEVATION
 40
0.0
  9
$PELEVATION
 40
0.0
  9
$THICKNESS
 40
0.0
  9
$LIMCHECK
 70
     0
  9
$CHAMFERA
 40
10.0
  9
$CHAMFERB
 40
10.0
  9
$CHAMFERC
 40
20.0
  9
$CHAMFERD
 40
0.0
  9
$SKPOLY
 70
     0
  9
$TDCREATE
 40
2456338.622389653
  9
$TDUCREATE
 40
2456338.539056319
  9
$TDUPDATE
 40
2457758.360045058
  9
$TDUUPDATE
 40
2457758.276711725
  9
$TDINDWG
 40
0.000115
  9
$TDUSRTIMER
 40
2457758.276596898
  9
$USRTIMER
 70
     1
  9
$ANGBASE
 50
0.0
  9
$ANGDIR
 70
     0
  9
$PDMODE
 70
     0
  9
$PDSIZE
 40
-1.0
  9
$PLINEWID
 40
0.0
  9
$SPLFRAME
 70
     0
  9
$SPLINETYPE
 70
     6
  9
$SPLINESEGS
 70
     8
  9
$HANDSEED
  5
243
  9
$SURFTAB1
 70
     6
  9
$SURFTAB2
 70
     6
  9
$SURFTYPE
 70
     6
  9
$SURFU
 70
     6
  9
$SURFV
 70
     6
  9
$UCSBASE
  2

  9
$UCSNAME
  2

  9
$UCSORG
 10
0.0
 20
0.0
 30
0.0
  9
$UCSXDIR
 10
1.0
 20
0.0
 30
0.0
  9
$UCSYDIR
 10
0.0
 20
1.0
 30
0.0
  9
$UCSORTHOREF
  2

  9
$UCSORTHOVIEW
 70
     0
  9
$UCSORGTOP
 10
0.0
 20
0.0
 30
0.0
  9
$UCSORGBOTTOM
 10
0.0
 20
0.0
 30
0.0
  9
$UCSORGLEFT
 10
0.0
 20
0.0
 30
0.0
  9
$UCSORGRIGHT
 10
0.0
 20
0.0
 30
0.0
  9
$UCSORGFRONT
 10
0.0
 20
0.0
 30
0.0
  9
$UCSORGBACK
 10
0.0
 20
0.0
 30
0.0
  9
$PUCSBASE
  2

  9
$PUCSNAME
  2

  9
$PUCSORG
 10
0.0
 20
0.0
 30
0.0
  9
$PUCSXDIR
 10
1.0
 20
0.0
 30
0.0
  9
$PUCSYDIR
 10
0.0
 20
1.0
 30
0.0
  9
$PUCSORTHOREF
  2

  9
$PUCSORTHOVIEW
 70
     0
  9
$PUCSORGTOP
 10
0.0
 20
0.0
 30
0.0
  9
$PUCSORGBOTTOM
 10
0.0
 20
0.0
 30
0.0
  9
$PUCSORGLEFT
 10
0.0
 20
0.0
 30
0.0
  9
$PUCSORGRIGHT
 10
0.0
 20
0.0
 30
0.0
  9
$PUCSORGFRONT
 10
0.0
 20
0.0
 30
0.0
  9
$PUCSORGBACK
 10
0.0
 20
0.0
 30
0.0
  9
$USERI1
 70
     0
  9
$USERI2
 70
     0
  9
$USERI3
 70
     0
  9
$USERI4
 70
     0
  9
$USERI5
 70
     0
  9
$USERR1
 40
0.0
  9
$USERR2
 40
0.0
  9
$USERR3
 40
0.0
  9
$USERR4
 40
0.0
  9
$USERR5
 40
0.0
  9
$WORLDVIEW
 70
     1
  9
$SHADEDGE
 70
     3
  9
$SHADEDIF
 70
    70
  9
$TILEMODE
 70
     1
  9
$MAXACTVP
 70
    64
  9
$PINSBASE
 10
0.0
 20
0.0
 30
0.0
  9
$PLIMCHECK
 70
     0
  9
$PEXTMIN
 10
1.000000000000000E+20
 20
1.000000000000000E+20
 30
1.000000000000000E+20
  9
$PEXTMAX
 10
-1.000000000000000E+20
 20
-1.000000000000000E+20
 30
-1.000000000000000E+20
  9
$PLIMMIN
 10
0.0
 20
0.0
  9
$PLIMMAX
 10
0.0
 20
0.0
  9
$UNITMODE
 70
     0
  9
$VISRETAIN
 70
     1
  9
$PLINEGEN
 70
     0
  9
$PSLTSCALE
 70
     1
  9
$TREEDEPTH
 70
  3020
  9
$CMLSTYLE
  2
Standard
  9
$CMLJUST
 70
     0
  9
$CMLSCALE
 40
20.0
  9
$PROXYGRAPHICS
 70
     1
  9
$MEASUREMENT
 70
     1
  9
$CELWEIGHT
370
    -1
  9
$ENDCAPS
280
     0
  9
$JOINSTYLE
280
     0
  9
$LWDISPLAY
290
     1
  9
$INSUNITS
 70
     4
  9
$HYPERLINKBASE
  1

  9
$STYLESHEET
  1

  9
$XEDIT
290
     1
  9
$CEPSNTYPE
380
     0
  9
$PSTYLEMODE
290
     1
  9
$FINGERPRINTGUID
  2
{693C1B17-BD6C-4CAD-AB9A-642C64AA7645}
  9
$VERSIONGUID
  2
{FAEB1C32-E019-11D5-929B-00C0DF256EC4}
  9
$EXTNAMES
290
     1
  9
$PSVPSCALE
 40
0.0
  9
$OLESTARTUP
290
     0
  0
ENDSEC
  0
SECTION
  2
CLASSES
  0
CLASS
  1
ACDBDICTIONARYWDFLT
  2
AcDbDictionaryWithDefault
  3
ObjectDBX Classes
 90
        0
280
     0
281
     0
  0
CLASS
  1
VISUALSTYLE
  2
AcDbVisualStyle
  3
ObjectDBX Classes
 90
     4095
280
     0
281
     0
  0
CLASS
  1
MATERIAL
  2
AcDbMaterial
  3
ObjectDBX Classes
 90
     1153
280
     0
281
     0
  0
CLASS
  1
ACDBPLACEHOLDER
  2
AcDbPlaceHolder
  3
ObjectDBX Classes
 90
        0
280
     0
281
     0
  0
CLASS
  1
LAYOUT
  2
AcDbLayout
  3
ObjectDBX Classes
 90
        0
280
     0
281
     0
  0
CLASS
  1
SCALE
  2
AcDbScale
  3
ObjectDBX Classes
 90
     1153
280
     0
281
     0
  0
CLASS
  1
TABLESTYLE
  2
AcDbTableStyle
  3
ObjectDBX Classes
 90
     4095
280
     0
281
     0
  0
CLASS
  1
SUN
  2
AcDbSun
  3
SCENEOE
 90
     1153
280
     0
281
     0
  0
CLASS
  1
RASTERVARIABLES
  2
AcDbRasterVariables
  3
ISM
 90
        0
280
     0
281
     0
  0
ENDSEC
  0
SECTION
  2
TABLES
  0
TABLE
  2
VPORT
  5
8
330
0
100
AcDbSymbolTable
 70
     1
  0
VPORT
  5
29
330
8
100
AcDbSymbolTableRecord
100
AcDbViewportTableRecord
  2
*Active
 70
     0
 10
0.0
 20
0.0
 11
1.0
 21
1.0
 12
1130.856296296296
 22
549.7688888888888
 13
0.0
 23
0.0
 14
10.0
 24
10.0
 15
10.0
 25
10.0
 16
0.0
 26
0.0
 36
1.0
 17
0.0
 27
0.0
 37
0.0
 40
609.8488888888888
 41
1.67910447761194
 42
50.0
 43
0.0
 44
0.0
 50
0.0
 51
0.0
 71
    16
 72
  2000
 73
     1
 74
     3
 75
     0
 76
     0
 77
     0
 78
     0
281
     0
 65
     1
110
0.0
120
0.0
130
0.0
111
1.0
121
0.0
131
0.0
112
0.0
122
1.0
132
0.0
 79
     0
146
0.0
  0
ENDTAB
  0
TABLE
  2
LTYPE
  5
5
330
0
100
AcDbSymbolTable
 70
     6
  0
LTYPE
  5
14
330
5
100
AcDbSymbolTableRecord
100
AcDbLinetypeTableRecord
  2
ByBlock
 70
     0
  3

 72
    65
 73
     0
 40
0.0
  0
LTYPE
  5
15
330
5
100
AcDbSymbolTableRecord
100
AcDbLinetypeTableRecord
  2
ByLayer
 70
     0
  3

 72
    65
 73
     0
 40
0.0
  0
LTYPE
  5
16
330
5
100
AcDbSymbolTableRecord
100
AcDbLinetypeTableRecord
  2
Continuous
 70
     0
  3
Solid line
 72
    65
 73
     0
 40
0.0
  0
LTYPE
  5
3F
330
5
100
AcDbSymbolTableRecord
100
AcDbLinetypeTableRecord
  2
HIDDEN
 70
     0
  3
Hidden __ __ __ __ __ __ __ __ __ __ __ __ __ __
 72
    65
 73
     2
 40
1.905
 49
1.27
 74
     0
 49
-0.635
 74
     0
  0
LTYPE
  5
40
330
5
100
AcDbSymbolTableRecord
100
AcDbLinetypeTableRecord
  2
PHANTOM
 70
     0
  3
Phantom ______  __  __  ______  __  __  ______
 72
    65
 73
     6
 40
12.7
 49
6.35
 74
     0
 49
-1.27
 74
     0
 49
1.27
 74
     0
 49
-1.27
 74
     0
 49
1.27
 74
     0
 49
-1.27
 74
     0
  0
LTYPE
  5
41
330
5
100
AcDbSymbolTableRecord
100
AcDbLinetypeTableRecord
  2
CENTER
 70
     0
  3
Center ____ _ ____ _ ____ _ ____ _ ____ _ ____
 72
    65
 73
     4
 40
10.16
 49
6.35
 74
     0
 49
-1.27
 74
     0
 49
1.27
 74
     0
 49
-1.27
 74
     0
  0
LTYPE
  5
42
330
5
100
AcDbSymbolTableRecord
100
AcDbLinetypeTableRecord
  2
CENTERX2
 70
     0
  3
Center (2x) ________  __  ________  __  _____
 72
    65
 73
     4
 40
20.32
 49
12.7
 74
     0
 49
-2.54
 74
     0
 49
2.54
 74
     0
 49
-2.54
 74
     0
  0
LTYPE
  5
43
330
5
100
AcDbSymbolTableRecord
100
AcDbLinetypeTableRecord
  2
DOT2
 70
     0
  3
Dot (.5x) ........................................
 72
    65
 73
     2
 40
0.635
 49
0.0
 74
     0
 49
-0.635
 74
     0
  0
ENDTAB
  0
TABLE
  2
LAYER
  5
2
330
0
100
AcDbSymbolTable
 70
     2
  0
LAYER
  5
10
330
2
100
AcDbSymbolTableRecord
100
AcDbLayerTableRecord
  2
0
 70
     0
 62
     7
  6
Continuous
370
    -3
390
F
  0
LAYER
  5
44
330
2
100
AcDbSymbolTableRecord
100
AcDbLayerTableRecord
  2
TABLE_BL1
 70
     0
 62
   179
  6
Continuous
370
    -3
390
F
  0
ENDTAB
  0
TABLE
  2
STYLE
  5
3
330
0
100
AcDbSymbolTable
 70
     2
  0
STYLE
  5
11
330
3
100
AcDbSymbolTableRecord
100
AcDbTextStyleTableRecord
  2
Standard
 70
     0
 40
0.0
 41
1.0
 50
0.0
 71
     0
 42
5.0
  3
txt
  4

  0
STYLE
  5
5C
330
3
100
AcDbSymbolTableRecord
100
AcDbTextStyleTableRecord
  2
SLDTEXTSTYLE0
 70
     0
 40
0.0
 41
0.605
 50
0.0
 71
     0
 42
0.2
  3
TXT
  4

  0
ENDTAB
  0
TABLE
  2
VIEW
  5
6
330
0
100
AcDbSymbolTable
 70
     0
  0
ENDTAB
  0
TABLE
  2
UCS
  5
7
330
0
100
AcDbSymbolTable
 70
     0
  0
ENDTAB
  0
TABLE
  2
APPID
  5
9
330
0
100
AcDbSymbolTable
 70
     1
  0
APPID
  5
12
330
9
100
AcDbSymbolTableRecord
100
AcDbRegAppTableRecord
  2
ACAD
 70
     0
  0
ENDTAB
  0
TABLE
  2
DIMSTYLE
  5
A
330
0
100
AcDbSymbolTable
 70
     1
100
AcDbDimStyleTable
  0
DIMSTYLE
105
27
330
A
100
AcDbSymbolTableRecord
100
AcDbDimStyleTableRecord
  2
ISO-25
 70
     0
 41
2.5
 42
0.625
 43
3.75
 44
1.25
 73
     0
 74
     0
 77
     1
 78
     8
140
2.5
141
2.5
143
0.03937007874016
147
0.625
171
     3
172
     1
178
     0
271
     2
272
     2
274
     3
278
    44
283
     0
284
     8
340
11
  0
ENDTAB
  0
TABLE
  2
BLOCK_RECORD
  5
1
330
0
100
AcDbSymbolTable
 70
    12
  0
BLOCK_RECORD
  5
1F
330
1
100
AcDbSymbolTableRecord
100
AcDbBlockTableRecord
  2
*Model_Space
340
22
  0
BLOCK_RECORD
  5
1B
330
1
100
AcDbSymbolTableRecord
100
AcDbBlockTableRecord
  2
*Paper_Space
340
1E
  0
BLOCK_RECORD
  5
23
330
1
100
AcDbSymbolTableRecord
100
AcDbBlockTableRecord
  2
*Paper_Space0
340
26
  0
BLOCK_RECORD
  5
45
330
1
100
AcDbSymbolTableRecord
100
AcDbBlockTableRecord
  2
Yleistoleranssit
340
0
  0
BLOCK_RECORD
  5
59
330
1
100
AcDbSymbolTableRecord
100
AcDbBlockTableRecord
  2
SW_NOTE_0
340
0
102
{BLKREFS
331
69
102
}
  0
BLOCK_RECORD
  5
6A
330
1
100
AcDbSymbolTableRecord
100
AcDbBlockTableRecord
  2
SW_NOTE_1
340
0
102
{BLKREFS
331
72
102
}
  0
BLOCK_RECORD
  5
73
330
1
100
AcDbSymbolTableRecord
100
AcDbBlockTableRecord
  2
SW_NOTE_2
340
0
102
{BLKREFS
331
78
102
}
  0
BLOCK_RECORD
  5
7A
330
1
100
AcDbSymbolTableRecord
100
AcDbBlockTableRecord
  2
SW_NOTE_3
340
0
102
{BLKREFS
331
89
102
}
  0
BLOCK_RECORD
  5
8A
330
1
100
AcDbSymbolTableRecord
100
AcDbBlockTableRecord
  2
SW_NOTE_4
340
0
102
{BLKREFS
331
99
102
}
  0
BLOCK_RECORD
  5
9A
330
1
100
AcDbSymbolTableRecord
100
AcDbBlockTableRecord
  2
SW_NOTE_5
340
0
102
{BLKREFS
331
A5
102
}
  0
BLOCK_RECORD
  5
A6
330
1
100
AcDbSymbolTableRecord
100
AcDbBlockTableRecord
  2
SW_NOTE_6
340
0
102
{BLKREFS
331
B1
102
}
  0
BLOCK_RECORD
  5
B2
330
1
100
AcDbSymbolTableRecord
100
AcDbBlockTableRecord
  2
SW_NOTE_7
340
0
102
{BLKREFS
331
BD
102
}
  0
BLOCK_RECORD
  5
BE
330
1
100
AcDbSymbolTableRecord
100
AcDbBlockTableRecord
  2
SW_NOTE_8
340
0
102
{BLKREFS
331
C9
102
}
  0
BLOCK_RECORD
  5
CA
330
1
100
AcDbSymbolTableRecord
100
AcDbBlockTableRecord
  2
SW_NOTE_9
340
0
102
{BLKREFS
331
D4
102
}
  0
ENDTAB
  0
ENDSEC
  0
SECTION
  2
BLOCKS
  0
BLOCK
  5
20
330
1F
100
AcDbEntity
  8
0
100
AcDbBlockBegin
  2
*Model_Space
 70
     0
 10
0.0
 20
0.0
 30
0.0
  3
*Model_Space
  1
*Model_Space
  0
ENDBLK
  5
21
330
1F
100
AcDbEntity
  8
0
100
AcDbBlockEnd
  0
BLOCK
  5
1C
330
1B
100
AcDbEntity
 67
     1
  8
0
100
AcDbBlockBegin
  2
*Paper_Space
 70
     0
 10
0.0
 20
0.0
 30
0.0
  3
*Paper_Space
  1
*Paper_Space
  0
ENDBLK
  5
1D
330
1B
100
AcDbEntity
 67
     1
  8
0
100
AcDbBlockEnd
  0
BLOCK
  5
24
330
23
100
AcDbEntity
  8
0
100
AcDbBlockBegin
  2
*Paper_Space0
 70
     0
 10
0.0
 20
0.0
 30
0.0
  3
*Paper_Space0
  1
*Paper_Space0
  0
ENDBLK
  5
25
330
23
100
AcDbEntity
  8
0
100
AcDbBlockEnd
  0
BLOCK
  5
46
330
45
100
AcDbEntity
  8
0
100
AcDbBlockBegin
  2
Yleistoleranssit
 70
     0
 10
0.0
 20
0.0
 30
0.0
  3
Yleistoleranssit
  1
Yleistoleranssit
  0
LINE
  5
48
330
45
100
AcDbEntity
  8
0
  6
Continuous
 62
     7
370
     0
100
AcDbLine
 10
-128.0
 20
20.3216674369395
 30
0.0
 11
0.0
 21
20.3216674369395
 31
0.0
  0
LINE
  5
49
330
45
100
AcDbEntity
  8
0
  6
Continuous
 62
     7
370
     0
100
AcDbLine
 10
-128.0
 20
0.0
 30
0.0
 11
0.0
 21
0.0
 31
0.0
  0
LINE
  5
4A
330
45
100
AcDbEntity
  8
0
  6
Continuous
 62
     7
370
     0
100
AcDbLine
 10
-128.0
 20
0.0
 30
0.0
 11
-128.0
 21
29.3217161765533
 31
0.0
  0
LINE
  5
4B
330
45
100
AcDbEntity
  8
0
  6
Continuous
 62
     7
370
     0
100
AcDbLine
 10
-128.0
 20
29.3217161765533
 30
0.0
 11
0.0
 21
29.3217161765533
 31
0.0
  0
LINE
  5
4C
330
45
100
AcDbEntity
  8
0
  6
Continuous
 62
     7
370
     0
100
AcDbLine
 10
0.0
 20
0.0
 30
0.0
 11
0.0
 21
29.3217161765533
 31
0.0
  0
LINE
  5
4D
330
45
100
AcDbEntity
  8
0
  6
Continuous
 62
     7
370
     0
100
AcDbLine
 10
-90.0
 20
29.3217161765533
 30
0.0
 11
-90.0
 21
0.0
 31
0.0
  0
LINE
  5
4E
330
45
100
AcDbEntity
  8
0
  6
Continuous
 62
     7
370
     0
100
AcDbLine
 10
-80.35846527125837
 20
29.3217161765533
 30
0.0
 11
-80.35846527125837
 21
0.0
 31
0.0
  0
LINE
  5
4F
330
45
100
AcDbEntity
  8
0
  6
Continuous
 62
     7
370
     0
100
AcDbLine
 10
-69.44920276909968
 20
29.3217161765533
 30
0.0
 11
-69.44920276909968
 21
0.0
 31
0.0
  0
LINE
  5
50
330
45
100
AcDbEntity
  8
0
  6
Continuous
 62
     7
370
     0
100
AcDbLine
 10
-58.76960895119699
 20
29.3217161765533
 30
0.0
 11
-58.76960895119699
 21
0.0
 31
0.0
  0
LINE
  5
51
330
45
100
AcDbEntity
  8
0
  6
Continuous
 62
     7
370
     0
100
AcDbLine
 10
-47.7455121069103
 20
29.3217161765533
 30
0.0
 11
-47.7455121069103
 21
0.0
 31
0.0
  0
LINE
  5
52
330
45
100
AcDbEntity
  8
0
  6
Continuous
 62
     7
370
     0
100
AcDbLine
 10
-36.60658092049568
 20
29.3217161765533
 30
0.0
 11
-36.60658092049568
 21
0.0
 31
0.0
  0
LINE
  5
53
330
45
100
AcDbEntity
  8
0
  6
Continuous
 62
     7
370
     0
100
AcDbLine
 10
-24.77864368131311
 20
29.3217161765533
 30
0.0
 11
-24.77864368131311
 21
0.0
 31
0.0
  0
LINE
  5
54
330
45
100
AcDbEntity
  8
0
  6
Continuous
 62
     7
370
     0
100
AcDbLine
 10
-12.95070644213053
 20
29.3217161765533
 30
0.0
 11
-12.95070644213053
 21
0.0
 31
0.0
  0
LINE
  5
55
330
45
100
AcDbEntity
  8
0
  6
Continuous
 62
     7
370
     0
100
AcDbLine
 10
0.0
 20
14.50972099221878
 30
0.0
 11
-107.7846503106451
 21
14.50972099221878
 31
0.0
  0
LINE
  5
56
330
45
100
AcDbEntity
  8
0
  6
Continuous
 62
     7
370
     0
100
AcDbLine
 10
0.0
 20
10.97489696491011
 30
0.0
 11
-107.7846503106451
 21
10.97489696491008
 31
0.0
  0
LINE
  5
57
330
45
100
AcDbEntity
  8
0
  6
Continuous
 62
     7
370
     0
100
AcDbLine
 10
0.0
 20
7.382273231563818
 30
0.0
 11
-128.0
 21
7.382273231563791
 31
0.0
  0
LINE
  5
58
330
45
100
AcDbEntity
  8
0
  6
Continuous
 62
     7
370
     0
100
AcDbLine
 10
0.0
 20
3.87319888736512
 30
0.0
 11
-107.7846503106451
 21
3.873198887365092
 31
0.0
  0
INSERT
  5
69
330
45
100
AcDbEntity
  8
0
  6
Continuous
 62
     7
370
     0
100
AcDbBlockReference
  2
SW_NOTE_0
 10
-88.89342403353773
 20
25.23533252512787
 30
0.0
  0
INSERT
  5
72
330
45
100
AcDbEntity
  8
0
  6
Continuous
 62
     7
370
     0
100
AcDbBlockReference
  2
SW_NOTE_1
 10
-107.3133833052766
 20
14.6653564215458
 30
0.0
  0
INSERT
  5
78
330
45
100
AcDbEntity
  8
0
  6
Continuous
 62
     7
370
     0
100
AcDbBlockReference
  2
SW_NOTE_2
 10
-127.0419636585391
 20
14.6653559558844
 30
0.0
  0
MTEXT
  5
79
330
45
100
AcDbEntity
  8
0
  6
Continuous
 62
     7
370
     0
100
AcDbMText
 10
-127.2347267983281
 20
27.0028750836024
 30
0.0
 40
2.5
 41
0.0
 71
     1
 72
     1
  1
YLEISTOLERANSSIT
  7
SLDTEXTSTYLE0
 73
     1
 44
1.0
  0
INSERT
  5
89
330
45
100
AcDbEntity
  8
0
  6
Continuous
 62
     7
370
     0
100
AcDbBlockReference
  2
SW_NOTE_3
 10
-78.04776805326102
 20
25.23533205946658
 30
0.0
  0
INSERT
  5
99
330
45
100
AcDbEntity
  8
0
  6
Continuous
 62
     7
370
     0
100
AcDbBlockReference
  2
SW_NOTE_4
 10
-66.7605496266333
 20
25.23533205946658
 30
0.0
  0
INSERT
  5
A5
330
45
100
AcDbEntity
  8
0
  6
Continuous
 62
     7
370
     0
100
AcDbBlockReference
  2
SW_NOTE_5
 10
-56.73185874405453
 20
25.23533205946658
 30
0.0
  0
INSERT
  5
B1
330
45
100
AcDbEntity
  8
0
  6
Continuous
 62
     7
370
     0
100
AcDbBlockReference
  2
SW_NOTE_6
 10
-45.87215391116062
 20
25.23533205946658
 30
0.0
  0
INSERT
  5
BD
330
45
100
AcDbEntity
  8
0
  6
Continuous
 62
     7
370
     0
100
AcDbBlockReference
  2
SW_NOTE_7
 10
-34.78509547874237
 20
25.2353315938053
 30
0.0
  0
INSERT
  5
C9
330
45
100
AcDbEntity
  8
0
  6
Continuous
 62
     7
370
     0
100
AcDbBlockReference
  2
SW_NOTE_8
 10
-22.9284213191655
 20
25.2353315938053
 30
0.0
  0
INSERT
  5
D4
330
45
100
AcDbEntity
  8
0
  6
Continuous
 62
     7
370
     0
100
AcDbBlockReference
  2
SW_NOTE_9
 10
-11.10524575847433
 20
25.23533252512787
 30
0.0
  0
ENDBLK
  5
47
330
45
100
AcDbEntity
  8
0
100
AcDbBlockEnd
  0
BLOCK
  5
5A
330
59
100
AcDbEntity
  8
0
100
AcDbBlockBegin
  2
SW_NOTE_0
 70
     0
 10
0.0
 20
0.0
 30
0.0
  3
SW_NOTE_0
  1
SW_NOTE_0
  0
MTEXT
  5
5D
330
59
100
AcDbEntity
  8
0
  6
Continuous
 62
     0
370
     0
100
AcDbMText
 10
1.500000000000001
 20
2.578135479543931
 30
0.0
 40
2.0
 41
0.0
 71
     1
 72
     1
  1
>0,5
  7
SLDTEXTSTYLE0
 73
     1
 44
1.0
  0
MTEXT
  5
5E
330
59
100
AcDbEntity
  8
0
  6
Continuous
 62
     0
370
     0
100
AcDbMText
 10
0.0
 20
-0.9218646284894876
 30
0.0
 40
2.0
 41
0.0
 71
     1
 72
     1
  1
=<3
  7
SLDTEXTSTYLE0
 73
     1
 44
1.0
  0
MTEXT
  5
5F
330
59
100
AcDbEntity
  8
0
  6
Continuous
 62
     0
370
     0
100
AcDbMText
 10
0.0
 20
-7.921864844556325
 30
0.0
 40
2.0
 41
0.0
 71
     1
 72
     1
  1
%%p
  7
SLDTEXTSTYLE0
 73
     1
 44
1.0
  0
MTEXT
  5
60
330
59
100
AcDbEntity
  8
0
  6
Continuous
 62
     0
370
     0
100
AcDbMText
 10
1.841666758991778
 20
-7.921864844556325
 30
0.0
 40
2.0
 41
0.0
 71
     1
 72
     1
  1
0,05
  7
SLDTEXTSTYLE0
 73
     1
 44
1.0
  0
MTEXT
  5
61
330
59
100
AcDbEntity
  8
0
  6
Continuous
 62
     0
370
     0
100
AcDbMText
 10
0.0
 20
-11.42186495258974
 30
0.0
 40
2.0
 41
0.0
 71
     1
 72
     1
  1
%%p
  7
SLDTEXTSTYLE0
 73
     1
 44
1.0
  0
MTEXT
  5
62
330
59
100
AcDbEntity
  8
0
  6
Continuous
 62
     0
370
     0
100
AcDbMText
 10
1.841666758991778
 20
-11.42186495258974
 30
0.0
 40
2.0
 41
0.0
 71
     1
 72
     1
  1
0,1
  7
SLDTEXTSTYLE0
 73
     1
 44
1.0
  0
MTEXT
  5
63
330
59
100
AcDbEntity
  8
0
  6
Continuous
 62
     0
370
     0
100
AcDbMText
 10
0.0
 20
-14.92186506062316
 30
0.0
 40
2.0
 41
0.0
 71
     1
 72
     1
  1
%%p
  7
SLDTEXTSTYLE0
 73
     1
 44
1.0
  0
MTEXT
  5
64
330
59
100
AcDbEntity
  8
0
  6
Continuous
 62
     0
370
     0
100
AcDbMText
 10
1.841666758991778
 20
-14.92186506062316
 30
0.0
 40
2.0
 41
0.0
 71
     1
 72
     1
  1
0,2
  7
SLDTEXTSTYLE0
 73
     1
 44
1.0
  0
MTEXT
  5
65
330
59
100
AcDbEntity
  8
0
  6
Continuous
 62
     0
370
     0
100
AcDbMText
 10
0.0
 20
-18.42186516865658
 30
0.0
 40
2.0
 41
0.0
 71
     1
 72
     1
  1
%%p
  7
SLDTEXTSTYLE0
 73
     1
 44
1.0
  0
MTEXT
  5
66
330
59
100
AcDbEntity
  8
0
  6
Continuous
 62
     0
370
     0
100
AcDbMText
 10
1.841666758991778
 20
-18.42186516865658
 30
0.0
 40
2.0
 41
0.0
 71
     1
 72
     1
  1
0,2
  7
SLDTEXTSTYLE0
 73
     1
 44
1.0
  0
MTEXT
  5
67
330
59
100
AcDbEntity
  8
0
  6
Continuous
 62
     0
370
     0
100
AcDbMText
 10
0.0
 20
-21.92186527669
 30
0.0
 40
2.0
 41
0.0
 71
     1
 72
     1
  1
%%p
  7
SLDTEXTSTYLE0
 73
     1
 44
1.0
  0
MTEXT
  5
68
330
59
100
AcDbEntity
  8
0
  6
Continuous
 62
     0
370
     0
100
AcDbMText
 10
1.841666758991778
 20
-21.92186527669
 30
0.0
 40
2.0
 41
0.0
 71
     1
 72
     1
  1
0,4
  7
SLDTEXTSTYLE0
 73
     1
 44
1.0
  0
ENDBLK
  5
5B
330
59
100
AcDbEntity
  8
0
100
AcDbBlockEnd
  0
BLOCK
  5
6B
330
6A
100
AcDbEntity
  8
0
100
AcDbBlockBegin
  2
SW_NOTE_1
 70
     0
 10
0.0
 20
0.0
 30
0.0
  3
SW_NOTE_1
  1
SW_NOTE_1
  0
MTEXT
  5
6D
330
6A
100
AcDbEntity
  8
0
  6
Continuous
 62
     0
370
     0
100
AcDbMText
 10
0.0
 20
2.578135479543931
 30
0.0
 40
2.0
 41
0.0
 71
     1
 72
     1
  1
ISO-2768-f
  7
SLDTEXTSTYLE0
 73
     1
 44
1.0
  0
MTEXT
  5
6E
330
6A
100
AcDbEntity
  8
0
  6
Continuous
 62
     0
370
     0
100
AcDbMText
 10
0.0
 20
-0.9218646284894876
 30
0.0
 40
2.0
 41
0.0
 71
     1
 72
     1
  1
ISO-2768-m
  7
SLDTEXTSTYLE0
 73
     1
 44
1.0
  0
MTEXT
  5
6F
330
6A
100
AcDbEntity
  8
0
  6
Continuous
 62
     0
370
     0
100
AcDbMText
 10
0.0
 20
-4.421864736522906
 30
0.0
 40
2.0
 41
0.0
 71
     1
 72
     1
  1
ISO-2768-c
  7
SLDTEXTSTYLE0
 73
     1
 44
1.0
  0
MTEXT
  5
70
330
6A
100
AcDbEntity
  8
0
  6
Continuous
 62
     0
370
     0
100
AcDbMText
 10
0.0
 20
-7.921864844556325
 30
0.0
 40
2.0
 41
0.0
 71
     1
 72
     1
  1
ISO-2768-f/m
  7
SLDTEXTSTYLE0
 73
     1
 44
1.0
  0
MTEXT
  5
71
330
6A
100
AcDbEntity
  8
0
  6
Continuous
 62
     0
370
     0
100
AcDbMText
 10
0.0
 20
-11.42186495258974
 30
0.0
 40
2.0
 41
0.0
 71
     1
 72
     1
  1
ISO-2768-c
  7
SLDTEXTSTYLE0
 73
     1
 44
1.0
  0
ENDBLK
  5
6C
330
6A
100
AcDbEntity
  8
0
100
AcDbBlockEnd
  0
BLOCK
  5
74
330
73
100
AcDbEntity
  8
0
100
AcDbBlockBegin
  2
SW_NOTE_2
 70
     0
 10
0.0
 20
0.0
 30
0.0
  3
SW_NOTE_2
  1
SW_NOTE_2
  0
MTEXT
  5
76
330
73
100
AcDbEntity
  8
0
  6
Continuous
 62
     0
370
     0
100
AcDbMText
 10
0.0
 20
2.578135479543931
 30
0.0
 40
2.0
 41
0.0
 71
     1
 72
     1
  1
Pituusmitat
  7
SLDTEXTSTYLE0
 73
     1
 44
1.0
  0
MTEXT
  5
77
330
73
100
AcDbEntity
  8
0
  6
Continuous
 62
     0
370
     0
100
AcDbMText
 10
0.0
 20
-7.921864844556325
 30
0.0
 40
2.0
 41
0.0
 71
     1
 72
     1
  1
Säteet, viisteet
  7
SLDTEXTSTYLE0
 73
     1
 44
1.0
  0
ENDBLK
  5
75
330
73
100
AcDbEntity
  8
0
100
AcDbBlockEnd
  0
BLOCK
  5
7B
330
7A
100
AcDbEntity
  8
0
100
AcDbBlockBegin
  2
SW_NOTE_3
 70
     0
 10
0.0
 20
0.0
 30
0.0
  3
SW_NOTE_3
  1
SW_NOTE_3
  0
MTEXT
  5
7D
330
7A
100
AcDbEntity
  8
0
  6
Continuous
 62
     0
370
     0
100
AcDbMText
 10
1.500000000000001
 20
2.578135479543931
 30
0.0
 40
2.0
 41
0.0
 71
     1
 72
     1
  1
>3
  7
SLDTEXTSTYLE0
 73
     1
 44
1.0
  0
MTEXT
  5
7E
330
7A
100
AcDbEntity
  8
0
  6
Continuous
 62
     0
370
     0
100
AcDbMText
 10
0.0
 20
-0.9218646284894876
 30
0.0
 40
2.0
 41
0.0
 71
     1
 72
     1
  1
=<6
  7
SLDTEXTSTYLE0
 73
     1
 44
1.0
  0
MTEXT
  5
7F
330
7A
100
AcDbEntity
  8
0
  6
Continuous
 62
     0
370
     0
100
AcDbMText
 10
0.0
 20
-7.921864844556325
 30
0.0
 40
2.0
 41
0.0
 71
     1
 72
     1
  1
%%p
  7
SLDTEXTSTYLE0
 73
     1
 44
1.0
  0
MTEXT
  5
80
330
7A
100
AcDbEntity
  8
0
  6
Continuous
 62
     0
370
     0
100
AcDbMText
 10
1.841666758991778
 20
-7.921864844556325
 30
0.0
 40
2.0
 41
0.0
 71
     1
 72
     1
  1
0,05
  7
SLDTEXTSTYLE0
 73
     1
 44
1.0
  0
MTEXT
  5
81
330
7A
100
AcDbEntity
  8
0
  6
Continuous
 62
     0
370
     0
100
AcDbMText
 10
0.0
 20
-11.42186495258974
 30
0.0
 40
2.0
 41
0.0
 71
     1
 72
     1
  1
%%p
  7
SLDTEXTSTYLE0
 73
     1
 44
1.0
  0
MTEXT
  5
82
330
7A
100
AcDbEntity
  8
0
  6
Continuous
 62
     0
370
     0
100
AcDbMText
 10
1.841666758991778
 20
-11.42186495258974
 30
0.0
 40
2.0
 41
0.0
 71
     1
 72
     1
  1
0,1
  7
SLDTEXTSTYLE0
 73
     1
 44
1.0
  0
MTEXT
  5
83
330
7A
100
AcDbEntity
  8
0
  6
Continuous
 62
     0
370
     0
100
AcDbMText
 10
0.0
 20
-14.92186506062316
 30
0.0
 40
2.0
 41
0.0
 71
     1
 72
     1
  1
%%p
  7
SLDTEXTSTYLE0
 73
     1
 44
1.0
  0
MTEXT
  5
84
330
7A
100
AcDbEntity
  8
0
  6
Continuous
 62
     0
370
     0
100
AcDbMText
 10
1.841666758991778
 20
-14.92186506062316
 30
0.0
 40
2.0
 41
0.0
 71
     1
 72
     1
  1
0,3
  7
SLDTEXTSTYLE0
 73
     1
 44
1.0
  0
MTEXT
  5
85
330
7A
100
AcDbEntity
  8
0
  6
Continuous
 62
     0
370
     0
100
AcDbMText
 10
0.0
 20
-18.42186516865658
 30
0.0
 40
2.0
 41
0.0
 71
     1
 72
     1
  1
%%p
  7
SLDTEXTSTYLE0
 73
     1
 44
1.0
  0
MTEXT
  5
86
330
7A
100
AcDbEntity
  8
0
  6
Continuous
 62
     0
370
     0
100
AcDbMText
 10
1.841666758991778
 20
-18.42186516865658
 30
0.0
 40
2.0
 41
0.0
 71
     1
 72
     1
  1
0,5
  7
SLDTEXTSTYLE0
 73
     1
 44
1.0
  0
MTEXT
  5
87
330
7A
100
AcDbEntity
  8
0
  6
Continuous
 62
     0
370
     0
100
AcDbMText
 10
0.0
 20
-21.92186527669
 30
0.0
 40
2.0
 41
0.0
 71
     1
 72
     1
  1
%%p
  7
SLDTEXTSTYLE0
 73
     1
 44
1.0
  0
MTEXT
  5
88
330
7A
100
AcDbEntity
  8
0
  6
Continuous
 62
     0
370
     0
100
AcDbMText
 10
1.841666758991778
 20
-21.92186527669
 30
0.0
 40
2.0
 41
0.0
 71
     1
 72
     1
  1
1
  7
SLDTEXTSTYLE0
 73
     1
 44
1.0
  0
ENDBLK
  5
7C
330
7A
100
AcDbEntity
  8
0
100
AcDbBlockEnd
  0
BLOCK
  5
8B
330
8A
100
AcDbEntity
  8
0
100
AcDbBlockBegin
  2
SW_NOTE_4
 70
     0
 10
0.0
 20
0.0
 30
0.0
  3
SW_NOTE_4
  1
SW_NOTE_4
  0
MTEXT
  5
8D
330
8A
100
AcDbEntity
  8
0
  6
Continuous
 62
     0
370
     0
100
AcDbMText
 10
1.500000000000001
 20
2.578135479543931
 30
0.0
 40
2.0
 41
0.0
 71
     1
 72
     1
  1
>6
  7
SLDTEXTSTYLE0
 73
     1
 44
1.0
  0
MTEXT
  5
8E
330
8A
100
AcDbEntity
  8
0
  6
Continuous
 62
     0
370
     0
100
AcDbMText
 10
0.0
 20
-0.9218646284894876
 30
0.0
 40
2.0
 41
0.0
 71
     1
 72
     1
  1
=<30
  7
SLDTEXTSTYLE0
 73
     1
 44
1.0
  0
MTEXT
  5
8F
330
8A
100
AcDbEntity
  8
0
  6
Continuous
 62
     0
370
     0
100
AcDbMText
 10
0.0
 20
-7.921864844556325
 30
0.0
 40
2.0
 41
0.0
 71
     1
 72
     1
  1
%%p
  7
SLDTEXTSTYLE0
 73
     1
 44
1.0
  0
MTEXT
  5
90
330
8A
100
AcDbEntity
  8
0
  6
Continuous
 62
     0
370
     0
100
AcDbMText
 10
1.841666758991778
 20
-7.921864844556325
 30
0.0
 40
2.0
 41
0.0
 71
     1
 72
     1
  1
0,1
  7
SLDTEXTSTYLE0
 73
     1
 44
1.0
  0
MTEXT
  5
91
330
8A
100
AcDbEntity
  8
0
  6
Continuous
 62
     0
370
     0
100
AcDbMText
 10
0.0
 20
-11.42186495258974
 30
0.0
 40
2.0
 41
0.0
 71
     1
 72
     1
  1
%%p
  7
SLDTEXTSTYLE0
 73
     1
 44
1.0
  0
MTEXT
  5
92
330
8A
100
AcDbEntity
  8
0
  6
Continuous
 62
     0
370
     0
100
AcDbMText
 10
1.841666758991778
 20
-11.42186495258974
 30
0.0
 40
2.0
 41
0.0
 71
     1
 72
     1
  1
0,2
  7
SLDTEXTSTYLE0
 73
     1
 44
1.0
  0
MTEXT
  5
93
330
8A
100
AcDbEntity
  8
0
  6
Continuous
 62
     0
370
     0
100
AcDbMText
 10
0.0
 20
-14.92186506062316
 30
0.0
 40
2.0
 41
0.0
 71
     1
 72
     1
  1
%%p
  7
SLDTEXTSTYLE0
 73
     1
 44
1.0
  0
MTEXT
  5
94
330
8A
100
AcDbEntity
  8
0
  6
Continuous
 62
     0
370
     0
100
AcDbMText
 10
1.841666758991778
 20
-14.92186506062316
 30
0.0
 40
2.0
 41
0.0
 71
     1
 72
     1
  1
0,5
  7
SLDTEXTSTYLE0
 73
     1
 44
1.0
  0
MTEXT
  5
95
330
8A
100
AcDbEntity
  8
0
  6
Continuous
 62
     0
370
     0
100
AcDbMText
 10
0.0
 20
-18.42186516865658
 30
0.0
 40
2.0
 41
0.0
 71
     1
 72
     1
  1
%%p
  7
SLDTEXTSTYLE0
 73
     1
 44
1.0
  0
MTEXT
  5
96
330
8A
100
AcDbEntity
  8
0
  6
Continuous
 62
     0
370
     0
100
AcDbMText
 10
1.841666758991778
 20
-18.42186516865658
 30
0.0
 40
2.0
 41
0.0
 71
     1
 72
     1
  1
1
  7
SLDTEXTSTYLE0
 73
     1
 44
1.0
  0
MTEXT
  5
97
330
8A
100
AcDbEntity
  8
0
  6
Continuous
 62
     0
370
     0
100
AcDbMText
 10
0.0
 20
-21.92186527669
 30
0.0
 40
2.0
 41
0.0
 71
     1
 72
     1
  1
%%p
  7
SLDTEXTSTYLE0
 73
     1
 44
1.0
  0
MTEXT
  5
98
330
8A
100
AcDbEntity
  8
0
  6
Continuous
 62
     0
370
     0
100
AcDbMText
 10
1.841666758991778
 20
-21.92186527669
 30
0.0
 40
2.0
 41
0.0
 71
     1
 72
     1
  1
2
  7
SLDTEXTSTYLE0
 73
     1
 44
1.0
  0
ENDBLK
  5
8C
330
8A
100
AcDbEntity
  8
0
100
AcDbBlockEnd
  0
BLOCK
  5
9B
330
9A
100
AcDbEntity
  8
0
100
AcDbBlockBegin
  2
SW_NOTE_5
 70
     0
 10
0.0
 20
0.0
 30
0.0
  3
SW_NOTE_5
  1
SW_NOTE_5
  0
MTEXT
  5
9D
330
9A
100
AcDbEntity
  8
0
  6
Continuous
 62
     0
370
     0
100
AcDbMText
 10
1.500000000000001
 20
2.578135479543931
 30
0.0
 40
2.0
 41
0.0
 71
     1
 72
     1
  1
>30
  7
SLDTEXTSTYLE0
 73
     1
 44
1.0
  0
MTEXT
  5
9E
330
9A
100
AcDbEntity
  8
0
  6
Continuous
 62
     0
370
     0
100
AcDbMText
 10
0.0
 20
-0.9218646284894876
 30
0.0
 40
2.0
 41
0.0
 71
     1
 72
     1
  1
=<120
  7
SLDTEXTSTYLE0
 73
     1
 44
1.0
  0
MTEXT
  5
9F
330
9A
100
AcDbEntity
  8
0
  6
Continuous
 62
     0
370
     0
100
AcDbMText
 10
0.0
 20
-7.921864844556325
 30
0.0
 40
2.0
 41
0.0
 71
     1
 72
     1
  1
%%p
  7
SLDTEXTSTYLE0
 73
     1
 44
1.0
  0
MTEXT
  5
A0
330
9A
100
AcDbEntity
  8
0
  6
Continuous
 62
     0
370
     0
100
AcDbMText
 10
1.841666758991778
 20
-7.921864844556325
 30
0.0
 40
2.0
 41
0.0
 71
     1
 72
     1
  1
0,15
  7
SLDTEXTSTYLE0
 73
     1
 44
1.0
  0
MTEXT
  5
A1
330
9A
100
AcDbEntity
  8
0
  6
Continuous
 62
     0
370
     0
100
AcDbMText
 10
0.0
 20
-11.42186495258974
 30
0.0
 40
2.0
 41
0.0
 71
     1
 72
     1
  1
%%p
  7
SLDTEXTSTYLE0
 73
     1
 44
1.0
  0
MTEXT
  5
A2
330
9A
100
AcDbEntity
  8
0
  6
Continuous
 62
     0
370
     0
100
AcDbMText
 10
1.841666758991778
 20
-11.42186495258974
 30
0.0
 40
2.0
 41
0.0
 71
     1
 72
     1
  1
0,3
  7
SLDTEXTSTYLE0
 73
     1
 44
1.0
  0
MTEXT
  5
A3
330
9A
100
AcDbEntity
  8
0
  6
Continuous
 62
     0
370
     0
100
AcDbMText
 10
0.0
 20
-14.92186506062316
 30
0.0
 40
2.0
 41
0.0
 71
     1
 72
     1
  1
%%p
  7
SLDTEXTSTYLE0
 73
     1
 44
1.0
  0
MTEXT
  5
A4
330
9A
100
AcDbEntity
  8
0
  6
Continuous
 62
     0
370
     0
100
AcDbMText
 10
1.841666758991778
 20
-14.92186506062316
 30
0.0
 40
2.0
 41
0.0
 71
     1
 72
     1
  1
0,8
  7
SLDTEXTSTYLE0
 73
     1
 44
1.0
  0
ENDBLK
  5
9C
330
9A
100
AcDbEntity
  8
0
100
AcDbBlockEnd
  0
BLOCK
  5
A7
330
A6
100
AcDbEntity
  8
0
100
AcDbBlockBegin
  2
SW_NOTE_6
 70
     0
 10
0.0
 20
0.0
 30
0.0
  3
SW_NOTE_6
  1
SW_NOTE_6
  0
MTEXT
  5
A9
330
A6
100
AcDbEntity
  8
0
  6
Continuous
 62
     0
370
     0
100
AcDbMText
 10
1.500000000000001
 20
2.578135479543931
 30
0.0
 40
2.0
 41
0.0
 71
     1
 72
     1
  1
>120
  7
SLDTEXTSTYLE0
 73
     1
 44
1.0
  0
MTEXT
  5
AA
330
A6
100
AcDbEntity
  8
0
  6
Continuous
 62
     0
370
     0
100
AcDbMText
 10
0.0
 20
-0.9218646284894876
 30
0.0
 40
2.0
 41
0.0
 71
     1
 72
     1
  1
=<400
  7
SLDTEXTSTYLE0
 73
     1
 44
1.0
  0
MTEXT
  5
AB
330
A6
100
AcDbEntity
  8
0
  6
Continuous
 62
     0
370
     0
100
AcDbMText
 10
0.0
 20
-7.921864844556325
 30
0.0
 40
2.0
 41
0.0
 71
     1
 72
     1
  1
%%p
  7
SLDTEXTSTYLE0
 73
     1
 44
1.0
  0
MTEXT
  5
AC
330
A6
100
AcDbEntity
  8
0
  6
Continuous
 62
     0
370
     0
100
AcDbMText
 10
1.841666758991778
 20
-7.921864844556325
 30
0.0
 40
2.0
 41
0.0
 71
     1
 72
     1
  1
0,2
  7
SLDTEXTSTYLE0
 73
     1
 44
1.0
  0
MTEXT
  5
AD
330
A6
100
AcDbEntity
  8
0
  6
Continuous
 62
     0
370
     0
100
AcDbMText
 10
0.0
 20
-11.42186495258974
 30
0.0
 40
2.0
 41
0.0
 71
     1
 72
     1
  1
%%p
  7
SLDTEXTSTYLE0
 73
     1
 44
1.0
  0
MTEXT
  5
AE
330
A6
100
AcDbEntity
  8
0
  6
Continuous
 62
     0
370
     0
100
AcDbMText
 10
1.841666758991778
 20
-11.42186495258974
 30
0.0
 40
2.0
 41
0.0
 71
     1
 72
     1
  1
0,5
  7
SLDTEXTSTYLE0
 73
     1
 44
1.0
  0
MTEXT
  5
AF
330
A6
100
AcDbEntity
  8
0
  6
Continuous
 62
     0
370
     0
100
AcDbMText
 10
0.0
 20
-14.92186506062316
 30
0.0
 40
2.0
 41
0.0
 71
     1
 72
     1
  1
%%p
  7
SLDTEXTSTYLE0
 73
     1
 44
1.0
  0
MTEXT
  5
B0
330
A6
100
AcDbEntity
  8
0
  6
Continuous
 62
     0
370
     0
100
AcDbMText
 10
1.841666758991778
 20
-14.92186506062316
 30
0.0
 40
2.0
 41
0.0
 71
     1
 72
     1
  1
1,2
  7
SLDTEXTSTYLE0
 73
     1
 44
1.0
  0
ENDBLK
  5
A8
330
A6
100
AcDbEntity
  8
0
100
AcDbBlockEnd
  0
BLOCK
  5
B3
330
B2
100
AcDbEntity
  8
0
100
AcDbBlockBegin
  2
SW_NOTE_7
 70
     0
 10
0.0
 20
0.0
 30
0.0
  3
SW_NOTE_7
  1
SW_NOTE_7
  0
MTEXT
  5
B5
330
B2
100
AcDbEntity
  8
0
  6
Continuous
 62
     0
370
     0
100
AcDbMText
 10
1.500000000000001
 20
2.578135479543931
 30
0.0
 40
2.0
 41
0.0
 71
     1
 72
     1
  1
>400
  7
SLDTEXTSTYLE0
 73
     1
 44
1.0
  0
MTEXT
  5
B6
330
B2
100
AcDbEntity
  8
0
  6
Continuous
 62
     0
370
     0
100
AcDbMText
 10
0.0
 20
-0.9218646284894876
 30
0.0
 40
2.0
 41
0.0
 71
     1
 72
     1
  1
=<1000
  7
SLDTEXTSTYLE0
 73
     1
 44
1.0
  0
MTEXT
  5
B7
330
B2
100
AcDbEntity
  8
0
  6
Continuous
 62
     0
370
     0
100
AcDbMText
 10
0.0
 20
-7.921864844556325
 30
0.0
 40
2.0
 41
0.0
 71
     1
 72
     1
  1
%%p
  7
SLDTEXTSTYLE0
 73
     1
 44
1.0
  0
MTEXT
  5
B8
330
B2
100
AcDbEntity
  8
0
  6
Continuous
 62
     0
370
     0
100
AcDbMText
 10
1.841666758991778
 20
-7.921864844556325
 30
0.0
 40
2.0
 41
0.0
 71
     1
 72
     1
  1
0,3
  7
SLDTEXTSTYLE0
 73
     1
 44
1.0
  0
MTEXT
  5
B9
330
B2
100
AcDbEntity
  8
0
  6
Continuous
 62
     0
370
     0
100
AcDbMText
 10
0.0
 20
-11.42186495258974
 30
0.0
 40
2.0
 41
0.0
 71
     1
 72
     1
  1
%%p
  7
SLDTEXTSTYLE0
 73
     1
 44
1.0
  0
MTEXT
  5
BA
330
B2
100
AcDbEntity
  8
0
  6
Continuous
 62
     0
370
     0
100
AcDbMText
 10
1.841666758991778
 20
-11.42186495258974
 30
0.0
 40
2.0
 41
0.0
 71
     1
 72
     1
  1
0,8
  7
SLDTEXTSTYLE0
 73
     1
 44
1.0
  0
MTEXT
  5
BB
330
B2
100
AcDbEntity
  8
0
  6
Continuous
 62
     0
370
     0
100
AcDbMText
 10
0.0
 20
-14.92186506062316
 30
0.0
 40
2.0
 41
0.0
 71
     1
 72
     1
  1
%%p
  7
SLDTEXTSTYLE0
 73
     1
 44
1.0
  0
MTEXT
  5
BC
330
B2
100
AcDbEntity
  8
0
  6
Continuous
 62
     0
370
     0
100
AcDbMText
 10
1.841666758991778
 20
-14.92186506062316
 30
0.0
 40
2.0
 41
0.0
 71
     1
 72
     1
  1
1,2
  7
SLDTEXTSTYLE0
 73
     1
 44
1.0
  0
ENDBLK
  5
B4
330
B2
100
AcDbEntity
  8
0
100
AcDbBlockEnd
  0
BLOCK
  5
BF
330
BE
100
AcDbEntity
  8
0
100
AcDbBlockBegin
  2
SW_NOTE_8
 70
     0
 10
0.0
 20
0.0
 30
0.0
  3
SW_NOTE_8
  1
SW_NOTE_8
  0
MTEXT
  5
C1
330
BE
100
AcDbEntity
  8
0
  6
Continuous
 62
     0
370
     0
100
AcDbMText
 10
1.500000000000001
 20
2.578135479543931
 30
0.0
 40
2.0
 41
0.0
 71
     1
 72
     1
  1
>1000
  7
SLDTEXTSTYLE0
 73
     1
 44
1.0
  0
MTEXT
  5
C2
330
BE
100
AcDbEntity
  8
0
  6
Continuous
 62
     0
370
     0
100
AcDbMText
 10
0.0
 20
-0.9218646284894876
 30
0.0
 40
2.0
 41
0.0
 71
     1
 72
     1
  1
=<2000
  7
SLDTEXTSTYLE0
 73
     1
 44
1.0
  0
MTEXT
  5
C3
330
BE
100
AcDbEntity
  8
0
  6
Continuous
 62
     0
370
     0
100
AcDbMText
 10
0.0
 20
-7.921864844556325
 30
0.0
 40
2.0
 41
0.0
 71
     1
 72
     1
  1
%%p
  7
SLDTEXTSTYLE0
 73
     1
 44
1.0
  0
MTEXT
  5
C4
330
BE
100
AcDbEntity
  8
0
  6
Continuous
 62
     0
370
     0
100
AcDbMText
 10
1.841666758991778
 20
-7.921864844556325
 30
0.0
 40
2.0
 41
0.0
 71
     1
 72
     1
  1
0,5
  7
SLDTEXTSTYLE0
 73
     1
 44
1.0
  0
MTEXT
  5
C5
330
BE
100
AcDbEntity
  8
0
  6
Continuous
 62
     0
370
     0
100
AcDbMText
 10
0.0
 20
-11.42186495258974
 30
0.0
 40
2.0
 41
0.0
 71
     1
 72
     1
  1
%%p
  7
SLDTEXTSTYLE0
 73
     1
 44
1.0
  0
MTEXT
  5
C6
330
BE
100
AcDbEntity
  8
0
  6
Continuous
 62
     0
370
     0
100
AcDbMText
 10
1.841666758991778
 20
-11.42186495258974
 30
0.0
 40
2.0
 41
0.0
 71
     1
 72
     1
  1
1,2
  7
SLDTEXTSTYLE0
 73
     1
 44
1.0
  0
MTEXT
  5
C7
330
BE
100
AcDbEntity
  8
0
  6
Continuous
 62
     0
370
     0
100
AcDbMText
 10
0.0
 20
-14.92186506062316
 30
0.0
 40
2.0
 41
0.0
 71
     1
 72
     1
  1
%%p
  7
SLDTEXTSTYLE0
 73
     1
 44
1.0
  0
MTEXT
  5
C8
330
BE
100
AcDbEntity
  8
0
  6
Continuous
 62
     0
370
     0
100
AcDbMText
 10
1.841666758991778
 20
-14.92186506062316
 30
0.0
 40
2.0
 41
0.0
 71
     1
 72
     1
  1
3
  7
SLDTEXTSTYLE0
 73
     1
 44
1.0
  0
ENDBLK
  5
C0
330
BE
100
AcDbEntity
  8
0
100
AcDbBlockEnd
  0
BLOCK
  5
CB
330
CA
100
AcDbEntity
  8
0
100
AcDbBlockBegin
  2
SW_NOTE_9
 70
     0
 10
0.0
 20
0.0
 30
0.0
  3
SW_NOTE_9
  1
SW_NOTE_9
  0
MTEXT
  5
CD
330
CA
100
AcDbEntity
  8
0
  6
Continuous
 62
     0
370
     0
100
AcDbMText
 10
1.5
 20
2.578135479543931
 30
0.0
 40
2.0
 41
0.0
 71
     1
 72
     1
  1
>2000
  7
SLDTEXTSTYLE0
 73
     1
 44
1.0
  0
MTEXT
  5
CE
330
CA
100
AcDbEntity
  8
0
  6
Continuous
 62
     0
370
     0
100
AcDbMText
 10
0.0
 20
-0.9218646284894876
 30
0.0
 40
2.0
 41
0.0
 71
     1
 72
     1
  1
=<4000
  7
SLDTEXTSTYLE0
 73
     1
 44
1.0
  0
MTEXT
  5
CF
330
CA
100
AcDbEntity
  8
0
  6
Continuous
 62
     0
370
     0
100
AcDbMText
 10
2.999999999999999
 20
-7.921864844556325
 30
0.0
 40
2.0
 41
0.0
 71
     1
 72
     1
  1
-
  7
SLDTEXTSTYLE0
 73
     1
 44
1.0
  0
MTEXT
  5
D0
330
CA
100
AcDbEntity
  8
0
  6
Continuous
 62
     0
370
     0
100
AcDbMText
 10
0.0
 20
-11.42186495258974
 30
0.0
 40
2.0
 41
0.0
 71
     1
 72
     1
  1
%%p
  7
SLDTEXTSTYLE0
 73
     1
 44
1.0
  0
MTEXT
  5
D1
330
CA
100
AcDbEntity
  8
0
  6
Continuous
 62
     0
370
     0
100
AcDbMText
 10
1.841666758991778
 20
-11.42186495258974
 30
0.0
 40
2.0
 41
0.0
 71
     1
 72
     1
  1
2,0
  7
SLDTEXTSTYLE0
 73
     1
 44
1.0
  0
MTEXT
  5
D2
330
CA
100
AcDbEntity
  8
0
  6
Continuous
 62
     0
370
     0
100
AcDbMText
 10
0.0
 20
-14.92186506062316
 30
0.0
 40
2.0
 41
0.0
 71
     1
 72
     1
  1
%%p
  7
SLDTEXTSTYLE0
 73
     1
 44
1.0
  0
MTEXT
  5
D3
330
CA
100
AcDbEntity
  8
0
  6
Continuous
 62
     0
370
     0
100
AcDbMText
 10
1.841666758991778
 20
-14.92186506062316
 30
0.0
 40
2.0
 41
0.0
 71
     1
 72
     1
  1
4
  7
SLDTEXTSTYLE0
 73
     1
 44
1.0
  0
ENDBLK
  5
CC
330
CA
100
AcDbEntity
  8
0
100
AcDbBlockEnd
  0
ENDSEC
  0
SECTION
  2
ENTITIES
  0
LINE
  5
D5
330
1F
100
AcDbEntity
  8
0
  6
Continuous
 62
     7
370
    15
100
AcDbLine
 10
1133.00629592953
 20
247.0071131624674
 30
0.0
 11
1253.006300697902
 21
247.0071131624674
 31
0.0
  0
LINE
  5
D6
330
1F
100
AcDbEntity
  8
0
  6
Continuous
 62
     7
370
    15
100
AcDbLine
 10
1278.006291757205
 20
272.0071191229319
 30
0.0
 11
1278.006291757205
 21
562.0071182288622
 31
0.0
  0
LINE
  5
D7
330
1F
100
AcDbEntity
  8
0
  6
Continuous
 62
     7
370
    15
100
AcDbLine
 10
1253.006300697902
 20
587.007116738746
 30
0.0
 11
1133.00629592953
 21
587.007116738746
 31
0.0
  0
ARC
  5
D8
330
1F
100
AcDbEntity
  8
0
  6
Continuous
 62
     7
370
    15
100
AcDbCircle
 10
1253.006293706294
 20
562.0071147802223
 30
0.0
 40
25.00000000000011
100
AcDbArc
 50
0.0
 51
90.0
  0
ARC
  5
D9
330
1F
100
AcDbEntity
  8
0
  6
Continuous
 62
     7
370
    15
100
AcDbCircle
 10
1253.006293706294
 20
272.0071147802224
 30
0.0
 40
25.0
100
AcDbArc
 50
270.0000000000008
 51
0.0000000000001303
  0
ARC
  5
DA
330
1F
100
AcDbEntity
  8
0
  6
Continuous
 62
     7
370
    15
100
AcDbCircle
 10
1133.006293706294
 20
272.0071147802224
 30
0.0
 40
25.0
100
AcDbArc
 50
180.0
 51
270.0000000000008
  0
LINE
  5
DB
330
1F
100
AcDbEntity
  8
0
  6
Continuous
 62
     7
370
    15
100
AcDbLine
 10
1108.006293694356
 20
562.0071182288622
 30
0.0
 11
1108.006293694356
 21
272.0071191229319
 31
0.0
  0
ARC
  5
DC
330
1F
100
AcDbEntity
  8
0
  6
Continuous
 62
     7
370
    15
100
AcDbCircle
 10
1133.006293706294
 20
562.0071147802223
 30
0.0
 40
25.00000000000011
100
AcDbArc
 50
90.0
 51
180.0
  0
LINE
  5
DD
330
1F
100
AcDbEntity
  8
0
  6
Continuous
 62
     7
370
    15
100
AcDbLine
 10
1278.006291757205
 20
562.0071182288622
 30
0.0
 11
1276.048964629748
 21
562.0071182288622
 31
0.0
  0
SPLINE
  5
DE
330
1F
100
AcDbEntity
  8
0
  6
Continuous
 62
     7
370
    15
100
AcDbSpline
210
0.0
220
0.0
230
1.0
 70
     8
 71
     3
 72
    15
 73
    11
 74
     0
 42
0.000000001
 43
0.00000001
 40
0.0
 40
0.0
 40
0.0
 40
0.0
 40
0.1129274016652431
 40
0.229312490017769
 40
0.3491514624283916
 40
0.4724398648779609
 40
0.599173999620792
 40
0.7293488388629623
 40
0.8629592769152206
 40
1.0
 40
1.0
 40
1.0
 40
1.0
 10
1253.006300697902
 20
585.0599969067072
 30
0.0
 10
1254.368844579858
 20
584.9902710325614
 30
0.0
 10
1257.135651623345
 20
584.8486843708365
 30
0.0
 10
1261.214676776433
 20
583.6829378683109
 30
0.0
 10
1265.130835832373
 20
581.7829357300958
 30
0.0
 10
1268.712879155123
 20
579.0823688805227
 30
0.0
 10
1271.788911425716
 20
575.6438469950072
 30
0.0
 10
1274.157601150245
 20
571.5482201008657
 30
0.0
 10
1275.745854635588
 20
566.9294523338592
 30
0.0
 10
1275.947077851077
 20
563.6617016314758
 30
0.0
 10
1276.048964629748
 20
562.0071182288622
 30
0.0
  0
LINE
  5
DF
330
1F
100
AcDbEntity
  8
0
  6
Continuous
 62
     7
370
    15
100
AcDbLine
 10
1253.006300697902
 20
587.007116738746
 30
0.0
 11
1253.006300697902
 21
585.0599969067072
 31
0.0
  0
LINE
  5
E0
330
1F
100
AcDbEntity
  8
0
  6
Continuous
 62
     7
370
    15
100
AcDbLine
 10
1108.006293694356
 20
562.0071182288622
 30
0.0
 11
1109.963620821813
 21
562.0071182288622
 31
0.0
  0
SPLINE
  5
E1
330
1F
100
AcDbEntity
  8
0
  6
Continuous
 62
     7
370
    15
100
AcDbSpline
210
0.0
220
0.0
230
1.0
 70
     8
 71
     3
 72
    23
 73
    19
 74
     0
 42
0.000000001
 43
0.00000001
 40
0.0
 40
0.0
 40
0.0
 40
0.0
 40
0.0569538748370375
 40
0.1176587056605752
 40
0.1821172370615699
 40
0.2499061045786351
 40
0.295502874100141
 40
0.3394469370012863
 40
0.3905350076783879
 40
0.448767162692115
 40
0.5133595476637091
 40
0.5741084425732408
 40
0.6412230917429503
 40
0.6985362262541511
 40
0.7460480628655969
 40
0.8109074708292845
 40
0.9095790270341912
 40
1.0
 40
1.0
 40
1.0
 40
1.0
 10
1110.929782311299
 20
447.6739114411568
 30
0.0
 10
1110.915466490183
 20
449.8472723828287
 30
0.0
 10
1110.885892014559
 20
454.3371308176069
 30
0.0
 10
1110.832157446424
 20
461.2832235967492
 30
0.0
 10
1110.77040833093
 20
468.6398763556775
 30
0.0
 10
1110.709372220174
 20
475.4179593464905
 30
0.0
 10
1110.652547658963
 20
481.4121418859378
 30
0.0
 10
1110.600758904133
 20
486.7691315819733
 30
0.0
 10
1110.543932710038
 20
492.6068258761126
 30
0.0
 10
1110.479414691759
 20
499.2304801745242
 30
0.0
 10
1110.411368681251
 20
506.2214782299692
 30
0.0
 10
1110.341495551003
 20
513.551060055879
 30
0.0
 10
1110.276168448309
 20
520.6040509996574
 30
0.0
 10
1110.217534112786
 20
527.1536689478635
 30
0.0
 10
1110.16198648708
 20
533.6184977191476
 30
0.0
 10
1110.097526187684
 20
541.6614996729918
 30
0.0
 10
1110.026535012911
 20
551.3433000593743
 30
0.0
 10
1109.983973192374
 20
558.5574358090677
 30
0.0
 10
1109.963620821813
 20
562.0071182288622
 30
0.0
  0
SPLINE
  5
E2
330
1F
100
AcDbEntity
  8
0
  6
Continuous
 62
     7
370
    15
100
AcDbSpline
210
0.0
220
0.0
230
1.0
 70
     8
 71
     3
 72
    18
 73
    14
 74
     0
 42
0.000000001
 43
0.00000001
 40
0.0
 40
0.0
 40
0.0
 40
0.0
 40
0.0898927460414222
 40
0.1869386989175889
 40
0.2834602263120462
 40
0.3811333985868784
 40
0.4703095281712366
 40
0.5509927488783385
 40
0.6359363055492512
 40
0.7332943059091855
 40
0.8240390576532789
 40
0.9121113851003446
 40
0.9999999999999999
 40
0.9999999999999999
 40
0.9999999999999999
 40
0.9999999999999999
 10
1110.930050532201
 20
386.3366881646609
 30
0.0
 10
1110.945560140061
 20
388.1772507270388
 30
0.0
 10
1110.977813531373
 20
392.0048384450601
 30
0.0
 10
1111.058404723568
 20
397.7895431010357
 30
0.0
 10
1111.151759089479
 20
403.7242587956974
 30
0.0
 10
1111.220579133141
 20
409.5172909483112
 30
0.0
 10
1111.255001596155
 20
415.0022898542115
 30
0.0
 10
1111.249026420072
 20
420.2319063029319
 30
0.0
 10
1111.205787839686
 20
425.6195434994305
 30
0.0
 10
1111.135925847303
 20
431.1984158119153
 30
0.0
 10
1111.053910918507
 20
436.8311746569132
 30
0.0
 10
1110.972712732278
 20
442.2698551623985
 30
0.0
 10
1110.944405458687
 20
445.8739315980192
 30
0.0
 10
1110.930266599038
 20
447.674088392446
 30
0.0
  0
SPLINE
  5
E3
330
1F
100
AcDbEntity
  8
0
  6
Continuous
 62
     7
370
    15
100
AcDbSpline
210
0.0
220
0.0
230
1.0
 70
     8
 71
     3
 72
    24
 73
    20
 74
     0
 42
0.000000001
 43
0.00000001
 40
0.0
 40
0.0
 40
0.0
 40
0.0
 40
0.0576402161391565
 40
0.1187433300136426
 40
0.1833115056925274
 40
0.2509658278819247
 40
0.2987382175956491
 40
0.3433972142693075
 40
0.3943249112391827
 40
0.4515215187564945
 40
0.5151431655460095
 40
0.5774257148365239
 40
0.6325564469998389
 40
0.6805354224644414
 40
0.7213628623130838
 40
0.7585419034827787
 40
0.8120798012215471
 40
0.9105027646910065
 40
1.0
 40
1.0
 40
1.0
 40
1.0
 10
1109.963620821813
 20
272.0071191229318
 30
0.0
 10
1109.97630703048
 20
274.2062292683147
 30
0.0
 10
1110.002441607402
 20
278.7365672722375
 30
0.0
 10
1110.049370032577
 20
285.727175096023
 30
0.0
 10
1110.103492036922
 20
293.0972900433134
 30
0.0
 10
1110.158316656353
 20
299.9569136719944
 30
0.0
 10
1110.210508119236
 20
306.0559607900131
 30
0.0
 10
1110.259068085534
 20
311.5168576114915
 30
0.0
 10
1110.312306248677
 20
317.336119919381
 30
0.0
 10
1110.373695004321
 20
323.8771040596176
 30
0.0
 10
1110.440982076241
 20
330.849906962697
 30
0.0
 10
1110.508080906984
 20
337.7442997434336
 30
0.0
 10
1110.569457521807
 20
344.0434491183612
 30
0.0
 10
1110.622681607131
 20
349.5259612974244
 30
0.0
 10
1110.668812357465
 20
354.3252546169099
 30
0.0
 10
1110.715785748723
 20
359.3372731356836
 30
0.0
 10
1110.780429432715
 20
366.5457305228775
 30
0.0
 10
1110.857975261473
 20
375.7516429056185
 30
0.0
 10
1110.906445146667
 20
382.9219933152124
 30
0.0
 10
1110.929528991559
 20
386.3368818797564
 30
0.0
  0
LINE
  5
E4
330
1F
100
AcDbEntity
  8
0
  6
Continuous
 62
     7
370
    15
100
AcDbLine
 10
1108.006293694356
 20
272.0071191229319
 30
0.0
 11
1109.963617096522
 21
272.0071191229319
 31
0.0
  0
LINE
  5
E5
330
1F
100
AcDbEntity
  8
0
  6
Continuous
 62
     7
370
    15
100
AcDbLine
 10
1253.006300697902
 20
247.0071131624674
 30
0.0
 11
1253.006300697902
 21
248.9543075003123
 31
0.0
  0
SPLINE
  5
E6
330
1F
100
AcDbEntity
  8
0
  6
Continuous
 62
     7
370
    15
100
AcDbSpline
210
0.0
220
0.0
230
1.0
 70
     8
 71
     3
 72
    15
 73
    11
 74
     0
 42
0.000000001
 43
0.00000001
 40
0.0
 40
0.0
 40
0.0
 40
0.0
 40
0.1370473794461163
 40
0.2706621478308264
 40
0.4008395049766404
 40
0.5275746088022326
 40
0.6508624818135693
 40
0.7706985869845334
 40
0.8870793044630707
 40
1.0
 40
1.0
 40
1.0
 40
1.0
 10
1276.048964629748
 20
272.0071191229319
 30
0.0
 10
1275.947071787408
 20
270.3524539242669
 30
0.0
 10
1275.745838201854
 20
267.0845677492695
 30
0.0
 10
1274.157447761034
 20
262.4656679666018
 30
0.0
 10
1271.78864608164
 20
258.3699945738217
 30
0.0
 10
1268.712501340427
 20
254.9315207856225
 30
0.0
 10
1265.130422439127
 20
252.2310526280694
 30
0.0
 10
1261.214318499158
 20
250.3311495865316
 30
0.0
 10
1257.135436706636
 20
249.165522436201
 30
0.0
 10
1254.36876355001
 20
249.0239507307937
 30
0.0
 10
1253.006300697902
 20
248.9542329945063
 30
0.0
  0
LINE
  5
E7
330
1F
100
AcDbEntity
  8
0
  6
Continuous
 62
     7
370
    15
100
AcDbLine
 10
1278.006291757205
 20
272.0071191229319
 30
0.0
 11
1276.048964629748
 21
272.0071191229319
 31
0.0
  0
SPLINE
  5
E8
330
1F
100
AcDbEntity
  8
0
  6
Continuous
 62
     7
370
    15
100
AcDbSpline
210
0.0
220
0.0
230
1.0
 70
     8
 71
     3
 72
    23
 73
    19
 74
     0
 42
0.000000001
 43
0.00000001
 40
0.0
 40
0.0
 40
0.0
 40
0.0
 40
0.0569686343229671
 40
0.1176844720488831
 40
0.1821503042292352
 40
0.2499422144765632
 40
0.2955170266498164
 40
0.3394545714606851
 40
0.390545458828599
 40
0.4487898258325646
 40
0.5133944556196341
 40
0.5741292814826655
 40
0.6412346159089161
 40
0.6985479331449659
 40
0.7460691893394186
 40
0.8109229732490959
 40
0.909585342057693
 40
1.0
 40
1.0
 40
1.0
 40
1.0
 10
1275.083056460002
 20
386.3368818797564
 30
0.0
 10
1275.097383714593
 20
384.1630282150119
 30
0.0
 10
1275.126980621951
 20
379.6723321699456
 30
0.0
 10
1275.180717550019
 20
372.7251974544928
 30
0.0
 10
1275.242463190947
 20
365.3679583030801
 30
0.0
 10
1275.303480886369
 20
358.5905224493179
 30
0.0
 10
1275.360287580729
 20
352.597487902298
 30
0.0
 10
1275.412025214273
 20
347.2416346864811
 30
0.0
 10
1275.468866136281
 20
341.4037892472842
 30
0.0
 10
1275.533347623587
 20
334.7792909454439
 30
0.0
 10
1275.601374733457
 20
327.7881019755105
 30
0.0
 10
1275.671222862278
 20
320.4591587530579
 30
0.0
 10
1275.736511174191
 20
313.4072580503345
 30
0.0
 10
1275.795135445114
 20
306.8578212316011
 30
0.0
 10
1275.850662521206
 20
300.3930314040593
 30
0.0
 10
1275.915096379282
 20
292.3504751835522
 30
0.0
 10
1275.986076221907
 20
282.6697734105655
 30
0.0
 10
1276.028620432783
 20
275.4564533713969
 30
0.0
 10
1276.048964629748
 20
272.0071191229319
 30
0.0
  0
SPLINE
  5
E9
330
1F
100
AcDbEntity
  8
0
  6
Continuous
 62
     7
370
    15
100
AcDbSpline
210
0.0
220
0.0
230
1.0
 70
     8
 71
     3
 72
    18
 73
    14
 74
     0
 42
0.000000001
 43
0.00000001
 40
0.0
 40
0.0
 40
0.0
 40
0.0
 40
0.0898439680039507
 40
0.1868102150223904
 40
0.283283621694786
 40
0.3809347324125534
 40
0.4700751619090143
 40
0.5507682753051619
 40
0.635741631763785
 40
0.7331195721625854
 40
0.8239183965055821
 40
0.9120625805524734
 40
1.0
 40
1.0
 40
1.0
 40
1.0
 10
1275.082326303103
 20
447.674088392446
 30
0.0
 10
1275.066827661473
 20
445.8345208026922
 30
0.0
 10
1275.034601740914
 20
442.009555981737
 30
0.0
 10
1274.954109165608
 20
436.2284204226943
 30
0.0
 10
1274.86085954461
 20
430.2967262511524
 30
0.0
 10
1274.792044409969
 20
424.5058611041821
 30
0.0
 10
1274.757609532918
 20
419.0218593291508
 30
0.0
 10
1274.763545402465
 20
413.7921572467189
 30
0.0
 10
1274.806743087276
 20
408.4032847229787
 30
0.0
 10
1274.876659757142
 20
402.8222952717143
 30
0.0
 10
1274.958748744187
 20
397.1865853878309
 30
0.0
 10
1275.040037853889
 20
391.7443851126177
 30
0.0
 10
1275.068380324627
 20
388.1378421476531
 30
0.0
 10
1275.08253491936
 20
386.3366881646609
 30
0.0
  0
SPLINE
  5
EA
330
1F
100
AcDbEntity
  8
0
  6
Continuous
 62
     7
370
    15
100
AcDbSpline
210
0.0
220
0.0
230
1.0
 70
     8
 71
     3
 72
    24
 73
    20
 74
     0
 42
0.000000001
 43
0.00000001
 40
0.0
 40
0.0
 40
0.0
 40
0.0
 40
0.0576439583764245
 40
0.1187520355885077
 40
0.1833264647622759
 40
0.2509879548688077
 40
0.2987502326784122
 40
0.3434079511252232
 40
0.3943404150462862
 40
0.4515477051622551
 40
0.5151769135139475
 40
0.5774418860638401
 40
0.6325644728217309
 40
0.6805447545852829
 40
0.7213828018990814
 40
0.7585782398333946
 40
0.8121133290699105
 40
0.910524011052329
 40
1.0
 40
1.0
 40
1.0
 40
1.0
 10
1276.048964629748
 20
562.0071182288622
 30
0.0
 10
1276.036276106058
 20
559.8077967897642
 30
0.0
 10
1276.010136540712
 20
555.2769854929264
 30
0.0
 10
1275.963196603034
 20
548.2855929251651
 30
0.0
 10
1275.909059826531
 20
540.9145539865241
 30
0.0
 10
1275.854223653777
 20
534.0545992530074
 30
0.0
 10
1275.802007612706
 20
527.9555331196004
 30
0.0
 10
1275.753427771963
 20
522.4947284576263
 30
0.0
 10
1275.700167522567
 20
516.6747558332441
 30
0.0
 10
1275.638757643767
 20
510.1327037994238
 30
0.0
 10
1275.571427247454
 20
503.1596716623353
 30
0.0
 10
1275.504331425902
 20
496.2657680606513
 30
0.0
 10
1275.442915161198
 20
489.967363175539
 30
0.0
 10
1275.389697142311
 20
484.4845446009211
 30
0.0
 10
1275.343534765962
 20
479.6840297071408
 30
0.0
 10
1275.29654344058
 20
474.670939553957
 30
0.0
 10
1275.2318524528
 20
467.4622147273217
 30
0.0
 10
1275.154323965161
 20
458.2574023536673
 30
0.0
 10
1275.105875447619
 20
451.0880996247173
 30
0.0
 10
1275.082803140262
 20
447.6739114411568
 30
0.0
  0
LINE
  5
EB
330
1F
100
AcDbEntity
  8
0
  6
Continuous
 62
     7
370
    15
100
AcDbLine
 10
1133.00629592953
 20
587.007116738746
 30
0.0
 11
1133.00629592953
 21
585.0598553456758
 31
0.0
  0
SPLINE
  5
EC
330
1F
100
AcDbEntity
  8
0
  6
Continuous
 62
     7
370
    15
100
AcDbSpline
210
0.0
220
0.0
230
1.0
 70
     8
 71
     3
 72
    15
 73
    11
 74
     0
 42
0.000000001
 43
0.00000001
 40
0.0
 40
0.0
 40
0.0
 40
0.0
 40
0.1370429775939108
 40
0.2706551314207514
 40
0.4008309593934608
 40
0.5275654328653551
 40
0.6508536703007369
 40
0.7706915968090785
 40
0.8870749289493387
 40
1.0
 40
1.0
 40
1.0
 40
1.0
 10
1109.963620821813
 20
562.0071182288622
 30
0.0
 10
1110.065509628782
 20
563.6617296651492
 30
0.0
 10
1110.266736491513
 20
566.929529910015
 30
0.0
 10
1111.855038058226
 20
571.5483488347895
 30
0.0
 10
1114.223776982688
 20
575.6439910306842
 30
0.0
 10
1117.299845844003
 20
579.0825029875201
 30
0.0
 10
1120.881912580958
 20
581.7830214365459
 30
0.0
 10
1124.798045408247
 20
583.682998100279
 30
0.0
 10
1128.87702240504
 20
584.8486895330414
 30
0.0
 10
1131.643780158173
 20
584.9902728674745
 30
0.0
 10
1133.00629592953
 20
585.0599969067072
 30
0.0
  0
LINE
  5
ED
330
1F
100
AcDbEntity
  8
0
  6
Continuous
 62
     7
370
    15
100
AcDbLine
 10
1133.00629592953
 20
247.0071131624674
 30
0.0
 11
1133.00629592953
 21
248.9542329945063
 31
0.0
  0
SPLINE
  5
EE
330
1F
100
AcDbEntity
  8
0
  6
Continuous
 62
     7
370
    15
100
AcDbSpline
210
0.0
220
0.0
230
1.0
 70
     8
 71
     3
 72
    12
 73
     8
 74
     0
 42
0.000000001
 43
0.00000001
 40
0.0
 40
0.0
 40
0.0
 40
0.0
 40
0.2046389795654179
 40
0.4030902006894004
 40
0.5969070669480255
 40
0.7953569220317431
 40
1.0
 40
1.0
 40
1.0
 40
1.0
 10
1253.006300697902
 20
248.9542329945063
 30
0.0
 10
1244.821541497648
 20
248.9708985079446
 30
0.0
 10
1228.69950924538
 20
249.0037256123932
 30
0.0
 10
1204.821850824337
 20
249.0262061007868
 30
0.0
 10
1181.191128279213
 20
249.0262062846071
 30
0.0
 10
1157.313360528144
 20
249.0037250152856
 30
0.0
 10
1141.191219030406
 20
248.9708984533297
 30
0.0
 10
1133.00629592953
 20
248.9542329945063
 30
0.0
  0
SPLINE
  5
EF
330
1F
100
AcDbEntity
  8
0
  6
Continuous
 62
     7
370
    15
100
AcDbSpline
210
0.0
220
0.0
230
1.0
 70
     8
 71
     3
 72
    11
 73
     7
 74
     0
 42
0.000000001
 43
0.00000001
 40
0.0
 40
0.0
 40
0.0
 40
0.0
 40
0.2499424802760923
 40
0.4998839056230357
 40
0.749941418098174
 40
1.0
 40
1.0
 40
1.0
 40
1.0
 10
1133.00629592953
 20
585.0599969067072
 30
0.0
 10
1143.003125520633
 20
585.0401148155518
 30
0.0
 10
1162.996742509343
 20
585.0003507171567
 30
0.0
 10
1192.997009230856
 20
584.9829727600686
 30
0.0
 10
1223.001922740436
 20
585.0003297107729
 30
0.0
 10
1243.004827120964
 20
585.0401078130425
 30
0.0
 10
1253.006300697902
 20
585.0599969067072
 30
0.0
  0
SPLINE
  5
F0
330
1F
100
AcDbEntity
  8
0
  6
Continuous
 62
     7
370
    15
100
AcDbSpline
210
0.0
220
0.0
230
1.0
 70
     8
 71
     3
 72
    15
 73
    11
 74
     0
 42
0.000000001
 43
0.00000001
 40
0.0
 40
0.0
 40
0.0
 40
0.0
 40
0.1129231587563695
 40
0.2293050506956067
 40
0.3491422150425321
 40
0.4724300488189665
 40
0.5991646636671105
 40
0.7293415637166049
 40
0.8629547583583123
 40
1.0
 40
1.0
 40
1.0
 40
1.0
 10
1133.00629592953
 20
248.9542329945063
 30
0.0
 10
1131.643802925984
 20
249.0239536389367
 30
0.0
 10
1128.877085003006
 20
249.1655304074377
 30
0.0
 10
1124.798149869517
 20
250.3311899315639
 30
0.0
 10
1120.882039121076
 20
252.2311402021671
 30
0.0
 10
1117.299955274771
 20
254.931616109998
 30
0.0
 10
1114.223858677132
 20
258.3701198641425
 30
0.0
 10
1111.855086232357
 20
262.4657750515611
 30
0.0
 10
1110.266741500713
 20
267.0846379875945
 30
0.0
 10
1110.065511604103
 20
270.3524796060597
 30
0.0
 10
1109.963620821813
 20
272.0071191229319
 30
0.0
  0
SPLINE
  5
F1
330
1F
100
AcDbEntity
  8
0
  6
Continuous
 62
     7
370
    15
100
AcDbSpline
210
0.0
220
0.0
230
1.0
 70
     8
 71
     3
 72
     9
 73
     5
 74
     0
 42
0.000000001
 43
0.00000001
 40
0.0
 40
0.0
 40
0.0
 40
0.0
 40
0.4998996809783756
 40
0.9999999999999999
 40
0.9999999999999999
 40
0.9999999999999999
 40
0.9999999999999999
 10
1253.399169812777
 20
566.1454016603922
 30
0.0
 10
1233.272251071194
 20
566.1501544951226
 30
0.0
 10
1193.010335516074
 20
566.1596620721649
 30
0.0
 10
1152.748417438894
 20
566.1501557667586
 30
0.0
 10
1132.613419364074
 20
566.1454016603922
 30
0.0
  0
SPLINE
  5
F2
330
1F
100
AcDbEntity
  8
0
  6
Continuous
 62
     7
370
    15
100
AcDbSpline
210
0.0
220
0.0
230
1.0
 70
     8
 71
     3
 72
    15
 73
    11
 74
     0
 42
0.000000001
 43
0.00000001
 40
0.0
 40
0.0
 40
0.0
 40
0.0
 40
0.125000066585094
 40
0.250000072351829
 40
0.3750000779192607
 40
0.4999999493330599
 40
0.624999917170366
 40
0.749999988223326
 40
0.8749999834786881
 40
1.0
 40
1.0
 40
1.0
 40
1.0
 10
1132.613419364074
 20
566.1454016603922
 30
0.0
 10
1132.618246903088
 20
567.3201631086195
 30
0.0
 10
1132.627901978769
 20
569.6696854334976
 30
0.0
 10
1132.657457526328
 20
573.0455782945929
 30
0.0
 10
1132.697039953051
 20
576.1783258583883
 30
0.0
 10
1132.746485413239
 20
578.9663451510999
 30
0.0
 10
1132.803985516631
 20
581.3274546579689
 30
0.0
 10
1132.867817717683
 20
583.1726607592396
 30
0.0
 10
1132.935951706471
 20
584.500912759361
 30
0.0
 10
1132.982847853847
 20
584.8736355136901
 30
0.0
 10
1133.00629592953
 20
585.0599969067072
 30
0.0
  0
SPLINE
  5
F3
330
1F
100
AcDbEntity
  8
0
  6
Continuous
 62
     7
370
    15
100
AcDbSpline
210
0.0
220
0.0
230
1.0
 70
     8
 71
     3
 72
    15
 73
    11
 74
     0
 42
0.000000001
 43
0.00000001
 40
0.0
 40
0.0
 40
0.0
 40
0.0
 40
0.1250000660803315
 40
0.2500000768972356
 40
0.3750000802762706
 40
0.4999999524533125
 40
0.6249999253238302
 40
0.7499999971400341
 40
0.8749999931586397
 40
0.9999999999999999
 40
0.9999999999999999
 40
0.9999999999999999
 40
0.9999999999999999
 10
1253.399169812777
 20
566.1454016603922
 30
0.0
 10
1253.394347319505
 20
567.3201631265409
 30
0.0
 10
1253.384702335091
 20
569.6696855394679
 30
0.0
 10
1253.355115804268
 20
573.0455781632944
 30
0.0
 10
1253.315552772249
 20
576.1783259125543
 30
0.0
 10
1253.266105413799
 20
578.9663452001186
 30
0.0
 10
1253.208593507013
 20
581.3274546079961
 30
0.0
 10
1253.1447657225
 20
583.172660769363
 30
0.0
 10
1253.076625869406
 20
584.5009127108407
 30
0.0
 10
1253.029742422413
 20
584.8736355027065
 30
0.0
 10
1253.006300697902
 20
585.0599969067072
 30
0.0
  0
SPLINE
  5
F4
330
1F
100
AcDbEntity
  8
0
  6
Continuous
 62
     7
370
    15
100
AcDbSpline
210
0.0
220
0.0
230
1.0
 70
     8
 71
     3
 72
    11
 73
     7
 74
     0
 42
0.000000001
 43
0.00000001
 40
0.0
 40
0.0
 40
0.0
 40
0.0
 40
0.2532160341360821
 40
0.5064270573983263
 40
0.7537825096250462
 40
1.0
 40
1.0
 40
1.0
 40
1.0
 10
1132.613419364074
 20
566.1454016603922
 30
0.0
 10
1132.188669313058
 20
566.101232613997
 30
0.0
 10
1131.339177616376
 20
566.0128953952645
 30
0.0
 10
1130.298151006703
 20
565.2456658796476
 30
0.0
 10
1129.552987689091
 20
564.2064384254054
 30
0.0
 10
1129.470805155286
 20
563.3793458445438
 30
0.0
 10
1129.42980862675
 20
562.9667530097461
 30
0.0
  0
SPLINE
  5
F5
330
1F
100
AcDbEntity
  8
0
  6
Continuous
 62
     7
370
    15
100
AcDbSpline
210
0.0
220
0.0
230
1.0
 70
     8
 71
     3
 72
    15
 73
    11
 74
     0
 42
0.000000001
 43
0.00000001
 40
0.0
 40
0.0
 40
0.0
 40
0.0
 40
0.1178530265926396
 40
0.2416255284082029
 40
0.3696846786262347
 40
0.5000000160468409
 40
0.6303152131575686
 40
0.7583744671828573
 40
0.8821468770570752
 40
1.0
 40
1.0
 40
1.0
 40
1.0
 10
1109.963620821813
 20
562.0071182288622
 30
0.0
 10
1110.140832709913
 20
562.0619329797581
 30
0.0
 10
1110.504157414765
 20
562.1743156951853
 30
0.0
 10
1111.818678115134
 20
562.3412129326891
 30
0.0
 10
1113.732687894064
 20
562.5027052482324
 30
0.0
 10
1116.252340045153
 20
562.6497339765682
 30
0.0
 10
1119.244771382881
 20
562.7744318854402
 30
0.0
 10
1122.549215168784
 20
562.8702060002289
 30
0.0
 10
1125.978188352728
 20
562.9371453316993
 30
0.0
 10
1128.298213685051
 20
562.957046293464
 30
0.0
 10
1129.42980862675
 20
562.966753009746
 30
0.0
  0
SPLINE
  5
F6
330
1F
100
AcDbEntity
  8
0
  6
Continuous
 62
     7
370
    15
100
AcDbSpline
210
0.0
220
0.0
230
1.0
 70
     8
 71
     3
 72
    15
 73
    11
 74
     0
 42
0.000000001
 43
0.00000001
 40
0.0
 40
0.0
 40
0.0
 40
0.0
 40
0.1181237538388135
 40
0.2419505556808344
 40
0.3698940226636587
 40
0.5000000572443581
 40
0.630106065515456
 40
0.7580494137353155
 40
0.8818762895574508
 40
1.0
 40
1.0
 40
1.0
 40
1.0
 10
1253.006300697902
 20
248.9542329945063
 30
0.0
 10
1253.028451713424
 20
249.1273542060272
 30
0.0
 10
1253.073823201719
 20
249.4819549697719
 30
0.0
 10
1253.141219369144
 20
250.7560956546917
 30
0.0
 10
1253.206509799004
 20
252.606872468102
 30
0.0
 10
1253.266218451661
 20
255.0418891846317
 30
0.0
 10
1253.317232827948
 20
257.9372267778951
 30
0.0
 10
1253.356979726331
 20
261.1439808082789
 30
0.0
 10
1253.385440076219
 20
264.4849482179648
 30
0.0
 10
1253.394665721704
 20
266.75873383073
 30
0.0
 10
1253.399169812777
 20
267.8688282408213
 30
0.0
  0
SPLINE
  5
F7
330
1F
100
AcDbEntity
  8
0
  6
Continuous
 62
     7
370
    15
100
AcDbSpline
210
0.0
220
0.0
230
1.0
 70
     8
 71
     3
 72
    11
 73
     7
 74
     0
 42
0.000000001
 43
0.00000001
 40
0.0
 40
0.0
 40
0.0
 40
0.0
 40
0.2532137965375884
 40
0.5064251861441124
 40
0.7537805881631403
 40
1.0
 40
1.0
 40
1.0
 40
1.0
 10
1253.399169812777
 20
267.8688282408213
 30
0.0
 10
1253.823918244979
 20
267.9129938322699
 30
0.0
 10
1254.673411071923
 20
268.0013245953497
 30
0.0
 10
1255.714422814994
 20
268.7685692696214
 30
0.0
 10
1256.459620198341
 20
269.8077823169721
 30
0.0
 10
1256.541785168227
 20
270.6348848747012
 30
0.0
 10
1256.582773099521
 20
271.0474843420481
 30
0.0
  0
SPLINE
  5
F8
330
1F
100
AcDbEntity
  8
0
  6
Continuous
 62
     7
370
    15
100
AcDbSpline
210
0.0
220
0.0
230
1.0
 70
     8
 71
     3
 72
    15
 73
    11
 74
     0
 42
0.000000001
 43
0.00000001
 40
0.0
 40
0.0
 40
0.0
 40
0.0
 40
0.117853484320099
 40
0.2416258836045606
 40
0.3696847628241672
 40
0.5000002395268456
 40
0.6303154792779742
 40
0.7583744852439891
 40
0.8821469428206256
 40
1.0
 40
1.0
 40
1.0
 40
1.0
 10
1256.582773099521
 20
271.0474843420481
 30
0.0
 10
1257.714371753849
 20
271.0571830813841
 30
0.0
 10
1260.034400952097
 20
271.0770676565024
 30
0.0
 10
1263.463375483795
 20
271.1440397686411
 30
0.0
 10
1266.767813328756
 20
271.2397968093313
 30
0.0
 10
1269.760252236756
 20
271.3644852426207
 30
0.0
 10
1272.279901759771
 20
271.5115230460311
 30
0.0
 10
1274.193902532592
 20
271.6730330933315
 30
0.0
 10
1275.508423986523
 20
271.8398974053629
 30
0.0
 10
1275.871751376144
 20
271.9522964097554
 30
0.0
 10
1276.048964629748
 20
272.0071191229319
 30
0.0
  0
SPLINE
  5
F9
330
1F
100
AcDbEntity
  8
0
  6
Continuous
 62
     7
370
    15
100
AcDbSpline
210
0.0
220
0.0
230
1.0
 70
     8
 71
     3
 72
    15
 73
    11
 74
     0
 42
0.000000001
 43
0.00000001
 40
0.0
 40
0.0
 40
0.0
 40
0.0
 40
0.1178530502283242
 40
0.2416255264901579
 40
0.3696846866123014
 40
0.5000000327265732
 40
0.6303152198193588
 40
0.7583744656874005
 40
0.8821468836570505
 40
1.0
 40
1.0
 40
1.0
 40
1.0
 10
1109.963620821813
 20
272.0071191229319
 30
0.0
 10
1110.140832651866
 20
271.952296409981
 30
0.0
 10
1110.504157161957
 20
271.839897393963
 30
0.0
 10
1111.818678406789
 20
271.6730329941169
 30
0.0
 10
1113.732687876549
 20
271.5115230578542
 30
0.0
 10
1116.25233981707
 20
271.3644855338664
 30
0.0
 10
1119.244771387154
 20
271.2397964141467
 30
0.0
 10
1122.549215464474
 20
271.1440399545452
 30
0.0
 10
1125.978188077487
 20
271.0770677179976
 30
0.0
 10
1128.298213642118
 20
271.0571830906142
 30
0.0
 10
1129.42980862675
 20
271.0474843420481
 30
0.0
  0
SPLINE
  5
FA
330
1F
100
AcDbEntity
  8
0
  6
Continuous
 62
     7
370
    15
100
AcDbSpline
210
0.0
220
0.0
230
1.0
 70
     8
 71
     3
 72
    11
 73
     7
 74
     0
 42
0.000000001
 43
0.00000001
 40
0.0
 40
0.0
 40
0.0
 40
0.0
 40
0.2463007565286786
 40
0.4937932867465297
 40
0.7468671356217788
 40
1.0
 40
1.0
 40
1.0
 40
1.0
 10
1129.42980862675
 20
271.0474843420481
 30
0.0
 10
1129.470854271684
 20
270.6347532926828
 30
0.0
 10
1129.553144168818
 20
269.8072941152089
 30
0.0
 10
1130.298636507453
 20
268.7680715706034
 30
0.0
 10
1131.339676292302
 20
268.0011697886521
 30
0.0
 10
1132.188805341919
 20
267.9129455186051
 30
0.0
 10
1132.613419364074
 20
267.8688282408213
 30
0.0
  0
SPLINE
  5
FB
330
1F
100
AcDbEntity
  8
0
  6
Continuous
 62
     7
370
    15
100
AcDbSpline
210
0.0
220
0.0
230
1.0
 70
     8
 71
     3
 72
    15
 73
    11
 74
     0
 42
0.000000001
 43
0.00000001
 40
0.0
 40
0.0
 40
0.0
 40
0.0
 40
0.1181237581923563
 40
0.2419505591218263
 40
0.3698940299207754
 40
0.5000000592617889
 40
0.6301060665740607
 40
0.7580494167619618
 40
0.8818762916715457
 40
1.0
 40
1.0
 40
1.0
 40
1.0
 10
1133.00629592953
 20
248.9542329945063
 30
0.0
 10
1132.984141531465
 20
249.1273541985179
 30
0.0
 10
1132.938763115802
 20
249.4819549388553
 30
0.0
 10
1132.871373656245
 20
250.7560957062257
 30
0.0
 10
1132.806066484211
 20
252.6068723646975
 30
0.0
 10
1132.746373548386
 20
255.0418892434024
 30
0.0
 10
1132.69535804036
 20
257.9372268179091
 30
0.0
 10
1132.655600215951
 20
261.1439807621191
 30
0.0
 10
1132.6271401038
 20
264.4849482020743
 30
0.0
 10
1132.617920503687
 20
266.7587338295362
 30
0.0
 10
1132.613419364074
 20
267.8688282408212
 30
0.0
  0
SPLINE
  5
FC
330
1F
100
AcDbEntity
  8
0
  6
Continuous
 62
     7
370
    15
100
AcDbSpline
210
0.0
220
0.0
230
1.0
 70
     8
 71
     3
 72
    11
 73
     7
 74
     0
 42
0.000000001
 43
0.00000001
 40
0.0
 40
0.0
 40
0.0
 40
0.0
 40
0.2462992238190689
 40
0.4937926672102343
 40
0.7468666334249551
 40
1.0
 40
1.0
 40
1.0
 40
1.0
 10
1256.582773099521
 20
562.966753009746
 30
0.0
 10
1256.541734845346
 20
563.3794829075231
 30
0.0
 10
1256.459459356726
 20
564.2069438873044
 30
0.0
 10
1255.713938002006
 20
565.2461433610661
 30
0.0
 10
1254.672915834023
 20
566.0130640869647
 30
0.0
 10
1253.823785033309
 20
566.10128568516
 30
0.0
 10
1253.399169812777
 20
566.1454016603922
 30
0.0
  0
SPLINE
  5
FD
330
1F
100
AcDbEntity
  8
0
  6
Continuous
 62
     7
370
    15
100
AcDbSpline
210
0.0
220
0.0
230
1.0
 70
     8
 71
     3
 72
    15
 73
    11
 74
     0
 42
0.000000001
 43
0.00000001
 40
0.0
 40
0.0
 40
0.0
 40
0.0
 40
0.1178534909200638
 40
0.2416258821090984
 40
0.3696847694859691
 40
0.5000002562065753
 40
0.6303154872640359
 40
0.7583744833259312
 40
0.8821469664562973
 40
0.9999999999999999
 40
0.9999999999999999
 40
0.9999999999999999
 40
0.9999999999999999
 10
1256.582773099521
 20
562.966753009746
 30
0.0
 10
1257.714371710916
 20
562.9570463026824
 30
0.0
 10
1260.034400676856
 20
562.937145393186
 30
0.0
 10
1263.463375779484
 20
562.870206186112
 30
0.0
 10
1266.767813333028
 20
562.7744314902263
 30
0.0
 10
1269.760252008674
 20
562.6497342678181
 30
0.0
 10
1272.279901742255
 20
562.5027052600519
 30
0.0
 10
1274.193902824247
 20
562.3412128334694
 30
0.0
 10
1275.508423733714
 20
562.1743156837836
 30
0.0
 10
1275.871751318096
 20
562.0619329799824
 30
0.0
 10
1276.048964629748
 20
562.0071182288622
 30
0.0
  0
SPLINE
  5
FE
330
1F
100
AcDbEntity
  8
0
  6
Continuous
 62
     7
370
    15
100
AcDbSpline
210
0.0
220
0.0
230
1.0
 70
     8
 71
     3
 72
    11
 73
     7
 74
     0
 42
0.000000001
 43
0.00000001
 40
0.0
 40
0.0
 40
0.0
 40
0.0
 40
0.2499733267107608
 40
0.5000000308397261
 40
0.7500266732892392
 40
1.0
 40
1.0
 40
1.0
 40
1.0
 10
1132.613419364074
 20
267.8688282408212
 30
0.0
 10
1142.677061640035
 20
267.8668143496843
 30
0.0
 10
1162.806495106201
 20
267.8627861373791
 30
0.0
 10
1193.006295830295
 20
267.8575886962939
 30
0.0
 10
1223.206096553787
 20
267.8627861379742
 30
0.0
 10
1243.335527536814
 20
267.8668143497169
 30
0.0
 10
1253.399169812777
 20
267.8688282408212
 30
0.0
  0
SPLINE
  5
FF
330
1F
100
AcDbEntity
  8
0
  6
Continuous
 62
     7
370
    15
100
AcDbSpline
210
0.0
220
0.0
230
1.0
 70
     8
 71
     3
 72
    14
 73
    10
 74
     0
 42
0.000000001
 43
0.00000001
 40
0.0
 40
0.0
 40
0.0
 40
0.0
 40
0.1469404793927727
 40
0.2877592738789036
 40
0.4320989236190544
 40
0.5749992931840994
 40
0.7162284737052712
 40
0.8604613397014991
 40
1.0
 40
1.0
 40
1.0
 40
1.0
 10
1256.582773099521
 20
271.0474843420481
 30
0.0
 10
1256.595170807585
 20
276.6772572111818
 30
0.0
 10
1256.619449723
 20
287.7022610741047
 30
0.0
 10
1256.944923856834
 20
304.2560197201997
 30
0.0
 10
1257.401956930913
 20
320.652602876143
 30
0.0
 10
1257.958403160174
 20
337.0637677536326
 30
0.0
 10
1258.538813024388
 20
353.4723169775739
 30
0.0
 10
1259.10601251901
 20
369.7552640960273
 30
0.0
 10
1259.399757283248
 20
380.6327914762479
 30
0.0
 10
1259.544200072864
 20
385.9815860428309
 30
0.0
  0
SPLINE
  5
100
330
1F
100
AcDbEntity
  8
0
  6
Continuous
 62
     7
370
    15
100
AcDbSpline
210
0.0
220
0.0
230
1.0
 70
     8
 71
     3
 72
    15
 73
    11
 74
     0
 42
0.000000001
 43
0.00000001
 40
0.0
 40
0.0
 40
0.0
 40
0.0
 40
0.1183538456456933
 40
0.2422290161088256
 40
0.3700784417466264
 40
0.5000113090096958
 40
0.6299427203641554
 40
0.7577877238982994
 40
0.8816556524798149
 40
1.0
 40
1.0
 40
1.0
 40
1.0
 10
1259.544051061252
 20
385.9732860960459
 30
0.0
 10
1260.444718297047
 20
385.9778514152396
 30
0.0
 10
1262.28806979254
 20
385.9871950303157
 30
0.0
 10
1264.998186264934
 20
386.0143326529157
 30
0.0
 10
1267.603086805209
 20
386.05150593371
 30
0.0
 10
1269.964185006936
 20
386.0986879183259
 30
0.0
 10
1271.964572090799
 20
386.1535094846781
 30
0.0
 10
1273.505530566245
 20
386.2133013932908
 30
0.0
 10
1274.590825919252
 20
386.2749323470543
 30
0.0
 10
1274.921142846728
 20
386.3164182501415
 30
0.0
 10
1275.08253491936
 20
386.3366881646609
 30
0.0
  0
SPLINE
  5
101
330
1F
100
AcDbEntity
  8
0
  6
Continuous
 62
     7
370
    15
100
AcDbSpline
210
0.0
220
0.0
230
1.0
 70
     8
 71
     3
 72
    13
 73
     9
 74
     0
 42
0.000000001
 43
0.00000001
 40
0.0
 40
0.0
 40
0.0
 40
0.0
 40
0.1636095450783857
 40
0.3294089112404385
 40
0.5004202297744839
 40
0.6626811506252533
 40
0.8296567326646365
 40
1.0
 40
1.0
 40
1.0
 40
1.0
 10
1259.545809398272
 20
448.0291867889857
 30
0.0
 10
1259.373414254105
 20
454.3007119630261
 30
0.0
 10
1259.026316554421
 20
466.927703123034
 30
0.0
 10
1258.345202694
 20
486.0992714007983
 30
0.0
 10
1257.663763858165
 20
505.2155568085748
 30
0.0
 10
1257.078727997956
 20
524.3770759770724
 30
0.0
 10
1256.640160702388
 20
543.5158565079881
 30
0.0
 10
1256.602029198125
 20
556.4401102809496
 30
0.0
 10
1256.582773099521
 20
562.966753009746
 30
0.0
  0
SPLINE
  5
102
330
1F
100
AcDbEntity
  8
0
  6
Continuous
 62
     7
370
    15
100
AcDbSpline
210
0.0
220
0.0
230
1.0
 70
     8
 71
     3
 72
    15
 73
    11
 74
     0
 42
0.000000001
 43
0.00000001
 40
0.0
 40
0.0
 40
0.0
 40
0.0
 40
0.1183510118763618
 40
0.2422210877730033
 40
0.3700648943023657
 40
0.4999924283991242
 40
0.6299212713320339
 40
0.757768093031916
 40
0.8816431029574265
 40
1.0
 40
1.0
 40
1.0
 40
1.0
 10
1259.545645485499
 20
448.0291122831797
 30
0.0
 10
1260.446199418746
 20
448.0195153741422
 30
0.0
 10
1262.289302826575
 20
447.999874023304
 30
0.0
 10
1264.999108951037
 20
447.9620811057969
 30
0.0
 10
1267.603737156232
 20
447.9183505196145
 30
0.0
 10
1269.964613579441
 20
447.8697410222495
 30
0.0
 10
1271.964843994051
 20
447.8186489435172
 30
0.0
 10
1273.505716543048
 20
447.7676049129804
 30
0.0
 10
1274.590965845245
 20
447.718638240386
 30
0.0
 10
1274.921296176659
 20
447.6885922219035
 30
0.0
 10
1275.082698832133
 20
447.6739114411568
 30
0.0
  0
SPLINE
  5
103
330
1F
100
AcDbEntity
  8
0
  6
Continuous
 62
     7
370
    15
100
AcDbSpline
210
0.0
220
0.0
230
1.0
 70
     8
 71
     3
 72
    14
 73
    10
 74
     0
 42
0.000000001
 43
0.00000001
 40
0.0
 40
0.0
 40
0.0
 40
0.0
 40
0.1469533150900154
 40
0.2877841028420254
 40
0.4321332205542584
 40
0.5750374934454525
 40
0.7162655899824993
 40
0.8604802476201466
 40
0.9999999999999999
 40
0.9999999999999999
 40
0.9999999999999999
 40
0.9999999999999999
 10
1129.42980862675
 20
562.966753009746
 30
0.0
 10
1129.417381962342
 20
557.3363167033415
 30
0.0
 10
1129.393046366607
 20
546.3100253940554
 30
0.0
 10
1129.067175033697
 20
529.7544537203962
 30
0.0
 10
1128.609698088253
 20
513.3564099685232
 30
0.0
 10
1128.05279923214
 20
496.9442871684581
 30
0.0
 10
1127.472073768822
 20
480.5358375167019
 30
0.0
 10
1126.90469475096
 20
464.2538628516365
 30
0.0
 10
1126.611134757056
 20
453.3774219342297
 30
0.0
 10
1126.466783503869
 20
448.0291867889857
 30
0.0
  0
SPLINE
  5
104
330
1F
100
AcDbEntity
  8
0
  6
Continuous
 62
     7
370
    15
100
AcDbSpline
210
0.0
220
0.0
230
1.0
 70
     8
 71
     3
 72
    15
 73
    11
 74
     0
 42
0.000000001
 43
0.00000001
 40
0.0
 40
0.0
 40
0.0
 40
0.0
 40
0.1183567997243715
 40
0.2422317801468198
 40
0.3700785713976814
 40
0.5000073833856997
 40
0.6299350158560997
 40
0.757778647045436
 40
0.8816486934401905
 40
1.0
 40
1.0
 40
1.0
 40
1.0
 10
1110.929890344718
 20
447.6739114411568
 30
0.0
 10
1111.091289924208
 20
447.6885922241987
 30
0.0
 10
1111.42161405891
 20
447.7186382563527
 30
0.0
 10
1112.50686572175
 20
447.7676049124303
 30
0.0
 10
1114.047737714968
 20
447.8186489383154
 30
0.0
 10
1116.047968319107
 20
447.8697410610152
 30
0.0
 10
1118.408847302814
 20
447.9183504524719
 30
0.0
 10
1121.013473409932
 20
447.962081137169
 30
0.0
 10
1123.723281354424
 20
447.9998740721824
 30
0.0
 10
1125.566387274313
 20
448.0195153811915
 30
0.0
 10
1126.466943691352
 20
448.0291122831797
 30
0.0
  0
SPLINE
  5
105
330
1F
100
AcDbEntity
  8
0
  6
Continuous
 62
     7
370
    15
100
AcDbSpline
210
0.0
220
0.0
230
1.0
 70
     8
 71
     3
 72
    15
 73
    11
 74
     0
 42
0.000000001
 43
0.00000001
 40
0.0
 40
0.0
 40
0.0
 40
0.0
 40
0.1183478974101556
 40
0.242218524027816
 40
0.3700655711158699
 40
0.4999978206183733
 40
0.6299303850614166
 40
0.7577784654477527
 40
0.8816504654557443
 40
1.0
 40
1.0
 40
1.0
 40
1.0
 10
1110.930113862136
 20
386.3467017449831
 30
0.0
 10
1111.091517964461
 20
386.3263684784487
 30
0.0
 10
1111.421858125062
 20
386.2847530892748
 30
0.0
 10
1112.507187865624
 20
386.2229010815187
 30
0.0
 10
1114.048211213299
 20
386.1628932934166
 30
0.0
 10
1116.048637489064
 20
386.1078252194356
 30
0.0
 10
1118.409748035426
 20
386.0604252899602
 30
0.0
 10
1121.014617579361
 20
386.0230395047025
 30
0.0
 10
1123.724651146302
 20
385.9957261014635
 30
0.0
 10
1125.567927489545
 20
385.9862772574435
 30
0.0
 10
1126.468553016761
 20
385.9816605486369
 30
0.0
  0
SPLINE
  5
106
330
1F
100
AcDbEntity
  8
0
  6
Continuous
 62
     7
370
    15
100
AcDbSpline
210
0.0
220
0.0
230
1.0
 70
     8
 71
     3
 72
    13
 73
     9
 74
     0
 42
0.000000001
 43
0.00000001
 40
0.0
 40
0.0
 40
0.0
 40
0.0
 40
0.1636321383383571
 40
0.3294462217987519
 40
0.5004593975369032
 40
0.6627091970943496
 40
0.8296717109892399
 40
1.0
 40
1.0
 40
1.0
 40
1.0
 10
1126.468385378697
 20
385.9815860428309
 30
0.0
 10
1126.640874444379
 20
379.7093884038169
 30
0.0
 10
1126.988152623148
 20
367.0813567987087
 30
0.0
 10
1127.668989938268
 20
347.9088641708929
 30
0.0
 10
1128.35001491712
 20
328.7929393494492
 30
0.0
 10
1128.934477673962
 20
309.6328442902997
 30
0.0
 10
1129.372560187559
 20
290.4961393224355
 30
0.0
 10
1129.410599284841
 20
277.5733541903703
 30
0.0
 10
1129.42980862675
 20
271.0474843420481
 30
0.0
  0
SPLINE
  5
107
330
1F
100
AcDbEntity
  8
0
  6
Continuous
 62
     7
370
    15
100
AcDbSpline
210
0.0
220
0.0
230
1.0
 70
     8
 71
     3
 72
    15
 73
    11
 74
     0
 42
0.000000001
 43
0.00000001
 40
0.0
 40
0.0
 40
0.0
 40
0.0
 40
0.1249999364855079
 40
0.2500000140015044
 40
0.3750000120768701
 40
0.5000000544607786
 40
0.625000044806
 40
0.7500000147930532
 40
0.8749999903197477
 40
1.0
 40
1.0
 40
1.0
 40
1.0
 10
1259.54403616009
 20
385.9816605486369
 30
0.0
 10
1260.59578852568
 20
388.4363393300047
 30
0.0
 10
1262.699294443492
 20
393.3456996622181
 30
0.0
 10
1264.814327121606
 20
401.0897098670037
 30
0.0
 10
1266.132988946579
 20
408.9965646898067
 30
0.0
 10
1266.566241761104
 20
417.0052067043968
 30
0.0
 10
1266.133387842676
 20
425.0138691881686
 30
0.0
 10
1264.815145513623
 20
432.9207886749477
 30
0.0
 10
1262.700540658672
 20
440.6649156368478
 30
0.0
 10
1260.597277305669
 20
445.5743798441682
 30
0.0
 10
1259.545645485499
 20
448.0291122831797
 30
0.0
  0
SPLINE
  5
108
330
1F
100
AcDbEntity
  8
0
  6
Continuous
 62
     7
370
    15
100
AcDbSpline
210
0.0
220
0.0
230
1.0
 70
     8
 71
     3
 72
    15
 73
    11
 74
     0
 42
0.000000001
 43
0.00000001
 40
0.0
 40
0.0
 40
0.0
 40
0.0
 40
0.1249999856933991
 40
0.2499999902422122
 40
0.3749999673913347
 40
0.5000000071788586
 40
0.6249999923277417
 40
0.7499999786121205
 40
0.8750000224741438
 40
1.0
 40
1.0
 40
1.0
 40
1.0
 10
1126.466943691352
 20
448.0291122831797
 30
0.0
 10
1125.415314042714
 20
445.5743795242409
 30
0.0
 10
1123.312054586806
 20
440.6649136360832
 30
0.0
 10
1121.197439256642
 20
432.9207896545885
 30
0.0
 10
1119.879190793002
 20
425.0138684774354
 30
0.0
 10
1119.446348792515
 20
417.0052050263213
 30
0.0
 10
1119.879605267671
 20
408.996563835335
 30
0.0
 10
1121.198263423558
 20
401.0897109517202
 30
0.0
 10
1123.313284103124
 20
393.3456968707774
 30
0.0
 10
1125.416796898267
 20
388.4363388884597
 30
0.0
 10
1126.468553016761
 20
385.9816605486369
 30
0.0
  0
ARC
  5
109
330
1F
100
AcDbEntity
  8
0
  6
Continuous
 62
     7
370
    15
100
AcDbCircle
 10
1193.006293706294
 20
417.0071147802224
 30
0.0
 40
73.41559342890352
100
AcDbArc
 50
24.99588980778586
 51
155.0041101670229
  0
ARC
  5
10A
330
1F
100
AcDbEntity
  8
0
  6
Continuous
 62
     7
370
    15
100
AcDbCircle
 10
1193.006293706294
 20
417.0071147802224
 30
0.0
 40
73.41559342890345
100
AcDbArc
 50
204.9988638450936
 51
335.0011363465543
  0
CIRCLE
  5
10B
330
1F
100
AcDbEntity
  8
0
  6
Continuous
 62
     7
370
    15
100
AcDbCircle
 10
1193.006293706294
 20
417.0071147802224
 30
0.0
 40
58.61177143234613
  0
CIRCLE
  5
10C
330
1F
100
AcDbEntity
  8
0
  6
Continuous
 62
     7
370
    15
100
AcDbCircle
 10
1193.006293706294
 20
417.0071147802224
 30
0.0
 40
57.50000000000023
  0
CIRCLE
  5
10D
330
1F
100
AcDbEntity
  8
0
  6
Continuous
 62
     7
370
    15
100
AcDbCircle
 10
1193.006293706294
 20
417.0071147802224
 30
0.0
 40
56.58715574274743
  0
CIRCLE
  5
10E
330
1F
100
AcDbEntity
  8
0
  6
Continuous
 62
     7
370
    15
100
AcDbCircle
 10
1193.006293706294
 20
417.0071147802224
 30
0.0
 40
45.0
  0
LINE
  5
10F
330
1F
100
AcDbEntity
  8
0
  6
Continuous
 62
     7
370
    15
100
AcDbLine
 10
1073.006293545344
 20
272.2071076073145
 30
0.0
 11
1073.006293545344
 21
622.2071165480112
 31
0.0
  0
ARC
  5
110
330
1F
100
AcDbEntity
  8
0
  6
Continuous
 62
     7
370
    15
100
AcDbCircle
 10
758.0062937062936
 20
272.2071147802225
 30
0.0
 40
25.0
100
AcDbArc
 50
179.9999999999994
 51
270.0000000000011
  0
ARC
  5
111
330
1F
100
AcDbEntity
  8
0
  6
Continuous
 62
     7
370
    15
100
AcDbCircle
 10
1048.006293706293
 20
272.2071147802226
 30
0.0
 40
25.00000000000023
100
AcDbArc
 50
270.0000000000008
 51
0.0000000000002606
  0
LINE
  5
112
330
1F
100
AcDbEntity
  8
0
  6
Continuous
 62
     7
370
    15
100
AcDbLine
 10
1048.006293172815
 20
647.2071076073145
 30
0.0
 11
758.0062959295301
 21
647.2071076073145
 31
0.0
  0
ARC
  5
113
330
1F
100
AcDbEntity
  8
0
  6
Continuous
 62
     7
370
    15
100
AcDbCircle
 10
758.0062937062936
 20
622.2071147802226
 30
0.0
 40
25.0
100
AcDbArc
 50
89.99999999999947
 51
180.0000000000016
  0
LINE
  5
114
330
1F
100
AcDbEntity
  8
0
  6
Continuous
 62
     7
370
    15
100
AcDbLine
 10
733.0062899690656
 20
622.2071165480112
 30
0.0
 11
733.0062899690656
 21
272.2071076073145
 31
0.0
  0
LINE
  5
115
330
1F
100
AcDbEntity
  8
0
  6
Continuous
 62
     7
370
    15
100
AcDbLine
 10
758.0062959295301
 20
247.2071165480112
 30
0.0
 11
1048.006293172815
 21
247.2071165480112
 31
0.0
  0
ARC
  5
116
330
1F
100
AcDbEntity
  8
0
  6
Continuous
 62
     7
370
    15
100
AcDbCircle
 10
1048.006293706293
 20
622.2071147802226
 30
0.0
 40
25.00000000000023
100
AcDbArc
 50
0.0
 51
90.0
  0
LINE
  5
117
330
1F
100
AcDbEntity
  8
0
  6
Continuous
 62
     7
370
    15
100
AcDbLine
 10
758.0062959295301
 20
642.6710451282953
 30
0.0
 11
758.0062959295301
 21
647.2071076073145
 31
0.0
  0
SPLINE
  5
118
330
1F
100
AcDbEntity
  8
0
  6
Continuous
 62
     7
370
    15
100
AcDbSpline
210
0.0
220
0.0
230
1.0
 70
     8
 71
     3
 72
    15
 73
    11
 74
     0
 42
0.000000001
 43
0.00000001
 40
0.0
 40
0.0
 40
0.0
 40
0.0
 40
0.1277210963811114
 40
0.2499995971807137
 40
0.3758234231191378
 40
0.5000006301372727
 40
0.6241745033554336
 40
0.7499975096087401
 40
0.8722765892859787
 40
1.0
 40
1.0
 40
1.0
 40
1.0
 10
737.5423524480848
 20
622.2071165480112
 30
0.0
 10
737.6299390144047
 20
623.5701811833002
 30
0.0
 10
737.8013798093781
 20
626.2382260044681
 30
0.0
 10
739.0403094204956
 20
630.0932141841438
 30
0.0
 10
740.9259048441957
 20
633.6190818768223
 30
0.0
 10
743.4870773319728
 20
636.7263143492428
 30
0.0
 10
746.5942939002955
 20
639.2874908940473
 30
0.0
 10
750.1201223205043
 20
641.1730785409824
 30
0.0
 10
753.9751290592968
 20
642.4120274078172
 30
0.0
 10
756.6432059737793
 20
642.5834614423526
 30
0.0
 10
758.0062959295301
 20
642.6710451282953
 30
0.0
  0
LINE
  5
119
330
1F
100
AcDbEntity
  8
0
  6
Continuous
 62
     7
370
    15
100
AcDbLine
 10
737.5423524480848
 20
622.2071165480112
 30
0.0
 11
733.0062899690656
 21
622.2071165480112
 31
0.0
  0
LINE
  5
11A
330
1F
100
AcDbEntity
  8
0
  6
Continuous
 62
     7
370
    15
100
AcDbLine
 10
1048.006293172815
 20
252.5525803007578
 30
0.0
 11
1048.006293172815
 21
247.2071165480112
 31
0.0
  0
SPLINE
  5
11B
330
1F
100
AcDbEntity
  8
0
  6
Continuous
 62
     7
370
    15
100
AcDbSpline
210
0.0
220
0.0
230
1.0
 70
     8
 71
     3
 72
    15
 73
    11
 74
     0
 42
0.000000001
 43
0.00000001
 40
0.0
 40
0.0
 40
0.0
 40
0.0
 40
0.1277192702319166
 40
0.2499999045277497
 40
0.3758253350018949
 40
0.5000006626127915
 40
0.6241725032405067
 40
0.7499974947379673
 40
0.8722781285696752
 40
1.0
 40
1.0
 40
1.0
 40
1.0
 10
1067.660827231461
 20
272.2071076073145
 30
0.0
 10
1067.575305464065
 20
270.8989259258247
 30
0.0
 10
1067.407903680097
 20
268.3382685177176
 30
0.0
 10
1066.21596478955
 20
264.6379771985871
 30
0.0
 10
1064.403971769612
 20
261.2530078328852
 30
0.0
 10
1061.94401785217
 20
258.2694064112839
 30
0.0
 10
1058.960424066313
 20
255.8094512744683
 30
0.0
 10
1055.575491771989
 20
253.9974758695991
 30
0.0
 10
1051.87518722839
 20
252.8055053484396
 30
0.0
 10
1049.314502067011
 20
252.6381031380828
 30
0.0
 10
1048.006293172815
 20
252.5525803007578
 30
0.0
  0
LINE
  5
11C
330
1F
100
AcDbEntity
  8
0
  6
Continuous
 62
     7
370
    15
100
AcDbLine
 10
1067.660827231461
 20
272.2071076073145
 30
0.0
 11
1073.006293545344
 21
272.2071076073145
 31
0.0
  0
LINE
  5
11D
330
1F
100
AcDbEntity
  8
0
  6
Continuous
 62
     7
370
    15
100
AcDbLine
 10
737.5423524480848
 20
272.2071076073145
 30
0.0
 11
733.0062899690656
 21
272.2071076073145
 31
0.0
  0
SPLINE
  5
11E
330
1F
100
AcDbEntity
  8
0
  6
Continuous
 62
     7
370
    15
100
AcDbSpline
210
0.0
220
0.0
230
1.0
 70
     8
 71
     3
 72
    15
 73
    11
 74
     0
 42
0.000000001
 43
0.00000001
 40
0.0
 40
0.0
 40
0.0
 40
0.0
 40
0.1277215199601952
 40
0.2499995891451424
 40
0.3758234268888128
 40
0.5000009407823603
 40
0.6241748256509629
 40
0.7499982525669009
 40
0.8722770380205944
 40
1.0
 40
1.0
 40
1.0
 40
1.0
 10
758.0062959295301
 20
251.7431790270304
 30
0.0
 10
756.6432258701072
 20
251.8307581865014
 30
0.0
 10
753.975179365979
 20
252.0021839093726
 30
0.0
 10
750.1201953476817
 20
253.2411265006577
 30
0.0
 10
746.5943248011988
 20
255.1267141447262
 30
0.0
 10
743.4871039744299
 20
257.6879054387339
 30
0.0
 10
740.9259143027934
 20
260.7951213060037
 30
0.0
 10
739.0403457841178
 20
264.3209602277166
 30
0.0
 10
737.80136432679
 20
268.1759517665793
 30
0.0
 10
737.6299341273123
 20
270.8440218696086
 30
0.0
 10
737.5423524480847
 20
272.2071076073145
 30
0.0
  0
LINE
  5
11F
330
1F
100
AcDbEntity
  8
0
  6
Continuous
 62
     7
370
    15
100
AcDbLine
 10
758.0062959295301
 20
251.7431790270304
 30
0.0
 11
758.0062959295301
 21
247.2071165480112
 31
0.0
  0
LINE
  5
120
330
1F
100
AcDbEntity
  8
0
  6
Continuous
 62
     7
370
    15
100
AcDbLine
 10
1067.660827231461
 20
622.2071165480112
 30
0.0
 11
1073.006293545344
 21
622.2071165480112
 31
0.0
  0
SPLINE
  5
121
330
1F
100
AcDbEntity
  8
0
  6
Continuous
 62
     7
370
    15
100
AcDbSpline
210
0.0
220
0.0
230
1.0
 70
     8
 71
     3
 72
    15
 73
    11
 74
     0
 42
0.000000001
 43
0.00000001
 40
0.0
 40
0.0
 40
0.0
 40
0.0
 40
0.1277197998329886
 40
0.2500001437764048
 40
0.3758255207102986
 40
0.5000006435905436
 40
0.6241724012095217
 40
0.7499975231975433
 40
0.8722787595836515
 40
0.9999999999999999
 40
0.9999999999999999
 40
0.9999999999999999
 40
0.9999999999999999
 10
1048.006293172815
 20
641.8616438545679
 30
0.0
 10
1049.314480729745
 20
641.7761241449238
 30
0.0
 10
1051.875141471046
 20
641.6087269227647
 30
0.0
 10
1055.575432071763
 20
640.4167779525947
 30
0.0
 10
1058.960395062558
 20
638.6047865070309
 30
0.0
 10
1061.943996623255
 20
636.1448379310058
 30
0.0
 10
1064.403951745393
 20
633.1612469847281
 30
0.0
 10
1066.21594123659
 20
629.7763134883929
 30
0.0
 10
1067.407895534904
 20
626.0760021553592
 30
0.0
 10
1067.575302419139
 20
623.5153184063372
 30
0.0
 10
1067.660827231461
 20
622.2071165480112
 30
0.0
  0
LINE
  5
122
330
1F
100
AcDbEntity
  8
0
  6
Continuous
 62
     7
370
    15
100
AcDbLine
 10
1048.006293172815
 20
641.8616438545679
 30
0.0
 11
1048.006293172815
 21
647.2071076073145
 31
0.0
  0
SPLINE
  5
123
330
1F
100
AcDbEntity
  8
0
  6
Continuous
 62
     7
370
    15
100
AcDbSpline
210
0.0
220
0.0
230
1.0
 70
     8
 71
     3
 72
    15
 73
    11
 74
     0
 42
0.000000001
 43
0.00000001
 40
0.0
 40
0.0
 40
0.0
 40
0.0
 40
0.1561792488490877
 40
0.3123569719909151
 40
0.4690094291318377
 40
0.6256636968824321
 40
0.7192076615834938
 40
0.8127519395186109
 40
0.906375906371523
 40
1.0
 40
1.0
 40
1.0
 40
1.0
 10
1047.983932117799
 20
252.6273394264674
 30
0.0
 10
1032.874296867278
 20
252.687730726999
 30
0.0
 10
1002.655173971505
 20
252.8085127381025
 30
0.0
 10
957.233145638739
 20
252.8480729785346
 30
0.0
 10
911.7742662216727
 20
252.7741275723229
 30
0.0
 10
872.4129691556537
 20
252.6112977408202
 30
0.0
 10
839.198196589849
 20
252.4147443348818
 30
0.0
 10
812.1040523461937
 20
252.2208737943379
 30
0.0
 10
785.0335740057434
 20
251.9986451444398
 30
0.0
 10
767.0153926879808
 20
251.8283344379363
 30
0.0
 10
758.0062959295301
 20
251.7431790270304
 30
0.0
  0
LINE
  5
124
330
1F
100
AcDbEntity
  8
0
  6
Continuous
 62
     7
370
    15
100
AcDbLine
 10
1048.006293172815
 20
252.5525803007578
 30
0.0
 11
1047.983932117799
 21
252.6273394264674
 31
0.0
  0
SPLINE
  5
125
330
1F
100
AcDbEntity
  8
0
  6
Continuous
 62
     7
370
    15
100
AcDbSpline
210
0.0
220
0.0
230
1.0
 70
     8
 71
     3
 72
    12
 73
     8
 74
     0
 42
0.000000001
 43
0.00000001
 40
0.0
 40
0.0
 40
0.0
 40
0.0
 40
0.2145938345402732
 40
0.4291865951440457
 40
0.6438168268084101
 40
0.8585237831007063
 40
0.9999999999999999
 40
0.9999999999999999
 40
0.9999999999999999
 40
0.9999999999999999
 10
1072.509860428849
 20
470.4571147244816
 30
0.0
 10
1072.510165285318
 20
470.56950717475
 30
0.0
 10
1072.510774996731
 20
470.7942915128177
 30
0.0
 10
1072.515517488701
 20
471.0938929862378
 30
0.0
 10
1072.522452409032
 20
471.320050522647
 30
0.0
 10
1072.530083062489
 20
471.4400030177721
 30
0.0
 10
1072.535077695429
 20
471.4522502706098
 30
0.0
 10
1072.537061567285
 20
471.4571148883944
 30
0.0
  0
LINE
  5
126
330
1F
100
AcDbEntity
  8
0
  6
Continuous
 62
     7
370
    15
100
AcDbLine
 10
1072.509860428849
 20
423.9571133889651
 30
0.0
 11
1072.509860428849
 21
470.4571147244816
 31
0.0
  0
SPLINE
  5
127
330
1F
100
AcDbEntity
  8
0
  6
Continuous
 62
     7
370
    15
100
AcDbSpline
210
0.0
220
0.0
230
1.0
 70
     8
 71
     3
 72
    12
 73
     8
 74
     0
 42
0.000000001
 43
0.00000001
 40
0.0
 40
0.0
 40
0.0
 40
0.0
 40
0.2147915682534427
 40
0.4295852457783825
 40
0.6443456315106452
 40
0.8590316864854272
 40
1.0
 40
1.0
 40
1.0
 40
1.0
 10
1072.537061567285
 20
422.9571150876974
 30
0.0
 10
1072.534037175423
 20
422.9681762228927
 30
0.0
 10
1072.527988361998
 20
422.9902986019047
 30
0.0
 10
1072.519827778971
 20
423.1628021970694
 30
0.0
 10
1072.513629830823
 20
423.4166784660769
 30
0.0
 10
1072.510330438941
 20
423.6978324169044
 30
0.0
 10
1072.509993843073
 20
423.8835154590229
 30
0.0
 10
1072.509860428849
 20
423.9571133889651
 30
0.0
  0
LINE
  5
128
330
1F
100
AcDbEntity
  8
0
  6
Continuous
 62
     7
370
    15
100
AcDbLine
 10
1072.941568489054
 20
422.9571150876974
 30
0.0
 11
1072.537061567285
 21
422.9571150876974
 31
0.0
  0
SPLINE
  5
129
330
1F
100
AcDbEntity
  8
0
  6
Continuous
 62
     7
370
    15
100
AcDbSpline
210
0.0
220
0.0
230
1.0
 70
     8
 71
     3
 72
    12
 73
     8
 74
     0
 42
0.000000001
 43
0.00000001
 40
0.0
 40
0.0
 40
0.0
 40
0.0
 40
0.214680355399632
 40
0.4293652979464345
 40
0.6440482313378854
 40
0.8587433294563138
 40
0.9999999999999999
 40
0.9999999999999999
 40
0.9999999999999999
 40
0.9999999999999999
 10
1072.951143416443
 20
423.9571133889651
 30
0.0
 10
1072.951042321729
 20
423.8446937526679
 30
0.0
 10
1072.950840130139
 20
423.6198520779655
 30
0.0
 10
1072.949244039246
 20
423.3201914322594
 30
0.0
 10
1072.946851323379
 20
423.094032391583
 30
0.0
 10
1072.944139991743
 20
422.9741900300008
 30
0.0
 10
1072.94229905169
 20
422.9619660703223
 30
0.0
 10
1072.941568489054
 20
422.9571150876974
 30
0.0
  0
LINE
  5
12A
330
1F
100
AcDbEntity
  8
0
  6
Continuous
 62
     7
370
    15
100
AcDbLine
 10
1072.951143416443
 20
470.4571147244816
 30
0.0
 11
1072.951143416443
 21
423.9571133889651
 31
0.0
  0
SPLINE
  5
12B
330
1F
100
AcDbEntity
  8
0
  6
Continuous
 62
     7
370
    15
100
AcDbSpline
210
0.0
220
0.0
230
1.0
 70
     8
 71
     3
 72
    12
 73
     8
 74
     0
 42
0.000000001
 43
0.00000001
 40
0.0
 40
0.0
 40
0.0
 40
0.0
 40
0.2147056023262728
 40
0.429410893633004
 40
0.6441123095827295
 40
0.858805887245373
 40
1.0
 40
1.0
 40
1.0
 40
1.0
 10
1072.941568489054
 20
471.4571148883944
 30
0.0
 10
1072.942679728439
 20
471.4460596990461
 30
0.0
 10
1072.944902205601
 20
471.4239493363639
 30
0.0
 10
1072.94776342957
 20
471.2515267788734
 30
0.0
 10
1072.949882629576
 20
470.9977633012836
 30
0.0
 10
1072.950986428232
 20
470.716595862559
 30
0.0
 10
1072.951098824565
 20
470.5308193116011
 30
0.0
 10
1072.951143416443
 20
470.4571147244816
 30
0.0
  0
LINE
  5
12C
330
1F
100
AcDbEntity
  8
0
  6
Continuous
 62
     7
370
    15
100
AcDbLine
 10
1072.537061567285
 20
471.4571148883944
 30
0.0
 11
1072.941568489054
 21
471.4571148883944
 31
0.0
  0
SPLINE
  5
12D
330
1F
100
AcDbEntity
  8
0
  6
Continuous
 62
     7
370
    15
100
AcDbSpline
210
0.0
220
0.0
230
1.0
 70
     8
 71
     3
 72
    17
 73
    13
 74
     0
 42
0.000000001
 43
0.00000001
 40
0.0
 40
0.0
 40
0.0
 40
0.0
 40
0.1254783881337938
 40
0.2509556238268275
 40
0.3348150559821279
 40
0.4186802375780952
 40
0.5025343609991612
 40
0.5853258941410178
 40
0.6681279489611062
 40
0.7509245118063448
 40
0.8754617040733543
 40
1.0
 40
1.0
 40
1.0
 40
1.0
 10
1067.660827231461
 20
622.2071165480112
 30
0.0
 10
1067.529801206454
 20
607.6079061465767
 30
0.0
 10
1067.267750359832
 20
578.4096194283529
 30
0.0
 10
1067.008171224745
 20
539.3577453753752
 30
0.0
 10
1066.839051880331
 20
505.1254370181464
 30
0.0
 10
1066.745977570509
 20
475.728534214097
 30
0.0
 10
1066.713369912245
 20
446.4423595423518
 30
0.0
 10
1066.749322238006
 20
417.2809892203169
 30
0.0
 10
1066.843485220331
 20
388.2575195639354
 30
0.0
 10
1067.012391507392
 20
354.3840791715714
 30
0.0
 10
1067.270547560519
 20
315.6762572416228
 30
0.0
 10
1067.530733623516
 20
286.6968669548818
 30
0.0
 10
1067.660827231461
 20
272.2071076073145
 30
0.0
  0
LINE
  5
12E
330
1F
100
AcDbEntity
  8
0
  6
Continuous
 62
     7
370
    15
100
AcDbLine
 10
737.5423524480848
 20
272.2071076073145
 30
0.0
 11
737.5629160505323
 21
272.2092235722041
 31
0.0
  0
LINE
  5
12F
330
1F
100
AcDbEntity
  8
0
  6
Continuous
 62
     7
370
    15
100
AcDbLine
 10
737.5629160505323
 20
622.2050154842829
 30
0.0
 11
737.5423524480848
 21
622.2071165480112
 31
0.0
  0
SPLINE
  5
130
330
1F
100
AcDbEntity
  8
0
  6
Continuous
 62
     7
370
    15
100
AcDbSpline
210
0.0
220
0.0
230
1.0
 70
     8
 71
     3
 72
    15
 73
    11
 74
     0
 42
0.000000001
 43
0.00000001
 40
0.0
 40
0.0
 40
0.0
 40
0.0
 40
0.1236912949159055
 40
0.2473989617294842
 40
0.3710869154421318
 40
0.495471236406753
 40
0.619876848907557
 40
0.7442623783466412
 40
0.8720922841917464
 40
1.0
 40
1.0
 40
1.0
 40
1.0
 10
737.5629160505322
 20
272.209223572204
 30
0.0
 10
737.6760110542099
 20
286.6023959457351
 30
0.0
 10
737.9022160309274
 20
315.3906457868092
 30
0.0
 10
738.1432419148313
 20
358.6764442037815
 30
0.0
 10
738.3000077249629
 20
402.0920459986502
 30
0.0
 10
738.3532363051478
 20
445.6215647401546
 30
0.0
 10
738.3057622614192
 20
489.2334337494996
 30
0.0
 10
738.1563222602533
 20
533.217837852181
 30
0.0
 10
737.9132908672683
 20
577.5615164775738
 30
0.0
 10
737.6797313434847
 20
607.3208309887328
 30
0.0
 10
737.5629160505323
 20
622.2050154842829
 30
0.0
  0
LINE
  5
131
330
1F
100
AcDbEntity
  8
0
  6
Continuous
 62
     7
370
    15
100
AcDbLine
 10
1047.983932117799
 20
641.7868847288584
 30
0.0
 11
1048.006293172815
 21
641.8616438545679
 31
0.0
  0
SPLINE
  5
132
330
1F
100
AcDbEntity
  8
0
  6
Continuous
 62
     7
370
    15
100
AcDbSpline
210
0.0
220
0.0
230
1.0
 70
     8
 71
     3
 72
    14
 73
    10
 74
     0
 42
0.000000001
 43
0.00000001
 40
0.0
 40
0.0
 40
0.0
 40
0.0
 40
0.1660797740874181
 40
0.3321849476140429
 40
0.4982577302589043
 40
0.6236772922827845
 40
0.7491276656563434
 40
0.8745790461497596
 40
1.0
 40
1.0
 40
1.0
 40
1.0
 10
758.0062959295301
 20
642.6710451282953
 30
0.0
 10
773.9934026274956
 20
642.5231773531242
 30
0.0
 10
805.9700610143767
 20
642.2274191885979
 30
0.0
 10
854.0826846549612
 20
641.8959924811962
 30
0.0
 10
898.3380301204687
 20
641.6858015274034
 30
0.0
 10
938.7014665038831
 20
641.5897427054468
 30
0.0
 10
975.1433811907231
 20
641.5794630217797
 30
0.0
 10
1011.582294553565
 20
641.6374704359428
 30
0.0
 10
1035.851034061258
 20
641.7370839917093
 30
0.0
 10
1047.983932117799
 20
641.7868847288584
 30
0.0
  0
LINE
  5
133
330
1F
100
AcDbEntity
  8
0
  6
Continuous
 62
     7
370
    15
100
AcDbLine
 10
757.9678807359724
 20
642.6176989712213
 30
0.0
 11
758.0062959295301
 21
642.6710451282953
 31
0.0
  0
SPLINE
  5
134
330
1F
100
AcDbEntity
  8
0
  6
Continuous
 62
     7
370
    15
100
AcDbSpline
210
0.0
220
0.0
230
1.0
 70
     8
 71
     3
 72
    20
 73
    16
 74
     0
 42
0.000000001
 43
0.00000001
 40
0.0
 40
0.0
 40
0.0
 40
0.0
 40
0.0478258752172161
 40
0.0857036786447789
 40
0.1255944083089408
 40
0.170432170615193
 40
0.2118797901806249
 40
0.2499385871104873
 40
0.335580703806011
 40
0.4182548531438746
 40
0.4998424988220825
 40
0.6249938681461147
 40
0.7499341400442625
 40
0.8737502369976134
 40
1.0
 40
1.0
 40
1.0
 40
1.0
 10
1034.085579956749
 20
610.1183856167291
 30
0.0
 10
1034.434171758876
 20
610.8523092840097
 30
0.0
 10
1035.058846156408
 20
612.1674960494314
 30
0.0
 10
1035.965549813773
 20
614.0758778067773
 30
0.0
 10
1036.842308791672
 20
615.9218015348729
 30
0.0
 10
1037.731055206039
 20
617.7973133777034
 30
0.0
 10
1038.590589399124
 20
619.6161823042808
 30
0.0
 10
1039.708154881684
 20
621.9896731283997
 30
0.0
 10
1041.050218306495
 20
624.8659752456791
 30
0.0
 10
1042.559848645532
 20
628.1537705823894
 30
0.0
 10
1044.148085439728
 20
631.6895610818488
 30
0.0
 10
1045.704214919903
 20
635.2847120245859
 30
0.0
 10
1047.003062959396
 20
638.5064773227568
 30
0.0
 10
1047.844271528383
 20
640.8557120184181
 30
0.0
 10
1047.937077522244
 20
641.4744865002564
 30
0.0
 10
1047.983932117799
 20
641.7868847288584
 30
0.0
  0
SPLINE
  5
135
330
1F
100
AcDbEntity
  8
0
  6
Continuous
 62
     7
370
    15
100
AcDbSpline
210
0.0
220
0.0
230
1.0
 70
     8
 71
     3
 72
    13
 73
     9
 74
     0
 42
0.000000001
 43
0.00000001
 40
0.0
 40
0.0
 40
0.0
 40
0.0
 40
0.1596466864645632
 40
0.3192925839170608
 40
0.4793213939308639
 40
0.6393514238577032
 40
0.8196202174102875
 40
1.0
 40
1.0
 40
1.0
 40
1.0
 10
1034.085579956749
 20
610.1183856167291
 30
0.0
 10
1019.961205090092
 20
610.0929599365687
 30
0.0
 10
991.7125251628132
 20
610.0421087019076
 30
0.0
 10
949.2769074326743
 20
610.0392202801426
 30
0.0
 10
906.8184271995434
 20
610.0777101800527
 30
0.0
 10
862.5710243057721
 20
610.1883606904056
 30
0.0
 10
816.5790939694973
 20
610.3887143009166
 30
0.0
 10
784.8081507579251
 20
610.6113699338429
 30
0.0
 10
768.9177904230146
 20
610.722732011268
 30
0.0
  0
SPLINE
  5
136
330
1F
100
AcDbEntity
  8
0
  6
Continuous
 62
     7
370
    15
100
AcDbSpline
210
0.0
220
0.0
230
1.0
 70
     8
 71
     3
 72
    22
 73
    18
 74
     0
 42
0.000000001
 43
0.00000001
 40
0.0
 40
0.0
 40
0.0
 40
0.0
 40
0.104020057620906
 40
0.1872816254859117
 40
0.2497636317608511
 40
0.2953705196008208
 40
0.3393893636293428
 40
0.3818251874870532
 40
0.4226839226191933
 40
0.4619725339991525
 40
0.4996982770489445
 40
0.5668034783480004
 40
0.6324723525277518
 40
0.6967701569444849
 40
0.7597665687596394
 40
0.8820171610912846
 40
0.9999999999999999
 40
0.9999999999999999
 40
0.9999999999999999
 40
0.9999999999999999
 10
768.9177904230146
 20
610.722732011268
 30
0.0
 10
768.2244114633834
 20
612.3261205472504
 30
0.0
 10
766.976025896143
 20
615.2129215947814
 30
0.0
 10
765.4007927317718
 20
618.9520507114014
 30
0.0
 10
764.2457958198708
 20
621.7336889371965
 30
0.0
 10
763.3797470602066
 20
623.8872905168547
 30
0.0
 10
762.6618015091307
 20
625.7072575039424
 30
0.0
 10
762.0050381447215
 20
627.4096029814788
 30
0.0
 10
761.4075641213893
 20
628.9946150904739
 30
0.0
 10
760.8681538658391
 20
630.4638511378511
 30
0.0
 10
760.2534144129348
 20
632.1899073167449
 30
0.0
 10
759.6055919448463
 20
634.1114855854564
 30
0.0
 10
758.9798718110485
 20
636.1279339425047
 30
0.0
 10
758.4885677364379
 20
637.8858092313212
 30
0.0
 10
758.0189489444076
 20
639.8444079596845
 30
0.0
 10
757.7122680728913
 20
641.7087888446712
 30
0.0
 10
757.8836916296574
 20
642.3183384843327
 30
0.0
 10
757.9678807359724
 20
642.6176989712213
 30
0.0
  0
SPLINE
  5
137
330
1F
100
AcDbEntity
  8
0
  6
Continuous
 62
     7
370
    15
100
AcDbSpline
210
0.0
220
0.0
230
1.0
 70
     8
 71
     3
 72
    20
 73
    16
 74
     0
 42
0.000000001
 43
0.00000001
 40
0.0
 40
0.0
 40
0.0
 40
0.0
 40
0.1180104683413228
 40
0.2402897111094763
 40
0.3674749861562693
 40
0.5001404601738038
 40
0.5573301148341296
 40
0.6180375827142098
 40
0.6822861220628651
 40
0.7500959911412334
 40
0.7850840092219045
 40
0.827569488041503
 40
0.8775529075823503
 40
0.9350305083520603
 40
1.0
 40
1.0
 40
1.0
 40
1.0
 10
737.5629160505323
 20
622.2050154842829
 30
0.0
 10
737.8301092519304
 20
622.2567098802134
 30
0.0
 10
738.3741607930925
 20
622.3619686054665
 30
0.0
 10
740.5295573410717
 20
621.898287282114
 30
0.0
 10
743.6895083611986
 20
620.9619787613711
 30
0.0
 10
747.0636297174467
 20
619.7813939760437
 30
0.0
 10
750.0505416476086
 20
618.6464441841342
 30
0.0
 10
752.3564785392738
 20
617.7413983918512
 30
0.0
 10
754.9273008264345
 20
616.7043544537086
 30
0.0
 10
757.2581014859522
 20
615.7426347148162
 30
0.0
 10
759.3389189952607
 20
614.8633790377282
 30
0.0
 10
761.1977699004016
 20
614.0690319404142
 30
0.0
 10
763.427220035679
 20
613.1109055003433
 30
0.0
 10
766.0355741677251
 20
611.9842222285549
 30
0.0
 10
767.9186465859887
 20
611.1600379121551
 30
0.0
 10
768.9177904230146
 20
610.722732011268
 30
0.0
  0
SPLINE
  5
138
330
1F
100
AcDbEntity
  8
0
  6
Continuous
 62
     7
370
    15
100
AcDbSpline
210
0.0
220
0.0
230
1.0
 70
     8
 71
     3
 72
    15
 73
    11
 74
     0
 42
0.000000001
 43
0.00000001
 40
0.0
 40
0.0
 40
0.0
 40
0.0
 40
0.1166561000390211
 40
0.2333587329887798
 40
0.3608164823279185
 40
0.4882912198520309
 40
0.6157479359517671
 40
0.7438252295269292
 40
0.8719200678230404
 40
1.0
 40
1.0
 40
1.0
 40
1.0
 10
768.9177904230146
 20
610.722732011268
 30
0.0
 10
768.9902021065556
 20
598.0327592177766
 30
0.0
 10
769.1350543579085
 20
572.647751732007
 30
0.0
 10
769.2811724708189
 20
533.3248267943947
 30
0.0
 10
769.3739054374503
 20
492.7841246196003
 30
0.0
 10
769.4064551325355
 20
451.0439296864996
 30
0.0
 10
769.3830218583156
 20
409.2337274419044
 30
0.0
 10
769.2993313511606
 20
367.3787625261053
 30
0.0
 10
769.1531775485234
 20
325.4933044026412
 30
0.0
 10
768.9962497544491
 20
297.62488903427
 30
0.0
 10
768.9177904230146
 20
283.6914921440577
 30
0.0
  0
SPLINE
  5
139
330
1F
100
AcDbEntity
  8
0
  6
Continuous
 62
     7
370
    15
100
AcDbSpline
210
0.0
220
0.0
230
1.0
 70
     8
 71
     3
 72
    23
 73
    19
 74
     0
 42
0.000000001
 43
0.00000001
 40
0.0
 40
0.0
 40
0.0
 40
0.0
 40
0.0841423549243107
 40
0.1671468539085733
 40
0.2502009154936802
 40
0.3328889182608311
 40
0.4159968094037677
 40
0.500355592281361
 40
0.561100064367129
 40
0.624697064895956
 40
0.6852526919535818
 40
0.7501957737320537
 40
0.7882233406500594
 40
0.8296467307373436
 40
0.8744656726892519
 40
0.9143461387891358
 40
0.9519405506013089
 40
1.0
 40
1.0
 40
1.0
 40
1.0
 10
737.5629160505322
 20
272.209223572204
 30
0.0
 10
737.7326536943873
 20
272.1611784654967
 30
0.0
 10
738.0698336222105
 20
272.0657379654172
 30
0.0
 10
739.2136902052536
 20
272.2200055774198
 30
0.0
 10
740.779149966828
 20
272.584971479582
 30
0.0
 10
742.7821614978601
 20
273.1711363598839
 30
0.0
 10
745.1783090439053
 20
273.9665978535696
 30
0.0
 10
747.6773959965233
 20
274.8663001955447
 30
0.0
 10
750.1730121617891
 20
275.8133000966617
 30
0.0
 10
752.5262176292724
 20
276.7378138854738
 30
0.0
 10
755.0574263324864
 20
277.7621951129616
 30
0.0
 10
757.3409842312491
 20
278.7074729130831
 30
0.0
 10
759.4128809248264
 20
279.5798499871668
 30
0.0
 10
761.2295564081139
 20
280.3525652479372
 30
0.0
 10
763.1050438384812
 20
281.1578195832691
 30
0.0
 10
764.9486858544432
 20
281.9563695124443
 30
0.0
 10
766.8598871899528
 20
282.7886857359222
 30
0.0
 10
768.178135591002
 20
283.3670040381929
 30
0.0
 10
768.9177904230145
 20
283.6914921440576
 30
0.0
  0
SPLINE
  5
13A
330
1F
100
AcDbEntity
  8
0
  6
Continuous
 62
     7
370
    15
100
AcDbSpline
210
0.0
220
0.0
230
1.0
 70
     8
 71
     3
 72
    20
 73
    16
 74
     0
 42
0.000000001
 43
0.00000001
 40
0.0
 40
0.0
 40
0.0
 40
0.0
 40
0.1180126602689208
 40
0.2402937332572596
 40
0.367478409697569
 40
0.5001391257776173
 40
0.5573306751476367
 40
0.6180394281697452
 40
0.682288585586475
 40
0.750097295365525
 40
0.7850904507017633
 40
0.8275796489009462
 40
0.8775627669048053
 40
0.9350376002814178
 40
1.0
 40
1.0
 40
1.0
 40
1.0
 10
757.9678807359724
 20
251.7965251841044
 30
0.0
 10
757.8838807492143
 20
252.0963313465461
 30
0.0
 10
757.7128425710592
 20
252.7067873930624
 30
0.0
 10
758.0813998054157
 20
254.9586264112637
 30
0.0
 10
758.9272849393556
 20
258.2102693378595
 30
0.0
 10
760.0424473866699
 20
261.6507648213712
 30
0.0
 10
761.132322618794
 20
264.683440257521
 30
0.0
 10
762.0076484368336
 20
267.0196474559935
 30
0.0
 10
763.0167316833001
 20
269.6189135579896
 30
0.0
 10
763.9576001112772
 20
271.9710356974887
 30
0.0
 10
764.8209947462086
 20
274.0681178499843
 30
0.0
 10
765.6030614237739
 20
275.9397103681059
 30
0.0
 10
766.5488504120249
 20
278.181752388924
 30
0.0
 10
767.6640190272037
 20
280.8016751176074
 30
0.0
 10
768.4831684477873
 20
282.6897321834479
 30
0.0
 10
768.9177904230146
 20
283.6914921440577
 30
0.0
  0
SPLINE
  5
13B
330
1F
100
AcDbEntity
  8
0
  6
Continuous
 62
     7
370
    15
100
AcDbSpline
210
0.0
220
0.0
230
1.0
 70
     8
 71
     3
 72
    13
 73
     9
 74
     0
 42
0.000000001
 43
0.00000001
 40
0.0
 40
0.0
 40
0.0
 40
0.0
 40
0.180287854704533
 40
0.3606835304151449
 40
0.5203237587215095
 40
0.6799626974057821
 40
0.839980956185969
 40
1.0
 40
1.0
 40
1.0
 40
1.0
 10
768.9177904230146
 20
283.6914921440577
 30
0.0
 10
784.8000464374904
 20
283.8028026374582
 30
0.0
 10
816.5740568368402
 20
284.0254901934098
 30
0.0
 10
862.5346443437352
 20
284.225706178469
 30
0.0
 10
906.724251020183
 20
284.3363283388711
 30
0.0
 10
949.1465811707517
 20
284.3749517650084
 30
0.0
 10
991.61366176797
 20
284.3722614835988
 30
0.0
 10
1019.928250742448
 20
284.3213128952553
 30
0.0
 10
1034.085579956749
 20
284.2958385385966
 30
0.0
  0
SPLINE
  5
13C
330
1F
100
AcDbEntity
  8
0
  6
Continuous
 62
     7
370
    15
100
AcDbSpline
210
0.0
220
0.0
230
1.0
 70
     8
 71
     3
 72
    23
 73
    19
 74
     0
 42
0.000000001
 43
0.00000001
 40
0.0
 40
0.0
 40
0.0
 40
0.0
 40
0.0840870647737791
 40
0.1670643584405236
 40
0.2501755654890257
 40
0.3328613208244263
 40
0.4159615034557379
 40
0.5003408452486533
 40
0.561015700642052
 40
0.6246922866788726
 40
0.6852262287720687
 40
0.7501800327480761
 40
0.7882163444912612
 40
0.8296441488169268
 40
0.8744650879125765
 40
0.9143297086312528
 40
0.9519873502386803
 40
1.0
 40
1.0
 40
1.0
 40
1.0
 10
1047.983932117799
 20
252.6273394264674
 30
0.0
 10
1047.964923466683
 20
252.809464457044
 30
0.0
 10
1047.927157038374
 20
253.1713108536462
 30
0.0
 10
1047.556440068084
 20
254.3586725980805
 30
0.0
 10
1046.968507927916
 20
255.9697604151073
 30
0.0
 10
1046.154731643145
 20
258.018655052373
 30
0.0
 10
1045.130556440339
 20
260.4575366667482
 30
0.0
 10
1044.026072354502
 20
262.9899796898691
 30
0.0
 10
1042.896818650582
 20
265.5116806808545
 30
0.0
 10
1041.816524848146
 20
267.883229092356
 30
0.0
 10
1040.639115710512
 20
270.4296327922891
 30
0.0
 10
1039.568453733028
 20
272.7213485696687
 30
0.0
 10
1038.590638591543
 20
274.7979359083396
 30
0.0
 10
1037.731119676326
 20
276.6167806537788
 30
0.0
 10
1036.842389734643
 20
278.4922485109108
 30
0.0
 10
1035.967102277164
 20
280.3350849927788
 30
0.0
 10
1035.060406409173
 20
282.2434033594254
 30
0.0
 10
1034.435691950416
 20
283.558699973404
 30
0.0
 10
1034.085579956749
 20
284.2958385385966
 30
0.0
  0
LINE
  5
13D
330
1F
100
AcDbEntity
  8
0
  6
Continuous
 62
     7
370
    15
100
AcDbLine
 10
758.0062959295301
 20
251.7431790270304
 30
0.0
 11
757.9678807359724
 21
251.7965251841044
 31
0.0
  0
LINE
  5
13E
330
1F
100
AcDbEntity
  8
0
  6
Continuous
 62
     7
370
    15
100
AcDbLine
 10
1067.445393926331
 20
272.1034849323725
 30
0.0
 11
1067.660827231461
 21
272.2071076073145
 31
0.0
  0
SPLINE
  5
13F
330
1F
100
AcDbEntity
  8
0
  6
Continuous
 62
     7
370
    15
100
AcDbSpline
210
0.0
220
0.0
230
1.0
 70
     8
 71
     3
 72
    20
 73
    16
 74
     0
 42
0.000000001
 43
0.00000001
 40
0.0
 40
0.0
 40
0.0
 40
0.0
 40
0.0480190103630512
 40
0.0857083788662962
 40
0.1255889427173315
 40
0.1704312151453754
 40
0.2118788095628528
 40
0.2499321837378866
 40
0.3355772902248224
 40
0.4182535914899606
 40
0.4998469329634734
 40
0.6250062913616273
 40
0.7499510605366054
 40
0.8737642509981769
 40
1.0
 40
1.0
 40
1.0
 40
1.0
 10
1034.085579956749
 20
284.2958385385966
 30
0.0
 10
1034.827985025796
 20
283.9520564770191
 30
0.0
 10
1036.153092195832
 20
283.3384452643275
 30
0.0
 10
1038.08309193489
 20
282.4552798118545
 30
0.0
 10
1039.951838691879
 20
281.6072766310107
 30
0.0
 10
1041.859416773241
 20
280.752334744978
 30
0.0
 10
1043.715382970199
 20
279.9314165278411
 30
0.0
 10
1046.144740980711
 20
278.8716636210598
 30
0.0
 10
1049.103682310279
 20
277.6143901302304
 30
0.0
 10
1052.512131383433
 20
276.2273271849975
 30
0.0
 10
1056.209898261802
 20
274.8027509811223
 30
0.0
 10
1060.021508988375
 20
273.4640735001333
 30
0.0
 10
1063.52392662358
 20
272.4459296628706
 30
0.0
 10
1066.183039088867
 20
271.9136573824507
 30
0.0
 10
1067.021899924852
 20
272.0398017061342
 30
0.0
 10
1067.445393926331
 20
272.1034849323725
 30
0.0
  0
SPLINE
  5
140
330
1F
100
AcDbEntity
  8
0
  6
Continuous
 62
     7
370
    15
100
AcDbSpline
210
0.0
220
0.0
230
1.0
 70
     8
 71
     3
 72
    15
 73
    11
 74
     0
 42
0.000000001
 43
0.00000001
 40
0.0
 40
0.0
 40
0.0
 40
0.0
 40
0.1255016370868414
 40
0.2510021377045887
 40
0.3767604952590775
 40
0.5025137194104233
 40
0.6267425646297453
 40
0.750976297354527
 40
0.8754876006297064
 40
1.0
 40
1.0
 40
1.0
 40
1.0
 10
1034.085579956749
 20
284.2958385385966
 30
0.0
 10
1033.997107017366
 20
297.8959037650966
 30
0.0
 10
1033.82016193976
 20
325.095911063896
 30
0.0
 10
1033.680338730024
 20
366.0058641511477
 30
0.0
 10
1033.697210996314
 20
406.9857484363168
 30
0.0
 10
1033.756631300016
 20
447.861851898407
 30
0.0
 10
1033.695439261902
 20
488.571252380925
 30
0.0
 10
1033.682172784387
 20
529.1112092188184
 30
0.0
 10
1033.822038784316
 20
569.6400817153427
 30
0.0
 10
1033.997732641495
 20
596.6255780567553
 30
0.0
 10
1034.085579956749
 20
610.1183856167291
 30
0.0
  0
SPLINE
  5
141
330
1F
100
AcDbEntity
  8
0
  6
Continuous
 62
     7
370
    15
100
AcDbSpline
210
0.0
220
0.0
230
1.0
 70
     8
 71
     3
 72
    22
 73
    18
 74
     0
 42
0.000000001
 43
0.00000001
 40
0.0
 40
0.0
 40
0.0
 40
0.0
 40
0.1041435519449323
 40
0.1874098205832263
 40
0.2497779594321699
 40
0.2954182741575851
 40
0.3394568958002398
 40
0.3818996181700016
 40
0.4227528739995966
 40
0.462024076970389
 40
0.4997217055674185
 40
0.5669578492978462
 40
0.6327027378574502
 40
0.6970293698528797
 40
0.7600155826721041
 40
0.8821618994436009
 40
1.0
 40
1.0
 40
1.0
 40
1.0
 10
1034.085579956749
 20
610.1183856167291
 30
0.0
 10
1035.696382002612
 20
610.8597858790838
 30
0.0
 10
1038.595074401446
 20
612.1939605596413
 30
0.0
 10
1042.377731431002
 20
613.8886830400074
 30
0.0
 10
1045.204480638646
 20
615.1364823198118
 30
0.0
 10
1047.403352753668
 20
616.076658933923
 30
0.0
 10
1049.270506257023
 20
616.8596730140267
 30
0.0
 10
1051.023674341723
 20
617.5787926566619
 30
0.0
 10
1052.662473453802
 20
618.2357005729444
 30
0.0
 10
1054.187817333365
 20
618.8315395667863
 30
0.0
 10
1055.989943729421
 20
619.5150180670884
 30
0.0
 10
1058.011018501617
 20
620.2420977073938
 30
0.0
 10
1060.153505901371
 20
620.9546897947606
 30
0.0
 10
1062.042168225508
 20
621.5250387613461
 30
0.0
 10
1064.176811244213
 20
622.0876823385835
 30
0.0
 10
1066.267104805676
 20
622.4928484426873
 30
0.0
 10
1067.057359789449
 20
622.3707114255808
 30
0.0
 10
1067.445393926331
 20
622.3107392229533
 30
0.0
  0
LINE
  5
142
330
1F
100
AcDbEntity
  8
0
  6
Continuous
 62
     7
370
    15
100
AcDbLine
 10
1067.660827231461
 20
622.2071165480112
 30
0.0
 11
1067.445393926331
 21
622.3107392229532
 31
0.0
  0
SPLINE
  5
143
330
1F
100
AcDbEntity
  8
0
  6
Continuous
 62
     7
370
    15
100
AcDbSpline
210
0.0
220
0.0
230
1.0
 70
     8
 71
     3
 72
    15
 73
    11
 74
     0
 42
0.000000001
 43
0.00000001
 40
0.0
 40
0.0
 40
0.0
 40
0.0
 40
0.1250384248144803
 40
0.2500419738585062
 40
0.3750271793955315
 40
0.5000005800671706
 40
0.6249694620951515
 40
0.7499564377435137
 40
0.8749643515461367
 40
1.0
 40
1.0
 40
1.0
 40
1.0
 10
737.5629160505323
 20
622.2050154842829
 30
0.0
 10
737.6486495817732
 20
623.5332107671026
 30
0.0
 10
737.8200927314223
 20
626.1892308719505
 30
0.0
 10
739.0481473788228
 20
630.0229095449938
 30
0.0
 10
740.9406650561806
 20
633.5603527504741
 30
0.0
 10
743.4971401262341
 20
636.6651265895604
 30
0.0
 10
746.6017754036627
 20
639.2236226160243
 30
0.0
 10
750.1409964650442
 20
641.1199584581161
 30
0.0
 10
753.9781679689485
 20
642.3533907493568
 30
0.0
 10
756.6378781425875
 20
642.5295897159792
 30
0.0
 10
757.9678807359724
 20
642.6176989712213
 30
0.0
  0
SPLINE
  5
144
330
1F
100
AcDbEntity
  8
0
  6
Continuous
 62
     7
370
    15
100
AcDbSpline
210
0.0
220
0.0
230
1.0
 70
     8
 71
     3
 72
    15
 73
    11
 74
     0
 42
0.000000001
 43
0.00000001
 40
0.0
 40
0.0
 40
0.0
 40
0.0
 40
0.1250360744221435
 40
0.2500443351859433
 40
0.3750307735186267
 40
0.4999994895100893
 40
0.624972704172668
 40
0.7499583913832545
 40
0.8749615453312193
 40
1.0
 40
1.0
 40
1.0
 40
1.0
 10
737.5629160505323
 20
272.2092235722041
 30
0.0
 10
737.6486547257726
 20
270.8810542587926
 30
0.0
 10
737.8201130041077
 20
268.2250110766857
 30
0.0
 10
739.0481527927824
 20
264.3912853176532
 30
0.0
 10
740.940693873655
 20
260.8538361322211
 30
0.0
 10
743.497175236234
 20
257.7490565536965
 30
0.0
 10
746.6018169781989
 20
255.1905903149768
 30
0.0
 10
750.1410247979237
 20
253.2942731644679
 30
0.0
 10
753.9781560516935
 20
252.0608303030336
 30
0.0
 10
756.6378473433514
 20
251.8846351821205
 30
0.0
 10
757.9678807359724
 20
251.7965251841044
 30
0.0
  0
SPLINE
  5
145
330
1F
100
AcDbEntity
  8
0
  6
Continuous
 62
     7
370
    15
100
AcDbSpline
210
0.0
220
0.0
230
1.0
 70
     8
 71
     3
 72
    15
 73
    11
 74
     0
 42
0.000000001
 43
0.00000001
 40
0.0
 40
0.0
 40
0.0
 40
0.0
 40
0.1251105655983124
 40
0.2501297232082402
 40
0.3750838867862869
 40
0.4999993844468658
 40
0.6249191423345785
 40
0.7498725441360268
 40
0.874887403951847
 40
1.0
 40
1.0
 40
1.0
 40
1.0
 10
1067.445393926331
 20
622.3107392229532
 30
0.0
 10
1067.351979945551
 20
623.5786437195889
 30
0.0
 10
1067.165220233894
 20
626.1135263594465
 30
0.0
 10
1065.971657591464
 20
629.768171782046
 30
0.0
 10
1064.154744827423
 20
633.1383832122971
 30
0.0
 10
1061.715548620975
 20
636.0958385556088
 30
0.0
 10
1058.763092251615
 20
638.5341148073346
 30
0.0
 10
1055.403714248134
 20
640.3440612653716
 30
0.0
 10
1051.765015417007
 20
641.525360193434
 30
0.0
 10
1049.244621495246
 20
641.6996871778761
 30
0.0
 10
1047.983932117799
 20
641.7868847288584
 30
0.0
  0
SPLINE
  5
146
330
1F
100
AcDbEntity
  8
0
  6
Continuous
 62
     7
370
    15
100
AcDbSpline
210
0.0
220
0.0
230
1.0
 70
     8
 71
     3
 72
    15
 73
    11
 74
     0
 42
0.000000001
 43
0.00000001
 40
0.0
 40
0.0
 40
0.0
 40
0.0
 40
0.1251101403874252
 40
0.2501296903954568
 40
0.375083828179452
 40
0.4999992143870865
 40
0.6249189622796656
 40
0.7498723832948639
 40
0.8748874016631991
 40
1.0
 40
1.0
 40
1.0
 40
1.0
 10
1047.983932117799
 20
252.6273394264674
 30
0.0
 10
1049.244595113398
 20
252.7145422031002
 30
0.0
 10
1051.765008277397
 20
252.8888846141411
 30
0.0
 10
1055.403746459938
 20
254.0701640594223
 30
0.0
 10
1058.763115803819
 20
255.8801502671358
 30
0.0
 10
1061.715586738856
 20
258.3184127560069
 30
0.0
 10
1064.154765343925
 20
261.275874405711
 30
0.0
 10
1065.97167033513
 20
264.6460809180573
 30
0.0
 10
1067.165211468039
 20
268.3007003279632
 30
0.0
 10
1067.351975486729
 20
270.8355604304115
 30
0.0
 10
1067.445393926331
 20
272.1034849323725
 30
0.0
  0
CIRCLE
  5
147
330
1F
100
AcDbEntity
  8
0
  6
Continuous
 62
     7
370
    15
100
AcDbCircle
 10
963.0062937062935
 20
447.2071147802226
 30
0.0
 40
69.99999999999909
  0
CIRCLE
  5
148
330
1F
100
AcDbEntity
  8
0
  6
Continuous
 62
     7
370
    15
100
AcDbCircle
 10
963.0062937062935
 20
447.2071147802226
 30
0.0
 40
63.73194421635662
  0
CIRCLE
  5
149
330
1F
100
AcDbEntity
  8
0
  6
Continuous
 62
     7
370
    15
100
AcDbCircle
 10
963.0062937062935
 20
447.2071147802226
 30
0.0
 40
63.11249494977801
  0
CIRCLE
  5
14A
330
1F
100
AcDbEntity
  8
0
  6
Continuous
 62
     7
370
    15
100
AcDbCircle
 10
963.0062937062935
 20
447.2071147802226
 30
0.0
 40
58.61177143234613
  0
CIRCLE
  5
14B
330
1F
100
AcDbEntity
  8
0
  6
Continuous
 62
     7
370
    15
100
AcDbCircle
 10
963.0062937062935
 20
447.2071147802226
 30
0.0
 40
57.5
  0
CIRCLE
  5
14C
330
1F
100
AcDbEntity
  8
0
  6
Continuous
 62
     7
370
    15
100
AcDbCircle
 10
963.0062937062935
 20
447.2071147802226
 30
0.0
 40
56.58715574274777
  0
CIRCLE
  5
14D
330
1F
100
AcDbEntity
  8
0
  6
Continuous
 62
     7
370
    15
100
AcDbCircle
 10
963.0062937062935
 20
447.2071147802226
 30
0.0
 40
45.0
  0
LINE
  5
14E
330
1F
100
AcDbEntity
  8
0
  6
Continuous
 62
     7
370
    15
100
AcDbLine
 10
1117.53382421551
 20
632.6220149435495
 30
0.0
 11
1092.636347557285
 21
657.5195009150003
 31
0.0
  0
LWPOLYLINE
  5
14F
330
1F
100
AcDbEntity
  8
0
  6
Continuous
 62
     7
370
    15
100
AcDbPolyline
 90
        9
 70
   128
 43
0.0
 10
1092.636347557285
 20
657.5195009150003
 10
1092.725395033935
 20
657.6085353531336
 10
1092.843302334526
 20
657.7264482416605
 10
1092.9873276454
 20
657.870467964599
 10
1093.154114479998
 20
658.0372566618418
 10
1093.339782948473
 20
658.2229251303171
 10
1093.54001171408
 20
658.4231520332788
 10
1093.75013857601
 20
658.6332882084345
 10
1093.965274090746
 20
658.84841627259
  0
LINE
  5
150
330
1F
100
AcDbEntity
  8
0
  6
Continuous
 62
     7
370
    15
100
AcDbLine
 10
1093.965274090746
 20
658.84841627259
 30
0.0
 11
1118.862747023681
 21
633.9509452023004
 31
0.0
  0
LWPOLYLINE
  5
151
330
1F
100
AcDbEntity
  8
0
  6
Continuous
 62
     7
370
    15
100
AcDbPolyline
 90
        9
 70
   128
 43
0.0
 10
1117.53382421551
 20
632.6220149435495
 10
1117.622869829514
 20
632.711064282844
 10
1117.740778992751
 20
632.8289771713709
 10
1117.88480244098
 20
632.9729968943094
 10
1118.051587412932
 20
633.1397855915521
 10
1118.237259606698
 20
633.3254540600275
 10
1118.43748650966
 20
633.5256809629892
 10
1118.647615234235
 20
633.7358171381449
 10
1118.862747023681
 20
633.9509452023004
  0
LINE
  5
152
330
1F
100
AcDbEntity
  8
0
  6
Continuous
 62
     7
370
    15
100
AcDbLine
 10
710.9058711629896
 20
246.3094407953715
 30
0.0
 11
710.9058711629896
 21
648.1094474234079
 31
0.0
  0
LINE
  5
153
330
1F
100
AcDbEntity
  8
0
  6
Continuous
 62
     7
370
    15
100
AcDbLine
 10
710.9058711629896
 20
648.1094474234079
 30
0.0
 11
712.7852652174024
 21
648.1094474234079
 31
0.0
  0
LINE
  5
154
330
1F
100
AcDbEntity
  8
0
  6
Continuous
 62
     7
370
    15
100
AcDbLine
 10
712.7852652174024
 20
648.1094474234079
 30
0.0
 11
712.7852652174024
 21
246.3094407953715
 31
0.0
  0
LINE
  5
155
330
1F
100
AcDbEntity
  8
0
  6
Continuous
 62
     7
370
    15
100
AcDbLine
 10
710.9058711629896
 20
246.3094407953715
 30
0.0
 11
712.7852652174024
 21
246.3094407953715
 31
0.0
  0
ARC
  5
156
330
1F
100
AcDbEntity
  8
0
  6
Continuous
 62
     7
370
    15
100
AcDbCircle
 10
1068.226293706294
 20
633.1094405594405
 30
0.0
 40
34.52102983484787
100
AcDbArc
 50
44.99999999999947
 51
90.0
  0
LINE
  5
157
330
1F
100
AcDbEntity
  8
0
  6
Continuous
 62
     7
370
    15
100
AcDbLine
 10
1068.226293935308
 20
667.6304752268289
 30
0.0
 11
1068.226293935308
 21
669.5098543800806
 31
0.0
  0
ARC
  5
158
330
1F
100
AcDbEntity
  8
0
  6
Continuous
 62
     7
370
    15
100
AcDbCircle
 10
1068.226293706294
 20
633.1094405594405
 30
0.0
 40
36.40041507641946
100
AcDbArc
 50
44.99999999999987
 51
90.0
  0
ARC
  5
159
330
1F
100
AcDbEntity
  8
0
  6
Continuous
 62
     7
370
    15
100
AcDbCircle
 10
732.3062937062938
 20
648.1094405594405
 30
0.0
 40
21.40041507641945
100
AcDbArc
 50
90.0
 51
180.0
  0
LINE
  5
15A
330
1F
100
AcDbEntity
  8
0
  6
Continuous
 62
     7
370
    15
100
AcDbLine
 10
732.3062930208234
 20
669.5098543800806
 30
0.0
 11
732.3062930208234
 21
667.6304752268289
 31
0.0
  0
ARC
  5
15B
330
1F
100
AcDbEntity
  8
0
  6
Continuous
 62
     7
370
    15
100
AcDbCircle
 10
732.3062937062938
 20
648.1094405594405
 30
0.0
 40
19.5210298348477
100
AcDbArc
 50
90.0
 51
180.0
  0
LINE
  5
15C
330
1F
100
AcDbEntity
  8
0
  6
Continuous
 62
     7
370
    15
100
AcDbLine
 10
1068.226293935308
 20
667.6304752268289
 30
0.0
 11
732.3062930208234
 21
667.6304752268289
 31
0.0
  0
LINE
  5
15D
330
1F
100
AcDbEntity
  8
0
  6
Continuous
 62
     7
370
    15
100
AcDbLine
 10
732.3062930208234
 20
669.5098543800806
 30
0.0
 11
1068.226293935308
 21
669.5098543800806
 31
0.0
  0
LINE
  5
15E
330
1F
100
AcDbEntity
  8
0
  6
Continuous
 62
     7
370
    15
100
AcDbLine
 10
718.7063012224226
 20
208.6907441057658
 30
0.0
 11
1292.706287274936
 21
208.6907441057658
 31
0.0
  0
LINE
  5
15F
330
1F
100
AcDbEntity
  8
0
  6
Continuous
 62
     7
370
    15
100
AcDbLine
 10
1292.706287274936
 20
208.6907441057658
 30
0.0
 11
1292.706287274936
 21
207.7094430365061
 31
0.0
  0
LINE
  5
160
330
1F
100
AcDbEntity
  8
0
  6
Continuous
 62
     7
370
    15
100
AcDbLine
 10
1292.706287274936
 20
207.7094430365061
 30
0.0
 11
718.7063012224226
 21
207.7094430365061
 31
0.0
  0
LINE
  5
161
330
1F
100
AcDbEntity
  8
0
  6
Continuous
 62
     7
370
    15
100
AcDbLine
 10
718.7063012224226
 20
207.7094430365061
 30
0.0
 11
718.7063012224226
 21
208.6907441057658
 31
0.0
  0
ARC
  5
162
330
1F
100
AcDbEntity
  8
0
  6
Continuous
 62
     7
370
    15
100
AcDbCircle
 10
1292.706293706294
 20
232.7094405594406
 30
0.0
 40
24.01869474724754
100
AcDbArc
 50
270.0000000000008
 51
0.0
  0
LINE
  5
163
330
1F
100
AcDbEntity
  8
0
  6
Continuous
 62
     7
370
    15
100
AcDbLine
 10
1316.724977264979
 20
232.7094340958094
 30
0.0
 11
1317.706308136561
 21
232.7094340958094
 31
0.0
  0
ARC
  5
164
330
1F
100
AcDbEntity
  8
0
  6
Continuous
 62
     7
370
    15
100
AcDbCircle
 10
1292.706293706294
 20
232.7094405594406
 30
0.0
 40
25.00000000000023
100
AcDbArc
 50
270.0000000000008
 51
0.0
  0
ARC
  5
165
330
1F
100
AcDbEntity
  8
0
  6
Continuous
 62
     7
370
    15
100
AcDbCircle
 10
718.7062937062938
 20
232.7094405594406
 30
0.0
 40
25.00000000000003
100
AcDbArc
 50
180.0
 51
270.0000000000008
  0
LINE
  5
166
330
1F
100
AcDbEntity
  8
0
  6
Continuous
 62
     7
370
    15
100
AcDbLine
 10
693.7062952619581
 20
232.7094340958094
 30
0.0
 11
694.6875963312177
 21
232.7094340958094
 31
0.0
  0
ARC
  5
167
330
1F
100
AcDbEntity
  8
0
  6
Continuous
 62
     7
370
    15
100
AcDbCircle
 10
718.7062937062938
 20
232.7094405594406
 30
0.0
 40
24.01869474724739
100
AcDbArc
 50
180.0
 51
270.0000000000008
  0
ARC
  5
168
330
1F
100
AcDbEntity
  8
0
  6
Continuous
 62
     7
370
    15
100
AcDbCircle
 10
732.3062937062939
 20
246.3094405594406
 30
0.0
 40
21.40041507641956
100
AcDbArc
 50
180.0
 51
270.0000000000008
  0
LINE
  5
169
330
1F
100
AcDbEntity
  8
0
  6
Continuous
 62
     7
370
    15
100
AcDbLine
 10
1279.106295476535
 20
224.9090189375376
 30
0.0
 11
732.3062930208234
 21
224.9090189375376
 31
0.0
  0
ARC
  5
16A
330
1F
100
AcDbEntity
  8
0
  6
Continuous
 62
     7
370
    15
100
AcDbCircle
 10
1279.106293706294
 20
246.3094405594406
 30
0.0
 40
21.40041507641948
100
AcDbArc
 50
270.0000000000008
 51
0.0
  0
LINE
  5
16B
330
1F
100
AcDbEntity
  8
0
  6
Continuous
 62
     7
370
    15
100
AcDbLine
 10
1300.506702433207
 20
602.7094388641809
 30
0.0
 11
1300.506702433207
 21
246.3094407953715
 31
0.0
  0
ARC
  5
16C
330
1F
100
AcDbEntity
  8
0
  6
Continuous
 62
     7
370
    15
100
AcDbCircle
 10
1279.106293706294
 20
602.7094405594405
 30
0.0
 40
21.40041507641945
100
AcDbArc
 50
0.0
 51
90.0
  0
LINE
  5
16D
330
1F
100
AcDbEntity
  8
0
  6
Continuous
 62
     7
370
    15
100
AcDbLine
 10
1142.621240387538
 20
624.1098607220148
 30
0.0
 11
1279.106295476535
 21
624.1098607220148
 31
0.0
  0
ARC
  5
16E
330
1F
100
AcDbEntity
  8
0
  6
Continuous
 62
     7
370
    15
100
AcDbCircle
 10
1142.62124307241
 20
657.7094405594406
 30
0.0
 40
33.59958492358087
100
AcDbArc
 50
225.0000000000005
 51
270.0000000000008
  0
LINE
  5
16F
330
1F
100
AcDbEntity
  8
0
  6
Continuous
 62
     7
370
    15
100
AcDbLine
 10
1316.724977264979
 20
232.7094340958094
 30
0.0
 11
1316.724977264979
 21
682.7094370760416
 31
0.0
  0
LINE
  5
170
330
1F
100
AcDbEntity
  8
0
  6
Continuous
 62
     7
370
    15
100
AcDbLine
 10
694.6875963312177
 20
682.7094370760416
 30
0.0
 11
694.6875963312177
 21
232.7094340958094
 31
0.0
  0
ARC
  5
171
330
1F
100
AcDbEntity
  8
0
  6
Continuous
 62
     7
370
    15
100
AcDbCircle
 10
718.7062937062938
 20
682.7094405594406
 30
0.0
 40
24.01869474724731
100
AcDbArc
 50
90.0
 51
180.0
  0
LINE
  5
172
330
1F
100
AcDbEntity
  8
0
  6
Continuous
 62
     7
370
    15
100
AcDbLine
 10
1292.706287274936
 20
706.7281419672464
 30
0.0
 11
718.7063012224226
 21
706.7281419672464
 31
0.0
  0
ARC
  5
173
330
1F
100
AcDbEntity
  8
0
  6
Continuous
 62
     7
370
    15
100
AcDbCircle
 10
1292.706293706294
 20
682.7094405594406
 30
0.0
 40
24.01869474724754
100
AcDbArc
 50
0.0
 51
90.0
  0
CIRCLE
  5
174
330
1F
100
AcDbEntity
  8
0
  6
Continuous
 62
     7
370
    15
100
AcDbCircle
 10
1143.706293706294
 20
657.7094405594406
 30
0.0
 40
17.50000000000011
  0
LINE
  5
176
330
1F
100
AcDbEntity
  8
0
  6
Continuous
 62
     7
370
    15
100
AcDbLine
 10
693.7062952619581
 20
232.7094340958094
 30
0.0
 11
693.7062952619581
 21
682.7094370760416
 31
0.0
  0
LINE
  5
177
330
1F
100
AcDbEntity
  8
0
  6
Continuous
 62
     7
370
    15
100
AcDbLine
 10
693.7062952619581
 20
682.7094370760416
 30
0.0
 11
694.6875963312177
 21
682.7094370760416
 31
0.0
  0
LINE
  5
178
330
1F
100
AcDbEntity
  8
0
  6
Continuous
 62
     7
370
    15
100
AcDbLine
 10
1292.706287274936
 20
706.7281419672464
 30
0.0
 11
1292.706287274936
 21
707.7094430365061
 31
0.0
  0
ARC
  5
179
330
1F
100
AcDbEntity
  8
0
  6
Continuous
 62
     7
370
    15
100
AcDbCircle
 10
1292.706293706294
 20
682.7094405594406
 30
0.0
 40
25.00000000000023
100
AcDbArc
 50
0.0
 51
90.0
  0
LINE
  5
17A
330
1F
100
AcDbEntity
  8
0
  6
Continuous
 62
     7
370
    15
100
AcDbLine
 10
1316.724977264979
 20
682.7094370760416
 30
0.0
 11
1317.706308136561
 21
682.7094370760416
 31
0.0
  0
ARC
  5
17B
330
1F
100
AcDbEntity
  8
0
  6
Continuous
 62
     7
370
    15
100
AcDbCircle
 10
718.7062937062938
 20
682.7094405594406
 30
0.0
 40
25.00000000000011
100
AcDbArc
 50
90.0
 51
180.0
  0
LINE
  5
17C
330
1F
100
AcDbEntity
  8
0
  6
Continuous
 62
     7
370
    15
100
AcDbLine
 10
718.7063012224226
 20
707.7094430365061
 30
0.0
 11
718.7063012224226
 21
706.7281419672464
 31
0.0
  0
LINE
  5
17D
330
1F
100
AcDbEntity
  8
0
  6
Continuous
 62
     7
370
    15
100
AcDbLine
 10
1298.627323279956
 20
246.3094407953715
 30
0.0
 11
1298.627323279956
 21
602.7094388641809
 31
0.0
  0
LINE
  5
17E
330
1F
100
AcDbEntity
  8
0
  6
Continuous
 62
     7
370
    15
100
AcDbLine
 10
1298.627323279956
 20
602.7094388641809
 30
0.0
 11
1300.506702433207
 21
602.7094388641809
 31
0.0
  0
LINE
  5
17F
330
1F
100
AcDbEntity
  8
0
  6
Continuous
 62
     7
370
    15
100
AcDbLine
 10
1300.506702433207
 20
246.3094407953715
 30
0.0
 11
1298.627323279956
 21
246.3094407953715
 31
0.0
  0
ARC
  5
180
330
1F
100
AcDbEntity
  8
0
  6
Continuous
 62
     7
370
    15
100
AcDbCircle
 10
1279.106293706294
 20
602.7094405594405
 30
0.0
 40
19.52102983484758
100
AcDbArc
 50
0.0000000000001668
 51
90.0
  0
LINE
  5
181
330
1F
100
AcDbEntity
  8
0
  6
Continuous
 62
     7
370
    15
100
AcDbLine
 10
1279.106295476535
 20
622.230466667602
 30
0.0
 11
1279.106295476535
 21
624.1098607220148
 31
0.0
  0
LINE
  5
182
330
1F
100
AcDbEntity
  8
0
  6
Continuous
 62
     7
370
    15
100
AcDbLine
 10
1279.106295476535
 20
224.9090189375376
 30
0.0
 11
1279.106295476535
 21
226.7884129919505
 31
0.0
  0
ARC
  5
183
330
1F
100
AcDbEntity
  8
0
  6
Continuous
 62
     7
370
    15
100
AcDbCircle
 10
1279.106293706294
 20
246.3094405594406
 30
0.0
 40
19.52102983484764
100
AcDbArc
 50
270.0000000000008
 51
0.0000000000001668
  0
LINE
  5
184
330
1F
100
AcDbEntity
  8
0
  6
Continuous
 62
     7
370
    15
100
AcDbLine
 10
1279.106295476535
 20
622.230466667602
 30
0.0
 11
1142.621240387538
 21
622.230466667602
 31
0.0
  0
LINE
  5
185
330
1F
100
AcDbEntity
  8
0
  6
Continuous
 62
     7
370
    15
100
AcDbLine
 10
1142.621240387538
 20
622.230466667602
 30
0.0
 11
1142.621240387538
 21
624.1098607220148
 31
0.0
  0
LINE
  5
186
330
1F
100
AcDbEntity
  8
0
  6
Continuous
 62
     7
370
    15
100
AcDbLine
 10
732.3062930208234
 20
224.9090189375376
 30
0.0
 11
732.3062930208234
 21
226.7884129919505
 31
0.0
  0
LINE
  5
187
330
1F
100
AcDbEntity
  8
0
  6
Continuous
 62
     7
370
    15
100
AcDbLine
 10
732.3062930208234
 20
226.7884129919505
 30
0.0
 11
1279.106295476535
 21
226.7884129919505
 31
0.0
  0
ARC
  5
188
330
1F
100
AcDbEntity
  8
0
  6
Continuous
 62
     7
370
    15
100
AcDbCircle
 10
1142.62124307241
 20
657.7094405594406
 30
0.0
 40
35.47897016515265
100
AcDbArc
 50
225.000000000001
 51
270.0000000000008
  0
ARC
  5
189
330
1F
100
AcDbEntity
  8
0
  6
Continuous
 62
     7
370
    15
100
AcDbCircle
 10
732.3062937062939
 20
246.3094405594406
 30
0.0
 40
19.5210298348477
100
AcDbArc
 50
179.9999999999998
 51
270.0000000000008
  0
LINE
  5
18A
330
1F
100
AcDbEntity
  8
0
  6
Continuous
 62
     7
370
    15
100
AcDbLine
 10
1317.706308136561
 20
682.7094370760416
 30
0.0
 11
1317.706308136561
 21
232.7094340958094
 31
0.0
  0
LINE
  5
18B
330
1F
100
AcDbEntity
  8
0
  6
Continuous
 62
     7
370
    15
100
AcDbLine
 10
718.7063012224226
 20
707.7094430365061
 30
0.0
 11
1292.706287274936
 21
707.7094430365061
 31
0.0
  0
ARC
  5
18C
330
1F
100
AcDbEntity
  8
0
  6
Continuous
 62
     7
370
    15
100
AcDbCircle
 10
732.3062937062938
 20
648.1094405594405
 30
0.0
 40
19.38705946235393
100
AcDbArc
 50
90.0
 51
180.0
  0
LINE
  5
18D
330
1F
100
AcDbEntity
  8
0
  6
Continuous
 62
     7
370
    15
100
AcDbLine
 10
712.9192266565351
 20
648.1094474234079
 30
0.0
 11
712.7852652174024
 21
648.1094474234079
 31
0.0
  0
LINE
  5
18E
330
1F
100
AcDbEntity
  8
0
  6
Continuous
 62
     7
370
    15
100
AcDbLine
 10
732.3062930208234
 20
667.496498886535
 30
0.0
 11
732.3062930208234
 21
667.6304752268289
 31
0.0
  0
LINE
  5
18F
330
1F
100
AcDbEntity
  8
0
  6
Continuous
 62
     7
370
    15
100
AcDbLine
 10
1279.106295476535
 20
226.9223744310831
 30
0.0
 11
732.3062930208234
 21
226.9223744310831
 31
0.0
  0
LINE
  5
190
330
1F
100
AcDbEntity
  8
0
  6
Continuous
 62
     7
370
    15
100
AcDbLine
 10
1279.106295476535
 20
226.9223744310831
 30
0.0
 11
1279.106295476535
 21
226.7884129919505
 31
0.0
  0
LINE
  5
191
330
1F
100
AcDbEntity
  8
0
  6
Continuous
 62
     7
370
    15
100
AcDbLine
 10
732.3062930208234
 20
226.9223744310831
 30
0.0
 11
732.3062930208234
 21
226.7884129919505
 31
0.0
  0
LINE
  5
192
330
1F
100
AcDbEntity
  8
0
  6
Continuous
 62
     7
370
    15
100
AcDbLine
 10
732.3062930208234
 20
667.496498886535
 30
0.0
 11
1068.226293935308
 21
667.496498886535
 31
0.0
  0
LINE
  5
193
330
1F
100
AcDbEntity
  8
0
  6
Continuous
 62
     7
370
    15
100
AcDbLine
 10
1068.226293935308
 20
667.496498886535
 30
0.0
 11
1068.226293935308
 21
667.6304752268289
 31
0.0
  0
LINE
  5
194
330
1F
100
AcDbEntity
  8
0
  6
Continuous
 62
     7
370
    15
100
AcDbLine
 10
712.9192266565351
 20
246.3094407953715
 30
0.0
 11
712.9192266565351
 21
648.1094474234079
 31
0.0
  0
LINE
  5
195
330
1F
100
AcDbEntity
  8
0
  6
Continuous
 62
     7
370
    15
100
AcDbLine
 10
712.9192266565351
 20
246.3094407953715
 30
0.0
 11
712.7852652174024
 21
246.3094407953715
 31
0.0
  0
LINE
  5
196
330
1F
100
AcDbEntity
  8
0
  6
Continuous
 62
     7
370
    15
100
AcDbLine
 10
1092.541617150286
 20
657.4247593321298
 30
0.0
 11
1117.43909008322
 21
632.5272882618402
 31
0.0
  0
LINE
  5
197
330
1F
100
AcDbEntity
  8
0
  6
Continuous
 62
     7
370
    15
100
AcDbLine
 10
1092.541617150286
 20
657.4247593321298
 30
0.0
 11
1092.636347557285
 21
657.5195009150003
 31
0.0
  0
LINE
  5
198
330
1F
100
AcDbEntity
  8
0
  6
Continuous
 62
     7
370
    15
100
AcDbLine
 10
1117.43909008322
 20
632.5272882618402
 30
0.0
 11
1117.53382421551
 21
632.6220149435495
 31
0.0
  0
ARC
  5
199
330
1F
100
AcDbEntity
  8
0
  6
Continuous
 62
     7
370
    15
100
AcDbCircle
 10
1142.62124307241
 20
657.7094405594406
 30
0.0
 40
35.61294053764632
100
AcDbArc
 50
225.0000000000008
 51
270.0000000000008
  0
LINE
  5
19A
330
1F
100
AcDbEntity
  8
0
  6
Continuous
 62
     7
370
    15
100
AcDbLine
 10
1142.621240387538
 20
622.0965052284693
 30
0.0
 11
1142.621240387538
 21
622.230466667602
 31
0.0
  0
LINE
  5
19B
330
1F
100
AcDbEntity
  8
0
  6
Continuous
 62
     7
370
    15
100
AcDbLine
 10
1142.621240387538
 20
622.0965052284693
 30
0.0
 11
1279.106295476535
 21
622.0965052284693
 31
0.0
  0
LINE
  5
19C
330
1F
100
AcDbEntity
  8
0
  6
Continuous
 62
     7
370
    15
100
AcDbLine
 10
1279.106295476535
 20
622.0965052284693
 30
0.0
 11
1279.106295476535
 21
622.230466667602
 31
0.0
  0
ARC
  5
19D
330
1F
100
AcDbEntity
  8
0
  6
Continuous
 62
     7
370
    15
100
AcDbCircle
 10
1279.106293706294
 20
602.7094405594405
 30
0.0
 40
19.38705946235382
100
AcDbArc
 50
0.0
 51
90.0
  0
LINE
  5
19E
330
1F
100
AcDbEntity
  8
0
  6
Continuous
 62
     7
370
    15
100
AcDbLine
 10
1298.493346939662
 20
602.7094388641809
 30
0.0
 11
1298.627323279956
 21
602.7094388641809
 31
0.0
  0
ARC
  5
19F
330
1F
100
AcDbEntity
  8
0
  6
Continuous
 62
     7
370
    15
100
AcDbCircle
 10
1279.106293706294
 20
246.3094405594406
 30
0.0
 40
19.38705946235379
100
AcDbArc
 50
270.0000000000008
 51
0.0
  0
LINE
  5
1A0
330
1F
100
AcDbEntity
  8
0
  6
Continuous
 62
     7
370
    15
100
AcDbLine
 10
1298.493346939662
 20
246.3094407953715
 30
0.0
 11
1298.627323279956
 21
246.3094407953715
 31
0.0
  0
ARC
  5
1A1
330
1F
100
AcDbEntity
  8
0
  6
Continuous
 62
     7
370
    15
100
AcDbCircle
 10
1068.226293706294
 20
633.1094405594405
 30
0.0
 40
34.38705946235384
100
AcDbArc
 50
44.99999999999986
 51
90.0
  0
ARC
  5
1A2
330
1F
100
AcDbEntity
  8
0
  6
Continuous
 62
     7
370
    15
100
AcDbCircle
 10
732.3062937062939
 20
246.3094405594406
 30
0.0
 40
19.38705946235393
100
AcDbArc
 50
180.0
 51
270.0000000000008
  0
LINE
  5
1A3
330
1F
100
AcDbEntity
  8
0
  6
Continuous
 62
     7
370
    15
100
AcDbLine
 10
1298.493346939662
 20
602.7094388641809
 30
0.0
 11
1298.493346939662
 21
246.3094407953715
 31
0.0
  0
LINE
  5
1A4
330
1F
100
AcDbEntity
  8
0
  6
Continuous
 62
     7
370
    15
100
AcDbLine
 10
1068.226293935308
 20
665.6171197332834
 30
0.0
 11
732.3062930208234
 21
665.6171197332834
 31
0.0
  0
LINE
  5
1A5
330
1F
100
AcDbEntity
  8
0
  6
Continuous
 62
     7
370
    15
100
AcDbLine
 10
732.3062930208234
 20
667.496498886535
 30
0.0
 11
732.3062930208234
 21
665.6171197332834
 31
0.0
  0
LINE
  5
1A6
330
1F
100
AcDbEntity
  8
0
  6
Continuous
 62
     7
370
    15
100
AcDbLine
 10
1068.226293935308
 20
665.6171197332834
 30
0.0
 11
1068.226293935308
 21
667.496498886535
 31
0.0
  0
ARC
  5
1A7
330
1F
100
AcDbEntity
  8
0
  6
Continuous
 62
     7
370
    15
100
AcDbCircle
 10
732.3062937062938
 20
648.1094405594405
 30
0.0
 40
17.50767422078206
100
AcDbArc
 50
90.0
 51
180.0
  0
LINE
  5
1A8
330
1F
100
AcDbEntity
  8
0
  6
Continuous
 62
     7
370
    15
100
AcDbLine
 10
712.9192266565351
 20
648.1094474234079
 30
0.0
 11
714.798620710948
 21
648.1094474234079
 31
0.0
  0
LINE
  5
1A9
330
1F
100
AcDbEntity
  8
0
  6
Continuous
 62
     7
370
    15
100
AcDbLine
 10
1279.106295476535
 20
620.2171111740564
 30
0.0
 11
1142.621240387538
 21
620.2171111740564
 31
0.0
  0
LINE
  5
1AA
330
1F
100
AcDbEntity
  8
0
  6
Continuous
 62
     7
370
    15
100
AcDbLine
 10
1142.621240387538
 20
620.2171111740564
 30
0.0
 11
1142.621240387538
 21
622.0965052284693
 31
0.0
  0
LINE
  5
1AB
330
1F
100
AcDbEntity
  8
0
  6
Continuous
 62
     7
370
    15
100
AcDbLine
 10
1279.106295476535
 20
620.2171111740564
 30
0.0
 11
1279.106295476535
 21
622.0965052284693
 31
0.0
  0
ARC
  5
1AC
330
1F
100
AcDbEntity
  8
0
  6
Continuous
 62
     7
370
    15
100
AcDbCircle
 10
1142.62124307241
 20
657.7094405594406
 30
0.0
 40
37.49232577921824
100
AcDbArc
 50
225.0000000000007
 51
270.0000000000008
  0
LWPOLYLINE
  5
1AD
330
1F
100
AcDbEntity
  8
0
  6
Continuous
 62
     7
370
    15
100
AcDbPolyline
 90
        9
 70
   128
 43
0.0
 10
1116.11016354976
 20
631.1983580030893
 10
1116.325299064496
 20
631.4135009684061
 10
1116.535427789071
 20
631.6236222424005
 10
1116.735654692033
 20
631.8238491453623
 10
1116.921323160508
 20
632.0095176138376
 10
1117.088111857751
 20
632.1763063110803
 10
1117.23213530598
 20
632.3203409351801
 10
1117.350044469216
 20
632.4382389225458
 10
1117.43909008322
 20
632.5272882618402
  0
ARC
  5
1AE
330
1F
100
AcDbEntity
  8
0
  6
Continuous
 62
     7
370
    15
100
AcDbCircle
 10
1279.106293706294
 20
602.7094405594405
 30
0.0
 40
17.50767422078195
100
AcDbArc
 50
0.0
 51
90.0
  0
LINE
  5
1AF
330
1F
100
AcDbEntity
  8
0
  6
Continuous
 62
     7
370
    15
100
AcDbLine
 10
1296.61396778641
 20
602.7094388641809
 30
0.0
 11
1298.493346939662
 21
602.7094388641809
 31
0.0
  0
LINE
  5
1B0
330
1F
100
AcDbEntity
  8
0
  6
Continuous
 62
     7
370
    15
100
AcDbLine
 10
714.798620710948
 20
648.1094474234079
 30
0.0
 11
714.798620710948
 21
246.3094407953715
 31
0.0
  0
LINE
  5
1B1
330
1F
100
AcDbEntity
  8
0
  6
Continuous
 62
     7
370
    15
100
AcDbLine
 10
712.9192266565351
 20
246.3094407953715
 30
0.0
 11
714.798620710948
 21
246.3094407953715
 31
0.0
  0
ARC
  5
1B2
330
1F
100
AcDbEntity
  8
0
  6
Continuous
 62
     7
370
    15
100
AcDbCircle
 10
1068.226293706294
 20
633.1094405594405
 30
0.0
 40
32.50767422078209
100
AcDbArc
 50
44.99999999999972
 51
90.0
  0
LWPOLYLINE
  5
1B3
330
1F
100
AcDbEntity
  8
0
  6
Continuous
 62
     7
370
    15
100
AcDbPolyline
 90
        9
 70
   128
 43
0.0
 10
1091.212690616825
 20
656.0958439745401
 10
1091.427826131561
 20
656.3109720386957
 10
1091.637952993491
 20
656.5210933126901
 10
1091.838181759098
 20
656.7213351168131
 10
1092.023850227573
 20
656.9070035852884
 10
1092.190637062171
 20
657.07377738137
 10
1092.334662373045
 20
657.2178120054697
 10
1092.452569673636
 20
657.3357099928354
 10
1092.541617150286
 20
657.4247593321298
  0
LINE
  5
1B4
330
1F
100
AcDbEntity
  8
0
  6
Continuous
 62
     7
370
    15
100
AcDbLine
 10
1296.61396778641
 20
246.3094407953715
 30
0.0
 11
1296.61396778641
 21
602.7094388641809
 31
0.0
  0
LINE
  5
1B5
330
1F
100
AcDbEntity
  8
0
  6
Continuous
 62
     7
370
    15
100
AcDbLine
 10
1298.493346939662
 20
246.3094407953715
 30
0.0
 11
1296.61396778641
 21
246.3094407953715
 31
0.0
  0
LINE
  5
1B6
330
1F
100
AcDbEntity
  8
0
  6
Continuous
 62
     7
370
    15
100
AcDbLine
 10
1116.11016354976
 20
631.1983580030893
 30
0.0
 11
1091.212690616825
 21
656.0958439745401
 31
0.0
  0
ARC
  5
1B7
330
1F
100
AcDbEntity
  8
0
  6
Continuous
 62
     7
370
    15
100
AcDbCircle
 10
732.3062937062939
 20
246.3094405594406
 30
0.0
 40
17.50767422078206
100
AcDbArc
 50
180.0
 51
270.0000000000008
  0
LINE
  5
1B8
330
1F
100
AcDbEntity
  8
0
  6
Continuous
 62
     7
370
    15
100
AcDbLine
 10
732.3062930208234
 20
226.9223744310831
 30
0.0
 11
732.3062930208234
 21
228.801768485496
 31
0.0
  0
LINE
  5
1B9
330
1F
100
AcDbEntity
  8
0
  6
Continuous
 62
     7
370
    15
100
AcDbLine
 10
1279.106295476535
 20
226.9223744310831
 30
0.0
 11
1279.106295476535
 21
228.801768485496
 31
0.0
  0
ARC
  5
1BA
330
1F
100
AcDbEntity
  8
0
  6
Continuous
 62
     7
370
    15
100
AcDbCircle
 10
1279.106293706294
 20
246.3094405594406
 30
0.0
 40
17.50767422078206
100
AcDbArc
 50
270.0000000000008
 51
0.0
  0
LINE
  5
1BB
330
1F
100
AcDbEntity
  8
0
  6
Continuous
 62
     7
370
    15
100
AcDbLine
 10
732.3062930208234
 20
228.801768485496
 30
0.0
 11
1279.106295476535
 21
228.801768485496
 31
0.0
  0
ARC
  5
1BC
330
1F
100
AcDbEntity
  8
0
  6
Continuous
 62
     7
370
    15
100
AcDbCircle
 10
758.2062937062936
 20
622.2071147802225
 30
0.0
 40
31.00000000000011
100
AcDbArc
 50
90.0
 51
180.0
  0
LINE
  5
1BD
330
1F
100
AcDbEntity
  8
0
  6
Continuous
 62
     7
370
    15
100
AcDbLine
 10
758.2062993150739
 20
653.207119766662
 30
0.0
 11
758.2062993150739
 21
648.2071096338724
 31
0.0
  0
ARC
  5
1BE
330
1F
100
AcDbEntity
  8
0
  6
Continuous
 62
     7
370
    15
100
AcDbCircle
 10
758.2062937062936
 20
622.2071147802225
 30
0.0
 40
26.0
100
AcDbArc
 50
90.0
 51
180.0
  0
LINE
  5
1BF
330
1F
100
AcDbEntity
  8
0
  6
Continuous
 62
     7
370
    15
100
AcDbLine
 10
727.2062811952619
 20
622.2071165480112
 30
0.0
 11
732.2063062292127
 21
622.2071165480112
 31
0.0
  0
LINE
  5
1C0
330
1F
100
AcDbEntity
  8
0
  6
Continuous
 62
     7
370
    15
100
AcDbLine
 10
758.2062993150739
 20
653.207119766662
 30
0.0
 11
1047.806293512562
 21
653.207119766662
 31
0.0
  0
LINE
  5
1C1
330
1F
100
AcDbEntity
  8
0
  6
Continuous
 62
     7
370
    15
100
AcDbLine
 10
727.2062811952619
 20
272.2071076073145
 30
0.0
 11
727.2062811952619
 21
622.2071165480112
 31
0.0
  0
ARC
  5
1C2
330
1F
100
AcDbEntity
  8
0
  6
Continuous
 62
     7
370
    15
100
AcDbCircle
 10
758.2062937062938
 20
272.2071147802225
 30
0.0
 40
31.0
100
AcDbArc
 50
180.0
 51
270.0000000000008
  0
LINE
  5
1C3
330
1F
100
AcDbEntity
  8
0
  6
Continuous
 62
     7
370
    15
100
AcDbLine
 10
1047.806293512562
 20
241.2071192898249
 30
0.0
 11
758.2062993150739
 21
241.2071192898249
 31
0.0
  0
ARC
  5
1C4
330
1F
100
AcDbEntity
  8
0
  6
Continuous
 62
     7
370
    15
100
AcDbCircle
 10
1047.806293706294
 20
272.2071147802225
 30
0.0
 40
31.00000000000003
100
AcDbArc
 50
270.0000000000008
 51
0.0
  0
LINE
  5
1C5
330
1F
100
AcDbEntity
  8
0
  6
Continuous
 62
     7
370
    15
100
AcDbLine
 10
1078.806293937245
 20
622.2071165480112
 30
0.0
 11
1078.806293937245
 21
272.2071076073145
 31
0.0
  0
ARC
  5
1C6
330
1F
100
AcDbEntity
  8
0
  6
Continuous
 62
     7
370
    15
100
AcDbCircle
 10
1047.806293706294
 20
622.2071147802225
 30
0.0
 40
31.00000000000011
100
AcDbArc
 50
0.0
 51
90.0
  0
LINE
  5
1C7
330
1F
100
AcDbEntity
  8
0
  6
Continuous
 62
     7
370
    15
100
AcDbLine
 10
1133.00629592953
 20
592.8071180619692
 30
0.0
 11
1253.006300697902
 21
592.8071180619692
 31
0.0
  0
ARC
  5
1C8
330
1F
100
AcDbEntity
  8
0
  6
Continuous
 62
     7
370
    15
100
AcDbCircle
 10
1133.006293706294
 20
561.8071147802225
 30
0.0
 40
31.0
100
AcDbArc
 50
90.0
 51
180.0
  0
LINE
  5
1C9
330
1F
100
AcDbEntity
  8
0
  6
Continuous
 62
     7
370
    15
100
AcDbLine
 10
1102.006292710879
 20
272.2071076073145
 30
0.0
 11
1102.006292710879
 21
561.8071148433183
 31
0.0
  0
ARC
  5
1CA
330
1F
100
AcDbEntity
  8
0
  6
Continuous
 62
     7
370
    15
100
AcDbCircle
 10
1133.006293706294
 20
272.2071147802225
 30
0.0
 40
31.0
100
AcDbArc
 50
180.0
 51
270.0000000000008
  0
LINE
  5
1CB
330
1F
100
AcDbEntity
  8
0
  6
Continuous
 62
     7
370
    15
100
AcDbLine
 10
1253.006300697902
 20
241.2071192898249
 30
0.0
 11
1133.00629592953
 21
241.2071192898249
 31
0.0
  0
ARC
  5
1CC
330
1F
100
AcDbEntity
  8
0
  6
Continuous
 62
     7
370
    15
100
AcDbCircle
 10
1253.006293706293
 20
272.2071147802224
 30
0.0
 40
31.00000000000023
100
AcDbArc
 50
270.0000000000008
 51
0.0
  0
LINE
  5
1CD
330
1F
100
AcDbEntity
  8
0
  6
Continuous
 62
     7
370
    15
100
AcDbLine
 10
1284.006289015391
 20
561.8071148433183
 30
0.0
 11
1284.006289015391
 21
272.2071076073145
 31
0.0
  0
ARC
  5
1CE
330
1F
100
AcDbEntity
  8
0
  6
Continuous
 62
     7
370
    15
100
AcDbCircle
 10
1253.006293706293
 20
561.8071147802225
 30
0.0
 40
31.00000000000023
100
AcDbArc
 50
0.0
 51
90.0
  0
LINE
  5
1CF
330
1F
100
AcDbEntity
  8
0
  6
Continuous
 62
     7
370
    15
100
AcDbLine
 10
1047.806293512562
 20
653.207119766662
 30
0.0
 11
1047.806293512562
 21
648.2071096338724
 31
0.0
  0
LINE
  5
1D0
330
1F
100
AcDbEntity
  8
0
  6
Continuous
 62
     7
370
    15
100
AcDbLine
 10
758.2062993150739
 20
648.2071096338724
 30
0.0
 11
1047.806293512562
 21
648.2071096338724
 31
0.0
  0
LINE
  5
1D1
330
1F
100
AcDbEntity
  8
0
  6
Continuous
 62
     7
370
    15
100
AcDbLine
 10
1078.806293937245
 20
622.2071165480112
 30
0.0
 11
1073.806294049004
 21
622.2071165480112
 31
0.0
  0
ARC
  5
1D2
330
1F
100
AcDbEntity
  8
0
  6
Continuous
 62
     7
370
    15
100
AcDbCircle
 10
1047.806293706294
 20
622.2071147802225
 30
0.0
 40
26.0
100
AcDbArc
 50
0.0
 51
90.0
  0
LINE
  5
1D3
330
1F
100
AcDbEntity
  8
0
  6
Continuous
 62
     7
370
    15
100
AcDbLine
 10
1284.006289015391
 20
561.8071148433183
 30
0.0
 11
1279.006293783763
 21
561.8071148433183
 31
0.0
  0
ARC
  5
1D4
330
1F
100
AcDbEntity
  8
0
  6
Continuous
 62
     7
370
    15
100
AcDbCircle
 10
1253.006293706293
 20
561.8071147802225
 30
0.0
 40
26.0
100
AcDbArc
 50
0.0
 51
90.0
  0
LINE
  5
1D5
330
1F
100
AcDbEntity
  8
0
  6
Continuous
 62
     7
370
    15
100
AcDbLine
 10
1253.006300697902
 20
592.8071180619692
 30
0.0
 11
1253.006300697902
 21
587.8071153797601
 31
0.0
  0
LINE
  5
1D6
330
1F
100
AcDbEntity
  8
0
  6
Continuous
 62
     7
370
    15
100
AcDbLine
 10
732.2063062292127
 20
272.2071076073145
 30
0.0
 11
732.2063062292127
 21
622.2071165480112
 31
0.0
  0
LINE
  5
1D7
330
1F
100
AcDbEntity
  8
0
  6
Continuous
 62
     7
370
    15
100
AcDbLine
 10
732.2063062292127
 20
272.2071076073145
 30
0.0
 11
727.2062811952619
 21
272.2071076073145
 31
0.0
  0
LINE
  5
1D8
330
1F
100
AcDbEntity
  8
0
  6
Continuous
 62
     7
370
    15
100
AcDbLine
 10
1073.806294049004
 20
622.2071165480112
 30
0.0
 11
1073.806294049004
 21
272.2071076073145
 31
0.0
  0
LINE
  5
1D9
330
1F
100
AcDbEntity
  8
0
  6
Continuous
 62
     7
370
    15
100
AcDbLine
 10
1073.806294049004
 20
272.2071076073145
 30
0.0
 11
1078.806293937245
 21
272.2071076073145
 31
0.0
  0
LINE
  5
1DA
330
1F
100
AcDbEntity
  8
0
  6
Continuous
 62
     7
370
    15
100
AcDbLine
 10
1107.006295393088
 20
272.2071076073145
 30
0.0
 11
1107.006295393088
 21
561.8071148433183
 31
0.0
  0
LINE
  5
1DB
330
1F
100
AcDbEntity
  8
0
  6
Continuous
 62
     7
370
    15
100
AcDbLine
 10
1107.006295393088
 20
272.2071076073145
 30
0.0
 11
1102.006292710879
 21
272.2071076073145
 31
0.0
  0
LINE
  5
1DC
330
1F
100
AcDbEntity
  8
0
  6
Continuous
 62
     7
370
    15
100
AcDbLine
 10
1102.006292710879
 20
561.8071148433183
 30
0.0
 11
1107.006295393088
 21
561.8071148433183
 31
0.0
  0
LINE
  5
1DD
330
1F
100
AcDbEntity
  8
0
  6
Continuous
 62
     7
370
    15
100
AcDbLine
 10
1133.00629592953
 20
587.8071153797601
 30
0.0
 11
1253.006300697902
 21
587.8071153797601
 31
0.0
  0
LINE
  5
1DE
330
1F
100
AcDbEntity
  8
0
  6
Continuous
 62
     7
370
    15
100
AcDbLine
 10
1133.00629592953
 20
592.8071180619692
 30
0.0
 11
1133.00629592953
 21
587.8071153797601
 31
0.0
  0
LINE
  5
1DF
330
1F
100
AcDbEntity
  8
0
  6
Continuous
 62
     7
370
    15
100
AcDbLine
 10
1279.006293783763
 20
561.8071148433183
 30
0.0
 11
1279.006293783763
 21
272.2071076073145
 31
0.0
  0
LINE
  5
1E0
330
1F
100
AcDbEntity
  8
0
  6
Continuous
 62
     7
370
    15
100
AcDbLine
 10
1279.006293783763
 20
272.2071076073145
 30
0.0
 11
1284.006289015391
 21
272.2071076073145
 31
0.0
  0
ARC
  5
1E1
330
1F
100
AcDbEntity
  8
0
  6
Continuous
 62
     7
370
    15
100
AcDbCircle
 10
1133.006293706294
 20
561.8071147802225
 30
0.0
 40
26.0
100
AcDbArc
 50
90.0
 51
180.0
  0
ARC
  5
1E2
330
1F
100
AcDbEntity
  8
0
  6
Continuous
 62
     7
370
    15
100
AcDbCircle
 10
1133.006293706294
 20
272.2071147802225
 30
0.0
 40
26.00000000000003
100
AcDbArc
 50
180.0
 51
270.0000000000008
  0
LINE
  5
1E3
330
1F
100
AcDbEntity
  8
0
  6
Continuous
 62
     7
370
    15
100
AcDbLine
 10
1133.00629592953
 20
246.2071145214533
 30
0.0
 11
1133.00629592953
 21
241.2071192898249
 31
0.0
  0
LINE
  5
1E4
330
1F
100
AcDbEntity
  8
0
  6
Continuous
 62
     7
370
    15
100
AcDbLine
 10
1047.806293512562
 20
246.2071145214533
 30
0.0
 11
758.2062993150739
 21
246.2071145214533
 31
0.0
  0
LINE
  5
1E5
330
1F
100
AcDbEntity
  8
0
  6
Continuous
 62
     7
370
    15
100
AcDbLine
 10
1047.806293512562
 20
246.2071145214533
 30
0.0
 11
1047.806293512562
 21
241.2071192898249
 31
0.0
  0
LINE
  5
1E6
330
1F
100
AcDbEntity
  8
0
  6
Continuous
 62
     7
370
    15
100
AcDbLine
 10
758.2062993150739
 20
246.2071145214533
 30
0.0
 11
758.2062993150739
 21
241.2071192898249
 31
0.0
  0
ARC
  5
1E7
330
1F
100
AcDbEntity
  8
0
  6
Continuous
 62
     7
370
    15
100
AcDbCircle
 10
758.2062937062938
 20
272.2071147802225
 30
0.0
 40
26.00000000000011
100
AcDbArc
 50
180.0
 51
270.0000000000008
  0
LINE
  5
1E8
330
1F
100
AcDbEntity
  8
0
  6
Continuous
 62
     7
370
    15
100
AcDbLine
 10
1253.006300697902
 20
246.2071145214533
 30
0.0
 11
1133.00629592953
 21
246.2071145214533
 31
0.0
  0
LINE
  5
1E9
330
1F
100
AcDbEntity
  8
0
  6
Continuous
 62
     7
370
    15
100
AcDbLine
 10
1253.006300697902
 20
246.2071145214533
 30
0.0
 11
1253.006300697902
 21
241.2071192898249
 31
0.0
  0
ARC
  5
1EA
330
1F
100
AcDbEntity
  8
0
  6
Continuous
 62
     7
370
    15
100
AcDbCircle
 10
1047.806293706294
 20
272.2071147802225
 30
0.0
 40
26.00000000000003
100
AcDbArc
 50
270.0000000000008
 51
0.0
  0
ARC
  5
1EB
330
1F
100
AcDbEntity
  8
0
  6
Continuous
 62
     7
370
    15
100
AcDbCircle
 10
1253.006293706293
 20
272.2071147802224
 30
0.0
 40
26.00000000000023
100
AcDbArc
 50
270.0000000000008
 51
0.0
  0
LINE
  5
1EC
330
1F
100
AcDbEntity
  8
0
  6
Continuous
 62
     8
370
    15
100
AcDbLine
 10
1253.006300697902
 20
247.0071131624674
 30
0.0
 11
1253.006300697902
 21
246.2071145214533
 31
0.0
  0
LINE
  5
1ED
330
1F
100
AcDbEntity
  8
0
  6
Continuous
 62
     8
370
    15
100
AcDbLine
 10
1133.00629592953
 20
247.0071131624674
 30
0.0
 11
1133.00629592953
 21
246.2071145214533
 31
0.0
  0
LINE
  5
1EE
330
1F
100
AcDbEntity
  8
0
  6
Continuous
 62
     8
370
    15
100
AcDbLine
 10
1279.005518923381
 20
272.0071191229319
 30
0.0
 11
1278.006291757205
 21
272.0071191229319
 31
0.0
  0
LINE
  5
1EF
330
1F
100
AcDbEntity
  8
0
  6
Continuous
 62
     8
370
    15
100
AcDbLine
 10
1279.005518923381
 20
562.0071182288622
 30
0.0
 11
1278.006291757205
 21
562.0071182288622
 31
0.0
  0
LINE
  5
1F0
330
1F
100
AcDbEntity
  8
0
  6
Continuous
 62
     8
370
    15
100
AcDbLine
 10
1253.006300697902
 20
587.8071153797601
 30
0.0
 11
1253.006300697902
 21
587.007116738746
 31
0.0
  0
LINE
  5
1F1
330
1F
100
AcDbEntity
  8
0
  6
Continuous
 62
     8
370
    15
100
AcDbLine
 10
1133.00629592953
 20
587.8071153797601
 30
0.0
 11
1133.00629592953
 21
587.007116738746
 31
0.0
  0
LINE
  5
1F2
330
1F
100
AcDbEntity
  8
0
  6
Continuous
 62
     8
370
    15
100
AcDbLine
 10
1108.006293694356
 20
272.0071191229319
 30
0.0
 11
1107.00706280289
 21
272.0071191229319
 31
0.0
  0
LINE
  5
1F3
330
1F
100
AcDbEntity
  8
0
  6
Continuous
 62
     8
370
    15
100
AcDbLine
 10
1108.006293694356
 20
562.0071182288622
 30
0.0
 11
1107.00706280289
 21
562.0071182288622
 31
0.0
  0
LINE
  5
1F4
330
1F
100
AcDbEntity
  8
0
  6
Continuous
 62
     8
370
    15
100
AcDbLine
 10
1073.806294049004
 20
272.2071076073145
 30
0.0
 11
1073.006293545344
 21
272.2071076073145
 31
0.0
  0
LINE
  5
1F5
330
1F
100
AcDbEntity
  8
0
  6
Continuous
 62
     8
370
    15
100
AcDbLine
 10
1073.806294049004
 20
622.2071165480112
 30
0.0
 11
1073.006293545344
 21
622.2071165480112
 31
0.0
  0
LINE
  5
1F6
330
1F
100
AcDbEntity
  8
0
  6
Continuous
 62
     8
370
    15
100
AcDbLine
 10
758.0062959295301
 20
247.2071165480112
 30
0.0
 11
758.0062959295301
 21
246.2078893818354
 31
0.0
  0
LINE
  5
1F7
330
1F
100
AcDbEntity
  8
0
  6
Continuous
 62
     8
370
    15
100
AcDbLine
 10
733.0062899690656
 20
272.2071076073145
 30
0.0
 11
732.2063062292127
 21
272.2071076073145
 31
0.0
  0
LINE
  5
1F8
330
1F
100
AcDbEntity
  8
0
  6
Continuous
 62
     8
370
    15
100
AcDbLine
 10
1048.006293172815
 20
246.2078893818354
 30
0.0
 11
1048.006293172815
 21
247.2071165480112
 31
0.0
  0
LINE
  5
1F9
330
1F
100
AcDbEntity
  8
0
  6
Continuous
 62
     8
370
    15
100
AcDbLine
 10
758.0062959295301
 20
647.2071076073145
 30
0.0
 11
758.0062959295301
 21
648.2063496746515
 31
0.0
  0
LINE
  5
1FA
330
1F
100
AcDbEntity
  8
0
  6
Continuous
 62
     8
370
    15
100
AcDbLine
 10
1048.006293172815
 20
648.2063496746515
 30
0.0
 11
1048.006293172815
 21
647.2071076073145
 31
0.0
  0
LINE
  5
1FB
330
1F
100
AcDbEntity
  8
0
  6
Continuous
 62
     8
370
    15
100
AcDbLine
 10
733.0062899690656
 20
622.2071165480112
 30
0.0
 11
732.2063062292127
 21
622.2071165480112
 31
0.0
  0
LINE
  5
1FC
330
1F
100
AcDbEntity
  8
0
  6
Continuous
 62
     8
370
    15
100
AcDbLine
 10
1072.509860428849
 20
423.9571133889651
 30
0.0
 11
1072.951143416443
 21
423.9571133889651
 31
0.0
  0
LINE
  5
1FD
330
1F
100
AcDbEntity
  8
0
  6
Continuous
 62
     8
370
    15
100
AcDbLine
 10
1072.509860428849
 20
470.4571147244816
 30
0.0
 11
1072.951143416443
 21
470.4571147244816
 31
0.0
  0
ENDSEC
  0
SECTION
  2
OBJECTS
  0
DICTIONARY
  5
C
330
0
100
AcDbDictionary
281
     1
  3
ACAD_GROUP
350
D
  3
ACAD_IMAGE_VARS
350
241
  3
ACAD_LAYOUT
350
1A
  3
ACAD_MLINESTYLE
350
17
  3
ACAD_PLOTSETTINGS
350
19
  3
ACAD_PLOTSTYLENAME
350
E
  3
ACAD_SCALELIST
350
217
  3
APPDATA
350
23F
  3
DWGPROPS
350
242
  0
DICTIONARY
  5
D
102
{ACAD_REACTORS
330
C
102
}
330
C
100
AcDbDictionary
281
     1
  0
RASTERVARIABLES
  5
241
102
{ACAD_REACTORS
330
C
102
}
330
C
100
AcDbRasterVariables
 90
        0
 70
     1
 71
     1
 72
     1
  0
DICTIONARY
  5
1A
102
{ACAD_REACTORS
330
C
102
}
330
C
100
AcDbDictionary
281
     1
  3
Layout1
350
1E
  3
Layout2
350
26
  3
Model
350
22
  0
DICTIONARY
  5
17
102
{ACAD_REACTORS
330
C
102
}
330
C
100
AcDbDictionary
281
     1
  3
Standard
350
18
  0
DICTIONARY
  5
19
102
{ACAD_REACTORS
330
C
102
}
330
C
100
AcDbDictionary
281
     1
  0
ACDBDICTIONARYWDFLT
  5
E
102
{ACAD_REACTORS
330
C
102
}
330
C
100
AcDbDictionary
281
     1
  3
Normal
350
F
100
AcDbDictionaryWithDefault
340
F
  0
DICTIONARY
  5
217
102
{ACAD_REACTORS
330
C
102
}
330
C
100
AcDbDictionary
281
     1
  3
A0
350
218
  3
A1
350
219
  3
A2
350
21A
  3
A3
350
21B
  3
A4
350
21C
  3
A5
350
21D
  3
A6
350
21E
  3
A7
350
21F
  3
A8
350
220
  3
A9
350
221
  3
B0
350
222
  3
B1
350
223
  3
B2
350
224
  3
B3
350
225
  3
B4
350
226
  3
B5
350
227
  3
B6
350
228
  3
B7
350
229
  3
B8
350
22A
  3
B9
350
22B
  3
C0
350
22C
  3
C1
350
22D
  3
C2
350
22E
  3
C3
350
22F
  3
C4
350
230
  3
C5
350
231
  3
C6
350
232
  3
C7
350
233
  3
C8
350
234
  3
C9
350
235
  3
D0
350
236
  3
D1
350
237
  3
D2
350
238
  0
DICTIONARY
  5
23F
102
{ACAD_REACTORS
330
C
102
}
330
C
100
AcDbDictionary
281
     1
  0
XRECORD
  5
242
102
{ACAD_REACTORS
330
C
102
}
330
C
100
AcDbXrecord
280
     1
  1
DWGPROPS COOKIE
  2

  3

  4

  6

  7

  8
Ismo
  9

300
=
301
=
302
=
303
=
304
=
305
=
306
=
307
=
308
=
309
=
 40
0.0
 41
2456338.539056319
 42
2457758.276711725
  1

 90
        0
  0
LAYOUT
  5
1E
102
{ACAD_REACTORS
330
1A
102
}
330
1A
100
AcDbPlotSettings
  1

  2
none_device
  4

  6

 40
0.0
 41
0.0
 42
0.0
 43
0.0
 44
0.0
 45
0.0
 46
0.0
 47
0.0
 48
0.0
 49
0.0
140
0.0
141
0.0
142
1.0
143
1.0
 70
   688
 72
     0
 73
     0
 74
     5
  7

 75
    16
147
1.0
148
0.0
149
0.0
100
AcDbLayout
  1
Layout1
 70
     1
 71
     1
 10
0.0
 20
0.0
 11
420.0
 21
297.0
 12
0.0
 22
0.0
 32
0.0
 14
1.000000000000000E+20
 24
1.000000000000000E+20
 34
1.000000000000000E+20
 15
-1.000000000000000E+20
 25
-1.000000000000000E+20
 35
-1.000000000000000E+20
146
0.0
 13
0.0
 23
0.0
 33
0.0
 16
1.0
 26
0.0
 36
0.0
 17
0.0
 27
1.0
 37
0.0
 76
     0
330
1B
  0
LAYOUT
  5
26
102
{ACAD_REACTORS
330
1A
102
}
330
1A
100
AcDbPlotSettings
  1

  2
none_device
  4

  6

 40
0.0
 41
0.0
 42
0.0
 43
0.0
 44
0.0
 45
0.0
 46
0.0
 47
0.0
 48
0.0
 49
0.0
140
0.0
141
0.0
142
1.0
143
1.0
 70
   688
 72
     0
 73
     0
 74
     5
  7

 75
    16
147
1.0
148
0.0
149
0.0
100
AcDbLayout
  1
Layout2
 70
     1
 71
     2
 10
0.0
 20
0.0
 11
0.0
 21
0.0
 12
0.0
 22
0.0
 32
0.0
 14
0.0
 24
0.0
 34
0.0
 15
0.0
 25
0.0
 35
0.0
146
0.0
 13
0.0
 23
0.0
 33
0.0
 16
1.0
 26
0.0
 36
0.0
 17
0.0
 27
1.0
 37
0.0
 76
     0
330
23
  0
LAYOUT
  5
22
102
{ACAD_REACTORS
330
1A
102
}
330
1A
100
AcDbPlotSettings
  1

  2
none_device
  4

  6

 40
0.0
 41
0.0
 42
0.0
 43
0.0
 44
0.0
 45
0.0
 46
0.0
 47
0.0
 48
0.0
 49
0.0
140
0.0
141
0.0
142
1.0
143
1.0
 70
  1712
 72
     0
 73
     0
 74
     0
  7

 75
     0
147
1.0
148
0.0
149
0.0
100
AcDbLayout
  1
Model
 70
     1
 71
     0
 10
0.0
 20
0.0
 11
2000.0
 21
900.0
 12
0.0
 22
0.0
 32
0.0
 14
0.0
 24
0.0
 34
0.0
 15
2000.0
 25
900.0
 35
0.0
146
0.0
 13
0.0
 23
0.0
 33
0.0
 16
1.0
 26
0.0
 36
0.0
 17
0.0
 27
1.0
 37
0.0
 76
     0
330
1F
331
29
  0
MLINESTYLE
  5
18
102
{ACAD_REACTORS
330
17
102
}
330
17
100
AcDbMlineStyle
  2
Standard
 70
     0
  3

 62
   256
 51
90.0
 52
90.0
 71
     2
 49
0.5
 62
   256
  6
BYLAYER
 49
-0.5
 62
   256
  6
BYLAYER
  0
ACDBPLACEHOLDER
  5
F
102
{ACAD_REACTORS
330
E
102
}
330
E
  0
SCALE
  5
218
102
{ACAD_REACTORS
330
217
102
}
330
217
100
AcDbScale
 70
     0
300
1:1
140
1.0
141
1.0
290
     1
  0
SCALE
  5
219
102
{ACAD_REACTORS
330
217
102
}
330
217
100
AcDbScale
 70
     0
300
1:2
140
1.0
141
2.0
290
     0
  0
SCALE
  5
21A
102
{ACAD_REACTORS
330
217
102
}
330
217
100
AcDbScale
 70
     0
300
1:4
140
1.0
141
4.0
290
     0
  0
SCALE
  5
21B
102
{ACAD_REACTORS
330
217
102
}
330
217
100
AcDbScale
 70
     0
300
1:5
140
1.0
141
5.0
290
     0
  0
SCALE
  5
21C
102
{ACAD_REACTORS
330
217
102
}
330
217
100
AcDbScale
 70
     0
300
1:8
140
1.0
141
8.0
290
     0
  0
SCALE
  5
21D
102
{ACAD_REACTORS
330
217
102
}
330
217
100
AcDbScale
 70
     0
300
1:10
140
1.0
141
10.0
290
     0
  0
SCALE
  5
21E
102
{ACAD_REACTORS
330
217
102
}
330
217
100
AcDbScale
 70
     0
300
1:16
140
1.0
141
16.0
290
     0
  0
SCALE
  5
21F
102
{ACAD_REACTORS
330
217
102
}
330
217
100
AcDbScale
 70
     0
300
1:20
140
1.0
141
20.0
290
     0
  0
SCALE
  5
220
102
{ACAD_REACTORS
330
217
102
}
330
217
100
AcDbScale
 70
     0
300
1:30
140
1.0
141
30.0
290
     0
  0
SCALE
  5
221
102
{ACAD_REACTORS
330
217
102
}
330
217
100
AcDbScale
 70
     0
300
1:40
140
1.0
141
40.0
290
     0
  0
SCALE
  5
222
102
{ACAD_REACTORS
330
217
102
}
330
217
100
AcDbScale
 70
     0
300
1:50
140
1.0
141
50.0
290
     0
  0
SCALE
  5
223
102
{ACAD_REACTORS
330
217
102
}
330
217
100
AcDbScale
 70
     0
300
1:100
140
1.0
141
100.0
290
     0
  0
SCALE
  5
224
102
{ACAD_REACTORS
330
217
102
}
330
217
100
AcDbScale
 70
     0
300
2:1
140
2.0
141
1.0
290
     0
  0
SCALE
  5
225
102
{ACAD_REACTORS
330
217
102
}
330
217
100
AcDbScale
 70
     0
300
4:1
140
4.0
141
1.0
290
     0
  0
SCALE
  5
226
102
{ACAD_REACTORS
330
217
102
}
330
217
100
AcDbScale
 70
     0
300
8:1
140
8.0
141
1.0
290
     0
  0
SCALE
  5
227
102
{ACAD_REACTORS
330
217
102
}
330
217
100
AcDbScale
 70
     0
300
10:1
140
10.0
141
1.0
290
     0
  0
SCALE
  5
228
102
{ACAD_REACTORS
330
217
102
}
330
217
100
AcDbScale
 70
     0
300
100:1
140
100.0
141
1.0
290
     0
  0
SCALE
  5
229
102
{ACAD_REACTORS
330
217
102
}
330
217
100
AcDbScale
 70
     0
300
1/128" = 1'-0"
140
0.0078125
141
12.0
290
     0
  0
SCALE
  5
22A
102
{ACAD_REACTORS
330
217
102
}
330
217
100
AcDbScale
 70
     0
300
1/64" = 1'-0"
140
0.015625
141
12.0
290
     0
  0
SCALE
  5
22B
102
{ACAD_REACTORS
330
217
102
}
330
217
100
AcDbScale
 70
     0
300
1/32" = 1'-0"
140
0.03125
141
12.0
290
     0
  0
SCALE
  5
22C
102
{ACAD_REACTORS
330
217
102
}
330
217
100
AcDbScale
 70
     0
300
1/16" = 1'-0"
140
0.0625
141
12.0
290
     0
  0
SCALE
  5
22D
102
{ACAD_REACTORS
330
217
102
}
330
217
100
AcDbScale
 70
     0
300
3/32" = 1'-0"
140
0.09375
141
12.0
290
     0
  0
SCALE
  5
22E
102
{ACAD_REACTORS
330
217
102
}
330
217
100
AcDbScale
 70
     0
300
1/8" = 1'-0"
140
0.125
141
12.0
290
     0
  0
SCALE
  5
22F
102
{ACAD_REACTORS
330
217
102
}
330
217
100
AcDbScale
 70
     0
300
3/16" = 1'-0"
140
0.1875
141
12.0
290
     0
  0
SCALE
  5
230
102
{ACAD_REACTORS
330
217
102
}
330
217
100
AcDbScale
 70
     0
300
1/4" = 1'-0"
140
0.25
141
12.0
290
     0
  0
SCALE
  5
231
102
{ACAD_REACTORS
330
217
102
}
330
217
100
AcDbScale
 70
     0
300
3/8" = 1'-0"
140
0.375
141
12.0
290
     0
  0
SCALE
  5
232
102
{ACAD_REACTORS
330
217
102
}
330
217
100
AcDbScale
 70
     0
300
1/2" = 1'-0"
140
0.5
141
12.0
290
     0
  0
SCALE
  5
233
102
{ACAD_REACTORS
330
217
102
}
330
217
100
AcDbScale
 70
     0
300
3/4" = 1'-0"
140
0.75
141
12.0
290
     0
  0
SCALE
  5
234
102
{ACAD_REACTORS
330
217
102
}
330
217
100
AcDbScale
 70
     0
300
1" = 1'-0"
140
1.0
141
12.0
290
     0
  0
SCALE
  5
235
102
{ACAD_REACTORS
330
217
102
}
330
217
100
AcDbScale
 70
     0
300
1-1/2" = 1'-0"
140
1.5
141
12.0
290
     0
  0
SCALE
  5
236
102
{ACAD_REACTORS
330
217
102
}
330
217
100
AcDbScale
 70
     0
300
3" = 1'-0"
140
3.0
141
12.0
290
     0
  0
SCALE
  5
237
102
{ACAD_REACTORS
330
217
102
}
330
217
100
AcDbScale
 70
     0
300
6" = 1'-0"
140
6.0
141
12.0
290
     0
  0
SCALE
  5
238
102
{ACAD_REACTORS
330
217
102
}
330
217
100
AcDbScale
 70
     0
300
1'-0" = 1'-0"
140
12.0
141
12.0
290
     0
  0
ENDSEC
  0
EOF
