  0
SECTION
  2
HEADER
  9
$ACADVER
  1
AC1015
  9
$ACADMAINTVER
 70
     6
  9
$DWGCODEPAGE
  3
ANSI_1252
  9
$INSBASE
 10
0.0
 20
0.0
 30
0.0
  9
$EXTMIN
 10
0.0
 20
0.0
 30
0.0
  9
$EXTMAX
 10
2000.0
 20
900.0
 30
0.0
  9
$LIMMIN
 10
0.0
 20
0.0
  9
$LIMMAX
 10
2000.0
 20
900.0
  9
$ORTHOMODE
 70
     0
  9
$REGENMODE
 70
     1
  9
$FILLMODE
 70
     1
  9
$QTEXTMODE
 70
     0
  9
$MIRRTEXT
 70
     1
  9
$LTSCALE
 40
1.0
  9
$ATTMODE
 70
     1
  9
$TEXTSIZE
 40
5.0
  9
$TRACEWID
 40
1.0
  9
$TEXTSTYLE
  7
Standard
  9
$CLAYER
  8
0
  9
$CELTYPE
  6
ByLayer
  9
$CECOLOR
 62
   256
  9
$CELTSCALE
 40
1.0
  9
$DISPSILH
 70
     0
  9
$DIMSCALE
 40
1.0
  9
$DIMASZ
 40
6.0
  9
$DIMEXO
 40
1.0
  9
$DIMDLI
 40
3.75
  9
$DIMRND
 40
0.0
  9
$DIMDLE
 40
0.0
  9
$DIMEXE
 40
1.0
  9
$DIMTP
 40
0.0
  9
$DIMTM
 40
0.0
  9
$DIMTXT
 40
5.0
  9
$DIMCEN
 40
2.5
  9
$DIMTSZ
 40
0.0
  9
$DIMTOL
 70
     0
  9
$DIMLIM
 70
     0
  9
$DIMTIH
 70
     1
  9
$DIMTOH
 70
     1
  9
$DIMSE1
 70
     0
  9
$DIMSE2
 70
     0
  9
$DIMTAD
 70
     1
  9
$DIMZIN
 70
     0
  9
$DIMBLK
  1

  9
$DIMASO
 70
     1
  9
$DIMSHO
 70
     1
  9
$DIMPOST
  1

  9
$DIMAPOST
  1

  9
$DIMALT
 70
     0
  9
$DIMALTD
 70
     3
  9
$DIMALTF
 40
0.0393700787401575
  9
$DIMLFAC
 40
1.0
  9
$DIMTOFL
 70
     1
  9
$DIMTVP
 40
0.0
  9
$DIMTIX
 70
     0
  9
$DIMSOXD
 70
     0
  9
$DIMSAH
 70
     0
  9
$DIMBLK1
  1

  9
$DIMBLK2
  1

  9
$DIMSTYLE
  2
ISO-25
  9
$DIMCLRD
 70
     0
  9
$DIMCLRE
 70
     0
  9
$DIMCLRT
 70
     0
  9
$DIMTFAC
 40
1.0
  9
$DIMGAP
 40
1.524
  9
$DIMJUST
 70
     0
  9
$DIMSD1
 70
     0
  9
$DIMSD2
 70
     0
  9
$DIMTOLJ
 70
     0
  9
$DIMTZIN
 70
     0
  9
$DIMALTZ
 70
     0
  9
$DIMALTTZ
 70
     0
  9
$DIMUPT
 70
     0
  9
$DIMDEC
 70
     2
  9
$DIMTDEC
 70
     2
  9
$DIMALTU
 70
     2
  9
$DIMALTTD
 70
     3
  9
$DIMTXSTY
  7
Standard
  9
$DIMAUNIT
 70
     0
  9
$DIMADEC
 70
     2
  9
$DIMALTRND
 40
0.0
  9
$DIMAZIN
 70
     0
  9
$DIMDSEP
 70
    44
  9
$DIMATFIT
 70
     3
  9
$DIMFRAC
 70
     0
  9
$DIMLDRBLK
  1

  9
$DIMLUNIT
 70
     2
  9
$DIMLWD
 70
    -2
  9
$DIMLWE
 70
    -2
  9
$DIMTMOVE
 70
     0
  9
$LUNITS
 70
     2
  9
$LUPREC
 70
     2
  9
$SKETCHINC
 40
1.0
  9
$FILLETRAD
 40
10.0
  9
$AUNITS
 70
     0
  9
$AUPREC
 70
     2
  9
$MENU
  1
.
  9
$ELEVATION
 40
0.0
  9
$PELEVATION
 40
0.0
  9
$THICKNESS
 40
0.0
  9
$LIMCHECK
 70
     0
  9
$CHAMFERA
 40
10.0
  9
$CHAMFERB
 40
10.0
  9
$CHAMFERC
 40
20.0
  9
$CHAMFERD
 40
0.0
  9
$SKPOLY
 70
     0
  9
$TDCREATE
 40
2456338.632360683
  9
$TDUCREATE
 40
2456338.549027349
  9
$TDUPDATE
 40
2457758.360418032
  9
$TDUUPDATE
 40
2457758.277084699
  9
$TDINDWG
 40
0.0001163657
  9
$TDUSRTIMER
 40
2457758.276968565
  9
$USRTIMER
 70
     1
  9
$ANGBASE
 50
0.0
  9
$ANGDIR
 70
     0
  9
$PDMODE
 70
     0
  9
$PDSIZE
 40
-1.0
  9
$PLINEWID
 40
0.0
  9
$SPLFRAME
 70
     0
  9
$SPLINETYPE
 70
     6
  9
$SPLINESEGS
 70
     8
  9
$HANDSEED
  5
243
  9
$SURFTAB1
 70
     6
  9
$SURFTAB2
 70
     6
  9
$SURFTYPE
 70
     6
  9
$SURFU
 70
     6
  9
$SURFV
 70
     6
  9
$UCSBASE
  2

  9
$UCSNAME
  2

  9
$UCSORG
 10
0.0
 20
0.0
 30
0.0
  9
$UCSXDIR
 10
1.0
 20
0.0
 30
0.0
  9
$UCSYDIR
 10
0.0
 20
1.0
 30
0.0
  9
$UCSORTHOREF
  2

  9
$UCSORTHOVIEW
 70
     0
  9
$UCSORGTOP
 10
0.0
 20
0.0
 30
0.0
  9
$UCSORGBOTTOM
 10
0.0
 20
0.0
 30
0.0
  9
$UCSORGLEFT
 10
0.0
 20
0.0
 30
0.0
  9
$UCSORGRIGHT
 10
0.0
 20
0.0
 30
0.0
  9
$UCSORGFRONT
 10
0.0
 20
0.0
 30
0.0
  9
$UCSORGBACK
 10
0.0
 20
0.0
 30
0.0
  9
$PUCSBASE
  2

  9
$PUCSNAME
  2

  9
$PUCSORG
 10
0.0
 20
0.0
 30
0.0
  9
$PUCSXDIR
 10
1.0
 20
0.0
 30
0.0
  9
$PUCSYDIR
 10
0.0
 20
1.0
 30
0.0
  9
$PUCSORTHOREF
  2

  9
$PUCSORTHOVIEW
 70
     0
  9
$PUCSORGTOP
 10
0.0
 20
0.0
 30
0.0
  9
$PUCSORGBOTTOM
 10
0.0
 20
0.0
 30
0.0
  9
$PUCSORGLEFT
 10
0.0
 20
0.0
 30
0.0
  9
$PUCSORGRIGHT
 10
0.0
 20
0.0
 30
0.0
  9
$PUCSORGFRONT
 10
0.0
 20
0.0
 30
0.0
  9
$PUCSORGBACK
 10
0.0
 20
0.0
 30
0.0
  9
$USERI1
 70
     0
  9
$USERI2
 70
     0
  9
$USERI3
 70
     0
  9
$USERI4
 70
     0
  9
$USERI5
 70
     0
  9
$USERR1
 40
0.0
  9
$USERR2
 40
0.0
  9
$USERR3
 40
0.0
  9
$USERR4
 40
0.0
  9
$USERR5
 40
0.0
  9
$WORLDVIEW
 70
     1
  9
$SHADEDGE
 70
     3
  9
$SHADEDIF
 70
    70
  9
$TILEMODE
 70
     1
  9
$MAXACTVP
 70
    64
  9
$PINSBASE
 10
0.0
 20
0.0
 30
0.0
  9
$PLIMCHECK
 70
     0
  9
$PEXTMIN
 10
1.000000000000000E+20
 20
1.000000000000000E+20
 30
1.000000000000000E+20
  9
$PEXTMAX
 10
-1.000000000000000E+20
 20
-1.000000000000000E+20
 30
-1.000000000000000E+20
  9
$PLIMMIN
 10
0.0
 20
0.0
  9
$PLIMMAX
 10
0.0
 20
0.0
  9
$UNITMODE
 70
     0
  9
$VISRETAIN
 70
     1
  9
$PLINEGEN
 70
     0
  9
$PSLTSCALE
 70
     1
  9
$TREEDEPTH
 70
  3020
  9
$CMLSTYLE
  2
Standard
  9
$CMLJUST
 70
     0
  9
$CMLSCALE
 40
20.0
  9
$PROXYGRAPHICS
 70
     1
  9
$MEASUREMENT
 70
     1
  9
$CELWEIGHT
370
    -1
  9
$ENDCAPS
280
     0
  9
$JOINSTYLE
280
     0
  9
$LWDISPLAY
290
     1
  9
$INSUNITS
 70
     4
  9
$HYPERLINKBASE
  1

  9
$STYLESHEET
  1

  9
$XEDIT
290
     1
  9
$CEPSNTYPE
380
     0
  9
$PSTYLEMODE
290
     1
  9
$FINGERPRINTGUID
  2
{3584FAF9-FF53-4FA7-9540-15A7BC2A0B6B}
  9
$VERSIONGUID
  2
{FAEB1C32-E019-11D5-929B-00C0DF256EC4}
  9
$EXTNAMES
290
     1
  9
$PSVPSCALE
 40
0.0
  9
$OLESTARTUP
290
     0
  0
ENDSEC
  0
SECTION
  2
CLASSES
  0
CLASS
  1
ACDBDICTIONARYWDFLT
  2
AcDbDictionaryWithDefault
  3
ObjectDBX Classes
 90
        0
280
     0
281
     0
  0
CLASS
  1
VISUALSTYLE
  2
AcDbVisualStyle
  3
ObjectDBX Classes
 90
     4095
280
     0
281
     0
  0
CLASS
  1
MATERIAL
  2
AcDbMaterial
  3
ObjectDBX Classes
 90
     1153
280
     0
281
     0
  0
CLASS
  1
ACDBPLACEHOLDER
  2
AcDbPlaceHolder
  3
ObjectDBX Classes
 90
        0
280
     0
281
     0
  0
CLASS
  1
LAYOUT
  2
AcDbLayout
  3
ObjectDBX Classes
 90
        0
280
     0
281
     0
  0
CLASS
  1
SCALE
  2
AcDbScale
  3
ObjectDBX Classes
 90
     1153
280
     0
281
     0
  0
CLASS
  1
TABLESTYLE
  2
AcDbTableStyle
  3
ObjectDBX Classes
 90
     4095
280
     0
281
     0
  0
CLASS
  1
SUN
  2
AcDbSun
  3
SCENEOE
 90
     1153
280
     0
281
     0
  0
CLASS
  1
RASTERVARIABLES
  2
AcDbRasterVariables
  3
ISM
 90
        0
280
     0
281
     0
  0
ENDSEC
  0
SECTION
  2
TABLES
  0
TABLE
  2
VPORT
  5
8
330
0
100
AcDbSymbolTable
 70
     1
  0
VPORT
  5
29
330
8
100
AcDbSymbolTableRecord
100
AcDbViewportTableRecord
  2
*Active
 70
     0
 10
0.0
 20
0.0
 11
1.0
 21
1.0
 12
904.9362962962963
 22
542.7146666666669
 13
0.0
 23
0.0
 14
10.0
 24
10.0
 15
10.0
 25
10.0
 16
0.0
 26
0.0
 36
1.0
 17
0.0
 27
0.0
 37
0.0
 40
487.8791111111111
 41
1.67910447761194
 42
50.0
 43
0.0
 44
0.0
 50
0.0
 51
0.0
 71
    16
 72
  2000
 73
     1
 74
     3
 75
     0
 76
     0
 77
     0
 78
     0
281
     0
 65
     1
110
0.0
120
0.0
130
0.0
111
1.0
121
0.0
131
0.0
112
0.0
122
1.0
132
0.0
 79
     0
146
0.0
  0
ENDTAB
  0
TABLE
  2
LTYPE
  5
5
330
0
100
AcDbSymbolTable
 70
     6
  0
LTYPE
  5
14
330
5
100
AcDbSymbolTableRecord
100
AcDbLinetypeTableRecord
  2
ByBlock
 70
     0
  3

 72
    65
 73
     0
 40
0.0
  0
LTYPE
  5
15
330
5
100
AcDbSymbolTableRecord
100
AcDbLinetypeTableRecord
  2
ByLayer
 70
     0
  3

 72
    65
 73
     0
 40
0.0
  0
LTYPE
  5
16
330
5
100
AcDbSymbolTableRecord
100
AcDbLinetypeTableRecord
  2
Continuous
 70
     0
  3
Solid line
 72
    65
 73
     0
 40
0.0
  0
LTYPE
  5
3F
330
5
100
AcDbSymbolTableRecord
100
AcDbLinetypeTableRecord
  2
HIDDEN
 70
     0
  3
Hidden __ __ __ __ __ __ __ __ __ __ __ __ __ __
 72
    65
 73
     2
 40
1.905
 49
1.27
 74
     0
 49
-0.635
 74
     0
  0
LTYPE
  5
40
330
5
100
AcDbSymbolTableRecord
100
AcDbLinetypeTableRecord
  2
PHANTOM
 70
     0
  3
Phantom ______  __  __  ______  __  __  ______
 72
    65
 73
     6
 40
12.7
 49
6.35
 74
     0
 49
-1.27
 74
     0
 49
1.27
 74
     0
 49
-1.27
 74
     0
 49
1.27
 74
     0
 49
-1.27
 74
     0
  0
LTYPE
  5
41
330
5
100
AcDbSymbolTableRecord
100
AcDbLinetypeTableRecord
  2
CENTER
 70
     0
  3
Center ____ _ ____ _ ____ _ ____ _ ____ _ ____
 72
    65
 73
     4
 40
10.16
 49
6.35
 74
     0
 49
-1.27
 74
     0
 49
1.27
 74
     0
 49
-1.27
 74
     0
  0
LTYPE
  5
42
330
5
100
AcDbSymbolTableRecord
100
AcDbLinetypeTableRecord
  2
CENTERX2
 70
     0
  3
Center (2x) ________  __  ________  __  _____
 72
    65
 73
     4
 40
20.32
 49
12.7
 74
     0
 49
-2.54
 74
     0
 49
2.54
 74
     0
 49
-2.54
 74
     0
  0
LTYPE
  5
43
330
5
100
AcDbSymbolTableRecord
100
AcDbLinetypeTableRecord
  2
DOT2
 70
     0
  3
Dot (.5x) ........................................
 72
    65
 73
     2
 40
0.635
 49
0.0
 74
     0
 49
-0.635
 74
     0
  0
ENDTAB
  0
TABLE
  2
LAYER
  5
2
330
0
100
AcDbSymbolTable
 70
     2
  0
LAYER
  5
10
330
2
100
AcDbSymbolTableRecord
100
AcDbLayerTableRecord
  2
0
 70
     0
 62
     7
  6
Continuous
370
    -3
390
F
  0
LAYER
  5
44
330
2
100
AcDbSymbolTableRecord
100
AcDbLayerTableRecord
  2
TABLE_BL1
 70
     0
 62
   179
  6
Continuous
370
    -3
390
F
  0
ENDTAB
  0
TABLE
  2
STYLE
  5
3
330
0
100
AcDbSymbolTable
 70
     2
  0
STYLE
  5
11
330
3
100
AcDbSymbolTableRecord
100
AcDbTextStyleTableRecord
  2
Standard
 70
     0
 40
0.0
 41
1.0
 50
0.0
 71
     0
 42
5.0
  3
txt
  4

  0
STYLE
  5
5C
330
3
100
AcDbSymbolTableRecord
100
AcDbTextStyleTableRecord
  2
SLDTEXTSTYLE0
 70
     0
 40
0.0
 41
0.605
 50
0.0
 71
     0
 42
0.2
  3
TXT
  4

  0
ENDTAB
  0
TABLE
  2
VIEW
  5
6
330
0
100
AcDbSymbolTable
 70
     0
  0
ENDTAB
  0
TABLE
  2
UCS
  5
7
330
0
100
AcDbSymbolTable
 70
     0
  0
ENDTAB
  0
TABLE
  2
APPID
  5
9
330
0
100
AcDbSymbolTable
 70
     1
  0
APPID
  5
12
330
9
100
AcDbSymbolTableRecord
100
AcDbRegAppTableRecord
  2
ACAD
 70
     0
  0
ENDTAB
  0
TABLE
  2
DIMSTYLE
  5
A
330
0
100
AcDbSymbolTable
 70
     1
100
AcDbDimStyleTable
  0
DIMSTYLE
105
27
330
A
100
AcDbSymbolTableRecord
100
AcDbDimStyleTableRecord
  2
ISO-25
 70
     0
 41
2.5
 42
0.625
 43
3.75
 44
1.25
 73
     0
 74
     0
 77
     1
 78
     8
140
2.5
141
2.5
143
0.03937007874016
147
0.625
171
     3
172
     1
178
     0
271
     2
272
     2
274
     3
278
    44
283
     0
284
     8
340
11
  0
ENDTAB
  0
TABLE
  2
BLOCK_RECORD
  5
1
330
0
100
AcDbSymbolTable
 70
    12
  0
BLOCK_RECORD
  5
1F
330
1
100
AcDbSymbolTableRecord
100
AcDbBlockTableRecord
  2
*Model_Space
340
22
  0
BLOCK_RECORD
  5
1B
330
1
100
AcDbSymbolTableRecord
100
AcDbBlockTableRecord
  2
*Paper_Space
340
1E
  0
BLOCK_RECORD
  5
23
330
1
100
AcDbSymbolTableRecord
100
AcDbBlockTableRecord
  2
*Paper_Space0
340
26
  0
BLOCK_RECORD
  5
45
330
1
100
AcDbSymbolTableRecord
100
AcDbBlockTableRecord
  2
Yleistoleranssit
340
0
  0
BLOCK_RECORD
  5
59
330
1
100
AcDbSymbolTableRecord
100
AcDbBlockTableRecord
  2
SW_NOTE_0
340
0
102
{BLKREFS
331
69
102
}
  0
BLOCK_RECORD
  5
6A
330
1
100
AcDbSymbolTableRecord
100
AcDbBlockTableRecord
  2
SW_NOTE_1
340
0
102
{BLKREFS
331
72
102
}
  0
BLOCK_RECORD
  5
73
330
1
100
AcDbSymbolTableRecord
100
AcDbBlockTableRecord
  2
SW_NOTE_2
340
0
102
{BLKREFS
331
78
102
}
  0
BLOCK_RECORD
  5
7A
330
1
100
AcDbSymbolTableRecord
100
AcDbBlockTableRecord
  2
SW_NOTE_3
340
0
102
{BLKREFS
331
89
102
}
  0
BLOCK_RECORD
  5
8A
330
1
100
AcDbSymbolTableRecord
100
AcDbBlockTableRecord
  2
SW_NOTE_4
340
0
102
{BLKREFS
331
99
102
}
  0
BLOCK_RECORD
  5
9A
330
1
100
AcDbSymbolTableRecord
100
AcDbBlockTableRecord
  2
SW_NOTE_5
340
0
102
{BLKREFS
331
A5
102
}
  0
BLOCK_RECORD
  5
A6
330
1
100
AcDbSymbolTableRecord
100
AcDbBlockTableRecord
  2
SW_NOTE_6
340
0
102
{BLKREFS
331
B1
102
}
  0
BLOCK_RECORD
  5
B2
330
1
100
AcDbSymbolTableRecord
100
AcDbBlockTableRecord
  2
SW_NOTE_7
340
0
102
{BLKREFS
331
BD
102
}
  0
BLOCK_RECORD
  5
BE
330
1
100
AcDbSymbolTableRecord
100
AcDbBlockTableRecord
  2
SW_NOTE_8
340
0
102
{BLKREFS
331
C9
102
}
  0
BLOCK_RECORD
  5
CA
330
1
100
AcDbSymbolTableRecord
100
AcDbBlockTableRecord
  2
SW_NOTE_9
340
0
102
{BLKREFS
331
D4
102
}
  0
ENDTAB
  0
ENDSEC
  0
SECTION
  2
BLOCKS
  0
BLOCK
  5
20
330
1F
100
AcDbEntity
  8
0
100
AcDbBlockBegin
  2
*Model_Space
 70
     0
 10
0.0
 20
0.0
 30
0.0
  3
*Model_Space
  1
*Model_Space
  0
ENDBLK
  5
21
330
1F
100
AcDbEntity
  8
0
100
AcDbBlockEnd
  0
BLOCK
  5
1C
330
1B
100
AcDbEntity
 67
     1
  8
0
100
AcDbBlockBegin
  2
*Paper_Space
 70
     0
 10
0.0
 20
0.0
 30
0.0
  3
*Paper_Space
  1
*Paper_Space
  0
ENDBLK
  5
1D
330
1B
100
AcDbEntity
 67
     1
  8
0
100
AcDbBlockEnd
  0
BLOCK
  5
24
330
23
100
AcDbEntity
  8
0
100
AcDbBlockBegin
  2
*Paper_Space0
 70
     0
 10
0.0
 20
0.0
 30
0.0
  3
*Paper_Space0
  1
*Paper_Space0
  0
ENDBLK
  5
25
330
23
100
AcDbEntity
  8
0
100
AcDbBlockEnd
  0
BLOCK
  5
46
330
45
100
AcDbEntity
  8
0
100
AcDbBlockBegin
  2
Yleistoleranssit
 70
     0
 10
0.0
 20
0.0
 30
0.0
  3
Yleistoleranssit
  1
Yleistoleranssit
  0
LINE
  5
48
330
45
100
AcDbEntity
  8
0
  6
Continuous
 62
     7
370
     0
100
AcDbLine
 10
-128.0
 20
20.3216674369395
 30
0.0
 11
0.0
 21
20.3216674369395
 31
0.0
  0
LINE
  5
49
330
45
100
AcDbEntity
  8
0
  6
Continuous
 62
     7
370
     0
100
AcDbLine
 10
-128.0
 20
0.0
 30
0.0
 11
0.0
 21
0.0
 31
0.0
  0
LINE
  5
4A
330
45
100
AcDbEntity
  8
0
  6
Continuous
 62
     7
370
     0
100
AcDbLine
 10
-128.0
 20
0.0
 30
0.0
 11
-128.0
 21
29.3217161765533
 31
0.0
  0
LINE
  5
4B
330
45
100
AcDbEntity
  8
0
  6
Continuous
 62
     7
370
     0
100
AcDbLine
 10
-128.0
 20
29.3217161765533
 30
0.0
 11
0.0
 21
29.3217161765533
 31
0.0
  0
LINE
  5
4C
330
45
100
AcDbEntity
  8
0
  6
Continuous
 62
     7
370
     0
100
AcDbLine
 10
0.0
 20
0.0
 30
0.0
 11
0.0
 21
29.3217161765533
 31
0.0
  0
LINE
  5
4D
330
45
100
AcDbEntity
  8
0
  6
Continuous
 62
     7
370
     0
100
AcDbLine
 10
-90.0
 20
29.3217161765533
 30
0.0
 11
-90.0
 21
0.0
 31
0.0
  0
LINE
  5
4E
330
45
100
AcDbEntity
  8
0
  6
Continuous
 62
     7
370
     0
100
AcDbLine
 10
-80.35846527125837
 20
29.3217161765533
 30
0.0
 11
-80.35846527125837
 21
0.0
 31
0.0
  0
LINE
  5
4F
330
45
100
AcDbEntity
  8
0
  6
Continuous
 62
     7
370
     0
100
AcDbLine
 10
-69.44920276909968
 20
29.3217161765533
 30
0.0
 11
-69.44920276909968
 21
0.0
 31
0.0
  0
LINE
  5
50
330
45
100
AcDbEntity
  8
0
  6
Continuous
 62
     7
370
     0
100
AcDbLine
 10
-58.76960895119699
 20
29.3217161765533
 30
0.0
 11
-58.76960895119699
 21
0.0
 31
0.0
  0
LINE
  5
51
330
45
100
AcDbEntity
  8
0
  6
Continuous
 62
     7
370
     0
100
AcDbLine
 10
-47.7455121069103
 20
29.3217161765533
 30
0.0
 11
-47.7455121069103
 21
0.0
 31
0.0
  0
LINE
  5
52
330
45
100
AcDbEntity
  8
0
  6
Continuous
 62
     7
370
     0
100
AcDbLine
 10
-36.60658092049568
 20
29.3217161765533
 30
0.0
 11
-36.60658092049568
 21
0.0
 31
0.0
  0
LINE
  5
53
330
45
100
AcDbEntity
  8
0
  6
Continuous
 62
     7
370
     0
100
AcDbLine
 10
-24.77864368131311
 20
29.3217161765533
 30
0.0
 11
-24.77864368131311
 21
0.0
 31
0.0
  0
LINE
  5
54
330
45
100
AcDbEntity
  8
0
  6
Continuous
 62
     7
370
     0
100
AcDbLine
 10
-12.95070644213053
 20
29.3217161765533
 30
0.0
 11
-12.95070644213053
 21
0.0
 31
0.0
  0
LINE
  5
55
330
45
100
AcDbEntity
  8
0
  6
Continuous
 62
     7
370
     0
100
AcDbLine
 10
0.0
 20
14.50972099221878
 30
0.0
 11
-107.7846503106451
 21
14.50972099221878
 31
0.0
  0
LINE
  5
56
330
45
100
AcDbEntity
  8
0
  6
Continuous
 62
     7
370
     0
100
AcDbLine
 10
0.0
 20
10.97489696491011
 30
0.0
 11
-107.7846503106451
 21
10.97489696491008
 31
0.0
  0
LINE
  5
57
330
45
100
AcDbEntity
  8
0
  6
Continuous
 62
     7
370
     0
100
AcDbLine
 10
0.0
 20
7.382273231563818
 30
0.0
 11
-128.0
 21
7.382273231563791
 31
0.0
  0
LINE
  5
58
330
45
100
AcDbEntity
  8
0
  6
Continuous
 62
     7
370
     0
100
AcDbLine
 10
0.0
 20
3.87319888736512
 30
0.0
 11
-107.7846503106451
 21
3.873198887365092
 31
0.0
  0
INSERT
  5
69
330
45
100
AcDbEntity
  8
0
  6
Continuous
 62
     7
370
     0
100
AcDbBlockReference
  2
SW_NOTE_0
 10
-88.89342403353773
 20
25.23533252512787
 30
0.0
  0
INSERT
  5
72
330
45
100
AcDbEntity
  8
0
  6
Continuous
 62
     7
370
     0
100
AcDbBlockReference
  2
SW_NOTE_1
 10
-107.3133833052766
 20
14.6653564215458
 30
0.0
  0
INSERT
  5
78
330
45
100
AcDbEntity
  8
0
  6
Continuous
 62
     7
370
     0
100
AcDbBlockReference
  2
SW_NOTE_2
 10
-127.0419636585391
 20
14.6653559558844
 30
0.0
  0
MTEXT
  5
79
330
45
100
AcDbEntity
  8
0
  6
Continuous
 62
     7
370
     0
100
AcDbMText
 10
-127.2347267983281
 20
27.0028750836024
 30
0.0
 40
2.5
 41
0.0
 71
     1
 72
     1
  1
YLEISTOLERANSSIT
  7
SLDTEXTSTYLE0
 73
     1
 44
1.0
  0
INSERT
  5
89
330
45
100
AcDbEntity
  8
0
  6
Continuous
 62
     7
370
     0
100
AcDbBlockReference
  2
SW_NOTE_3
 10
-78.04776805326102
 20
25.23533205946658
 30
0.0
  0
INSERT
  5
99
330
45
100
AcDbEntity
  8
0
  6
Continuous
 62
     7
370
     0
100
AcDbBlockReference
  2
SW_NOTE_4
 10
-66.7605496266333
 20
25.23533205946658
 30
0.0
  0
INSERT
  5
A5
330
45
100
AcDbEntity
  8
0
  6
Continuous
 62
     7
370
     0
100
AcDbBlockReference
  2
SW_NOTE_5
 10
-56.73185874405453
 20
25.23533205946658
 30
0.0
  0
INSERT
  5
B1
330
45
100
AcDbEntity
  8
0
  6
Continuous
 62
     7
370
     0
100
AcDbBlockReference
  2
SW_NOTE_6
 10
-45.87215391116062
 20
25.23533205946658
 30
0.0
  0
INSERT
  5
BD
330
45
100
AcDbEntity
  8
0
  6
Continuous
 62
     7
370
     0
100
AcDbBlockReference
  2
SW_NOTE_7
 10
-34.78509547874237
 20
25.2353315938053
 30
0.0
  0
INSERT
  5
C9
330
45
100
AcDbEntity
  8
0
  6
Continuous
 62
     7
370
     0
100
AcDbBlockReference
  2
SW_NOTE_8
 10
-22.9284213191655
 20
25.2353315938053
 30
0.0
  0
INSERT
  5
D4
330
45
100
AcDbEntity
  8
0
  6
Continuous
 62
     7
370
     0
100
AcDbBlockReference
  2
SW_NOTE_9
 10
-11.10524575847433
 20
25.23533252512787
 30
0.0
  0
ENDBLK
  5
47
330
45
100
AcDbEntity
  8
0
100
AcDbBlockEnd
  0
BLOCK
  5
5A
330
59
100
AcDbEntity
  8
0
100
AcDbBlockBegin
  2
SW_NOTE_0
 70
     0
 10
0.0
 20
0.0
 30
0.0
  3
SW_NOTE_0
  1
SW_NOTE_0
  0
MTEXT
  5
5D
330
59
100
AcDbEntity
  8
0
  6
Continuous
 62
     0
370
     0
100
AcDbMText
 10
1.500000000000001
 20
2.578135479543931
 30
0.0
 40
2.0
 41
0.0
 71
     1
 72
     1
  1
>0,5
  7
SLDTEXTSTYLE0
 73
     1
 44
1.0
  0
MTEXT
  5
5E
330
59
100
AcDbEntity
  8
0
  6
Continuous
 62
     0
370
     0
100
AcDbMText
 10
0.0
 20
-0.9218646284894876
 30
0.0
 40
2.0
 41
0.0
 71
     1
 72
     1
  1
=<3
  7
SLDTEXTSTYLE0
 73
     1
 44
1.0
  0
MTEXT
  5
5F
330
59
100
AcDbEntity
  8
0
  6
Continuous
 62
     0
370
     0
100
AcDbMText
 10
0.0
 20
-7.921864844556325
 30
0.0
 40
2.0
 41
0.0
 71
     1
 72
     1
  1
%%p
  7
SLDTEXTSTYLE0
 73
     1
 44
1.0
  0
MTEXT
  5
60
330
59
100
AcDbEntity
  8
0
  6
Continuous
 62
     0
370
     0
100
AcDbMText
 10
1.841666758991778
 20
-7.921864844556325
 30
0.0
 40
2.0
 41
0.0
 71
     1
 72
     1
  1
0,05
  7
SLDTEXTSTYLE0
 73
     1
 44
1.0
  0
MTEXT
  5
61
330
59
100
AcDbEntity
  8
0
  6
Continuous
 62
     0
370
     0
100
AcDbMText
 10
0.0
 20
-11.42186495258974
 30
0.0
 40
2.0
 41
0.0
 71
     1
 72
     1
  1
%%p
  7
SLDTEXTSTYLE0
 73
     1
 44
1.0
  0
MTEXT
  5
62
330
59
100
AcDbEntity
  8
0
  6
Continuous
 62
     0
370
     0
100
AcDbMText
 10
1.841666758991778
 20
-11.42186495258974
 30
0.0
 40
2.0
 41
0.0
 71
     1
 72
     1
  1
0,1
  7
SLDTEXTSTYLE0
 73
     1
 44
1.0
  0
MTEXT
  5
63
330
59
100
AcDbEntity
  8
0
  6
Continuous
 62
     0
370
     0
100
AcDbMText
 10
0.0
 20
-14.92186506062316
 30
0.0
 40
2.0
 41
0.0
 71
     1
 72
     1
  1
%%p
  7
SLDTEXTSTYLE0
 73
     1
 44
1.0
  0
MTEXT
  5
64
330
59
100
AcDbEntity
  8
0
  6
Continuous
 62
     0
370
     0
100
AcDbMText
 10
1.841666758991778
 20
-14.92186506062316
 30
0.0
 40
2.0
 41
0.0
 71
     1
 72
     1
  1
0,2
  7
SLDTEXTSTYLE0
 73
     1
 44
1.0
  0
MTEXT
  5
65
330
59
100
AcDbEntity
  8
0
  6
Continuous
 62
     0
370
     0
100
AcDbMText
 10
0.0
 20
-18.42186516865658
 30
0.0
 40
2.0
 41
0.0
 71
     1
 72
     1
  1
%%p
  7
SLDTEXTSTYLE0
 73
     1
 44
1.0
  0
MTEXT
  5
66
330
59
100
AcDbEntity
  8
0
  6
Continuous
 62
     0
370
     0
100
AcDbMText
 10
1.841666758991778
 20
-18.42186516865658
 30
0.0
 40
2.0
 41
0.0
 71
     1
 72
     1
  1
0,2
  7
SLDTEXTSTYLE0
 73
     1
 44
1.0
  0
MTEXT
  5
67
330
59
100
AcDbEntity
  8
0
  6
Continuous
 62
     0
370
     0
100
AcDbMText
 10
0.0
 20
-21.92186527669
 30
0.0
 40
2.0
 41
0.0
 71
     1
 72
     1
  1
%%p
  7
SLDTEXTSTYLE0
 73
     1
 44
1.0
  0
MTEXT
  5
68
330
59
100
AcDbEntity
  8
0
  6
Continuous
 62
     0
370
     0
100
AcDbMText
 10
1.841666758991778
 20
-21.92186527669
 30
0.0
 40
2.0
 41
0.0
 71
     1
 72
     1
  1
0,4
  7
SLDTEXTSTYLE0
 73
     1
 44
1.0
  0
ENDBLK
  5
5B
330
59
100
AcDbEntity
  8
0
100
AcDbBlockEnd
  0
BLOCK
  5
6B
330
6A
100
AcDbEntity
  8
0
100
AcDbBlockBegin
  2
SW_NOTE_1
 70
     0
 10
0.0
 20
0.0
 30
0.0
  3
SW_NOTE_1
  1
SW_NOTE_1
  0
MTEXT
  5
6D
330
6A
100
AcDbEntity
  8
0
  6
Continuous
 62
     0
370
     0
100
AcDbMText
 10
0.0
 20
2.578135479543931
 30
0.0
 40
2.0
 41
0.0
 71
     1
 72
     1
  1
ISO-2768-f
  7
SLDTEXTSTYLE0
 73
     1
 44
1.0
  0
MTEXT
  5
6E
330
6A
100
AcDbEntity
  8
0
  6
Continuous
 62
     0
370
     0
100
AcDbMText
 10
0.0
 20
-0.9218646284894876
 30
0.0
 40
2.0
 41
0.0
 71
     1
 72
     1
  1
ISO-2768-m
  7
SLDTEXTSTYLE0
 73
     1
 44
1.0
  0
MTEXT
  5
6F
330
6A
100
AcDbEntity
  8
0
  6
Continuous
 62
     0
370
     0
100
AcDbMText
 10
0.0
 20
-4.421864736522906
 30
0.0
 40
2.0
 41
0.0
 71
     1
 72
     1
  1
ISO-2768-c
  7
SLDTEXTSTYLE0
 73
     1
 44
1.0
  0
MTEXT
  5
70
330
6A
100
AcDbEntity
  8
0
  6
Continuous
 62
     0
370
     0
100
AcDbMText
 10
0.0
 20
-7.921864844556325
 30
0.0
 40
2.0
 41
0.0
 71
     1
 72
     1
  1
ISO-2768-f/m
  7
SLDTEXTSTYLE0
 73
     1
 44
1.0
  0
MTEXT
  5
71
330
6A
100
AcDbEntity
  8
0
  6
Continuous
 62
     0
370
     0
100
AcDbMText
 10
0.0
 20
-11.42186495258974
 30
0.0
 40
2.0
 41
0.0
 71
     1
 72
     1
  1
ISO-2768-c
  7
SLDTEXTSTYLE0
 73
     1
 44
1.0
  0
ENDBLK
  5
6C
330
6A
100
AcDbEntity
  8
0
100
AcDbBlockEnd
  0
BLOCK
  5
74
330
73
100
AcDbEntity
  8
0
100
AcDbBlockBegin
  2
SW_NOTE_2
 70
     0
 10
0.0
 20
0.0
 30
0.0
  3
SW_NOTE_2
  1
SW_NOTE_2
  0
MTEXT
  5
76
330
73
100
AcDbEntity
  8
0
  6
Continuous
 62
     0
370
     0
100
AcDbMText
 10
0.0
 20
2.578135479543931
 30
0.0
 40
2.0
 41
0.0
 71
     1
 72
     1
  1
Pituusmitat
  7
SLDTEXTSTYLE0
 73
     1
 44
1.0
  0
MTEXT
  5
77
330
73
100
AcDbEntity
  8
0
  6
Continuous
 62
     0
370
     0
100
AcDbMText
 10
0.0
 20
-7.921864844556325
 30
0.0
 40
2.0
 41
0.0
 71
     1
 72
     1
  1
Säteet, viisteet
  7
SLDTEXTSTYLE0
 73
     1
 44
1.0
  0
ENDBLK
  5
75
330
73
100
AcDbEntity
  8
0
100
AcDbBlockEnd
  0
BLOCK
  5
7B
330
7A
100
AcDbEntity
  8
0
100
AcDbBlockBegin
  2
SW_NOTE_3
 70
     0
 10
0.0
 20
0.0
 30
0.0
  3
SW_NOTE_3
  1
SW_NOTE_3
  0
MTEXT
  5
7D
330
7A
100
AcDbEntity
  8
0
  6
Continuous
 62
     0
370
     0
100
AcDbMText
 10
1.500000000000001
 20
2.578135479543931
 30
0.0
 40
2.0
 41
0.0
 71
     1
 72
     1
  1
>3
  7
SLDTEXTSTYLE0
 73
     1
 44
1.0
  0
MTEXT
  5
7E
330
7A
100
AcDbEntity
  8
0
  6
Continuous
 62
     0
370
     0
100
AcDbMText
 10
0.0
 20
-0.9218646284894876
 30
0.0
 40
2.0
 41
0.0
 71
     1
 72
     1
  1
=<6
  7
SLDTEXTSTYLE0
 73
     1
 44
1.0
  0
MTEXT
  5
7F
330
7A
100
AcDbEntity
  8
0
  6
Continuous
 62
     0
370
     0
100
AcDbMText
 10
0.0
 20
-7.921864844556325
 30
0.0
 40
2.0
 41
0.0
 71
     1
 72
     1
  1
%%p
  7
SLDTEXTSTYLE0
 73
     1
 44
1.0
  0
MTEXT
  5
80
330
7A
100
AcDbEntity
  8
0
  6
Continuous
 62
     0
370
     0
100
AcDbMText
 10
1.841666758991778
 20
-7.921864844556325
 30
0.0
 40
2.0
 41
0.0
 71
     1
 72
     1
  1
0,05
  7
SLDTEXTSTYLE0
 73
     1
 44
1.0
  0
MTEXT
  5
81
330
7A
100
AcDbEntity
  8
0
  6
Continuous
 62
     0
370
     0
100
AcDbMText
 10
0.0
 20
-11.42186495258974
 30
0.0
 40
2.0
 41
0.0
 71
     1
 72
     1
  1
%%p
  7
SLDTEXTSTYLE0
 73
     1
 44
1.0
  0
MTEXT
  5
82
330
7A
100
AcDbEntity
  8
0
  6
Continuous
 62
     0
370
     0
100
AcDbMText
 10
1.841666758991778
 20
-11.42186495258974
 30
0.0
 40
2.0
 41
0.0
 71
     1
 72
     1
  1
0,1
  7
SLDTEXTSTYLE0
 73
     1
 44
1.0
  0
MTEXT
  5
83
330
7A
100
AcDbEntity
  8
0
  6
Continuous
 62
     0
370
     0
100
AcDbMText
 10
0.0
 20
-14.92186506062316
 30
0.0
 40
2.0
 41
0.0
 71
     1
 72
     1
  1
%%p
  7
SLDTEXTSTYLE0
 73
     1
 44
1.0
  0
MTEXT
  5
84
330
7A
100
AcDbEntity
  8
0
  6
Continuous
 62
     0
370
     0
100
AcDbMText
 10
1.841666758991778
 20
-14.92186506062316
 30
0.0
 40
2.0
 41
0.0
 71
     1
 72
     1
  1
0,3
  7
SLDTEXTSTYLE0
 73
     1
 44
1.0
  0
MTEXT
  5
85
330
7A
100
AcDbEntity
  8
0
  6
Continuous
 62
     0
370
     0
100
AcDbMText
 10
0.0
 20
-18.42186516865658
 30
0.0
 40
2.0
 41
0.0
 71
     1
 72
     1
  1
%%p
  7
SLDTEXTSTYLE0
 73
     1
 44
1.0
  0
MTEXT
  5
86
330
7A
100
AcDbEntity
  8
0
  6
Continuous
 62
     0
370
     0
100
AcDbMText
 10
1.841666758991778
 20
-18.42186516865658
 30
0.0
 40
2.0
 41
0.0
 71
     1
 72
     1
  1
0,5
  7
SLDTEXTSTYLE0
 73
     1
 44
1.0
  0
MTEXT
  5
87
330
7A
100
AcDbEntity
  8
0
  6
Continuous
 62
     0
370
     0
100
AcDbMText
 10
0.0
 20
-21.92186527669
 30
0.0
 40
2.0
 41
0.0
 71
     1
 72
     1
  1
%%p
  7
SLDTEXTSTYLE0
 73
     1
 44
1.0
  0
MTEXT
  5
88
330
7A
100
AcDbEntity
  8
0
  6
Continuous
 62
     0
370
     0
100
AcDbMText
 10
1.841666758991778
 20
-21.92186527669
 30
0.0
 40
2.0
 41
0.0
 71
     1
 72
     1
  1
1
  7
SLDTEXTSTYLE0
 73
     1
 44
1.0
  0
ENDBLK
  5
7C
330
7A
100
AcDbEntity
  8
0
100
AcDbBlockEnd
  0
BLOCK
  5
8B
330
8A
100
AcDbEntity
  8
0
100
AcDbBlockBegin
  2
SW_NOTE_4
 70
     0
 10
0.0
 20
0.0
 30
0.0
  3
SW_NOTE_4
  1
SW_NOTE_4
  0
MTEXT
  5
8D
330
8A
100
AcDbEntity
  8
0
  6
Continuous
 62
     0
370
     0
100
AcDbMText
 10
1.500000000000001
 20
2.578135479543931
 30
0.0
 40
2.0
 41
0.0
 71
     1
 72
     1
  1
>6
  7
SLDTEXTSTYLE0
 73
     1
 44
1.0
  0
MTEXT
  5
8E
330
8A
100
AcDbEntity
  8
0
  6
Continuous
 62
     0
370
     0
100
AcDbMText
 10
0.0
 20
-0.9218646284894876
 30
0.0
 40
2.0
 41
0.0
 71
     1
 72
     1
  1
=<30
  7
SLDTEXTSTYLE0
 73
     1
 44
1.0
  0
MTEXT
  5
8F
330
8A
100
AcDbEntity
  8
0
  6
Continuous
 62
     0
370
     0
100
AcDbMText
 10
0.0
 20
-7.921864844556325
 30
0.0
 40
2.0
 41
0.0
 71
     1
 72
     1
  1
%%p
  7
SLDTEXTSTYLE0
 73
     1
 44
1.0
  0
MTEXT
  5
90
330
8A
100
AcDbEntity
  8
0
  6
Continuous
 62
     0
370
     0
100
AcDbMText
 10
1.841666758991778
 20
-7.921864844556325
 30
0.0
 40
2.0
 41
0.0
 71
     1
 72
     1
  1
0,1
  7
SLDTEXTSTYLE0
 73
     1
 44
1.0
  0
MTEXT
  5
91
330
8A
100
AcDbEntity
  8
0
  6
Continuous
 62
     0
370
     0
100
AcDbMText
 10
0.0
 20
-11.42186495258974
 30
0.0
 40
2.0
 41
0.0
 71
     1
 72
     1
  1
%%p
  7
SLDTEXTSTYLE0
 73
     1
 44
1.0
  0
MTEXT
  5
92
330
8A
100
AcDbEntity
  8
0
  6
Continuous
 62
     0
370
     0
100
AcDbMText
 10
1.841666758991778
 20
-11.42186495258974
 30
0.0
 40
2.0
 41
0.0
 71
     1
 72
     1
  1
0,2
  7
SLDTEXTSTYLE0
 73
     1
 44
1.0
  0
MTEXT
  5
93
330
8A
100
AcDbEntity
  8
0
  6
Continuous
 62
     0
370
     0
100
AcDbMText
 10
0.0
 20
-14.92186506062316
 30
0.0
 40
2.0
 41
0.0
 71
     1
 72
     1
  1
%%p
  7
SLDTEXTSTYLE0
 73
     1
 44
1.0
  0
MTEXT
  5
94
330
8A
100
AcDbEntity
  8
0
  6
Continuous
 62
     0
370
     0
100
AcDbMText
 10
1.841666758991778
 20
-14.92186506062316
 30
0.0
 40
2.0
 41
0.0
 71
     1
 72
     1
  1
0,5
  7
SLDTEXTSTYLE0
 73
     1
 44
1.0
  0
MTEXT
  5
95
330
8A
100
AcDbEntity
  8
0
  6
Continuous
 62
     0
370
     0
100
AcDbMText
 10
0.0
 20
-18.42186516865658
 30
0.0
 40
2.0
 41
0.0
 71
     1
 72
     1
  1
%%p
  7
SLDTEXTSTYLE0
 73
     1
 44
1.0
  0
MTEXT
  5
96
330
8A
100
AcDbEntity
  8
0
  6
Continuous
 62
     0
370
     0
100
AcDbMText
 10
1.841666758991778
 20
-18.42186516865658
 30
0.0
 40
2.0
 41
0.0
 71
     1
 72
     1
  1
1
  7
SLDTEXTSTYLE0
 73
     1
 44
1.0
  0
MTEXT
  5
97
330
8A
100
AcDbEntity
  8
0
  6
Continuous
 62
     0
370
     0
100
AcDbMText
 10
0.0
 20
-21.92186527669
 30
0.0
 40
2.0
 41
0.0
 71
     1
 72
     1
  1
%%p
  7
SLDTEXTSTYLE0
 73
     1
 44
1.0
  0
MTEXT
  5
98
330
8A
100
AcDbEntity
  8
0
  6
Continuous
 62
     0
370
     0
100
AcDbMText
 10
1.841666758991778
 20
-21.92186527669
 30
0.0
 40
2.0
 41
0.0
 71
     1
 72
     1
  1
2
  7
SLDTEXTSTYLE0
 73
     1
 44
1.0
  0
ENDBLK
  5
8C
330
8A
100
AcDbEntity
  8
0
100
AcDbBlockEnd
  0
BLOCK
  5
9B
330
9A
100
AcDbEntity
  8
0
100
AcDbBlockBegin
  2
SW_NOTE_5
 70
     0
 10
0.0
 20
0.0
 30
0.0
  3
SW_NOTE_5
  1
SW_NOTE_5
  0
MTEXT
  5
9D
330
9A
100
AcDbEntity
  8
0
  6
Continuous
 62
     0
370
     0
100
AcDbMText
 10
1.500000000000001
 20
2.578135479543931
 30
0.0
 40
2.0
 41
0.0
 71
     1
 72
     1
  1
>30
  7
SLDTEXTSTYLE0
 73
     1
 44
1.0
  0
MTEXT
  5
9E
330
9A
100
AcDbEntity
  8
0
  6
Continuous
 62
     0
370
     0
100
AcDbMText
 10
0.0
 20
-0.9218646284894876
 30
0.0
 40
2.0
 41
0.0
 71
     1
 72
     1
  1
=<120
  7
SLDTEXTSTYLE0
 73
     1
 44
1.0
  0
MTEXT
  5
9F
330
9A
100
AcDbEntity
  8
0
  6
Continuous
 62
     0
370
     0
100
AcDbMText
 10
0.0
 20
-7.921864844556325
 30
0.0
 40
2.0
 41
0.0
 71
     1
 72
     1
  1
%%p
  7
SLDTEXTSTYLE0
 73
     1
 44
1.0
  0
MTEXT
  5
A0
330
9A
100
AcDbEntity
  8
0
  6
Continuous
 62
     0
370
     0
100
AcDbMText
 10
1.841666758991778
 20
-7.921864844556325
 30
0.0
 40
2.0
 41
0.0
 71
     1
 72
     1
  1
0,15
  7
SLDTEXTSTYLE0
 73
     1
 44
1.0
  0
MTEXT
  5
A1
330
9A
100
AcDbEntity
  8
0
  6
Continuous
 62
     0
370
     0
100
AcDbMText
 10
0.0
 20
-11.42186495258974
 30
0.0
 40
2.0
 41
0.0
 71
     1
 72
     1
  1
%%p
  7
SLDTEXTSTYLE0
 73
     1
 44
1.0
  0
MTEXT
  5
A2
330
9A
100
AcDbEntity
  8
0
  6
Continuous
 62
     0
370
     0
100
AcDbMText
 10
1.841666758991778
 20
-11.42186495258974
 30
0.0
 40
2.0
 41
0.0
 71
     1
 72
     1
  1
0,3
  7
SLDTEXTSTYLE0
 73
     1
 44
1.0
  0
MTEXT
  5
A3
330
9A
100
AcDbEntity
  8
0
  6
Continuous
 62
     0
370
     0
100
AcDbMText
 10
0.0
 20
-14.92186506062316
 30
0.0
 40
2.0
 41
0.0
 71
     1
 72
     1
  1
%%p
  7
SLDTEXTSTYLE0
 73
     1
 44
1.0
  0
MTEXT
  5
A4
330
9A
100
AcDbEntity
  8
0
  6
Continuous
 62
     0
370
     0
100
AcDbMText
 10
1.841666758991778
 20
-14.92186506062316
 30
0.0
 40
2.0
 41
0.0
 71
     1
 72
     1
  1
0,8
  7
SLDTEXTSTYLE0
 73
     1
 44
1.0
  0
ENDBLK
  5
9C
330
9A
100
AcDbEntity
  8
0
100
AcDbBlockEnd
  0
BLOCK
  5
A7
330
A6
100
AcDbEntity
  8
0
100
AcDbBlockBegin
  2
SW_NOTE_6
 70
     0
 10
0.0
 20
0.0
 30
0.0
  3
SW_NOTE_6
  1
SW_NOTE_6
  0
MTEXT
  5
A9
330
A6
100
AcDbEntity
  8
0
  6
Continuous
 62
     0
370
     0
100
AcDbMText
 10
1.500000000000001
 20
2.578135479543931
 30
0.0
 40
2.0
 41
0.0
 71
     1
 72
     1
  1
>120
  7
SLDTEXTSTYLE0
 73
     1
 44
1.0
  0
MTEXT
  5
AA
330
A6
100
AcDbEntity
  8
0
  6
Continuous
 62
     0
370
     0
100
AcDbMText
 10
0.0
 20
-0.9218646284894876
 30
0.0
 40
2.0
 41
0.0
 71
     1
 72
     1
  1
=<400
  7
SLDTEXTSTYLE0
 73
     1
 44
1.0
  0
MTEXT
  5
AB
330
A6
100
AcDbEntity
  8
0
  6
Continuous
 62
     0
370
     0
100
AcDbMText
 10
0.0
 20
-7.921864844556325
 30
0.0
 40
2.0
 41
0.0
 71
     1
 72
     1
  1
%%p
  7
SLDTEXTSTYLE0
 73
     1
 44
1.0
  0
MTEXT
  5
AC
330
A6
100
AcDbEntity
  8
0
  6
Continuous
 62
     0
370
     0
100
AcDbMText
 10
1.841666758991778
 20
-7.921864844556325
 30
0.0
 40
2.0
 41
0.0
 71
     1
 72
     1
  1
0,2
  7
SLDTEXTSTYLE0
 73
     1
 44
1.0
  0
MTEXT
  5
AD
330
A6
100
AcDbEntity
  8
0
  6
Continuous
 62
     0
370
     0
100
AcDbMText
 10
0.0
 20
-11.42186495258974
 30
0.0
 40
2.0
 41
0.0
 71
     1
 72
     1
  1
%%p
  7
SLDTEXTSTYLE0
 73
     1
 44
1.0
  0
MTEXT
  5
AE
330
A6
100
AcDbEntity
  8
0
  6
Continuous
 62
     0
370
     0
100
AcDbMText
 10
1.841666758991778
 20
-11.42186495258974
 30
0.0
 40
2.0
 41
0.0
 71
     1
 72
     1
  1
0,5
  7
SLDTEXTSTYLE0
 73
     1
 44
1.0
  0
MTEXT
  5
AF
330
A6
100
AcDbEntity
  8
0
  6
Continuous
 62
     0
370
     0
100
AcDbMText
 10
0.0
 20
-14.92186506062316
 30
0.0
 40
2.0
 41
0.0
 71
     1
 72
     1
  1
%%p
  7
SLDTEXTSTYLE0
 73
     1
 44
1.0
  0
MTEXT
  5
B0
330
A6
100
AcDbEntity
  8
0
  6
Continuous
 62
     0
370
     0
100
AcDbMText
 10
1.841666758991778
 20
-14.92186506062316
 30
0.0
 40
2.0
 41
0.0
 71
     1
 72
     1
  1
1,2
  7
SLDTEXTSTYLE0
 73
     1
 44
1.0
  0
ENDBLK
  5
A8
330
A6
100
AcDbEntity
  8
0
100
AcDbBlockEnd
  0
BLOCK
  5
B3
330
B2
100
AcDbEntity
  8
0
100
AcDbBlockBegin
  2
SW_NOTE_7
 70
     0
 10
0.0
 20
0.0
 30
0.0
  3
SW_NOTE_7
  1
SW_NOTE_7
  0
MTEXT
  5
B5
330
B2
100
AcDbEntity
  8
0
  6
Continuous
 62
     0
370
     0
100
AcDbMText
 10
1.500000000000001
 20
2.578135479543931
 30
0.0
 40
2.0
 41
0.0
 71
     1
 72
     1
  1
>400
  7
SLDTEXTSTYLE0
 73
     1
 44
1.0
  0
MTEXT
  5
B6
330
B2
100
AcDbEntity
  8
0
  6
Continuous
 62
     0
370
     0
100
AcDbMText
 10
0.0
 20
-0.9218646284894876
 30
0.0
 40
2.0
 41
0.0
 71
     1
 72
     1
  1
=<1000
  7
SLDTEXTSTYLE0
 73
     1
 44
1.0
  0
MTEXT
  5
B7
330
B2
100
AcDbEntity
  8
0
  6
Continuous
 62
     0
370
     0
100
AcDbMText
 10
0.0
 20
-7.921864844556325
 30
0.0
 40
2.0
 41
0.0
 71
     1
 72
     1
  1
%%p
  7
SLDTEXTSTYLE0
 73
     1
 44
1.0
  0
MTEXT
  5
B8
330
B2
100
AcDbEntity
  8
0
  6
Continuous
 62
     0
370
     0
100
AcDbMText
 10
1.841666758991778
 20
-7.921864844556325
 30
0.0
 40
2.0
 41
0.0
 71
     1
 72
     1
  1
0,3
  7
SLDTEXTSTYLE0
 73
     1
 44
1.0
  0
MTEXT
  5
B9
330
B2
100
AcDbEntity
  8
0
  6
Continuous
 62
     0
370
     0
100
AcDbMText
 10
0.0
 20
-11.42186495258974
 30
0.0
 40
2.0
 41
0.0
 71
     1
 72
     1
  1
%%p
  7
SLDTEXTSTYLE0
 73
     1
 44
1.0
  0
MTEXT
  5
BA
330
B2
100
AcDbEntity
  8
0
  6
Continuous
 62
     0
370
     0
100
AcDbMText
 10
1.841666758991778
 20
-11.42186495258974
 30
0.0
 40
2.0
 41
0.0
 71
     1
 72
     1
  1
0,8
  7
SLDTEXTSTYLE0
 73
     1
 44
1.0
  0
MTEXT
  5
BB
330
B2
100
AcDbEntity
  8
0
  6
Continuous
 62
     0
370
     0
100
AcDbMText
 10
0.0
 20
-14.92186506062316
 30
0.0
 40
2.0
 41
0.0
 71
     1
 72
     1
  1
%%p
  7
SLDTEXTSTYLE0
 73
     1
 44
1.0
  0
MTEXT
  5
BC
330
B2
100
AcDbEntity
  8
0
  6
Continuous
 62
     0
370
     0
100
AcDbMText
 10
1.841666758991778
 20
-14.92186506062316
 30
0.0
 40
2.0
 41
0.0
 71
     1
 72
     1
  1
1,2
  7
SLDTEXTSTYLE0
 73
     1
 44
1.0
  0
ENDBLK
  5
B4
330
B2
100
AcDbEntity
  8
0
100
AcDbBlockEnd
  0
BLOCK
  5
BF
330
BE
100
AcDbEntity
  8
0
100
AcDbBlockBegin
  2
SW_NOTE_8
 70
     0
 10
0.0
 20
0.0
 30
0.0
  3
SW_NOTE_8
  1
SW_NOTE_8
  0
MTEXT
  5
C1
330
BE
100
AcDbEntity
  8
0
  6
Continuous
 62
     0
370
     0
100
AcDbMText
 10
1.500000000000001
 20
2.578135479543931
 30
0.0
 40
2.0
 41
0.0
 71
     1
 72
     1
  1
>1000
  7
SLDTEXTSTYLE0
 73
     1
 44
1.0
  0
MTEXT
  5
C2
330
BE
100
AcDbEntity
  8
0
  6
Continuous
 62
     0
370
     0
100
AcDbMText
 10
0.0
 20
-0.9218646284894876
 30
0.0
 40
2.0
 41
0.0
 71
     1
 72
     1
  1
=<2000
  7
SLDTEXTSTYLE0
 73
     1
 44
1.0
  0
MTEXT
  5
C3
330
BE
100
AcDbEntity
  8
0
  6
Continuous
 62
     0
370
     0
100
AcDbMText
 10
0.0
 20
-7.921864844556325
 30
0.0
 40
2.0
 41
0.0
 71
     1
 72
     1
  1
%%p
  7
SLDTEXTSTYLE0
 73
     1
 44
1.0
  0
MTEXT
  5
C4
330
BE
100
AcDbEntity
  8
0
  6
Continuous
 62
     0
370
     0
100
AcDbMText
 10
1.841666758991778
 20
-7.921864844556325
 30
0.0
 40
2.0
 41
0.0
 71
     1
 72
     1
  1
0,5
  7
SLDTEXTSTYLE0
 73
     1
 44
1.0
  0
MTEXT
  5
C5
330
BE
100
AcDbEntity
  8
0
  6
Continuous
 62
     0
370
     0
100
AcDbMText
 10
0.0
 20
-11.42186495258974
 30
0.0
 40
2.0
 41
0.0
 71
     1
 72
     1
  1
%%p
  7
SLDTEXTSTYLE0
 73
     1
 44
1.0
  0
MTEXT
  5
C6
330
BE
100
AcDbEntity
  8
0
  6
Continuous
 62
     0
370
     0
100
AcDbMText
 10
1.841666758991778
 20
-11.42186495258974
 30
0.0
 40
2.0
 41
0.0
 71
     1
 72
     1
  1
1,2
  7
SLDTEXTSTYLE0
 73
     1
 44
1.0
  0
MTEXT
  5
C7
330
BE
100
AcDbEntity
  8
0
  6
Continuous
 62
     0
370
     0
100
AcDbMText
 10
0.0
 20
-14.92186506062316
 30
0.0
 40
2.0
 41
0.0
 71
     1
 72
     1
  1
%%p
  7
SLDTEXTSTYLE0
 73
     1
 44
1.0
  0
MTEXT
  5
C8
330
BE
100
AcDbEntity
  8
0
  6
Continuous
 62
     0
370
     0
100
AcDbMText
 10
1.841666758991778
 20
-14.92186506062316
 30
0.0
 40
2.0
 41
0.0
 71
     1
 72
     1
  1
3
  7
SLDTEXTSTYLE0
 73
     1
 44
1.0
  0
ENDBLK
  5
C0
330
BE
100
AcDbEntity
  8
0
100
AcDbBlockEnd
  0
BLOCK
  5
CB
330
CA
100
AcDbEntity
  8
0
100
AcDbBlockBegin
  2
SW_NOTE_9
 70
     0
 10
0.0
 20
0.0
 30
0.0
  3
SW_NOTE_9
  1
SW_NOTE_9
  0
MTEXT
  5
CD
330
CA
100
AcDbEntity
  8
0
  6
Continuous
 62
     0
370
     0
100
AcDbMText
 10
1.5
 20
2.578135479543931
 30
0.0
 40
2.0
 41
0.0
 71
     1
 72
     1
  1
>2000
  7
SLDTEXTSTYLE0
 73
     1
 44
1.0
  0
MTEXT
  5
CE
330
CA
100
AcDbEntity
  8
0
  6
Continuous
 62
     0
370
     0
100
AcDbMText
 10
0.0
 20
-0.9218646284894876
 30
0.0
 40
2.0
 41
0.0
 71
     1
 72
     1
  1
=<4000
  7
SLDTEXTSTYLE0
 73
     1
 44
1.0
  0
MTEXT
  5
CF
330
CA
100
AcDbEntity
  8
0
  6
Continuous
 62
     0
370
     0
100
AcDbMText
 10
2.999999999999999
 20
-7.921864844556325
 30
0.0
 40
2.0
 41
0.0
 71
     1
 72
     1
  1
-
  7
SLDTEXTSTYLE0
 73
     1
 44
1.0
  0
MTEXT
  5
D0
330
CA
100
AcDbEntity
  8
0
  6
Continuous
 62
     0
370
     0
100
AcDbMText
 10
0.0
 20
-11.42186495258974
 30
0.0
 40
2.0
 41
0.0
 71
     1
 72
     1
  1
%%p
  7
SLDTEXTSTYLE0
 73
     1
 44
1.0
  0
MTEXT
  5
D1
330
CA
100
AcDbEntity
  8
0
  6
Continuous
 62
     0
370
     0
100
AcDbMText
 10
1.841666758991778
 20
-11.42186495258974
 30
0.0
 40
2.0
 41
0.0
 71
     1
 72
     1
  1
2,0
  7
SLDTEXTSTYLE0
 73
     1
 44
1.0
  0
MTEXT
  5
D2
330
CA
100
AcDbEntity
  8
0
  6
Continuous
 62
     0
370
     0
100
AcDbMText
 10
0.0
 20
-14.92186506062316
 30
0.0
 40
2.0
 41
0.0
 71
     1
 72
     1
  1
%%p
  7
SLDTEXTSTYLE0
 73
     1
 44
1.0
  0
MTEXT
  5
D3
330
CA
100
AcDbEntity
  8
0
  6
Continuous
 62
     0
370
     0
100
AcDbMText
 10
1.841666758991778
 20
-14.92186506062316
 30
0.0
 40
2.0
 41
0.0
 71
     1
 72
     1
  1
4
  7
SLDTEXTSTYLE0
 73
     1
 44
1.0
  0
ENDBLK
  5
CC
330
CA
100
AcDbEntity
  8
0
100
AcDbBlockEnd
  0
ENDSEC
  0
SECTION
  2
ENTITIES
  0
LINE
  5
D5
330
1F
100
AcDbEntity
  8
0
  6
Continuous
 62
     7
370
    15
100
AcDbLine
 10
849.6748206508157
 20
588.4336901653195
 30
0.0
 11
729.6748307836053
 21
588.4336901653195
 31
0.0
  0
LINE
  5
D6
330
1F
100
AcDbEntity
  8
0
  6
Continuous
 62
     7
370
    15
100
AcDbLine
 10
874.6748266112802
 20
273.4336925495054
 30
0.0
 11
874.6748266112802
 21
563.4336916554356
 31
0.0
  0
ARC
  5
D7
330
1F
100
AcDbEntity
  8
0
  6
Continuous
 62
     7
370
    15
100
AcDbCircle
 10
849.674825174825
 20
563.4336882067958
 30
0.0
 40
25.0
100
AcDbArc
 50
0.0000000000002606
 51
90.0
  0
LINE
  5
D8
330
1F
100
AcDbEntity
  8
0
  6
Continuous
 62
     7
370
    15
100
AcDbLine
 10
729.6748307836053
 20
248.4336865890409
 30
0.0
 11
849.6748206508157
 21
248.4336865890409
 31
0.0
  0
ARC
  5
D9
330
1F
100
AcDbEntity
  8
0
  6
Continuous
 62
     7
370
    15
100
AcDbCircle
 10
849.674825174825
 20
273.4336882067958
 30
0.0
 40
25.00000000000003
100
AcDbArc
 50
270.0000000000008
 51
0.0
  0
ARC
  5
DA
330
1F
100
AcDbEntity
  8
0
  6
Continuous
 62
     7
370
    15
100
AcDbCircle
 10
729.6748251748251
 20
273.4336882067958
 30
0.0
 40
25.00000000000011
100
AcDbArc
 50
180.0
 51
270.0000000000008
  0
LINE
  5
DB
330
1F
100
AcDbEntity
  8
0
  6
Continuous
 62
     7
370
    15
100
AcDbLine
 10
704.6748248231409
 20
563.4336916554356
 30
0.0
 11
704.6748248231409
 21
273.4336925495054
 31
0.0
  0
ARC
  5
DC
330
1F
100
AcDbEntity
  8
0
  6
Continuous
 62
     7
370
    15
100
AcDbCircle
 10
729.6748251748251
 20
563.4336882067958
 30
0.0
 40
25.0
100
AcDbArc
 50
90.00000000000026
 51
180.0
  0
LINE
  5
DD
330
1F
100
AcDbEntity
  8
0
  6
Continuous
 62
     7
370
    15
100
AcDbLine
 10
874.6748266112802
 20
563.4336916554356
 30
0.0
 11
872.7174994838235
 21
563.4336916554356
 31
0.0
  0
SPLINE
  5
DE
330
1F
100
AcDbEntity
  8
0
  6
Continuous
 62
     7
370
    15
100
AcDbSpline
210
0.0
220
0.0
230
1.0
 70
     8
 71
     3
 72
    15
 73
    11
 74
     0
 42
0.000000001
 43
0.00000001
 40
0.0
 40
0.0
 40
0.0
 40
0.0
 40
0.1129277705325968
 40
0.2293128158795509
 40
0.3491513736005075
 40
0.47244005981724
 40
0.5991741477304129
 40
0.7293489388715466
 40
0.8629593275532768
 40
1.0
 40
1.0
 40
1.0
 40
1.0
 10
849.6748206508157
 20
586.4865703332806
 30
0.0
 10
851.0373694198116
 20
586.4168446093073
 30
0.0
 10
853.8041812812173
 20
586.2752585138043
 30
0.0
 10
857.8832089364547
 20
585.109515504883
 30
0.0
 10
861.7993599688357
 20
583.2094999998972
 30
0.0
 10
865.3814134884259
 20
580.5089483542722
 30
0.0
 10
868.457445681902
 20
577.0704195656721
 30
0.0
 10
870.8261361701726
 20
572.9747937648656
 30
0.0
 10
872.4143894464943
 20
568.3560256986347
 30
0.0
 10
872.6156126906411
 20
565.0882750372765
 30
0.0
 10
872.7174994838235
 20
563.4336916554356
 30
0.0
  0
LINE
  5
DF
330
1F
100
AcDbEntity
  8
0
  6
Continuous
 62
     7
370
    15
100
AcDbLine
 10
849.6748206508157
 20
588.4336901653195
 30
0.0
 11
849.6748206508157
 21
586.4865703332806
 31
0.0
  0
LINE
  5
E0
330
1F
100
AcDbEntity
  8
0
  6
Continuous
 62
     7
370
    15
100
AcDbLine
 10
704.6748248231409
 20
563.4336916554356
 30
0.0
 11
706.6321519505975
 21
563.4336916554356
 31
0.0
  0
SPLINE
  5
E1
330
1F
100
AcDbEntity
  8
0
  6
Continuous
 62
     7
370
    15
100
AcDbSpline
210
0.0
220
0.0
230
1.0
 70
     8
 71
     3
 72
    23
 73
    19
 74
     0
 42
0.000000001
 43
0.00000001
 40
0.0
 40
0.0
 40
0.0
 40
0.0
 40
0.056953875722553
 40
0.117658705064859
 40
0.1821172362010521
 40
0.2499061051836712
 40
0.2955028740977559
 40
0.3394469379415304
 40
0.3905350070492737
 40
0.448767161753813
 40
0.5133595467323826
 40
0.5741084422654761
 40
0.6412230908428462
 40
0.6985362265183456
 40
0.7460480636901277
 40
0.810907470879445
 40
0.9095790266267184
 40
0.9999999999999999
 40
0.9999999999999999
 40
0.9999999999999999
 40
0.9999999999999999
 10
707.5983134400842
 20
449.1004848677303
 30
0.0
 10
707.5839893291873
 20
451.2738457855063
 30
0.0
 10
707.5543977286517
 20
455.7637040783781
 30
0.0
 10
707.5007025024252
 20
462.7097971139229
 30
0.0
 10
707.4389579356846
 20
470.0664499178621
 30
0.0
 10
707.3778851351684
 20
476.8445325938331
 30
0.0
 10
707.3210876739171
 20
482.8387154559669
 30
0.0
 10
707.2692675959357
 20
488.1957048047325
 30
0.0
 10
707.2124802053709
 20
494.0333994364967
 30
0.0
 10
707.1479544434306
 20
500.6570535888234
 30
0.0
 10
707.0799153495694
 20
507.6480517210322
 30
0.0
 10
707.0100234023269
 20
514.9776333711344
 30
0.0
 10
706.944719132317
 20
522.0306245693631
 30
0.0
 10
706.8860604554566
 20
528.5802423401365
 30
0.0
 10
706.8305020666926
 20
535.045071059167
 30
0.0
 10
706.7660627706458
 20
543.0880731574077
 30
0.0
 10
706.6950762444864
 20
552.7698735339842
 30
0.0
 10
706.6525075894181
 20
559.984009240045
 30
0.0
 10
706.6321519505974
 20
563.4336916554357
 30
0.0
  0
SPLINE
  5
E2
330
1F
100
AcDbEntity
  8
0
  6
Continuous
 62
     7
370
    15
100
AcDbSpline
210
0.0
220
0.0
230
1.0
 70
     8
 71
     3
 72
    18
 73
    14
 74
     0
 42
0.000000001
 43
0.00000001
 40
0.0
 40
0.0
 40
0.0
 40
0.0
 40
0.0898927444511367
 40
0.1869386998292589
 40
0.2834602282160391
 40
0.3811333992019383
 40
0.4703095285261545
 40
0.5509927494501882
 40
0.6359363052994179
 40
0.7332943028516514
 40
0.8240390555523636
 40
0.9121113839167587
 40
1.0
 40
1.0
 40
1.0
 40
1.0
 10
707.5985816609857
 20
387.7632615912344
 30
0.0
 10
707.6140856031329
 20
389.6038241753078
 30
0.0
 10
707.6463272128976
 20
393.4314120248264
 30
0.0
 10
707.72693871529
 20
399.216116463167
 30
0.0
 10
707.8202965839238
 20
405.1508321437033
 30
0.0
 10
707.8891045169536
 20
410.9438644151703
 30
0.0
 10
707.9235280325336
 20
416.4288632956508
 30
0.0
 10
707.9175386660489
 20
421.6584797004531
 30
0.0
 10
707.8743104945017
 20
427.0461168489573
 30
0.0
 10
707.8044697611297
 20
432.6249893875676
 30
0.0
 10
707.722444270194
 20
438.2577480642046
 30
0.0
 10
707.6412451760383
 20
443.6964286032542
 30
0.0
 10
707.612932056723
 20
447.3005050275166
 30
0.0
 10
707.5987902772424
 20
449.1006618190195
 30
0.0
  0
SPLINE
  5
E3
330
1F
100
AcDbEntity
  8
0
  6
Continuous
 62
     7
370
    15
100
AcDbSpline
210
0.0
220
0.0
230
1.0
 70
     8
 71
     3
 72
    24
 73
    20
 74
     0
 42
0.000000001
 43
0.00000001
 40
0.0
 40
0.0
 40
0.0
 40
0.0
 40
0.0576402164726475
 40
0.118743329214243
 40
0.1833115048361326
 40
0.2509658285206303
 40
0.2987382179155154
 40
0.3433972136867858
 40
0.394324911204043
 40
0.4515215186708666
 40
0.5151431663389695
 40
0.5774257155745063
 40
0.6325564457970062
 40
0.6805354218476455
 40
0.7213628625921724
 40
0.758541903729049
 40
0.8120798011293299
 40
0.9105027631740852
 40
0.9999999999999999
 40
0.9999999999999999
 40
0.9999999999999999
 40
0.9999999999999999
 10
706.6321519505974
 20
273.4336925495053
 30
0.0
 10
706.6448430604006
 20
275.6328026795304
 30
0.0
 10
706.6709877337149
 20
280.1631405951043
 30
0.0
 10
706.7178842276055
 20
287.1537485988395
 30
0.0
 10
706.7720060989881
 20
294.52386357893
 30
0.0
 10
706.8268642137085
 20
301.3834869871677
 30
0.0
 10
706.8790493224395
 20
307.4825341696597
 30
0.0
 10
706.9275890801276
 20
312.9434311511406
 30
0.0
 10
706.9808461681545
 20
318.762693277284
 30
0.0
 10
707.0422254890718
 20
325.3036775627432
 30
0.0
 10
707.1095296635315
 20
332.2764803393363
 30
0.0
 10
707.1766359273444
 20
339.1708730107617
 30
0.0
 10
707.2379728523023
 20
345.4700227218648
 30
0.0
 10
707.2912115432201
 20
350.9525347464339
 30
0.0
 10
707.3373573485857
 20
355.7518279825932
 30
0.0
 10
707.3843272350734
 20
360.76384655843
 30
0.0
 10
707.4489706246057
 20
367.9723038906517
 30
0.0
 10
707.5264817372587
 20
377.1782165449152
 30
0.0
 10
707.5749784158455
 20
384.3485667723398
 30
0.0
 10
707.598075021505
 20
387.7634553063299
 30
0.0
  0
LINE
  5
E4
330
1F
100
AcDbEntity
  8
0
  6
Continuous
 62
     7
370
    15
100
AcDbLine
 10
704.6748248231409
 20
273.4336925495054
 30
0.0
 11
706.6321519505975
 21
273.4336925495054
 31
0.0
  0
LINE
  5
E5
330
1F
100
AcDbEntity
  8
0
  6
Continuous
 62
     7
370
    15
100
AcDbLine
 10
849.6748206508157
 20
248.4336865890409
 30
0.0
 11
849.6748206508157
 21
250.3808809268858
 31
0.0
  0
SPLINE
  5
E6
330
1F
100
AcDbEntity
  8
0
  6
Continuous
 62
     7
370
    15
100
AcDbSpline
210
0.0
220
0.0
230
1.0
 70
     8
 71
     3
 72
    15
 73
    11
 74
     0
 42
0.000000001
 43
0.00000001
 40
0.0
 40
0.0
 40
0.0
 40
0.0
 40
0.1370473323891605
 40
0.2706620548955454
 40
0.4008395747067706
 40
0.5275743604200899
 40
0.6508621910989718
 40
0.7706982551226894
 40
0.8870789326404315
 40
1.0
 40
1.0
 40
1.0
 40
1.0
 10
872.7174994838235
 20
273.4336925495054
 30
0.0
 10
872.6156062159558
 20
271.7790276218699
 30
0.0
 10
872.4143717900076
 20
268.5111419821431
 30
0.0
 10
870.8259866569143
 20
263.8922359060062
 30
0.0
 10
868.45716234385
 20
259.7965778007742
 30
0.0
 10
865.3810376635902
 20
256.3580888292418
 30
0.0
 10
861.7989562324037
 20
253.6576269177337
 30
0.0
 10
857.8828536267761
 20
251.7577228079426
 30
0.0
 10
853.8039666886533
 20
250.5920944865487
 30
0.0
 10
851.03728849692
 20
250.4505237894724
 30
0.0
 10
849.6748206508157
 20
250.3808064210798
 30
0.0
  0
LINE
  5
E7
330
1F
100
AcDbEntity
  8
0
  6
Continuous
 62
     7
370
    15
100
AcDbLine
 10
874.6748266112802
 20
273.4336925495054
 30
0.0
 11
872.7174994838235
 21
273.4336925495054
 31
0.0
  0
SPLINE
  5
E8
330
1F
100
AcDbEntity
  8
0
  6
Continuous
 62
     7
370
    15
100
AcDbSpline
210
0.0
220
0.0
230
1.0
 70
     8
 71
     3
 72
    23
 73
    19
 74
     0
 42
0.000000001
 43
0.00000001
 40
0.0
 40
0.0
 40
0.0
 40
0.0
 40
0.0569686343327358
 40
0.1176844720690631
 40
0.1821503042604696
 40
0.2499422133532826
 40
0.2955170255343508
 40
0.3394545716027118
 40
0.3905454577195182
 40
0.4487898259950092
 40
0.5133944557931569
 40
0.5741292816666028
 40
0.6412346161043603
 40
0.6985479321926499
 40
0.7460691883952513
 40
0.8109229733578096
 40
0.9095853412469012
 40
0.9999999999999999
 40
0.9999999999999999
 40
0.9999999999999999
 40
0.9999999999999999
 10
871.7515913140771
 20
387.7634553063299
 30
0.0
 10
871.7659186515071
 20
385.5896016423164
 30
0.0
 10
871.7955157299933
 20
381.0989055987602
 30
0.0
 10
871.8492512814504
 20
374.1517708711597
 30
0.0
 10
871.9110026344727
 20
366.7945318146158
 30
0.0
 10
871.9720001751259
 20
360.0170958274247
 30
0.0
 10
872.0288013909405
 20
354.0240612217636
 30
0.0
 10
872.0805716968389
 20
348.6682083207245
 30
0.0
 10
872.1373730354908
 20
342.8303624517214
 30
0.0
 10
872.2018912540829
 20
336.2058645049806
 30
0.0
 10
872.2699077116756
 20
329.2146753836373
 30
0.0
 10
872.3397568122313
 20
321.8857321720265
 30
0.0
 10
872.4050520667053
 20
314.8338315749255
 30
0.0
 10
872.4636523522598
 20
308.2843945857832
 30
0.0
 10
872.5191796515647
 20
301.8196047703305
 30
0.0
 10
872.583643671549
 20
293.7770487800385
 30
0.0
 10
872.6545847124709
 20
284.0963466919491
 30
0.0
 10
872.697146758216
 20
276.8830267732691
 30
0.0
 10
872.7174994838235
 20
273.4336925495054
 30
0.0
  0
SPLINE
  5
E9
330
1F
100
AcDbEntity
  8
0
  6
Continuous
 62
     7
370
    15
100
AcDbSpline
210
0.0
220
0.0
230
1.0
 70
     8
 71
     3
 72
    18
 73
    14
 74
     0
 42
0.000000001
 43
0.00000001
 40
0.0
 40
0.0
 40
0.0
 40
0.0
 40
0.08984396574923
 40
0.1868102127590822
 40
0.2832836229815148
 40
0.3809347309055372
 40
0.4700751603941039
 40
0.5507682735226704
 40
0.635741631796044
 40
0.7331195721862206
 40
0.823918396521176
 40
0.9120625805602611
 40
1.0
 40
1.0
 40
1.0
 40
1.0
 10
871.7508462560174
 20
449.1006618190195
 30
0.0
 10
871.7353533624351
 20
447.2610942246363
 30
0.0
 10
871.7031393932251
 20
443.436129344406
 30
0.0
 10
871.6226495782886
 20
437.6549936907231
 30
0.0
 10
871.5293694700221
 20
431.7232999491133
 30
0.0
 10
871.4605831943926
 20
425.9324343923219
 30
0.0
 10
871.4261504301941
 20
420.4484327960513
 30
0.0
 10
871.432055037068
 20
415.2187305818284
 30
0.0
 10
871.475285990748
 20
409.8298582381237
 30
0.0
 10
871.5451925000592
 20
404.2488686848235
 30
0.0
 10
871.6272841267169
 20
398.6131588177747
 30
0.0
 10
871.7085725778448
 20
393.1709585383614
 30
0.0
 10
871.7369151353629
 20
389.5644155739502
 30
0.0
 10
871.7510697734353
 20
387.7632615912344
 30
0.0
  0
SPLINE
  5
EA
330
1F
100
AcDbEntity
  8
0
  6
Continuous
 62
     7
370
    15
100
AcDbSpline
210
0.0
220
0.0
230
1.0
 70
     8
 71
     3
 72
    24
 73
    20
 74
     0
 42
0.000000001
 43
0.00000001
 40
0.0
 40
0.0
 40
0.0
 40
0.0
 40
0.0576439583770374
 40
0.1187520355897703
 40
0.1833264647642252
 40
0.2509879559081605
 40
0.2987502326112955
 40
0.3434079510585814
 40
0.394340414980186
 40
0.45154770631344
 40
0.5151769134192069
 40
0.5774418872298345
 40
0.6325644727262337
 40
0.6805447557472241
 40
0.7213828030614569
 40
0.7585782409961657
 40
0.8121133290679127
 40
0.9105240110513777
 40
1.0
 40
1.0
 40
1.0
 40
1.0
 10
872.7174994838235
 20
563.4336916554356
 30
0.0
 10
872.7048111035656
 20
561.2343702151726
 30
0.0
 10
872.6786718337028
 20
556.703558915935
 30
0.0
 10
872.6317295329833
 20
549.7121663673671
 30
0.0
 10
872.577602494348
 20
542.3411273101068
 30
0.0
 10
872.5227316713135
 20
535.4811728607286
 30
0.0
 10
872.470548448818
 20
529.382106453291
 30
0.0
 10
872.4219595571718
 20
523.9213019113809
 30
0.0
 10
872.3687092338762
 20
518.1013291495858
 30
0.0
 10
872.3072643290482
 20
511.5592774452304
 30
0.0
 10
872.2399774458324
 20
504.5862448463512
 30
0.0
 10
872.1728364436448
 20
497.6923417273593
 30
0.0
 10
872.1114626159467
 20
491.3939363846009
 30
0.0
 10
872.0582110344894
 20
485.9111181336432
 30
0.0
 10
872.012056839904
 20
481.1106031138461
 30
0.0
 10
871.9650595446284
 20
476.0975130597004
 30
0.0
 10
871.9003985236632
 20
468.8887880089571
 30
0.0
 10
871.8228557144358
 20
459.6839758080601
 30
0.0
 10
871.7744093000993
 20
452.5146730602652
 30
0.0
 10
871.7513379943368
 20
449.1004848677303
 30
0.0
  0
LINE
  5
EB
330
1F
100
AcDbEntity
  8
0
  6
Continuous
 62
     7
370
    15
100
AcDbLine
 10
729.6748307836053
 20
588.4336901653195
 30
0.0
 11
729.6748307836053
 21
586.4864287722493
 31
0.0
  0
SPLINE
  5
EC
330
1F
100
AcDbEntity
  8
0
  6
Continuous
 62
     7
370
    15
100
AcDbSpline
210
0.0
220
0.0
230
1.0
 70
     8
 71
     3
 72
    15
 73
    11
 74
     0
 42
0.000000001
 43
0.00000001
 40
0.0
 40
0.0
 40
0.0
 40
0.0
 40
0.1370429175631047
 40
0.270655185356018
 40
0.4008311536382143
 40
0.527565475006151
 40
0.6508538626990209
 40
0.770691219591963
 40
0.8870747368462478
 40
1.0
 40
1.0
 40
1.0
 40
1.0
 10
706.6321519505975
 20
563.4336916554356
 30
0.0
 10
706.7340332581372
 20
565.0883035432933
 30
0.0
 10
706.9352454379916
 20
568.3561067626323
 30
0.0
 10
708.5235712425022
 20
572.9749233036032
 30
0.0
 10
710.8923206221668
 20
577.0705583339819
 30
0.0
 10
713.9683800669372
 20
580.5090827688565
 30
0.0
 10
717.5504506980957
 20
583.2095849947638
 30
0.0
 10
721.4665718137065
 20
585.1095788934306
 30
0.0
 10
725.5455505023302
 20
586.2752618518914
 30
0.0
 10
728.3123127314981
 20
586.4168459259156
 30
0.0
 10
729.6748307836053
 20
586.4865703332806
 30
0.0
  0
LINE
  5
ED
330
1F
100
AcDbEntity
  8
0
  6
Continuous
 62
     7
370
    15
100
AcDbLine
 10
729.6748307836053
 20
248.4336865890409
 30
0.0
 11
729.6748307836053
 21
250.3808064210798
 31
0.0
  0
SPLINE
  5
EE
330
1F
100
AcDbEntity
  8
0
  6
Continuous
 62
     7
370
    15
100
AcDbSpline
210
0.0
220
0.0
230
1.0
 70
     8
 71
     3
 72
    12
 73
     8
 74
     0
 42
0.000000001
 43
0.00000001
 40
0.0
 40
0.0
 40
0.0
 40
0.0
 40
0.2046388808234192
 40
0.4030902507478917
 40
0.5969070169026237
 40
0.795356896624587
 40
1.0
 40
1.0
 40
1.0
 40
1.0
 10
849.6748206508157
 20
250.3808064210797
 30
0.0
 10
841.4900664178953
 20
250.397471936715
 30
0.0
 10
825.368034168781
 20
250.4302990654074
 30
0.0
 10
801.4903807103046
 20
250.4527795154501
 30
0.0
 10
777.8596581665275
 20
250.45277971037
 30
0.0
 10
753.9818953821664
 20
250.4302984408474
 30
0.0
 10
737.8597538844633
 20
250.3974718795626
 30
0.0
 10
729.6748307836052
 20
250.3808064210797
 30
0.0
  0
SPLINE
  5
EF
330
1F
100
AcDbEntity
  8
0
  6
Continuous
 62
     7
370
    15
100
AcDbSpline
210
0.0
220
0.0
230
1.0
 70
     8
 71
     3
 72
    11
 73
     7
 74
     0
 42
0.000000001
 43
0.00000001
 40
0.0
 40
0.0
 40
0.0
 40
0.0
 40
0.2499425113066329
 40
0.4998839676839859
 40
0.7499415112039461
 40
1.0
 40
1.0
 40
1.0
 40
1.0
 10
729.6748307836053
 20
586.4865703332806
 30
0.0
 10
739.6716603747369
 20
586.4666882419282
 30
0.0
 10
759.6652773635044
 20
586.426924143139
 30
0.0
 10
789.6655440845884
 20
586.409546189007
 30
0.0
 10
819.6704526293374
 20
586.4269031256007
 30
0.0
 10
839.6733520410725
 20
586.4666812389922
 30
0.0
 10
849.6748206508157
 20
586.4865703332806
 30
0.0
  0
SPLINE
  5
F0
330
1F
100
AcDbEntity
  8
0
  6
Continuous
 62
     7
370
    15
100
AcDbSpline
210
0.0
220
0.0
230
1.0
 70
     8
 71
     3
 72
    15
 73
    11
 74
     0
 42
0.000000001
 43
0.00000001
 40
0.0
 40
0.0
 40
0.0
 40
0.0
 40
0.1129235724139784
 40
0.2293052687964334
 40
0.3491422511882718
 40
0.4724300059761242
 40
0.5991645556126333
 40
0.7293414591922764
 40
0.8629547546419071
 40
0.9999999999999999
 40
0.9999999999999999
 40
0.9999999999999999
 40
0.9999999999999999
 10
729.6748307836053
 20
250.3808064210798
 30
0.0
 10
728.3123327354821
 20
250.4505265057185
 30
0.0
 10
725.5456120722874
 20
250.5921017535327
 30
0.0
 10
721.4666769588454
 20
251.7577633646186
 30
0.0
 10
717.5505731398092
 20
253.6577148465821
 30
0.0
 10
713.9684936677434
 20
256.3581895651783
 30
0.0
 10
710.8924002867956
 20
259.7966942590696
 30
0.0
 10
708.5236313484208
 20
263.8923505333726
 30
0.0
 10
706.9352693006796
 20
268.5112091295642
 30
0.0
 10
706.7340415896537
 20
271.7790526591056
 30
0.0
 10
706.6321519505975
 20
273.4336925495054
 30
0.0
  0
SPLINE
  5
F1
330
1F
100
AcDbEntity
  8
0
  6
Continuous
 62
     7
370
    15
100
AcDbSpline
210
0.0
220
0.0
230
1.0
 70
     8
 71
     3
 72
     9
 73
     5
 74
     0
 42
0.000000001
 43
0.00000001
 40
0.0
 40
0.0
 40
0.0
 40
0.0
 40
0.4998997735013305
 40
1.0
 40
1.0
 40
1.0
 40
1.0
 10
850.0677046668527
 20
567.5719750869656
 30
0.0
 10
829.9407809580223
 20
567.5767279222823
 30
0.0
 10
789.6788629182116
 20
567.5862354987376
 30
0.0
 10
749.4169423586676
 20
567.5767291927455
 30
0.0
 10
729.2819467675683
 20
567.5719750869656
 30
0.0
  0
SPLINE
  5
F2
330
1F
100
AcDbEntity
  8
0
  6
Continuous
 62
     7
370
    15
100
AcDbSpline
210
0.0
220
0.0
230
1.0
 70
     8
 71
     3
 72
    15
 73
    11
 74
     0
 42
0.000000001
 43
0.00000001
 40
0.0
 40
0.0
 40
0.0
 40
0.0
 40
0.1250000646945856
 40
0.2500000741257445
 40
0.3750000761190344
 40
0.4999999469103326
 40
0.6249999183951054
 40
0.7499999793498497
 40
0.8749999841011898
 40
1.0
 40
1.0
 40
1.0
 40
1.0
 10
729.2819467675683
 20
567.5719750869656
 30
0.0
 10
729.2867692713533
 20
568.7467365530267
 30
0.0
 10
729.2964142767914
 20
571.0962589657784
 30
0.0
 10
729.3260006499324
 20
574.4721515909199
 30
0.0
 10
729.3655642811414
 20
577.6048993351827
 30
0.0
 10
729.4150094005147
 20
580.39291864142
 30
0.0
 10
729.4725296629713
 20
582.7540279199408
 30
0.0
 10
729.536326257917
 20
584.5992343641316
 30
0.0
 10
729.6044931366264
 20
585.9274861141461
 30
0.0
 10
729.6513849005819
 20
586.3002089213626
 30
0.0
 10
729.6748307836053
 20
586.4865703332806
 30
0.0
  0
SPLINE
  5
F3
330
1F
100
AcDbEntity
  8
0
  6
Continuous
 62
     7
370
    15
100
AcDbSpline
210
0.0
220
0.0
230
1.0
 70
     8
 71
     3
 72
    15
 73
    11
 74
     0
 42
0.000000001
 43
0.00000001
 40
0.0
 40
0.0
 40
0.0
 40
0.0
 40
0.1250000676806982
 40
0.250000073274475
 40
0.3750000757173084
 40
0.4999999542943049
 40
0.6249999176892405
 40
0.7499999885692423
 40
0.8749999836516463
 40
1.0
 40
1.0
 40
1.0
 40
1.0
 10
850.0677046668527
 20
567.5719750869656
 30
0.0
 10
850.0628743422969
 20
568.7467365357602
 30
0.0
 10
850.053213695585
 20
571.096258849851
 30
0.0
 10
850.0236552281643
 20
574.472151653778
 30
0.0
 10
849.9840928376119
 20
577.6048994599553
 30
0.0
 10
849.9346148484766
 20
580.3929184026547
 30
0.0
 10
849.8771354340159
 20
582.7540281552454
 30
0.0
 10
849.8132976970562
 20
584.5992341725612
 30
0.0
 10
849.7451651652765
 20
585.9274861892475
 30
0.0
 10
849.6982688236325
 20
586.3002089413679
 30
0.0
 10
849.6748206508157
 20
586.4865703332806
 30
0.0
  0
SPLINE
  5
F4
330
1F
100
AcDbEntity
  8
0
  6
Continuous
 62
     7
370
    15
100
AcDbSpline
210
0.0
220
0.0
230
1.0
 70
     8
 71
     3
 72
    11
 73
     7
 74
     0
 42
0.000000001
 43
0.00000001
 40
0.0
 40
0.0
 40
0.0
 40
0.0
 40
0.253217553835749
 40
0.5064286265197304
 40
0.7537824615683069
 40
1.0
 40
1.0
 40
1.0
 40
1.0
 10
729.2819467675683
 20
567.5719750869656
 30
0.0
 10
728.857194442279
 20
567.5278062387988
 30
0.0
 10
728.0077006633176
 20
567.4394696729753
 30
0.0
 10
726.966669211783
 20
566.6722437061006
 30
0.0
 10
726.2215253720576
 20
565.633006896169
 30
0.0
 10
726.1393410431707
 20
564.8059185505716
 30
0.0
 10
726.0983434808252
 20
564.3933264363194
 30
0.0
  0
SPLINE
  5
F5
330
1F
100
AcDbEntity
  8
0
  6
Continuous
 62
     7
370
    15
100
AcDbSpline
210
0.0
220
0.0
230
1.0
 70
     8
 71
     3
 72
    15
 73
    11
 74
     0
 42
0.000000001
 43
0.00000001
 40
0.0
 40
0.0
 40
0.0
 40
0.0
 40
0.1178530404456306
 40
0.2416253453401641
 40
0.3696848881992398
 40
0.5000001268884627
 40
0.6303152088638657
 40
0.7583741037403585
 40
0.8821465021779814
 40
1.0
 40
1.0
 40
1.0
 40
1.0
 10
706.6321519505975
 20
563.4336916554356
 30
0.0
 10
706.8093671438124
 20
563.4885063635525
 30
0.0
 10
707.172698306913
 20
563.6008888929156
 30
0.0
 10
708.4871894920726
 20
563.7677869010075
 30
0.0
 10
710.4012355128317
 20
563.9292782306783
 30
0.0
 10
712.9208760076552
 20
564.0763074792986
 30
0.0
 10
715.9133054234057
 20
564.201005150163
 30
0.0
 10
719.217741155585
 20
564.2967795795009
 30
0.0
 10
722.6467158209358
 20
564.3637188274824
 30
0.0
 10
724.9667448423651
 20
564.3836197317878
 30
0.0
 10
726.0983434808252
 20
564.3933264363194
 30
0.0
  0
SPLINE
  5
F6
330
1F
100
AcDbEntity
  8
0
  6
Continuous
 62
     7
370
    15
100
AcDbSpline
210
0.0
220
0.0
230
1.0
 70
     8
 71
     3
 72
    15
 73
    11
 74
     0
 42
0.000000001
 43
0.00000001
 40
0.0
 40
0.0
 40
0.0
 40
0.0
 40
0.1181237632012011
 40
0.241950563904444
 40
0.3698940297106311
 40
0.50000005453362
 40
0.6301060689172001
 40
0.7580494159604237
 40
0.8818762906437801
 40
1.0
 40
1.0
 40
1.0
 40
1.0
 10
849.6748206508157
 20
250.3808064210798
 30
0.0
 10
849.6969780662648
 20
250.5539276212218
 30
0.0
 10
849.742362661348
 20
250.9085283456061
 30
0.0
 10
849.8097512942354
 20
252.1826691039968
 30
0.0
 10
849.8750517821298
 20
254.0334457746871
 30
0.0
 10
849.9347273774739
 20
256.4684628388981
 30
0.0
 10
849.9857745059624
 20
259.3638000721759
 30
0.0
 10
850.0255128354248
 20
262.5705542529847
 30
0.0
 10
850.0539753375099
 20
265.9115216403068
 30
0.0
 10
850.0632007093676
 20
268.1853072559154
 30
0.0
 10
850.0677046668527
 20
269.2954016673948
 30
0.0
  0
SPLINE
  5
F7
330
1F
100
AcDbEntity
  8
0
  6
Continuous
 62
     7
370
    15
100
AcDbSpline
210
0.0
220
0.0
230
1.0
 70
     8
 71
     3
 72
    11
 73
     7
 74
     0
 42
0.000000001
 43
0.00000001
 40
0.0
 40
0.0
 40
0.0
 40
0.0
 40
0.253214078893964
 40
0.5064257508541797
 40
0.7537797632081629
 40
1.0
 40
1.0
 40
1.0
 40
1.0
 10
850.0677046668527
 20
269.2954016673948
 30
0.0
 10
850.4924526671946
 20
269.3395675049726
 30
0.0
 10
851.3419446304239
 20
269.4278987603087
 30
0.0
 10
852.3829605012314
 20
270.1951380759187
 30
0.0
 10
853.1281338782411
 20
271.2343622333149
 30
0.0
 10
853.2103128521495
 20
272.0614592239513
 30
0.0
 10
853.2513079535959
 20
272.4740577686216
 30
0.0
  0
SPLINE
  5
F8
330
1F
100
AcDbEntity
  8
0
  6
Continuous
 62
     7
370
    15
100
AcDbSpline
210
0.0
220
0.0
230
1.0
 70
     8
 71
     3
 72
    15
 73
    11
 74
     0
 42
0.000000001
 43
0.00000001
 40
0.0
 40
0.0
 40
0.0
 40
0.0
 40
0.117852976004126
 40
0.2416253816344162
 40
0.369684730507815
 40
0.5000002138917865
 40
0.630315460324196
 40
0.7583744728558144
 40
0.8821469367782824
 40
0.9999999999999999
 40
0.9999999999999999
 40
0.9999999999999999
 40
0.9999999999999999
 10
853.2513079535959
 20
272.4740577686216
 30
0.0
 10
854.382901672767
 20
272.4837565233311
 30
0.0
 10
856.7029259396153
 20
272.5036411744235
 30
0.0
 10
860.1318985953382
 20
272.5706134028935
 30
0.0
 10
863.4363455941013
 20
272.6663699697941
 30
0.0
 10
866.4287868270835
 20
272.7910587009458
 30
0.0
 10
868.94843668322
 20
272.938096464253
 30
0.0
 10
870.86243736896
 20
273.0996065220367
 30
0.0
 10
872.1769588447195
 20
273.2664708314403
 30
0.0
 10
872.54028623157
 20
273.3788698361663
 30
0.0
 10
872.7174994838235
 20
273.4336925495053
 30
0.0
  0
SPLINE
  5
F9
330
1F
100
AcDbEntity
  8
0
  6
Continuous
 62
     7
370
    15
100
AcDbSpline
210
0.0
220
0.0
230
1.0
 70
     8
 71
     3
 72
    15
 73
    11
 74
     0
 42
0.000000001
 43
0.00000001
 40
0.0
 40
0.0
 40
0.0
 40
0.0
 40
0.1178530640813169
 40
0.2416253434220986
 40
0.3696848961852551
 40
0.5000001435681609
 40
0.6303152155256273
 40
0.7583741022448696
 40
0.8821465087779337
 40
1.0
 40
1.0
 40
1.0
 40
1.0
 10
706.6321519505975
 20
273.4336925495054
 30
0.0
 10
706.8093670857655
 20
273.3788698793307
 30
0.0
 10
707.1726980541063
 20
273.266471049385
 30
0.0
 10
708.4871897837284
 20
273.0996058789634
 30
0.0
 10
710.4012354953179
 20
272.9380969285741
 30
0.0
 10
712.9208757795724
 20
272.7910588842807
 30
0.0
 10
715.9133054276784
 20
272.6663700025658
 30
0.0
 10
719.2177414512742
 20
272.5706132283979
 30
0.0
 10
722.6467155456951
 20
272.5036410753534
 30
0.0
 10
724.9667447994317
 20
272.4837565054258
 30
0.0
 10
726.0983434808251
 20
272.4740577686215
 30
0.0
  0
SPLINE
  5
FA
330
1F
100
AcDbEntity
  8
0
  6
Continuous
 62
     7
370
    15
100
AcDbSpline
210
0.0
220
0.0
230
1.0
 70
     8
 71
     3
 72
    11
 73
     7
 74
     0
 42
0.000000001
 43
0.00000001
 40
0.0
 40
0.0
 40
0.0
 40
0.0
 40
0.2463002349896397
 40
0.493794460502525
 40
0.7468671056619086
 40
1.0
 40
1.0
 40
1.0
 40
1.0
 10
726.0983434808252
 20
272.4740577686216
 30
0.0
 10
726.1393818995961
 20
272.0613257124128
 30
0.0
 10
726.2216576792262
 20
271.2338607973415
 30
0.0
 10
726.9671736475598
 20
270.1946523580261
 30
0.0
 10
728.0082035420587
 20
269.4277408082745
 30
0.0
 10
728.857332004309
 20
269.3395182144737
 30
0.0
 10
729.2819467675683
 20
269.2954016673948
 30
0.0
  0
SPLINE
  5
FB
330
1F
100
AcDbEntity
  8
0
  6
Continuous
 62
     7
370
    15
100
AcDbSpline
210
0.0
220
0.0
230
1.0
 70
     8
 71
     3
 72
    15
 73
    11
 74
     0
 42
0.000000001
 43
0.00000001
 40
0.0
 40
0.0
 40
0.0
 40
0.0
 40
0.1181237628460633
 40
0.2419505530321676
 40
0.3698940184536941
 40
0.5000000600100275
 40
0.6301060666934379
 40
0.7580494191744036
 40
0.881876293485476
 40
1.0
 40
1.0
 40
1.0
 40
1.0
 10
729.6748307836052
 20
250.3808064210797
 30
0.0
 10
729.6526720466184
 20
250.5539276115758
 30
0.0
 10
729.6072847465582
 20
250.9085283013344
 30
0.0
 10
729.5399174062146
 20
252.1826691494879
 30
0.0
 10
729.4746255434787
 20
254.0334459914773
 30
0.0
 10
729.414891749512
 20
256.4684624798305
 30
0.0
 10
729.3638903013175
 20
259.3638003164022
 30
0.0
 10
729.3241175753735
 20
262.5705541343666
 30
0.0
 10
729.2956586993715
 20
265.9115216146716
 30
0.0
 10
729.2864450176934
 20
268.1853072555417
 30
0.0
 10
729.2819467675683
 20
269.2954016673948
 30
0.0
  0
SPLINE
  5
FC
330
1F
100
AcDbEntity
  8
0
  6
Continuous
 62
     7
370
    15
100
AcDbSpline
210
0.0
220
0.0
230
1.0
 70
     8
 71
     3
 72
    11
 73
     7
 74
     0
 42
0.000000001
 43
0.00000001
 40
0.0
 40
0.0
 40
0.0
 40
0.0
 40
0.2463000492169458
 40
0.4937921026266383
 40
0.7468663511000317
 40
0.9999999999999999
 40
0.9999999999999999
 40
0.9999999999999999
 40
0.9999999999999999
 10
853.2513079535959
 20
564.3933264363194
 30
0.0
 10
853.2102625300608
 20
564.8060554113973
 30
0.0
 10
853.1279730378135
 20
565.6335108222531
 30
0.0
 10
852.3824756806479
 20
566.6727214053465
 30
0.0
 10
851.341449394436
 20
567.4396367759417
 30
0.0
 10
850.4923194561298
 20
567.5278588658487
 30
0.0
 10
850.0677046668527
 20
567.5719750869656
 30
0.0
  0
SPLINE
  5
FD
330
1F
100
AcDbEntity
  8
0
  6
Continuous
 62
     7
370
    15
100
AcDbSpline
210
0.0
220
0.0
230
1.0
 70
     8
 71
     3
 72
    15
 73
    11
 74
     0
 42
0.000000001
 43
0.00000001
 40
0.0
 40
0.0
 40
0.0
 40
0.0
 40
0.1178529826041089
 40
0.2416253801389718
 40
0.3696847371696162
 40
0.5000002305715162
 40
0.6303154683102575
 40
0.758374470937756
 40
0.8821469604139552
 40
1.0
 40
1.0
 40
1.0
 40
1.0
 10
853.2513079535959
 20
564.3933264363194
 30
0.0
 10
854.3829016298338
 20
564.3836197138979
 30
0.0
 10
856.7029256643744
 20
564.3637187284228
 30
0.0
 10
860.1318988910274
 20
564.2967794050355
 30
0.0
 10
863.436345598374
 20
564.2010051829263
 30
0.0
 10
866.4287865990007
 20
564.0763076626384
 30
0.0
 10
868.9484366657042
 20
563.9292786949775
 30
0.0
 10
870.8624376606147
 20
563.767786257911
 30
0.0
 10
872.1769585919105
 20
563.600889110853
 30
0.0
 10
872.5402861735223
 20
563.4885064067187
 30
0.0
 10
872.7174994838235
 20
563.4336916554356
 30
0.0
  0
SPLINE
  5
FE
330
1F
100
AcDbEntity
  8
0
  6
Continuous
 62
     7
370
    15
100
AcDbSpline
210
0.0
220
0.0
230
1.0
 70
     8
 71
     3
 72
    11
 73
     7
 74
     0
 42
0.000000001
 43
0.00000001
 40
0.0
 40
0.0
 40
0.0
 40
0.0
 40
0.2499733112925439
 40
0.4999999383205517
 40
0.7500266887074561
 40
1.0
 40
1.0
 40
1.0
 40
1.0
 10
729.2819467675683
 20
269.2954016673948
 30
0.0
 10
739.3455890435401
 20
269.2933877762458
 30
0.0
 10
759.4750200265834
 20
269.2893595644137
 30
0.0
 10
789.6748232334719
 20
269.2841621229763
 30
0.0
 10
819.8746264415628
 20
269.2893595632235
 30
0.0
 10
840.0040623908857
 20
269.2933877761803
 30
0.0
 10
850.0677046668527
 20
269.2954016673948
 30
0.0
  0
SPLINE
  5
FF
330
1F
100
AcDbEntity
  8
0
  6
Continuous
 62
     7
370
    15
100
AcDbSpline
210
0.0
220
0.0
230
1.0
 70
     8
 71
     3
 72
    14
 73
    10
 74
     0
 42
0.000000001
 43
0.00000001
 40
0.0
 40
0.0
 40
0.0
 40
0.0
 40
0.1469404792853578
 40
0.2877592736685488
 40
0.4320989197470386
 40
0.5749992934947789
 40
0.7162284739127108
 40
0.860461339803503
 40
0.9999999999999999
 40
0.9999999999999999
 40
0.9999999999999999
 40
0.9999999999999999
 10
853.2513079535959
 20
272.4740577686216
 30
0.0
 10
853.2637050716008
 20
278.1038306546627
 30
0.0
 10
853.2879828314808
 20
289.1288345506961
 30
0.0
 10
853.6134654215235
 20
305.6825928181753
 30
0.0
 10
854.0704659746131
 20
322.0791769339746
 30
0.0
 10
854.6269447970647
 20
338.4903407993471
 30
0.0
 10
855.2073460323114
 20
354.8988904630617
 30
0.0
 10
855.7745478210402
 20
371.1818375083057
 30
0.0
 10
856.0682922849857
 20
382.0593648981091
 30
0.0
 10
856.2127349269388
 20
387.4081594694044
 30
0.0
  0
SPLINE
  5
100
330
1F
100
AcDbEntity
  8
0
  6
Continuous
 62
     7
370
    15
100
AcDbSpline
210
0.0
220
0.0
230
1.0
 70
     8
 71
     3
 72
    15
 73
    11
 74
     0
 42
0.000000001
 43
0.00000001
 40
0.0
 40
0.0
 40
0.0
 40
0.0
 40
0.1183538580460536
 40
0.2422290414880353
 40
0.3700784805210826
 40
0.5000113613976883
 40
0.6299427863655316
 40
0.7577878032944587
 40
0.8816555018324009
 40
1.0
 40
1.0
 40
1.0
 40
1.0
 10
856.2125859153268
 20
387.3998595226194
 30
0.0
 10
857.1132531487895
 20
387.4044248418329
 30
0.0
 10
858.9566046395071
 20
387.4137684569498
 30
0.0
 10
861.6667211493975
 20
387.4409060792299
 30
0.0
 10
864.271621540607
 20
387.478079361296
 30
0.0
 10
866.6327203115876
 20
387.525261341055
 30
0.0
 10
868.6331052757313
 20
387.5800829254929
 30
0.0
 10
870.1740704765776
 20
387.6398747302775
 30
0.0
 10
871.2593385236727
 20
387.7015058967875
 30
0.0
 10
871.5896702243105
 20
387.7429916953422
 30
0.0
 10
871.7510697734353
 20
387.7632615912344
 30
0.0
  0
SPLINE
  5
101
330
1F
100
AcDbEntity
  8
0
  6
Continuous
 62
     7
370
    15
100
AcDbSpline
210
0.0
220
0.0
230
1.0
 70
     8
 71
     3
 72
    13
 73
     9
 74
     0
 42
0.000000001
 43
0.00000001
 40
0.0
 40
0.0
 40
0.0
 40
0.0
 40
0.1636095415639504
 40
0.3294089123667814
 40
0.5004202311251117
 40
0.6626811482949568
 40
0.8296567332574456
 40
1.0
 40
1.0
 40
1.0
 40
1.0
 10
856.2143293511865
 20
449.4557602155592
 30
0.0
 10
856.0419419824632
 20
455.7272854795171
 30
0.0
 10
855.6948599290935
 20
468.3542771349744
 30
0.0
 10
855.0137179467606
 20
487.525844489871
 30
0.0
 10
854.3322780515398
 20
506.6421299382269
 30
0.0
 10
853.7472741004365
 20
525.8036499219137
 30
0.0
 10
853.30867023768
 20
544.9424296274976
 30
0.0
 10
853.2705555564869
 20
557.8666836495403
 30
0.0
 10
853.2513079535959
 20
564.3933264363194
 30
0.0
  0
SPLINE
  5
102
330
1F
100
AcDbEntity
  8
0
  6
Continuous
 62
     7
370
    15
100
AcDbSpline
210
0.0
220
0.0
230
1.0
 70
     8
 71
     3
 72
    15
 73
    11
 74
     0
 42
0.000000001
 43
0.00000001
 40
0.0
 40
0.0
 40
0.0
 40
0.0
 40
0.1183510118763618
 40
0.2422210877730033
 40
0.3700648943023657
 40
0.4999924283991242
 40
0.6299212713320339
 40
0.757768093031916
 40
0.8816431029574265
 40
1.0
 40
1.0
 40
1.0
 40
1.0
 10
856.2141803395746
 20
449.4556857097532
 30
0.0
 10
857.1147342728215
 20
449.4460888007157
 30
0.0
 10
858.9578376806506
 20
449.4264474498774
 30
0.0
 10
861.6676438051129
 20
449.3886545323704
 30
0.0
 10
864.2722720103072
 20
449.344923946188
 30
0.0
 10
866.6331484335163
 20
449.296314448823
 30
0.0
 10
868.6333788481259
 20
449.2452223700907
 30
0.0
 10
870.1742513971229
 20
449.1941783395539
 30
0.0
 10
871.2595006993209
 20
449.1452116669595
 30
0.0
 10
871.5898310307346
 20
449.115165648477
 30
0.0
 10
871.7512336862085
 20
449.1004848677303
 30
0.0
  0
SPLINE
  5
103
330
1F
100
AcDbEntity
  8
0
  6
Continuous
 62
     7
370
    15
100
AcDbSpline
210
0.0
220
0.0
230
1.0
 70
     8
 71
     3
 72
    14
 73
    10
 74
     0
 42
0.000000001
 43
0.00000001
 40
0.0
 40
0.0
 40
0.0
 40
0.0
 40
0.1469533152253031
 40
0.2877841016098627
 40
0.4321332226851012
 40
0.5750374910919029
 40
0.7162655919710625
 40
0.8604802450654729
 40
1.0
 40
1.0
 40
1.0
 40
1.0
 10
726.0983434808252
 20
564.3933264363194
 30
0.0
 10
726.0859121257919
 20
558.7628901681105
 30
0.0
 10
726.0615673443587
 20
547.736598990985
 30
0.0
 10
725.7357203484812
 20
531.1810267033704
 30
0.0
 10
725.2782043211674
 20
514.7829841078643
 30
0.0
 10
724.7213482182374
 20
498.3708597905527
 30
0.0
 10
724.1405802155889
 20
481.9624117368399
 30
0.0
 10
723.5732393944904
 20
465.6804356930675
 30
0.0
 10
723.2796653486336
 20
454.8039952586947
 30
0.0
 10
723.1353071820733
 20
449.4557602155592
 30
0.0
  0
SPLINE
  5
104
330
1F
100
AcDbEntity
  8
0
  6
Continuous
 62
     7
370
    15
100
AcDbSpline
210
0.0
220
0.0
230
1.0
 70
     8
 71
     3
 72
    15
 73
    11
 74
     0
 42
0.000000001
 43
0.00000001
 40
0.0
 40
0.0
 40
0.0
 40
0.0
 40
0.1183566940719242
 40
0.2422313932302076
 40
0.3700784896353098
 40
0.5000072615283531
 40
0.6299352418591379
 40
0.7577783989221903
 40
0.8816484070916556
 40
1.0
 40
1.0
 40
1.0
 40
1.0
 10
707.5984326493738
 20
449.1004848677303
 30
0.0
 10
707.7598307582247
 20
449.1151656388731
 30
0.0
 10
708.0901516503235
 20
449.1452116255026
 30
0.0
 10
709.1753795890644
 20
449.1941785035485
 30
0.0
 10
710.716276541214
 20
449.2452222411213
 30
0.0
 10
712.7165021235227
 20
449.2963146216545
 30
0.0
 10
715.0773907692293
 20
449.3449236698618
 30
0.0
 10
717.6820100569081
 20
449.3886546709732
 30
0.0
 10
720.3918188886571
 20
449.4264475368125
 30
0.0
 10
722.2349271691702
 20
449.4460888112622
 30
0.0
 10
723.1354859960077
 20
449.4556857097532
 30
0.0
  0
SPLINE
  5
105
330
1F
100
AcDbEntity
  8
0
  6
Continuous
 62
     7
370
    15
100
AcDbSpline
210
0.0
220
0.0
230
1.0
 70
     8
 71
     3
 72
    15
 73
    11
 74
     0
 42
0.000000001
 43
0.00000001
 40
0.0
 40
0.0
 40
0.0
 40
0.0
 40
0.1183479037334545
 40
0.2422185253743959
 40
0.3700651600256746
 40
0.4999974499893626
 40
0.6299300747906401
 40
0.7577779424492801
 40
0.8816497211176169
 40
1.0
 40
1.0
 40
1.0
 40
1.0
 10
707.5986412656305
 20
387.7732751715566
 30
0.0
 10
707.760047825333
 20
387.7529419003841
 30
0.0
 10
708.0903929995491
 20
387.7113265037099
 30
0.0
 10
709.1757296347721
 20
387.6494746424287
 30
0.0
 10
710.7167322407672
 20
387.5894665783708
 30
0.0
 10
712.7171663107481
 20
387.5343986569478
 30
0.0
 10
715.0782776420277
 20
387.4869987655046
 30
0.0
 10
717.6831447853027
 20
387.449612935145
 30
0.0
 10
720.3931818471902
 20
387.4222994317161
 30
0.0
 10
722.2364634867164
 20
387.4128506652108
 30
0.0
 10
723.1370953214165
 20
387.4082339752104
 30
0.0
  0
SPLINE
  5
106
330
1F
100
AcDbEntity
  8
0
  6
Continuous
 62
     7
370
    15
100
AcDbSpline
210
0.0
220
0.0
230
1.0
 70
     8
 71
     3
 72
    13
 73
     9
 74
     0
 42
0.000000001
 43
0.00000001
 40
0.0
 40
0.0
 40
0.0
 40
0.0
 40
0.1636321407448873
 40
0.3294462238089679
 40
0.5004593991383786
 40
0.6627091983080299
 40
0.829671711803861
 40
1.0
 40
1.0
 40
1.0
 40
1.0
 10
723.1369165074823
 20
387.4081594694044
 30
0.0
 10
723.3094102915591
 20
381.1359618589231
 30
0.0
 10
723.6566979670481
 20
368.5079304199269
 30
0.0
 10
724.3375313583216
 20
349.3354375728175
 30
0.0
 10
725.0185575794349
 20
330.219512783151
 30
0.0
 10
725.603019418311
 20
311.0594177120378
 30
0.0
 10
726.0411044611095
 20
291.9227127773408
 30
0.0
 10
726.0791372995755
 20
278.9999276213149
 30
0.0
 10
726.0983434808252
 20
272.4740577686216
 30
0.0
  0
SPLINE
  5
107
330
1F
100
AcDbEntity
  8
0
  6
Continuous
 62
     7
370
    15
100
AcDbSpline
210
0.0
220
0.0
230
1.0
 70
     8
 71
     3
 72
    15
 73
    11
 74
     0
 42
0.000000001
 43
0.00000001
 40
0.0
 40
0.0
 40
0.0
 40
0.0
 40
0.1249999426411793
 40
0.2500000263128542
 40
0.3749999926319294
 40
0.5000000538632794
 40
0.6250000503641749
 40
0.7500000265069011
 40
0.8750000708595236
 40
1.0
 40
1.0
 40
1.0
 40
1.0
 10
856.2125710141656
 20
387.4082339752104
 30
0.0
 10
857.2643228139199
 20
389.8629128355266
 30
0.0
 10
859.3678276000614
 20
394.7722733256371
 30
0.0
 10
861.4828685518848
 20
402.5162815632855
 30
0.0
 10
862.8014981563168
 20
410.423140329696
 30
0.0
 10
863.2347838888164
 20
418.4317794544893
 30
0.0
 10
862.80191930495
 20
426.4404422907102
 30
0.0
 10
861.4836864556125
 20
434.3473651244888
 30
0.0
 10
859.3690533872051
 20
442.0914833656773
 30
0.0
 10
857.2658043656917
 20
447.0009523492353
 30
0.0
 10
856.2141803395746
 20
449.4556857097532
 30
0.0
  0
SPLINE
  5
108
330
1F
100
AcDbEntity
  8
0
  6
Continuous
 62
     7
370
    15
100
AcDbSpline
210
0.0
220
0.0
230
1.0
 70
     8
 71
     3
 72
    15
 73
    11
 74
     0
 42
0.000000001
 43
0.00000001
 40
0.0
 40
0.0
 40
0.0
 40
0.0
 40
0.1249999972568834
 40
0.2500000230304577
 40
0.3749999805941459
 40
0.5000000166111249
 40
0.6250000011684651
 40
0.749999986820463
 40
0.8749999892311594
 40
1.0
 40
1.0
 40
1.0
 40
1.0
 10
723.1354859960077
 20
449.4556857097532
 30
0.0
 10
722.0838557870399
 20
447.0009528286765
 30
0.0
 10
719.9805951291922
 20
442.0914865065163
 30
0.0
 10
717.8659660135995
 20
434.3473647861487
 30
0.0
 10
716.5477311929849
 20
426.4404410686357
 30
0.0
 10
716.1148694413948
 20
418.4317785327657
 30
0.0
 10
716.5481466748456
 20
410.4231369656761
 30
0.0
 10
717.86680848164
 20
402.5162862821918
 30
0.0
 10
719.9818154045386
 20
394.7722673989786
 30
0.0
 10
722.0853353256819
 20
389.8629118378439
 30
0.0
 10
723.1370953214166
 20
387.4082339752104
 30
0.0
  0
ARC
  5
109
330
1F
100
AcDbEntity
  8
0
  6
Continuous
 62
     7
370
    15
100
AcDbCircle
 10
789.6748251748251
 20
418.4336882067958
 30
0.0
 40
73.41559342890358
100
AcDbArc
 50
24.99588980778598
 51
155.004110167023
  0
ARC
  5
10A
330
1F
100
AcDbEntity
  8
0
  6
Continuous
 62
     7
370
    15
100
AcDbCircle
 10
789.6748251748251
 20
418.4336882067958
 30
0.0
 40
73.41559342890345
100
AcDbArc
 50
204.9988638450936
 51
335.0011363465543
  0
CIRCLE
  5
10B
330
1F
100
AcDbEntity
  8
0
  6
Continuous
 62
     7
370
    15
100
AcDbCircle
 10
789.6748251748251
 20
418.4336882067958
 30
0.0
 40
58.61177143234625
  0
CIRCLE
  5
10C
330
1F
100
AcDbEntity
  8
0
  6
Continuous
 62
     7
370
    15
100
AcDbCircle
 10
789.6748251748251
 20
418.4336882067958
 30
0.0
 40
57.5
  0
CIRCLE
  5
10D
330
1F
100
AcDbEntity
  8
0
  6
Continuous
 62
     7
370
    15
100
AcDbCircle
 10
789.6748251748251
 20
418.4336882067958
 30
0.0
 40
56.58715574274765
  0
CIRCLE
  5
10E
330
1F
100
AcDbEntity
  8
0
  6
Continuous
 62
     7
370
    15
100
AcDbCircle
 10
789.6748251748251
 20
418.4336882067958
 30
0.0
 40
45.00000000000011
  0
ARC
  5
10F
330
1F
100
AcDbEntity
  8
0
  6
Continuous
 62
     7
370
    15
100
AcDbCircle
 10
934.6748251748252
 20
623.6336882067959
 30
0.0
 40
25.0
100
AcDbArc
 50
89.99999999999947
 51
180.0000000000013
  0
LINE
  5
110
330
1F
100
AcDbEntity
  8
0
  6
Continuous
 62
     7
370
    15
100
AcDbLine
 10
909.6748230350015
 20
623.6336899745846
 30
0.0
 11
909.6748230350015
 21
273.633681033888
 31
0.0
  0
ARC
  5
111
330
1F
100
AcDbEntity
  8
0
  6
Continuous
 62
     7
370
    15
100
AcDbCircle
 10
1224.674825174825
 20
623.6336882067959
 30
0.0
 40
25.0
100
AcDbArc
 50
0.0000000000003053
 51
90.0
  0
LINE
  5
112
330
1F
100
AcDbEntity
  8
0
  6
Continuous
 62
     7
370
    15
100
AcDbLine
 10
1224.674820650815
 20
648.6336810338879
 30
0.0
 11
934.6748215448854
 21
648.6336810338879
 31
0.0
  0
LINE
  5
113
330
1F
100
AcDbEntity
  8
0
  6
Continuous
 62
     7
370
    15
100
AcDbLine
 10
1249.67482661128
 20
273.633681033888
 30
0.0
 11
1249.67482661128
 21
623.6336899745846
 31
0.0
  0
LINE
  5
114
330
1F
100
AcDbEntity
  8
0
  6
Continuous
 62
     7
370
    15
100
AcDbLine
 10
934.6748215448854
 20
248.6336899745847
 30
0.0
 11
1224.674820650815
 21
248.6336899745847
 31
0.0
  0
ARC
  5
115
330
1F
100
AcDbEntity
  8
0
  6
Continuous
 62
     7
370
    15
100
AcDbCircle
 10
1224.674825174825
 20
273.6336882067959
 30
0.0
 40
25.0
100
AcDbArc
 50
270.0000000000003
 51
0.0000000000006514
  0
ARC
  5
116
330
1F
100
AcDbEntity
  8
0
  6
Continuous
 62
     7
370
    15
100
AcDbCircle
 10
934.6748251748252
 20
273.6336882067958
 30
0.0
 40
25.0
100
AcDbArc
 50
179.9999999999999
 51
270.0000000000013
  0
LINE
  5
117
330
1F
100
AcDbEntity
  8
0
  6
Continuous
 62
     7
370
    15
100
AcDbLine
 10
934.6748215448854
 20
643.2882172811413
 30
0.0
 11
934.6748215448854
 21
648.6336810338879
 31
0.0
  0
SPLINE
  5
118
330
1F
100
AcDbEntity
  8
0
  6
Continuous
 62
     7
370
    15
100
AcDbSpline
210
0.0
220
0.0
230
1.0
 70
     8
 71
     3
 72
    15
 73
    11
 74
     0
 42
0.000000001
 43
0.00000001
 40
0.0
 40
0.0
 40
0.0
 40
0.0
 40
0.1277192827742496
 40
0.2499999651477706
 40
0.3758253159153112
 40
0.5000006901028695
 40
0.6241726258449386
 40
0.7499976634516456
 40
0.8722782585976862
 40
1.0
 40
1.0
 40
1.0
 40
1.0
 10
915.0202942383287
 20
623.6336899745846
 30
0.0
 10
915.1058146436976
 20
624.9418718604974
 30
0.0
 10
915.2732137857631
 20
627.5025300381915
 30
0.0
 10
916.4651600921324
 20
631.2028178536859
 30
0.0
 10
918.2771426228978
 20
634.5877919882159
 30
0.0
 10
920.7371001948354
 20
637.5713915183766
 30
0.0
 10
923.7206959246785
 20
640.0313458350387
 30
0.0
 10
927.1056287452958
 20
641.8433211610696
 30
0.0
 10
930.8059311933328
 20
643.0352920061421
 30
0.0
 10
933.3666142003182
 20
643.2026943863796
 30
0.0
 10
934.6748215448854
 20
643.2882172811413
 30
0.0
  0
LINE
  5
119
330
1F
100
AcDbEntity
  8
0
  6
Continuous
 62
     7
370
    15
100
AcDbLine
 10
915.0202942383287
 20
623.6336899745846
 30
0.0
 11
909.6748230350015
 21
623.6336899745846
 31
0.0
  0
LINE
  5
11A
330
1F
100
AcDbEntity
  8
0
  6
Continuous
 62
     7
370
    15
100
AcDbLine
 10
1245.138764132261
 20
623.6336899745846
 30
0.0
 11
1249.67482661128
 21
623.6336899745846
 31
0.0
  0
SPLINE
  5
11B
330
1F
100
AcDbEntity
  8
0
  6
Continuous
 62
     7
370
    15
100
AcDbSpline
210
0.0
220
0.0
230
1.0
 70
     8
 71
     3
 72
    15
 73
    11
 74
     0
 42
0.000000001
 43
0.00000001
 40
0.0
 40
0.0
 40
0.0
 40
0.0
 40
0.1277214646969931
 40
0.2499999240611127
 40
0.3758230784080051
 40
0.5000005385717892
 40
0.6241746649377017
 40
0.7499980374117142
 40
0.8722766325665321
 40
1.0
 40
1.0
 40
1.0
 40
1.0
 10
1224.674820650815
 20
644.0976185548687
 30
0.0
 10
1226.037890618075
 20
644.0100389317596
 30
0.0
 10
1228.705941670521
 20
643.838611997543
 30
0.0
 10
1232.560924827313
 20
642.5996749268011
 30
0.0
 10
1236.086798966141
 20
640.7140967118673
 30
0.0
 10
1239.194011726614
 20
638.1529018159066
 30
0.0
 10
1241.755217548603
 20
635.0456962923435
 30
0.0
 10
1243.640789238975
 20
631.5198544215451
 30
0.0
 10
1244.879749434643
 20
627.6648532488919
 30
0.0
 10
1245.051181365724
 20
624.9967803133741
 30
0.0
 10
1245.138764132261
 20
623.6336899745846
 30
0.0
  0
LINE
  5
11C
330
1F
100
AcDbEntity
  8
0
  6
Continuous
 62
     7
370
    15
100
AcDbLine
 10
1224.674820650815
 20
644.0976185548687
 30
0.0
 11
1224.674820650815
 21
648.6336810338879
 31
0.0
  0
SPLINE
  5
11D
330
1F
100
AcDbEntity
  8
0
  6
Continuous
 62
     7
370
    15
100
AcDbSpline
210
0.0
220
0.0
230
1.0
 70
     8
 71
     3
 72
    15
 73
    11
 74
     0
 42
0.000000001
 43
0.00000001
 40
0.0
 40
0.0
 40
0.0
 40
0.0
 40
0.1561792378945749
 40
0.3123569663305499
 40
0.4690094223104753
 40
0.6256636664834918
 40
0.7192076835907579
 40
0.8127519375462022
 40
0.9063759056210076
 40
1.0
 40
1.0
 40
1.0
 40
1.0
 10
934.6971881878374
 20
643.2134581554318
 30
0.0
 10
949.8068222033398
 20
643.1530748221927
 30
0.0
 10
980.0259442010607
 20
643.0323087393141
 30
0.0
 10
1025.447971231288
 20
642.9927183715947
 30
0.0
 10
1070.906848218871
 20
643.0666709533024
 30
0.0
 10
1110.268147330299
 20
643.2295020901843
 30
0.0
 10
1143.482920139707
 20
643.4260481378278
 30
0.0
 10
1170.577066613074
 20
643.6199430569978
 30
0.0
 10
1197.647542507801
 20
643.8421699759978
 30
0.0
 10
1215.665723885217
 20
644.012468990288
 30
0.0
 10
1224.674820650815
 20
644.0976185548687
 30
0.0
  0
LINE
  5
11E
330
1F
100
AcDbEntity
  8
0
  6
Continuous
 62
     7
370
    15
100
AcDbLine
 10
934.6748215448854
 20
643.2882172811413
 30
0.0
 11
934.6971881878374
 21
643.2134581554318
 31
0.0
  0
LINE
  5
11F
330
1F
100
AcDbEntity
  8
0
  6
Continuous
 62
     7
370
    15
100
AcDbLine
 10
1245.138764132261
 20
623.6336899745846
 30
0.0
 11
1245.118200529813
 21
623.6315889108563
 31
0.0
  0
LINE
  5
120
330
1F
100
AcDbEntity
  8
0
  6
Continuous
 62
     7
370
    15
100
AcDbLine
 10
1245.138764132261
 20
273.633681033888
 30
0.0
 11
1249.67482661128
 21
273.633681033888
 31
0.0
  0
LINE
  5
121
330
1F
100
AcDbEntity
  8
0
  6
Continuous
 62
     7
370
    15
100
AcDbLine
 10
1245.118200529813
 20
273.6357969987776
 30
0.0
 11
1245.138764132261
 21
273.633681033888
 31
0.0
  0
SPLINE
  5
122
330
1F
100
AcDbEntity
  8
0
  6
Continuous
 62
     7
370
    15
100
AcDbSpline
210
0.0
220
0.0
230
1.0
 70
     8
 71
     3
 72
    15
 73
    11
 74
     0
 42
0.000000001
 43
0.00000001
 40
0.0
 40
0.0
 40
0.0
 40
0.0
 40
0.1236912948964139
 40
0.2473990043450516
 40
0.3710869368030179
 40
0.4954712630604878
 40
0.619876864962788
 40
0.7442623998339433
 40
0.8720923268685897
 40
1.0
 40
1.0
 40
1.0
 40
1.0
 10
1245.118200529813
 20
623.6315889108563
 30
0.0
 10
1245.005107228227
 20
609.2384165340685
 30
0.0
 10
1244.778905616917
 20
580.45016172304
 30
0.0
 10
1244.537854201749
 20
537.164360838381
 30
0.0
 10
1244.381096453859
 20
493.7487559354377
 30
0.0
 10
1244.327860921485
 20
450.2192402850242
 30
0.0
 10
1244.375354715936
 20
406.6073712588562
 30
0.0
 10
1244.524812274046
 20
362.6229653680019
 30
0.0
 10
1244.767843488536
 20
318.27928853174
 30
0.0
 10
1245.001391182653
 20
288.5199765257738
 30
0.0
 10
1245.118200529813
 20
273.6357969987776
 30
0.0
  0
SPLINE
  5
123
330
1F
100
AcDbEntity
  8
0
  6
Continuous
 62
     7
370
    15
100
AcDbSpline
210
0.0
220
0.0
230
1.0
 70
     8
 71
     3
 72
    12
 73
     8
 74
     0
 42
0.000000001
 43
0.00000001
 40
0.0
 40
0.0
 40
0.0
 40
0.0
 40
0.2145928569555272
 40
0.4291867413482974
 40
0.6438168703885674
 40
0.858523566509218
 40
1.0
 40
1.0
 40
1.0
 40
1.0
 10
910.1712552201745
 20
425.3836868155386
 30
0.0
 10
910.170951920485
 20
425.2712950418776
 30
0.0
 10
910.1703453196541
 20
425.0465109564414
 30
0.0
 10
910.1655961987034
 20
424.746909308786
 30
0.0
 10
910.1586776628997
 20
424.5207510474868
 30
0.0
 10
910.1510393331437
 20
424.4008020362373
 30
0.0
 10
910.1460445398321
 20
424.3885536072618
 30
0.0
 10
910.1440606009958
 20
424.3836885142709
 30
0.0
  0
LINE
  5
124
330
1F
100
AcDbEntity
  8
0
  6
Continuous
 62
     7
370
    15
100
AcDbLine
 10
910.1712552201745
 20
471.8836881510551
 30
0.0
 11
910.1712552201745
 21
425.3836868155386
 31
0.0
  0
SPLINE
  5
125
330
1F
100
AcDbEntity
  8
0
  6
Continuous
 62
     7
370
    15
100
AcDbSpline
210
0.0
220
0.0
230
1.0
 70
     8
 71
     3
 72
    12
 73
     8
 74
     0
 42
0.000000001
 43
0.00000001
 40
0.0
 40
0.0
 40
0.0
 40
0.0
 40
0.2147910463472822
 40
0.4295850670626645
 40
0.6443450012487967
 40
0.8590299261597969
 40
1.0
 40
1.0
 40
1.0
 40
1.0
 10
910.1440606009958
 20
472.8836883149679
 30
0.0
 10
910.1470809716669
 20
472.8726277141969
 30
0.0
 10
910.153121754835
 20
472.8505063594907
 30
0.0
 10
910.1612811985748
 20
472.6779998049856
 30
0.0
 10
910.1675012084808
 20
472.4241252691787
 30
0.0
 10
910.1707828733429
 20
472.1429707196163
 30
0.0
 10
910.1711211416283
 20
471.9572870989392
 30
0.0
 10
910.1712552201745
 20
471.8836881510551
 30
0.0
  0
LINE
  5
126
330
1F
100
AcDbEntity
  8
0
  6
Continuous
 62
     7
370
    15
100
AcDbLine
 10
909.7395536792276
 20
472.8836883149679
 30
0.0
 11
910.1440606009958
 21
472.8836883149679
 31
0.0
  0
SPLINE
  5
127
330
1F
100
AcDbEntity
  8
0
  6
Continuous
 62
     7
370
    15
100
AcDbSpline
210
0.0
220
0.0
230
1.0
 70
     8
 71
     3
 72
    12
 73
     8
 74
     0
 42
0.000000001
 43
0.00000001
 40
0.0
 40
0.0
 40
0.0
 40
0.0
 40
0.2146819121636077
 40
0.4293656247631173
 40
0.644048639619218
 40
0.8587433695576386
 40
0.9999999999999999
 40
0.9999999999999999
 40
0.9999999999999999
 40
0.9999999999999999
 10
909.7299722325799
 20
471.8836881510551
 30
0.0
 10
909.730073803456
 20
471.9961088283603
 30
0.0
 10
909.7302769460598
 20
472.2209511257897
 30
0.0
 10
909.7318826394633
 20
472.5206111812036
 30
0.0
 10
909.7342746789079
 20
472.7467710717288
 30
0.0
 10
909.7369699736164
 20
472.8666123049513
 30
0.0
 10
909.7388196492935
 20
472.8788370260086
 30
0.0
 10
909.7395536792276
 20
472.8836883149679
 30
0.0
  0
LINE
  5
128
330
1F
100
AcDbEntity
  8
0
  6
Continuous
 62
     7
370
    15
100
AcDbLine
 10
909.7299722325799
 20
425.3836868155386
 30
0.0
 11
909.7299722325799
 21
471.8836881510551
 31
0.0
  0
SPLINE
  5
129
330
1F
100
AcDbEntity
  8
0
  6
Continuous
 62
     7
370
    15
100
AcDbSpline
210
0.0
220
0.0
230
1.0
 70
     8
 71
     3
 72
    12
 73
     8
 74
     0
 42
0.000000001
 43
0.00000001
 40
0.0
 40
0.0
 40
0.0
 40
0.0
 40
0.2147058585674118
 40
0.429411764897651
 40
0.6441133905397294
 40
0.8588058686361826
 40
1.0
 40
1.0
 40
1.0
 40
1.0
 10
909.7395536792276
 20
424.3836885142709
 30
0.0
 10
909.7384393258867
 20
424.394743416798
 30
0.0
 10
909.7362106189573
 20
424.4168532243115
 30
0.0
 10
909.7333458119273
 20
424.5892774900784
 30
0.0
 10
909.731250311024
 20
424.8430403106967
 30
0.0
 10
909.7301251201271
 20
425.1242064655279
 30
0.0
 10
909.7300156597792
 20
425.3099822850331
 30
0.0
 10
909.7299722325799
 20
425.3836868155386
 30
0.0
  0
LINE
  5
12A
330
1F
100
AcDbEntity
  8
0
  6
Continuous
 62
     7
370
    15
100
AcDbLine
 10
910.1440606009958
 20
424.3836885142709
 30
0.0
 11
909.7395536792276
 21
424.3836885142709
 31
0.0
  0
SPLINE
  5
12B
330
1F
100
AcDbEntity
  8
0
  6
Continuous
 62
     7
370
    15
100
AcDbSpline
210
0.0
220
0.0
230
1.0
 70
     8
 71
     3
 72
    17
 73
    13
 74
     0
 42
0.000000001
 43
0.00000001
 40
0.0
 40
0.0
 40
0.0
 40
0.0
 40
0.1254784303654728
 40
0.2509556449703012
 40
0.3348150770993343
 40
0.4186802534337145
 40
0.5025343768514768
 40
0.5853259046778037
 40
0.6681279595219116
 40
0.7509245330367019
 40
0.8754617041181556
 40
1.0
 40
1.0
 40
1.0
 40
1.0
 10
915.0202942383287
 20
273.633681033888
 30
0.0
 10
915.1513178256848
 20
288.2328964223454
 30
0.0
 10
915.4133637309095
 20
317.4311857474469
 30
0.0
 10
915.6729542166778
 20
356.4830620827883
 30
0.0
 10
915.8420634539722
 20
390.715367418407
 30
0.0
 10
915.9351491347159
 20
420.112269561219
 30
0.0
 10
915.9677410166745
 20
449.3984430080515
 30
0.0
 10
915.9318026584527
 20
478.5598127133159
 30
0.0
 10
915.8376358066496
 20
507.5832829855484
 30
0.0
 10
915.6687248166785
 20
541.4567221477163
 30
0.0
 10
915.4105710488435
 20
580.1645427849073
 30
0.0
 10
915.1503869001556
 20
609.1439306220008
 30
0.0
 10
915.0202942383287
 20
623.6336899745847
 30
0.0
  0
LINE
  5
12C
330
1F
100
AcDbEntity
  8
0
  6
Continuous
 62
     7
370
    15
100
AcDbLine
 10
915.0202942383287
 20
273.633681033888
 30
0.0
 11
909.6748230350015
 21
273.633681033888
 31
0.0
  0
LINE
  5
12D
330
1F
100
AcDbEntity
  8
0
  6
Continuous
 62
     7
370
    15
100
AcDbLine
 10
1224.674820650815
 20
253.1697524536039
 30
0.0
 11
1224.674820650815
 21
248.6336899745847
 31
0.0
  0
SPLINE
  5
12E
330
1F
100
AcDbEntity
  8
0
  6
Continuous
 62
     7
370
    15
100
AcDbSpline
210
0.0
220
0.0
230
1.0
 70
     8
 71
     3
 72
    15
 73
    11
 74
     0
 42
0.000000001
 43
0.00000001
 40
0.0
 40
0.0
 40
0.0
 40
0.0
 40
0.1277210887014923
 40
0.2499994447612497
 40
0.3758232631341339
 40
0.5000003992051352
 40
0.62417456018255
 40
0.7499979677277652
 40
0.8722765969657371
 40
1.0
 40
1.0
 40
1.0
 40
1.0
 10
1245.138764132261
 20
273.633681033888
 30
0.0
 10
1245.051176122412
 20
272.2706167586098
 30
0.0
 10
1244.879732596111
 20
269.6025741083481
 30
0.0
 10
1243.640824672236
 20
265.7475820909727
 30
0.0
 10
1241.755232494514
 20
262.221710660311
 30
0.0
 10
1239.194028062716
 20
259.1145039912424
 30
0.0
 10
1236.086827363228
 20
256.5532986054393
 30
0.0
 10
1232.560984995424
 20
254.6677274588822
 30
0.0
 10
1228.705983951724
 20
253.4287671221153
 30
0.0
 10
1226.0379109986
 20
253.2573352102993
 30
0.0
 10
1224.674820650815
 20
253.1697524536039
 30
0.0
  0
SPLINE
  5
12F
330
1F
100
AcDbEntity
  8
0
  6
Continuous
 62
     7
370
    15
100
AcDbSpline
210
0.0
220
0.0
230
1.0
 70
     8
 71
     3
 72
    15
 73
    11
 74
     0
 42
0.000000001
 43
0.00000001
 40
0.0
 40
0.0
 40
0.0
 40
0.0
 40
0.127719767331441
 40
0.2499999934247188
 40
0.3758254638834914
 40
0.5000006892951652
 40
0.6241728167301486
 40
0.7499979740288256
 40
0.8722787329591718
 40
1.0
 40
1.0
 40
1.0
 40
1.0
 10
934.6748215448854
 20
253.9791537273313
 30
0.0
 10
933.3666345706705
 20
254.0646732942141
 30
0.0
 10
930.8059758583562
 20
254.2320701788553
 30
0.0
 10
927.1056871979441
 20
255.4240209926571
 30
0.0
 10
923.7207247537663
 20
257.236011815887
 30
0.0
 10
920.7371137712287
 20
259.6959585624367
 30
0.0
 10
918.277170758583
 20
262.6795652878402
 30
0.0
 10
916.4651768188237
 20
266.0644934759576
 30
0.0
 10
915.2732251507188
 20
269.7648006641763
 30
0.0
 10
915.1058188993752
 20
272.3254792046901
 30
0.0
 10
915.0202942383287
 20
273.633681033888
 30
0.0
  0
LINE
  5
130
330
1F
100
AcDbEntity
  8
0
  6
Continuous
 62
     7
370
    15
100
AcDbLine
 10
934.6748215448854
 20
253.9791537273313
 30
0.0
 11
934.6748215448854
 21
248.6336899745847
 31
0.0
  0
LINE
  5
131
330
1F
100
AcDbEntity
  8
0
  6
Continuous
 62
     7
370
    15
100
AcDbLine
 10
934.6971881878374
 20
254.0539128530409
 30
0.0
 11
934.6748215448854
 21
253.9791537273313
 31
0.0
  0
SPLINE
  5
132
330
1F
100
AcDbEntity
  8
0
  6
Continuous
 62
     7
370
    15
100
AcDbSpline
210
0.0
220
0.0
230
1.0
 70
     8
 71
     3
 72
    14
 73
    10
 74
     0
 42
0.000000001
 43
0.00000001
 40
0.0
 40
0.0
 40
0.0
 40
0.0
 40
0.1660797761927687
 40
0.3321849262552539
 40
0.4982577496655741
 40
0.6236773099529471
 40
0.749127668886976
 40
0.8745790445598305
 40
1.0
 40
1.0
 40
1.0
 40
1.0
 10
1224.674820650816
 20
253.1697524536038
 30
0.0
 10
1208.687713950208
 20
253.3176208739149
 30
0.0
 10
1176.711058019432
 20
253.6133803060536
 30
0.0
 10
1128.59843316597
 20
253.9447973524562
 30
0.0
 10
1084.343086822347
 20
254.1550223228614
 30
0.0
 10
1043.979648498717
 20
254.2510486811202
 30
0.0
 10
1007.537736324301
 20
254.2613362118366
 30
0.0
 10
971.0988251310623
 20
254.2033267296802
 30
0.0
 10
946.8300862440987
 20
254.1037134522909
 30
0.0
 10
934.6971881878374
 20
254.0539128530409
 30
0.0
  0
LINE
  5
133
330
1F
100
AcDbEntity
  8
0
  6
Continuous
 62
     7
370
    15
100
AcDbLine
 10
1224.713235844373
 20
253.2230986106779
 30
0.0
 11
1224.674820650815
 21
253.1697524536039
 31
0.0
  0
SPLINE
  5
134
330
1F
100
AcDbEntity
  8
0
  6
Continuous
 62
     7
370
    15
100
AcDbSpline
210
0.0
220
0.0
230
1.0
 70
     8
 71
     3
 72
    20
 73
    16
 74
     0
 42
0.000000001
 43
0.00000001
 40
0.0
 40
0.0
 40
0.0
 40
0.0
 40
0.0478258977021144
 40
0.0857037067052224
 40
0.1255944119032057
 40
0.1704319285042471
 40
0.2118795541706947
 40
0.2499383997730183
 40
0.3355804877727273
 40
0.418254872198295
 40
0.499842334471827
 40
0.6249939145866081
 40
0.749934044215949
 40
0.8737501684734112
 40
1.0
 40
1.0
 40
1.0
 40
1.0
 10
948.595538486242
 20
285.7224119651701
 30
0.0
 10
948.2469460821876
 20
284.9884882802876
 30
0.0
 10
947.6222706951655
 20
283.6733016710376
 30
0.0
 10
946.7155655885805
 20
281.7649209558563
 30
0.0
 10
945.8388162273214
 20
279.9189975765268
 30
0.0
 10
944.9500606527733
 20
278.0434969879032
 30
0.0
 10
944.0905328989224
 20
276.2246285920079
 30
0.0
 10
942.9729555046578
 20
273.8511422448968
 30
0.0
 10
941.630901599423
 20
270.974835716483
 30
0.0
 10
940.1212764094373
 20
267.6870271195797
 30
0.0
 10
938.533027829248
 20
264.1512547979017
 30
0.0
 10
936.9769032265407
 20
260.5560802811183
 30
0.0
 10
935.6780588585765
 20
257.3343380481375
 30
0.0
 10
934.8368426178282
 20
254.9851027870722
 30
0.0
 10
934.7440407219399
 20
254.3663168930915
 30
0.0
 10
934.6971881878374
 20
254.0539128530409
 30
0.0
  0
SPLINE
  5
135
330
1F
100
AcDbEntity
  8
0
  6
Continuous
 62
     7
370
    15
100
AcDbSpline
210
0.0
220
0.0
230
1.0
 70
     8
 71
     3
 72
    13
 73
     9
 74
     0
 42
0.000000001
 43
0.00000001
 40
0.0
 40
0.0
 40
0.0
 40
0.0
 40
0.1596466716335477
 40
0.3192925735406492
 40
0.4793213633871838
 40
0.6393514136454194
 40
0.8196201703782502
 40
1.0
 40
1.0
 40
1.0
 40
1.0
 10
948.595538486242
 20
285.7224119651701
 30
0.0
 10
962.7199127324732
 20
285.7478382134393
 30
0.0
 10
990.9685931251481
 20
285.7986905873867
 30
0.0
 10
1033.404210224162
 20
285.8015704764072
 30
0.0
 10
1075.86269297171
 20
285.7631130660525
 30
0.0
 10
1120.110094770815
 20
285.6524291116468
 30
0.0
 10
1166.102029965633
 20
285.4520852542822
 30
0.0
 10
1197.872975745674
 20
285.2294283232114
 30
0.0
 10
1213.763341058492
 20
285.1180655706311
 30
0.0
  0
SPLINE
  5
136
330
1F
100
AcDbEntity
  8
0
  6
Continuous
 62
     7
370
    15
100
AcDbSpline
210
0.0
220
0.0
230
1.0
 70
     8
 71
     3
 72
    22
 73
    18
 74
     0
 42
0.000000001
 43
0.00000001
 40
0.0
 40
0.0
 40
0.0
 40
0.0
 40
0.1040198105968052
 40
0.187281540999008
 40
0.249763660998264
 40
0.2953704581706039
 40
0.3393890721921816
 40
0.3818249030013126
 40
0.422683867401051
 40
0.4619722706602942
 40
0.4996982260750576
 40
0.5668034383666294
 40
0.6324723233036117
 40
0.6967701382529805
 40
0.7597665929876746
 40
0.8820170878825931
 40
0.9999999999999999
 40
0.9999999999999999
 40
0.9999999999999999
 40
0.9999999999999999
 10
1213.763341058492
 20
285.1180655706311
 30
0.0
 10
1214.456724624637
 20
283.5146840875174
 30
0.0
 10
1215.705120887098
 20
280.6278901850484
 30
0.0
 10
1217.280309122205
 20
276.8887418476243
 30
0.0
 10
1218.435345797493
 20
274.1071157991082
 30
0.0
 10
1219.301362042111
 20
271.9535056353108
 30
0.0
 10
1220.019318568032
 20
270.1335530409989
 30
0.0
 10
1220.676080501263
 20
268.431209372241
 30
0.0
 10
1221.27354805839
 20
266.8461826026769
 30
0.0
 10
1221.812966734968
 20
265.3769617060504
 30
0.0
 10
1222.42769899152
 20
263.6508861732931
 30
0.0
 10
1223.075524991252
 20
261.7293140810889
 30
0.0
 10
1223.701246099899
 20
259.7128630197848
 30
0.0
 10
1224.192543434477
 20
257.9549884988649
 30
0.0
 10
1224.662195755875
 20
255.9963884178312
 30
0.0
 10
1224.968840052886
 20
254.1320314339375
 30
0.0
 10
1224.797422206801
 20
253.5224667178256
 30
0.0
 10
1224.713235844373
 20
253.2230986106779
 30
0.0
  0
SPLINE
  5
137
330
1F
100
AcDbEntity
  8
0
  6
Continuous
 62
     7
370
    15
100
AcDbSpline
210
0.0
220
0.0
230
1.0
 70
     8
 71
     3
 72
    20
 73
    16
 74
     0
 42
0.000000001
 43
0.00000001
 40
0.0
 40
0.0
 40
0.0
 40
0.0
 40
0.1180105062980854
 40
0.2402899029853263
 40
0.3674749316983507
 40
0.5001405631937053
 40
0.5573303128026964
 40
0.618037495448035
 40
0.6822862835147235
 40
0.7500960320063084
 40
0.7850839563397193
 40
0.8275698063361279
 40
0.8775528747417823
 40
0.9350307532244331
 40
0.9999999999999999
 40
0.9999999999999999
 40
0.9999999999999999
 40
0.9999999999999999
 10
1245.118200529813
 20
273.6357969987776
 30
0.0
 10
1244.851009371608
 20
273.584095076201
 30
0.0
 10
1244.306961731293
 20
273.4788209751925
 30
0.0
 10
1242.151533062794
 20
273.9425276283295
 30
0.0
 10
1238.991634515927
 20
274.8788448744232
 30
0.0
 10
1235.617483247963
 20
276.059387080117
 30
0.0
 10
1232.630579229248
 20
277.1943742929727
 30
0.0
 10
1230.324649968939
 20
278.0994000924992
 30
0.0
 10
1227.753813764348
 20
279.1364313056171
 30
0.0
 10
1225.423034818822
 20
280.0981919112745
 30
0.0
 10
1223.34220324065
 20
280.9774125825606
 30
0.0
 10
1221.483358684448
 20
281.7717837002609
 30
0.0
 10
1219.253902151642
 20
282.7298926610202
 30
0.0
 10
1216.645548828604
 20
283.8565702170188
 30
0.0
 10
1214.762479318628
 20
284.6807590426812
 30
0.0
 10
1213.763341058492
 20
285.1180655706312
 30
0.0
  0
SPLINE
  5
138
330
1F
100
AcDbEntity
  8
0
  6
Continuous
 62
     7
370
    15
100
AcDbSpline
210
0.0
220
0.0
230
1.0
 70
     8
 71
     3
 72
    15
 73
    11
 74
     0
 42
0.000000001
 43
0.00000001
 40
0.0
 40
0.0
 40
0.0
 40
0.0
 40
0.1166560999862724
 40
0.2333587559425421
 40
0.3608164880680558
 40
0.4882912312219632
 40
0.6157479472902955
 40
0.7438252520859994
 40
0.8719200903241896
 40
1.0
 40
1.0
 40
1.0
 40
1.0
 10
1213.763341058492
 20
285.1180655706312
 30
0.0
 10
1213.690933137117
 20
297.8080383750228
 30
0.0
 10
1213.546088397283
 20
323.1930483910099
 30
0.0
 10
1213.399912093985
 20
362.5159738105762
 30
0.0
 10
1213.307221746072
 20
403.0566773350553
 30
0.0
 10
1213.274652272552
 20
444.7968710037368
 30
0.0
 10
1213.298120872906
 20
486.6070750816095
 30
0.0
 10
1213.381779231652
 20
528.4620412802996
 30
0.0
 10
1213.527936784675
 20
570.3474982146945
 30
0.0
 10
1213.68487601576
 20
598.2159110399482
 30
0.0
 10
1213.763341058492
 20
612.1493054378415
 30
0.0
  0
SPLINE
  5
139
330
1F
100
AcDbEntity
  8
0
  6
Continuous
 62
     7
370
    15
100
AcDbSpline
210
0.0
220
0.0
230
1.0
 70
     8
 71
     3
 72
    23
 73
    19
 74
     0
 42
0.000000001
 43
0.00000001
 40
0.0
 40
0.0
 40
0.0
 40
0.0
 40
0.0841423257673885
 40
0.1671469235714866
 40
0.2502009725692318
 40
0.3328890284367557
 40
0.4159968778267977
 40
0.5003557413486976
 40
0.5611001447965526
 40
0.6246972410716075
 40
0.6852526472318614
 40
0.7501956396195512
 40
0.7882235633101055
 40
0.8296467082000462
 40
0.8744656570516476
 40
0.914346648167515
 40
0.951940427349139
 40
1.0
 40
1.0
 40
1.0
 40
1.0
 10
1245.118200529813
 20
623.6315889108563
 30
0.0
 10
1244.948470676538
 20
623.6796363278329
 30
0.0
 10
1244.611305967167
 20
623.7750814900616
 30
0.0
 10
1243.467421369895
 20
623.6207794928331
 30
0.0
 10
1241.901966965385
 20
623.2558550126232
 30
0.0
 10
1239.898956811057
 20
622.6696469508049
 30
0.0
 10
1237.502804382813
 20
621.8742294859553
 30
0.0
 10
1235.003724570451
 20
620.9744843476126
 30
0.0
 10
1232.508100724295
 20
620.0275218255623
 30
0.0
 10
1230.154901933174
 20
619.1029821081981
 30
0.0
 10
1227.623706588263
 20
618.0785958288326
 30
0.0
 10
1225.340140107707
 20
617.1333444672855
 30
0.0
 10
1223.268243612642
 20
616.2609487867592
 30
0.0
 10
1221.451572153393
 20
615.4882309986219
 30
0.0
 10
1219.576082158753
 20
614.682971042363
 30
0.0
 10
1217.73243136677
 20
613.8844375674915
 30
0.0
 10
1215.821232601914
 20
613.0521241423454
 30
0.0
 10
1214.502995721801
 20
612.4737997325203
 30
0.0
 10
1213.763341058492
 20
612.1493054378415
 30
0.0
  0
SPLINE
  5
13A
330
1F
100
AcDbEntity
  8
0
  6
Continuous
 62
     7
370
    15
100
AcDbSpline
210
0.0
220
0.0
230
1.0
 70
     8
 71
     3
 72
    20
 73
    16
 74
     0
 42
0.000000001
 43
0.00000001
 40
0.0
 40
0.0
 40
0.0
 40
0.0
 40
0.1180126713600066
 40
0.2402936620117949
 40
0.367478488640715
 40
0.5001392088379838
 40
0.557330834766184
 40
0.6180394243623119
 40
0.6822885837730602
 40
0.7500972956566023
 40
0.7850906566683589
 40
0.827579392111112
 40
0.877562877710965
 40
0.9350377128713501
 40
1.0
 40
1.0
 40
1.0
 40
1.0
 10
1224.713235844373
 20
644.0442723977948
 30
0.0
 10
1224.797243647211
 20
643.7444645750239
 30
0.0
 10
1224.968297673434
 20
643.1340053861655
 30
0.0
 10
1224.599710787071
 20
640.8821930219974
 30
0.0
 10
1223.753828165012
 20
637.630525144654
 30
0.0
 10
1222.638687396695
 20
634.1900286146367
 30
0.0
 10
1221.548765861143
 20
631.1573633619598
 30
0.0
 10
1220.673496026563
 20
628.8211446526388
 30
0.0
 10
1219.664389109216
 20
626.221887150701
 30
0.0
 10
1218.723552968181
 20
623.869751570298
 30
0.0
 10
1217.860093629137
 20
621.7726947616704
 30
0.0
 10
1217.078080333572
 20
619.9010857134099
 30
0.0
 10
1216.132261351867
 20
617.6590523132996
 30
0.0
 10
1215.017097721144
 20
615.0391248973417
 30
0.0
 10
1214.197957691286
 20
613.1510656998474
 30
0.0
 10
1213.763341058492
 20
612.1493054378415
 30
0.0
  0
SPLINE
  5
13B
330
1F
100
AcDbEntity
  8
0
  6
Continuous
 62
     7
370
    15
100
AcDbSpline
210
0.0
220
0.0
230
1.0
 70
     8
 71
     3
 72
    13
 73
     9
 74
     0
 42
0.000000001
 43
0.00000001
 40
0.0
 40
0.0
 40
0.0
 40
0.0
 40
0.1802879017883235
 40
0.3606835687100085
 40
0.5203237610685243
 40
0.6799627156994729
 40
0.8399809710779399
 40
1.0
 40
1.0
 40
1.0
 40
1.0
 10
1213.763341058492
 20
612.1493054378415
 30
0.0
 10
1197.881080067519
 20
612.037995681268
 30
0.0
 10
1166.107064636724
 20
611.8153096339236
 30
0.0
 10
1120.146474745684
 20
611.6150830450042
 30
0.0
 10
1075.956868405191
 20
611.5044966087838
 30
0.0
 10
1033.53453828961
 20
611.4658325562467
 30
0.0
 10
991.0674558341468
 20
611.4685617712347
 30
0.0
 10
962.7528670813947
 20
611.5194932449122
 30
0.0
 10
948.595538486242
 20
611.5449590433027
 30
0.0
  0
SPLINE
  5
13C
330
1F
100
AcDbEntity
  8
0
  6
Continuous
 62
     7
370
    15
100
AcDbSpline
210
0.0
220
0.0
230
1.0
 70
     8
 71
     3
 72
    23
 73
    19
 74
     0
 42
0.000000001
 43
0.00000001
 40
0.0
 40
0.0
 40
0.0
 40
0.0
 40
0.0840870524720122
 40
0.1670642597632479
 40
0.2501754505468805
 40
0.3328613474976694
 40
0.4159613280371944
 40
0.5003406686495727
 40
0.5610155043801155
 40
0.6246923114811019
 40
0.6852259908790811
 40
0.750179841535606
 40
0.7882160907337554
 40
0.8296441522933488
 40
0.8744651151997013
 40
0.9143294295883557
 40
0.9519870967327957
 40
1.0
 40
1.0
 40
1.0
 40
1.0
 10
934.6971881878374
 20
643.2134581554319
 30
0.0
 10
934.716195708083
 20
643.0313316491205
 30
0.0
 10
934.7539598727958
 20
642.6694824813155
 30
0.0
 10
935.1246822666484
 20
641.4821431746826
 30
0.0
 10
935.7126088472418
 20
639.8710545766971
 30
0.0
 10
936.5263917361743
 20
637.8221384503435
 30
0.0
 10
937.5505587008158
 20
635.3832783269587
 30
0.0
 10
938.655047335281
 20
632.8508315661545
 30
0.0
 10
939.7842990884297
 20
630.3291313317022
 30
0.0
 10
940.864590651723
 20
627.9575712676237
 30
0.0
 10
942.0419982317333
 20
625.4111767311699
 30
0.0
 10
943.1126722975524
 20
623.1194666683396
 30
0.0
 10
944.0904770979652
 20
621.0428721753459
 30
0.0
 10
944.9499935480541
 20
619.2240189327232
 30
0.0
 10
945.8387294752698
 20
617.3485543758333
 30
0.0
 10
946.7140134188863
 20
615.5057220736708
 30
0.0
 10
947.6207162050118
 20
613.5974067583555
 30
0.0
 10
948.2454275368224
 20
612.2821030663595
 30
0.0
 10
948.595538486242
 20
611.5449590433026
 30
0.0
  0
LINE
  5
13D
330
1F
100
AcDbEntity
  8
0
  6
Continuous
 62
     7
370
    15
100
AcDbLine
 10
1224.674820650815
 20
644.0976185548687
 30
0.0
 11
1224.713235844373
 21
644.0442723977948
 31
0.0
  0
LINE
  5
13E
330
1F
100
AcDbEntity
  8
0
  6
Continuous
 62
     7
370
    15
100
AcDbLine
 10
915.2357277762887
 20
623.7373126495266
 30
0.0
 11
915.0202942383287
 21
623.6336899745846
 31
0.0
  0
SPLINE
  5
13F
330
1F
100
AcDbEntity
  8
0
  6
Continuous
 62
     7
370
    15
100
AcDbSpline
210
0.0
220
0.0
230
1.0
 70
     8
 71
     3
 72
    20
 73
    16
 74
     0
 42
0.000000001
 43
0.00000001
 40
0.0
 40
0.0
 40
0.0
 40
0.0
 40
0.0480191636777436
 40
0.0857084123265734
 40
0.1255889109342841
 40
0.1704312148849882
 40
0.2118787771439493
 40
0.2499321820643832
 40
0.3355774209968101
 40
0.4182535984563736
 40
0.499847035808352
 40
0.6250063490485561
 40
0.749951088844623
 40
0.8737642546376345
 40
1.0
 40
1.0
 40
1.0
 40
1.0
 10
948.595538486242
 20
611.5449590433026
 30
0.0
 10
947.8531342230916
 20
611.8887492577228
 30
0.0
 10
946.5280322049447
 20
612.5023733026792
 30
0.0
 10
944.5980212100869
 20
613.3855124642025
 30
0.0
 10
942.7292813843939
 20
614.2335241169243
 30
0.0
 10
940.8217019425997
 20
615.0884611543421
 30
0.0
 10
938.9657369597825
 20
615.9093825699633
 30
0.0
 10
936.536374634025
 20
616.9691312174114
 30
0.0
 10
933.5774410885011
 20
618.2264325534887
 30
0.0
 10
930.1689814469676
 20
619.6134601900266
 30
0.0
 10
926.4712240935343
 20
621.0380745153957
 30
0.0
 10
922.6596040580846
 20
622.3767152659816
 30
0.0
 10
919.1571919609795
 20
623.3948702745316
 30
0.0
 10
916.4980825064481
 20
623.9271396184945
 30
0.0
 10
915.6592217655151
 20
623.8009956844378
 30
0.0
 10
915.2357277762887
 20
623.7373126495266
 30
0.0
  0
SPLINE
  5
140
330
1F
100
AcDbEntity
  8
0
  6
Continuous
 62
     7
370
    15
100
AcDbSpline
210
0.0
220
0.0
230
1.0
 70
     8
 71
     3
 72
    15
 73
    11
 74
     0
 42
0.000000001
 43
0.00000001
 40
0.0
 40
0.0
 40
0.0
 40
0.0
 40
0.1255016370556434
 40
0.2510021263216212
 40
0.3767604781759474
 40
0.5025137023212171
 40
0.6267425418272191
 40
0.7509762859606598
 40
0.8754876005927359
 40
1.0
 40
1.0
 40
1.0
 40
1.0
 10
948.595538486242
 20
611.5449590433026
 30
0.0
 10
948.6840101224758
 20
597.9448938130524
 30
0.0
 10
948.8609525858157
 20
570.7448877335135
 30
0.0
 10
949.0007841719079
 20
529.8349365510302
 30
0.0
 10
948.9839047091476
 20
488.8550541131711
 30
0.0
 10
948.9244935884918
 20
447.9789518927237
 30
0.0
 10
948.9856784622281
 20
407.2695507881658
 30
0.0
 10
948.9989421261603
 20
366.7295921021865
 30
0.0
 10
948.8590833478115
 20
326.2007170820197
 30
0.0
 10
948.6833870285495
 20
299.2152195214031
 30
0.0
 10
948.595538486242
 20
285.7224119651701
 30
0.0
  0
SPLINE
  5
141
330
1F
100
AcDbEntity
  8
0
  6
Continuous
 62
     7
370
    15
100
AcDbSpline
210
0.0
220
0.0
230
1.0
 70
     8
 71
     3
 72
    22
 73
    18
 74
     0
 42
0.000000001
 43
0.00000001
 40
0.0
 40
0.0
 40
0.0
 40
0.0
 40
0.1041435254309142
 40
0.1874097989961531
 40
0.2497779728595723
 40
0.2954181546534743
 40
0.3394567938795592
 40
0.3818995625353351
 40
0.4227528974728676
 40
0.4620241027673747
 40
0.4997216532755373
 40
0.5669578731461966
 40
0.632702704386246
 40
0.6970293461965594
 40
0.7600155519494635
 40
0.8821619063686588
 40
1.0
 40
1.0
 40
1.0
 40
1.0
 10
948.595538486242
 20
285.7224119651701
 30
0.0
 10
946.9847371769331
 20
284.9810113338556
 30
0.0
 10
944.0860456994628
 20
283.6468358033522
 30
0.0
 10
940.303387783599
 20
281.9521167044381
 30
0.0
 10
937.4766422205205
 20
280.7043100221929
 30
0.0
 10
935.2777639700089
 20
279.7641571384679
 30
0.0
 10
933.4106137298111
 20
278.9811367081804
 30
0.0
 10
931.6574399400977
 20
278.2620249154591
 30
0.0
 10
930.018646220945
 20
277.6050941187959
 30
0.0
 10
928.4933020344652
 20
277.0092539658598
 30
0.0
 10
926.691169398559
 20
276.3258061939214
 30
0.0
 10
924.6701032697266
 20
275.5986851985002
 30
0.0
 10
922.5276083743188
 20
274.8861352263012
 30
0.0
 10
920.6389547049952
 20
274.315751892782
 30
0.0
 10
918.5043113708684
 20
273.7531189543581
 30
0.0
 10
916.4140120141751
 20
273.3479480419855
 30
0.0
 10
915.6237602565673
 20
273.4700858024929
 30
0.0
 10
915.2357277762887
 20
273.530058358946
 30
0.0
  0
LINE
  5
142
330
1F
100
AcDbEntity
  8
0
  6
Continuous
 62
     7
370
    15
100
AcDbLine
 10
915.0202942383287
 20
273.633681033888
 30
0.0
 11
915.2357277762887
 21
273.530058358946
 31
0.0
  0
SPLINE
  5
143
330
1F
100
AcDbEntity
  8
0
  6
Continuous
 62
     7
370
    15
100
AcDbSpline
210
0.0
220
0.0
230
1.0
 70
     8
 71
     3
 72
    15
 73
    11
 74
     0
 42
0.000000001
 43
0.00000001
 40
0.0
 40
0.0
 40
0.0
 40
0.0
 40
0.1250384651755642
 40
0.2500420057323473
 40
0.3750273919510317
 40
0.5000010800275625
 40
0.6249692975925436
 40
0.7499558547055015
 40
0.8749638978868002
 40
1.0
 40
1.0
 40
1.0
 40
1.0
 10
1245.118200529813
 20
273.6357969987776
 30
0.0
 10
1245.032461357344
 20
272.3076015036621
 30
0.0
 10
1244.861006960297
 20
269.6515814930436
 30
0.0
 10
1243.632947413804
 20
265.8179050385086
 30
0.0
 10
1241.740460262652
 20
262.2804379297787
 30
0.0
 10
1239.183964388785
 20
259.175681079136
 30
0.0
 10
1236.079338833775
 20
256.6171892796984
 30
0.0
 10
1232.540129011749
 20
254.7208546852276
 30
0.0
 10
1228.702961416479
 20
253.487401357221
 30
0.0
 10
1226.043243855953
 20
253.3112061168288
 30
0.0
 10
1224.713235844373
 20
253.2230986106779
 30
0.0
  0
SPLINE
  5
144
330
1F
100
AcDbEntity
  8
0
  6
Continuous
 62
     7
370
    15
100
AcDbSpline
210
0.0
220
0.0
230
1.0
 70
     8
 71
     3
 72
    15
 73
    11
 74
     0
 42
0.000000001
 43
0.00000001
 40
0.0
 40
0.0
 40
0.0
 40
0.0
 40
0.1250361203664849
 40
0.2500439829195574
 40
0.3750304671783434
 40
0.4999995249801502
 40
0.6249727218300036
 40
0.7499584549664168
 40
0.8749619615347856
 40
1.0
 40
1.0
 40
1.0
 40
1.0
 10
1245.118200529813
 20
623.6315889108563
 30
0.0
 10
1245.032462530501
 20
624.9597584894777
 30
0.0
 10
1244.861005908425
 20
627.6157974841111
 30
0.0
 10
1243.632959163193
 20
631.449514992491
 30
0.0
 10
1241.74042589702
 20
634.9869683648152
 30
0.0
 10
1239.183921130742
 20
638.0917301992334
 30
0.0
 10
1236.079304320285
 20
640.6502275427879
 30
0.0
 10
1232.540089256353
 20
642.5465453009294
 30
0.0
 10
1228.702952062351
 20
643.7799596213881
 30
0.0
 10
1226.043263688798
 20
643.9561600276282
 30
0.0
 10
1224.713235844373
 20
644.0442723977948
 30
0.0
  0
SPLINE
  5
145
330
1F
100
AcDbEntity
  8
0
  6
Continuous
 62
     7
370
    15
100
AcDbSpline
210
0.0
220
0.0
230
1.0
 70
     8
 71
     3
 72
    15
 73
    11
 74
     0
 42
0.000000001
 43
0.00000001
 40
0.0
 40
0.0
 40
0.0
 40
0.0
 40
0.1251100988894737
 40
0.2501297437096408
 40
0.3750838964049907
 40
0.4999994687719795
 40
0.6249189564714797
 40
0.7498725328539015
 40
0.8748873280536836
 40
0.9999999999999999
 40
0.9999999999999999
 40
0.9999999999999999
 40
0.9999999999999999
 10
915.2357277762887
 20
273.530058358946
 30
0.0
 10
915.3291421696342
 20
272.2621590623569
 30
0.0
 10
915.5159034181165
 20
269.7272771549769
 30
0.0
 10
916.7094594711097
 20
266.0726299644463
 30
0.0
 10
918.5263738650629
 20
262.70241437376
 30
0.0
 10
920.9655665475507
 20
259.7449569884631
 30
0.0
 10
923.918038309927
 20
257.3067047348173
 30
0.0
 10
927.2773971075076
 20
255.4967256673226
 30
0.0
 10
930.9161089795323
 20
254.3154621218783
 30
0.0
 10
933.436499702496
 20
254.1411186832834
 30
0.0
 10
934.6971881878374
 20
254.0539128530409
 30
0.0
  0
SPLINE
  5
146
330
1F
100
AcDbEntity
  8
0
  6
Continuous
 62
     7
370
    15
100
AcDbSpline
210
0.0
220
0.0
230
1.0
 70
     8
 71
     3
 72
    15
 73
    11
 74
     0
 42
0.000000001
 43
0.00000001
 40
0.0
 40
0.0
 40
0.0
 40
0.0
 40
0.1251100993732338
 40
0.2501296898025934
 40
0.3750839033430147
 40
0.4999993599003376
 40
0.6249189535294648
 40
0.7498724261653874
 40
0.8748869448951031
 40
0.9999999999999999
 40
0.9999999999999999
 40
0.9999999999999999
 40
0.9999999999999999
 10
934.6971881878374
 20
643.2134581554318
 30
0.0
 10
933.4365242310554
 20
643.1262632950643
 30
0.0
 10
930.916108325106
 20
642.9519366540866
 30
0.0
 10
927.2773770861133
 20
641.7706269869037
 30
0.0
 10
923.9180033650193
 20
639.960648573043
 30
0.0
 10
920.9655282660269
 20
637.5223878282346
 30
0.0
 10
918.5263579782242
 20
634.5649196359877
 30
0.0
 10
916.7094490656905
 20
631.1947223859086
 30
0.0
 10
915.515904118822
 20
627.5401028828798
 30
0.0
 10
915.3291444147842
 20
625.0052422587551
 30
0.0
 10
915.2357277762887
 20
623.7373126495266
 30
0.0
  0
CIRCLE
  5
147
330
1F
100
AcDbEntity
  8
0
  6
Continuous
 62
     7
370
    15
100
AcDbCircle
 10
1019.674825174825
 20
448.6336882067959
 30
0.0
 40
69.99999999999898
  0
CIRCLE
  5
148
330
1F
100
AcDbEntity
  8
0
  6
Continuous
 62
     7
370
    15
100
AcDbCircle
 10
1019.674825174825
 20
448.6336882067959
 30
0.0
 40
63.73194421635674
  0
CIRCLE
  5
149
330
1F
100
AcDbEntity
  8
0
  6
Continuous
 62
     7
370
    15
100
AcDbCircle
 10
1019.674825174825
 20
448.6336882067959
 30
0.0
 40
63.11249494977801
  0
CIRCLE
  5
14A
330
1F
100
AcDbEntity
  8
0
  6
Continuous
 62
     7
370
    15
100
AcDbCircle
 10
1019.674825174825
 20
448.6336882067959
 30
0.0
 40
58.61177143234625
  0
CIRCLE
  5
14B
330
1F
100
AcDbEntity
  8
0
  6
Continuous
 62
     7
370
    15
100
AcDbCircle
 10
1019.674825174825
 20
448.6336882067959
 30
0.0
 40
57.49999999999989
  0
CIRCLE
  5
14C
330
1F
100
AcDbEntity
  8
0
  6
Continuous
 62
     7
370
    15
100
AcDbCircle
 10
1019.674825174825
 20
448.6336882067959
 30
0.0
 40
56.58715574274777
  0
CIRCLE
  5
14D
330
1F
100
AcDbEntity
  8
0
  6
Continuous
 62
     7
370
    15
100
AcDbCircle
 10
1019.674825174825
 20
448.6336882067959
 30
0.0
 40
45.0
  0
LINE
  5
14E
330
1F
100
AcDbEntity
  8
0
  6
Continuous
 62
     7
370
    15
100
AcDbLine
 10
890.2447668206689
 20
658.9460743415738
 30
0.0
 11
865.3472957503793
 21
634.048588370123
 31
0.0
  0
LWPOLYLINE
  5
14F
330
1F
100
AcDbEntity
  8
0
  6
Continuous
 62
     7
370
    15
100
AcDbPolyline
 90
        9
 70
   128
 43
0.0
 10
865.3472957503793
 20
634.048588370123
 10
865.2582464110849
 20
634.1376377094174
 10
865.1403484237192
 20
634.2555505979443
 10
864.9963137996194
 20
634.3995703208828
 10
864.8295251023767
 20
634.5663590181256
 10
864.6438566339014
 20
634.7520274866009
 10
864.4436297309396
 20
634.9522543895627
 10
864.2335084569452
 20
635.1623905647183
 10
864.0183654916284
 20
635.3775186288739
  0
LINE
  5
150
330
1F
100
AcDbEntity
  8
0
  6
Continuous
 62
     7
370
    15
100
AcDbLine
 10
864.0183654916284
 20
635.3775186288739
 30
0.0
 11
888.9158514630792
 21
660.2749896991635
 31
0.0
  0
LWPOLYLINE
  5
151
330
1F
100
AcDbEntity
  8
0
  6
Continuous
 62
     7
370
    15
100
AcDbPolyline
 90
        9
 70
   128
 43
0.0
 10
890.2447668206689
 20
658.9460743415738
 10
890.1557174813745
 20
659.035108779707
 10
890.0378194940088
 20
659.1530216682339
 10
889.893784869909
 20
659.2970413911725
 10
889.7270110738275
 20
659.4638300884152
 10
889.5413426053522
 20
659.6494985568905
 10
889.3411008012292
 20
659.8497254598523
 10
889.1309795272348
 20
660.0598616350079
 10
888.9158514630792
 20
660.2749896991635
  0
LINE
  5
152
330
1F
100
AcDbEntity
  8
0
  6
Continuous
 62
     7
370
    15
100
AcDbLine
 10
682.374402631521
 20
247.736014221945
 30
0.0
 11
682.374402631521
 21
604.1360122907544
 31
0.0
  0
LINE
  5
153
330
1F
100
AcDbEntity
  8
0
  6
Continuous
 62
     7
370
    15
100
AcDbLine
 10
682.374402631521
 20
604.1360122907544
 30
0.0
 11
684.2537966859338
 21
604.1360122907544
 31
0.0
  0
LINE
  5
154
330
1F
100
AcDbEntity
  8
0
  6
Continuous
 62
     7
370
    15
100
AcDbLine
 10
684.2537966859338
 20
604.1360122907544
 30
0.0
 11
684.2537966859338
 21
247.736014221945
 31
0.0
  0
LINE
  5
155
330
1F
100
AcDbEntity
  8
0
  6
Continuous
 62
     7
370
    15
100
AcDbLine
 10
682.374402631521
 20
247.736014221945
 30
0.0
 11
684.2537966859338
 21
247.736014221945
 31
0.0
  0
ARC
  5
156
330
1F
100
AcDbEntity
  8
0
  6
Continuous
 62
     7
370
    15
100
AcDbCircle
 10
840.2598758087086
 20
659.1360139860141
 30
0.0
 40
35.47897016515246
100
AcDbArc
 50
270.0000000000008
 51
315.000000000001
  0
LINE
  5
157
330
1F
100
AcDbEntity
  8
0
  6
Continuous
 62
     7
370
    15
100
AcDbLine
 10
840.2598795783517
 20
623.6570400941754
 30
0.0
 11
840.2598795783517
 21
625.5364341485882
 31
0.0
  0
ARC
  5
158
330
1F
100
AcDbEntity
  8
0
  6
Continuous
 62
     7
370
    15
100
AcDbCircle
 10
840.2598758087086
 20
659.1360139860141
 30
0.0
 40
33.59958492358066
100
AcDbArc
 50
270.0000000000008
 51
315.000000000001
  0
ARC
  5
159
330
1F
100
AcDbEntity
  8
0
  6
Continuous
 62
     7
370
    15
100
AcDbCircle
 10
703.7748251748252
 20
604.1360139860141
 30
0.0
 40
21.40041507641945
100
AcDbArc
 50
90.0
 51
180.0
  0
LINE
  5
15A
330
1F
100
AcDbEntity
  8
0
  6
Continuous
 62
     7
370
    15
100
AcDbLine
 10
703.7748244893548
 20
625.5364341485882
 30
0.0
 11
703.7748244893548
 21
623.6570400941754
 31
0.0
  0
ARC
  5
15B
330
1F
100
AcDbEntity
  8
0
  6
Continuous
 62
     7
370
    15
100
AcDbCircle
 10
703.7748251748252
 20
604.1360139860141
 30
0.0
 40
19.5210298348477
100
AcDbArc
 50
90.0
 51
179.9999999999998
  0
LINE
  5
15C
330
1F
100
AcDbEntity
  8
0
  6
Continuous
 62
     7
370
    15
100
AcDbLine
 10
840.2598795783517
 20
623.6570400941754
 30
0.0
 11
703.7748244893548
 21
623.6570400941754
 31
0.0
  0
LINE
  5
15D
330
1F
100
AcDbEntity
  8
0
  6
Continuous
 62
     7
370
    15
100
AcDbLine
 10
703.7748244893548
 20
625.5364341485882
 30
0.0
 11
840.2598795783517
 21
625.5364341485882
 31
0.0
  0
LINE
  5
15E
330
1F
100
AcDbEntity
  8
0
  6
Continuous
 62
     7
370
    15
100
AcDbLine
 10
690.174832690954
 20
210.1173175323393
 30
0.0
 11
1264.174818743467
 21
210.1173175323393
 31
0.0
  0
LINE
  5
15F
330
1F
100
AcDbEntity
  8
0
  6
Continuous
 62
     7
370
    15
100
AcDbLine
 10
1264.174818743467
 20
210.1173175323393
 30
0.0
 11
1264.174818743467
 21
209.1360164630796
 31
0.0
  0
LINE
  5
160
330
1F
100
AcDbEntity
  8
0
  6
Continuous
 62
     7
370
    15
100
AcDbLine
 10
1264.174818743467
 20
209.1360164630796
 30
0.0
 11
690.174832690954
 21
209.1360164630796
 31
0.0
  0
LINE
  5
161
330
1F
100
AcDbEntity
  8
0
  6
Continuous
 62
     7
370
    15
100
AcDbLine
 10
690.174832690954
 20
209.1360164630796
 30
0.0
 11
690.174832690954
 21
210.1173175323393
 31
0.0
  0
ARC
  5
162
330
1F
100
AcDbEntity
  8
0
  6
Continuous
 62
     7
370
    15
100
AcDbCircle
 10
1264.174825174825
 20
234.1360139860141
 30
0.0
 40
24.01869474724754
100
AcDbArc
 50
270.0000000000008
 51
0.0
  0
LINE
  5
163
330
1F
100
AcDbEntity
  8
0
  6
Continuous
 62
     7
370
    15
100
AcDbLine
 10
1288.19350873351
 20
234.1360075223829
 30
0.0
 11
1289.174839605093
 21
234.1360075223829
 31
0.0
  0
ARC
  5
164
330
1F
100
AcDbEntity
  8
0
  6
Continuous
 62
     7
370
    15
100
AcDbCircle
 10
1264.174825174825
 20
234.1360139860141
 30
0.0
 40
25.00000000000023
100
AcDbArc
 50
270.0000000000008
 51
0.0
  0
ARC
  5
165
330
1F
100
AcDbEntity
  8
0
  6
Continuous
 62
     7
370
    15
100
AcDbCircle
 10
690.1748251748252
 20
234.1360139860141
 30
0.0
 40
25.00000000000003
100
AcDbArc
 50
180.0
 51
270.0000000000008
  0
LINE
  5
166
330
1F
100
AcDbEntity
  8
0
  6
Continuous
 62
     7
370
    15
100
AcDbLine
 10
665.1748267304895
 20
234.1360075223829
 30
0.0
 11
666.1561277997491
 21
234.1360075223829
 31
0.0
  0
ARC
  5
167
330
1F
100
AcDbEntity
  8
0
  6
Continuous
 62
     7
370
    15
100
AcDbCircle
 10
690.1748251748252
 20
234.1360139860141
 30
0.0
 40
24.01869474724739
100
AcDbArc
 50
180.0
 51
270.0000000000008
  0
ARC
  5
168
330
1F
100
AcDbEntity
  8
0
  6
Continuous
 62
     7
370
    15
100
AcDbCircle
 10
703.7748251748253
 20
247.7360139860141
 30
0.0
 40
21.40041507641956
100
AcDbArc
 50
180.0
 51
270.0000000000008
  0
LINE
  5
169
330
1F
100
AcDbEntity
  8
0
  6
Continuous
 62
     7
370
    15
100
AcDbLine
 10
1250.574826945066
 20
226.3355923641111
 30
0.0
 11
703.7748244893548
 21
226.3355923641111
 31
0.0
  0
ARC
  5
16A
330
1F
100
AcDbEntity
  8
0
  6
Continuous
 62
     7
370
    15
100
AcDbCircle
 10
1250.574825174825
 20
247.7360139860141
 30
0.0
 40
21.40041507641951
100
AcDbArc
 50
270.0000000000008
 51
0.0
  0
LINE
  5
16B
330
1F
100
AcDbEntity
  8
0
  6
Continuous
 62
     7
370
    15
100
AcDbLine
 10
1271.975233901739
 20
649.5360208499814
 30
0.0
 11
1271.975233901739
 21
247.736014221945
 31
0.0
  0
ARC
  5
16C
330
1F
100
AcDbEntity
  8
0
  6
Continuous
 62
     7
370
    15
100
AcDbCircle
 10
1250.574825174825
 20
649.536013986014
 30
0.0
 40
21.40041507641945
100
AcDbArc
 50
0.0
 51
90.0
  0
LINE
  5
16D
330
1F
100
AcDbEntity
  8
0
  6
Continuous
 62
     7
370
    15
100
AcDbLine
 10
914.6548283588884
 20
670.936427806654
 30
0.0
 11
1250.574826945066
 21
670.936427806654
 31
0.0
  0
ARC
  5
16E
330
1F
100
AcDbEntity
  8
0
  6
Continuous
 62
     7
370
    15
100
AcDbCircle
 10
914.6548251748252
 20
634.536013986014
 30
0.0
 40
36.40041507641945
100
AcDbArc
 50
90.0
 51
135.0000000000003
  0
LINE
  5
16F
330
1F
100
AcDbEntity
  8
0
  6
Continuous
 62
     7
370
    15
100
AcDbLine
 10
1288.19350873351
 20
234.1360075223829
 30
0.0
 11
1288.19350873351
 21
684.136010502615
 31
0.0
  0
LINE
  5
170
330
1F
100
AcDbEntity
  8
0
  6
Continuous
 62
     7
370
    15
100
AcDbLine
 10
666.1561277997491
 20
684.136010502615
 30
0.0
 11
666.1561277997491
 21
234.1360075223829
 31
0.0
  0
ARC
  5
171
330
1F
100
AcDbEntity
  8
0
  6
Continuous
 62
     7
370
    15
100
AcDbCircle
 10
690.1748251748252
 20
684.1360139860141
 30
0.0
 40
24.01869474724742
100
AcDbArc
 50
90.0
 51
180.0
  0
LINE
  5
172
330
1F
100
AcDbEntity
  8
0
  6
Continuous
 62
     7
370
    15
100
AcDbLine
 10
1264.174818743467
 20
708.1547153938199
 30
0.0
 11
690.174832690954
 21
708.1547153938199
 31
0.0
  0
ARC
  5
173
330
1F
100
AcDbEntity
  8
0
  6
Continuous
 62
     7
370
    15
100
AcDbCircle
 10
1264.174825174825
 20
684.1360139860141
 30
0.0
 40
24.01869474724754
100
AcDbArc
 50
0.0
 51
90.0
  0
CIRCLE
  5
175
330
1F
100
AcDbEntity
  8
0
  6
Continuous
 62
     7
370
    15
100
AcDbCircle
 10
839.1748251748252
 20
659.136013986014
 30
0.0
 40
17.5
  0
LINE
  5
176
330
1F
100
AcDbEntity
  8
0
  6
Continuous
 62
     7
370
    15
100
AcDbLine
 10
665.1748267304895
 20
234.1360075223829
 30
0.0
 11
665.1748267304895
 21
684.136010502615
 31
0.0
  0
LINE
  5
177
330
1F
100
AcDbEntity
  8
0
  6
Continuous
 62
     7
370
    15
100
AcDbLine
 10
665.1748267304895
 20
684.136010502615
 30
0.0
 11
666.1561277997491
 21
684.136010502615
 31
0.0
  0
LINE
  5
178
330
1F
100
AcDbEntity
  8
0
  6
Continuous
 62
     7
370
    15
100
AcDbLine
 10
1264.174818743467
 20
708.1547153938199
 30
0.0
 11
1264.174818743467
 21
709.1360164630795
 31
0.0
  0
ARC
  5
179
330
1F
100
AcDbEntity
  8
0
  6
Continuous
 62
     7
370
    15
100
AcDbCircle
 10
1264.174825174825
 20
684.1360139860141
 30
0.0
 40
25.0
100
AcDbArc
 50
0.0
 51
90.0
  0
LINE
  5
17A
330
1F
100
AcDbEntity
  8
0
  6
Continuous
 62
     7
370
    15
100
AcDbLine
 10
1288.19350873351
 20
684.136010502615
 30
0.0
 11
1289.174839605093
 21
684.136010502615
 31
0.0
  0
ARC
  5
17B
330
1F
100
AcDbEntity
  8
0
  6
Continuous
 62
     7
370
    15
100
AcDbCircle
 10
690.1748251748252
 20
684.1360139860141
 30
0.0
 40
25.00000000000011
100
AcDbArc
 50
90.0
 51
180.0
  0
LINE
  5
17C
330
1F
100
AcDbEntity
  8
0
  6
Continuous
 62
     7
370
    15
100
AcDbLine
 10
690.174832690954
 20
709.1360164630795
 30
0.0
 11
690.174832690954
 21
708.1547153938199
 31
0.0
  0
LINE
  5
17D
330
1F
100
AcDbEntity
  8
0
  6
Continuous
 62
     7
370
    15
100
AcDbLine
 10
1270.095854748487
 20
247.736014221945
 30
0.0
 11
1270.095854748487
 21
649.5360208499814
 31
0.0
  0
LINE
  5
17E
330
1F
100
AcDbEntity
  8
0
  6
Continuous
 62
     7
370
    15
100
AcDbLine
 10
1270.095854748487
 20
649.5360208499814
 30
0.0
 11
1271.975233901739
 21
649.5360208499814
 31
0.0
  0
LINE
  5
17F
330
1F
100
AcDbEntity
  8
0
  6
Continuous
 62
     7
370
    15
100
AcDbLine
 10
1271.975233901739
 20
247.736014221945
 30
0.0
 11
1270.095854748487
 21
247.736014221945
 31
0.0
  0
ARC
  5
180
330
1F
100
AcDbEntity
  8
0
  6
Continuous
 62
     7
370
    15
100
AcDbCircle
 10
1250.574825174825
 20
649.536013986014
 30
0.0
 40
19.52102983484758
100
AcDbArc
 50
0.0000000000001668
 51
90.0
  0
LINE
  5
181
330
1F
100
AcDbEntity
  8
0
  6
Continuous
 62
     7
370
    15
100
AcDbLine
 10
1250.574826945066
 20
669.0570486534024
 30
0.0
 11
1250.574826945066
 21
670.936427806654
 31
0.0
  0
LINE
  5
182
330
1F
100
AcDbEntity
  8
0
  6
Continuous
 62
     7
370
    15
100
AcDbLine
 10
1250.574826945066
 20
226.3355923641111
 30
0.0
 11
1250.574826945066
 21
228.2149864185239
 31
0.0
  0
ARC
  5
183
330
1F
100
AcDbEntity
  8
0
  6
Continuous
 62
     7
370
    15
100
AcDbCircle
 10
1250.574825174825
 20
247.7360139860141
 30
0.0
 40
19.52102983484767
100
AcDbArc
 50
270.0000000000008
 51
0.0000000000001668
  0
LINE
  5
184
330
1F
100
AcDbEntity
  8
0
  6
Continuous
 62
     7
370
    15
100
AcDbLine
 10
1250.574826945066
 20
669.0570486534024
 30
0.0
 11
914.6548283588884
 21
669.0570486534024
 31
0.0
  0
LINE
  5
185
330
1F
100
AcDbEntity
  8
0
  6
Continuous
 62
     7
370
    15
100
AcDbLine
 10
914.6548283588884
 20
669.0570486534024
 30
0.0
 11
914.6548283588884
 21
670.936427806654
 31
0.0
  0
LINE
  5
186
330
1F
100
AcDbEntity
  8
0
  6
Continuous
 62
     7
370
    15
100
AcDbLine
 10
703.7748244893548
 20
226.3355923641111
 30
0.0
 11
703.7748244893548
 21
228.2149864185239
 31
0.0
  0
LINE
  5
187
330
1F
100
AcDbEntity
  8
0
  6
Continuous
 62
     7
370
    15
100
AcDbLine
 10
703.7748244893548
 20
228.2149864185239
 30
0.0
 11
1250.574826945066
 21
228.2149864185239
 31
0.0
  0
ARC
  5
188
330
1F
100
AcDbEntity
  8
0
  6
Continuous
 62
     7
370
    15
100
AcDbCircle
 10
914.6548251748252
 20
634.536013986014
 30
0.0
 40
34.52102983484762
100
AcDbArc
 50
90.0
 51
135.0000000000001
  0
ARC
  5
189
330
1F
100
AcDbEntity
  8
0
  6
Continuous
 62
     7
370
    15
100
AcDbCircle
 10
703.7748251748253
 20
247.7360139860141
 30
0.0
 40
19.5210298348477
100
AcDbArc
 50
179.9999999999998
 51
270.0000000000008
  0
LINE
  5
18A
330
1F
100
AcDbEntity
  8
0
  6
Continuous
 62
     7
370
    15
100
AcDbLine
 10
1289.174839605093
 20
684.136010502615
 30
0.0
 11
1289.174839605093
 21
234.1360075223829
 31
0.0
  0
LINE
  5
18B
330
1F
100
AcDbEntity
  8
0
  6
Continuous
 62
     7
370
    15
100
AcDbLine
 10
690.174832690954
 20
709.1360164630795
 30
0.0
 11
1264.174818743467
 21
709.1360164630795
 31
0.0
  0
ARC
  5
18C
330
1F
100
AcDbEntity
  8
0
  6
Continuous
 62
     7
370
    15
100
AcDbCircle
 10
1250.574825174825
 20
247.7360139860141
 30
0.0
 40
19.38705946235382
100
AcDbArc
 50
270.0000000000008
 51
0.0
  0
LINE
  5
18D
330
1F
100
AcDbEntity
  8
0
  6
Continuous
 62
     7
370
    15
100
AcDbLine
 10
1269.961878408193
 20
247.736014221945
 30
0.0
 11
1270.095854748487
 21
247.736014221945
 31
0.0
  0
LINE
  5
18E
330
1F
100
AcDbEntity
  8
0
  6
Continuous
 62
     7
370
    15
100
AcDbLine
 10
1250.574826945066
 20
228.3489478576566
 30
0.0
 11
1250.574826945066
 21
228.2149864185239
 31
0.0
  0
LINE
  5
18F
330
1F
100
AcDbEntity
  8
0
  6
Continuous
 62
     7
370
    15
100
AcDbLine
 10
914.6548283588884
 20
668.9230723131085
 30
0.0
 11
1250.574826945066
 21
668.9230723131085
 31
0.0
  0
LINE
  5
190
330
1F
100
AcDbEntity
  8
0
  6
Continuous
 62
     7
370
    15
100
AcDbLine
 10
914.6548283588884
 20
668.9230723131085
 30
0.0
 11
914.6548283588884
 21
669.0570486534024
 31
0.0
  0
LINE
  5
191
330
1F
100
AcDbEntity
  8
0
  6
Continuous
 62
     7
370
    15
100
AcDbLine
 10
1250.574826945066
 20
668.9230723131085
 30
0.0
 11
1250.574826945066
 21
669.0570486534024
 31
0.0
  0
LINE
  5
192
330
1F
100
AcDbEntity
  8
0
  6
Continuous
 62
     7
370
    15
100
AcDbLine
 10
1250.574826945066
 20
228.3489478576566
 30
0.0
 11
703.7748244893548
 21
228.3489478576566
 31
0.0
  0
LINE
  5
193
330
1F
100
AcDbEntity
  8
0
  6
Continuous
 62
     7
370
    15
100
AcDbLine
 10
703.7748244893548
 20
228.3489478576566
 30
0.0
 11
703.7748244893548
 21
228.2149864185239
 31
0.0
  0
LINE
  5
194
330
1F
100
AcDbEntity
  8
0
  6
Continuous
 62
     7
370
    15
100
AcDbLine
 10
703.7748244893548
 20
623.5230786550427
 30
0.0
 11
840.2598795783517
 21
623.5230786550427
 31
0.0
  0
LINE
  5
195
330
1F
100
AcDbEntity
  8
0
  6
Continuous
 62
     7
370
    15
100
AcDbLine
 10
703.7748244893548
 20
623.5230786550427
 30
0.0
 11
703.7748244893548
 21
623.6570400941754
 31
0.0
  0
LINE
  5
196
330
1F
100
AcDbEntity
  8
0
  6
Continuous
 62
     7
370
    15
100
AcDbLine
 10
840.2598795783517
 20
623.5230786550427
 30
0.0
 11
840.2598795783517
 21
623.6570400941754
 31
0.0
  0
LINE
  5
197
330
1F
100
AcDbEntity
  8
0
  6
Continuous
 62
     7
370
    15
100
AcDbLine
 10
865.4420224320886
 20
633.9538616884137
 30
0.0
 11
890.3395084035394
 21
658.8513327587033
 31
0.0
  0
LINE
  5
198
330
1F
100
AcDbEntity
  8
0
  6
Continuous
 62
     7
370
    15
100
AcDbLine
 10
865.4420224320886
 20
633.9538616884137
 30
0.0
 11
865.3472957503793
 21
634.048588370123
 31
0.0
  0
LINE
  5
199
330
1F
100
AcDbEntity
  8
0
  6
Continuous
 62
     7
370
    15
100
AcDbLine
 10
890.3395084035394
 20
658.8513327587033
 30
0.0
 11
890.2447668206689
 21
658.9460743415738
 31
0.0
  0
ARC
  5
19A
330
1F
100
AcDbEntity
  8
0
  6
Continuous
 62
     7
370
    15
100
AcDbCircle
 10
703.7748251748252
 20
604.1360139860141
 30
0.0
 40
19.38705946235393
100
AcDbArc
 50
90.0
 51
180.0
  0
LINE
  5
19B
330
1F
100
AcDbEntity
  8
0
  6
Continuous
 62
     7
370
    15
100
AcDbLine
 10
684.3877581250665
 20
604.1360122907544
 30
0.0
 11
684.2537966859338
 21
604.1360122907544
 31
0.0
  0
ARC
  5
19C
330
1F
100
AcDbEntity
  8
0
  6
Continuous
 62
     7
370
    15
100
AcDbCircle
 10
1250.574825174825
 20
649.536013986014
 30
0.0
 40
19.3870594623537
100
AcDbArc
 50
0.000000000000168
 51
90.0
  0
LINE
  5
19D
330
1F
100
AcDbEntity
  8
0
  6
Continuous
 62
     7
370
    15
100
AcDbLine
 10
1269.961878408193
 20
649.5360208499814
 30
0.0
 11
1270.095854748487
 21
649.5360208499814
 31
0.0
  0
ARC
  5
19E
330
1F
100
AcDbEntity
  8
0
  6
Continuous
 62
     7
370
    15
100
AcDbCircle
 10
840.2598758087086
 20
659.1360139860141
 30
0.0
 40
35.61294053764632
100
AcDbArc
 50
270.0000000000008
 51
315.0000000000011
  0
ARC
  5
19F
330
1F
100
AcDbEntity
  8
0
  6
Continuous
 62
     7
370
    15
100
AcDbCircle
 10
914.6548251748252
 20
634.536013986014
 30
0.0
 40
34.3870594623537
100
AcDbArc
 50
90.0
 51
135.0000000000001
  0
ARC
  5
1A0
330
1F
100
AcDbEntity
  8
0
  6
Continuous
 62
     7
370
    15
100
AcDbCircle
 10
703.7748251748253
 20
247.7360139860141
 30
0.0
 40
19.38705946235393
100
AcDbArc
 50
180.0
 51
270.0000000000008
  0
LINE
  5
1A1
330
1F
100
AcDbEntity
  8
0
  6
Continuous
 62
     7
370
    15
100
AcDbLine
 10
684.3877581250665
 20
247.736014221945
 30
0.0
 11
684.2537966859338
 21
247.736014221945
 31
0.0
  0
LINE
  5
1A2
330
1F
100
AcDbEntity
  8
0
  6
Continuous
 62
     7
370
    15
100
AcDbLine
 10
684.3877581250665
 20
247.736014221945
 30
0.0
 11
684.3877581250665
 21
604.1360122907544
 31
0.0
  0
LINE
  5
1A3
330
1F
100
AcDbEntity
  8
0
  6
Continuous
 62
     7
370
    15
100
AcDbLine
 10
1269.961878408193
 20
649.5360208499814
 30
0.0
 11
1269.961878408193
 21
247.736014221945
 31
0.0
  0
ARC
  5
1A4
330
1F
100
AcDbEntity
  8
0
  6
Continuous
 62
     7
370
    15
100
AcDbCircle
 10
1250.574825174825
 20
649.536013986014
 30
0.0
 40
17.50767422078206
100
AcDbArc
 50
0.0
 51
90.0
  0
LINE
  5
1A5
330
1F
100
AcDbEntity
  8
0
  6
Continuous
 62
     7
370
    15
100
AcDbLine
 10
1250.574826945066
 20
667.0436931598568
 30
0.0
 11
1250.574826945066
 21
668.9230723131085
 31
0.0
  0
LINE
  5
1A6
330
1F
100
AcDbEntity
  8
0
  6
Continuous
 62
     7
370
    15
100
AcDbLine
 10
1268.082499254941
 20
649.5360208499814
 30
0.0
 11
1269.961878408193
 21
649.5360208499814
 31
0.0
  0
LINE
  5
1A7
330
1F
100
AcDbEntity
  8
0
  6
Continuous
 62
     7
370
    15
100
AcDbLine
 10
1268.082499254941
 20
247.736014221945
 30
0.0
 11
1268.082499254941
 21
649.5360208499814
 31
0.0
  0
LINE
  5
1A8
330
1F
100
AcDbEntity
  8
0
  6
Continuous
 62
     7
370
    15
100
AcDbLine
 10
1269.961878408193
 20
247.736014221945
 30
0.0
 11
1268.082499254941
 21
247.736014221945
 31
0.0
  0
LINE
  5
1A9
330
1F
100
AcDbEntity
  8
0
  6
Continuous
 62
     7
370
    15
100
AcDbLine
 10
684.3877581250665
 20
604.1360122907544
 30
0.0
 11
686.2671521794794
 21
604.1360122907544
 31
0.0
  0
LINE
  5
1AA
330
1F
100
AcDbEntity
  8
0
  6
Continuous
 62
     7
370
    15
100
AcDbLine
 10
686.2671521794794
 20
604.1360122907544
 30
0.0
 11
686.2671521794794
 21
247.736014221945
 31
0.0
  0
LINE
  5
1AB
330
1F
100
AcDbEntity
  8
0
  6
Continuous
 62
     7
370
    15
100
AcDbLine
 10
684.3877581250665
 20
247.736014221945
 30
0.0
 11
686.2671521794794
 21
247.736014221945
 31
0.0
  0
LINE
  5
1AC
330
1F
100
AcDbEntity
  8
0
  6
Continuous
 62
     7
370
    15
100
AcDbLine
 10
840.2598795783517
 20
621.6436846006299
 30
0.0
 11
703.7748244893548
 21
621.6436846006299
 31
0.0
  0
LINE
  5
1AD
330
1F
100
AcDbEntity
  8
0
  6
Continuous
 62
     7
370
    15
100
AcDbLine
 10
703.7748244893548
 20
623.5230786550427
 30
0.0
 11
703.7748244893548
 21
621.6436846006299
 31
0.0
  0
LINE
  5
1AE
330
1F
100
AcDbEntity
  8
0
  6
Continuous
 62
     7
370
    15
100
AcDbLine
 10
840.2598795783517
 20
621.6436846006299
 30
0.0
 11
840.2598795783517
 21
623.5230786550427
 31
0.0
  0
ARC
  5
1AF
330
1F
100
AcDbEntity
  8
0
  6
Continuous
 62
     7
370
    15
100
AcDbCircle
 10
914.6548251748252
 20
634.536013986014
 30
0.0
 40
32.50767422078206
100
AcDbArc
 50
90.0
 51
135.0000000000002
  0
LWPOLYLINE
  5
1B0
330
1F
100
AcDbEntity
  8
0
  6
Continuous
 62
     7
370
    15
100
AcDbPolyline
 90
        9
 70
   128
 43
0.0
 10
891.6684237611291
 20
657.5224174011136
 10
891.4532956969736
 20
657.7375454652691
 10
891.2431595218179
 20
657.9476667392636
 10
891.0429326188562
 20
658.1479085433865
 10
890.8572641503808
 20
658.3335770118618
 10
890.6904754531381
 20
658.5003508079434
 10
890.5464557301996
 20
658.6443854320431
 10
890.4285428416727
 20
658.7622834194088
 10
890.3395084035394
 20
658.8513327587033
  0
LINE
  5
1B1
330
1F
100
AcDbEntity
  8
0
  6
Continuous
 62
     7
370
    15
100
AcDbLine
 10
914.6548283588884
 20
667.0436931598568
 30
0.0
 11
914.6548283588884
 21
668.9230723131085
 31
0.0
  0
LINE
  5
1B2
330
1F
100
AcDbEntity
  8
0
  6
Continuous
 62
     7
370
    15
100
AcDbLine
 10
1250.574826945066
 20
667.0436931598568
 30
0.0
 11
914.6548283588884
 21
667.0436931598568
 31
0.0
  0
ARC
  5
1B3
330
1F
100
AcDbEntity
  8
0
  6
Continuous
 62
     7
370
    15
100
AcDbCircle
 10
840.2598758087086
 20
659.1360139860141
 30
0.0
 40
37.49232577921816
100
AcDbArc
 50
270.0000000000008
 51
315.0000000000008
  0
LWPOLYLINE
  5
1B4
330
1F
100
AcDbEntity
  8
0
  6
Continuous
 62
     7
370
    15
100
AcDbPolyline
 90
        9
 70
   128
 43
0.0
 10
866.7709526908395
 20
632.6249314296628
 10
866.555824626684
 20
632.8400743949795
 10
866.3456884515283
 20
633.050195668974
 10
866.1454615485666
 20
633.2504225719357
 10
865.9597930800912
 20
633.436091040411
 10
865.7930043828485
 20
633.6028797376538
 10
865.64898465991
 20
633.7469143617535
 10
865.531071771383
 20
633.8648123491192
 10
865.4420224320886
 20
633.9538616884137
  0
ARC
  5
1B5
330
1F
100
AcDbEntity
  8
0
  6
Continuous
 62
     7
370
    15
100
AcDbCircle
 10
703.7748251748252
 20
604.1360139860141
 30
0.0
 40
17.50767422078195
100
AcDbArc
 50
90.0
 51
180.0
  0
LINE
  5
1B6
330
1F
100
AcDbEntity
  8
0
  6
Continuous
 62
     7
370
    15
100
AcDbLine
 10
891.6684237611291
 20
657.5224174011136
 30
0.0
 11
866.7709526908395
 21
632.6249314296628
 31
0.0
  0
LINE
  5
1B7
330
1F
100
AcDbEntity
  8
0
  6
Continuous
 62
     7
370
    15
100
AcDbLine
 10
1250.574826945066
 20
228.3489478576566
 30
0.0
 11
1250.574826945066
 21
230.2283419120695
 31
0.0
  0
ARC
  5
1B8
330
1F
100
AcDbEntity
  8
0
  6
Continuous
 62
     7
370
    15
100
AcDbCircle
 10
1250.574825174825
 20
247.7360139860141
 30
0.0
 40
17.50767422078206
100
AcDbArc
 50
270.0000000000008
 51
0.0
  0
ARC
  5
1B9
330
1F
100
AcDbEntity
  8
0
  6
Continuous
 62
     7
370
    15
100
AcDbCircle
 10
703.7748251748253
 20
247.7360139860141
 30
0.0
 40
17.50767422078206
100
AcDbArc
 50
180.0
 51
270.0000000000008
  0
LINE
  5
1BA
330
1F
100
AcDbEntity
  8
0
  6
Continuous
 62
     7
370
    15
100
AcDbLine
 10
703.7748244893548
 20
228.3489478576566
 30
0.0
 11
703.7748244893548
 21
230.2283419120695
 31
0.0
  0
LINE
  5
1BB
330
1F
100
AcDbEntity
  8
0
  6
Continuous
 62
     7
370
    15
100
AcDbLine
 10
703.7748244893548
 20
230.2283419120695
 30
0.0
 11
1250.574826945066
 21
230.2283419120695
 31
0.0
  0
LINE
  5
1BC
330
1F
100
AcDbEntity
  8
0
  6
Continuous
 62
     7
370
    15
100
AcDbLine
 10
729.6748307836053
 20
594.2336914885426
 30
0.0
 11
849.6748206508157
 21
594.2336914885426
 31
0.0
  0
ARC
  5
1BD
330
1F
100
AcDbEntity
  8
0
  6
Continuous
 62
     7
370
    15
100
AcDbCircle
 10
729.6748251748251
 20
563.2336882067959
 30
0.0
 40
31.00000000000023
100
AcDbArc
 50
90.0
 51
180.0
  0
LINE
  5
1BE
330
1F
100
AcDbEntity
  8
0
  6
Continuous
 62
     7
370
    15
100
AcDbLine
 10
698.6748126637933
 20
273.633681033888
 30
0.0
 11
698.6748126637933
 21
563.2336882698918
 31
0.0
  0
ARC
  5
1BF
330
1F
100
AcDbEntity
  8
0
  6
Continuous
 62
     7
370
    15
100
AcDbCircle
 10
729.6748251748252
 20
273.633688206796
 30
0.0
 40
31.00000000000011
100
AcDbArc
 50
180.0
 51
270.0000000000008
  0
LINE
  5
1C0
330
1F
100
AcDbEntity
  8
0
  6
Continuous
 62
     7
370
    15
100
AcDbLine
 10
849.6748206508157
 20
242.6336927163984
 30
0.0
 11
729.6748307836053
 21
242.6336927163984
 31
0.0
  0
ARC
  5
1C1
330
1F
100
AcDbEntity
  8
0
  6
Continuous
 62
     7
370
    15
100
AcDbCircle
 10
849.6748251748252
 20
273.633688206796
 30
0.0
 40
31.00000000000014
100
AcDbArc
 50
270.0000000000008
 51
0.0
  0
LINE
  5
1C2
330
1F
100
AcDbEntity
  8
0
  6
Continuous
 62
     7
370
    15
100
AcDbLine
 10
880.6748238694665
 20
563.2336882698918
 30
0.0
 11
880.6748238694665
 21
273.633681033888
 31
0.0
  0
ARC
  5
1C3
330
1F
100
AcDbEntity
  8
0
  6
Continuous
 62
     7
370
    15
100
AcDbCircle
 10
849.6748251748252
 20
563.2336882067959
 30
0.0
 40
31.00000000000011
100
AcDbArc
 50
0.0
 51
90.0
  0
LINE
  5
1C4
330
1F
100
AcDbEntity
  8
0
  6
Continuous
 62
     7
370
    15
100
AcDbLine
 10
934.8748249304292
 20
654.6336931932354
 30
0.0
 11
1224.474832166433
 21
654.6336931932354
 31
0.0
  0
ARC
  5
1C5
330
1F
100
AcDbEntity
  8
0
  6
Continuous
 62
     7
370
    15
100
AcDbCircle
 10
934.8748251748251
 20
623.633688206796
 30
0.0
 40
31.00000000000023
100
AcDbArc
 50
90.0
 51
180.0
  0
LINE
  5
1C6
330
1F
100
AcDbEntity
  8
0
  6
Continuous
 62
     7
370
    15
100
AcDbLine
 10
903.874829162359
 20
273.633681033888
 30
0.0
 11
903.874829162359
 21
623.6336899745846
 31
0.0
  0
ARC
  5
1C7
330
1F
100
AcDbEntity
  8
0
  6
Continuous
 62
     7
370
    15
100
AcDbCircle
 10
934.8748251748251
 20
273.6336882067959
 30
0.0
 40
31.00000000000003
100
AcDbArc
 50
180.0
 51
270.0000000000008
  0
LINE
  5
1C8
330
1F
100
AcDbEntity
  8
0
  6
Continuous
 62
     7
370
    15
100
AcDbLine
 10
1224.474832166433
 20
242.6336927163984
 30
0.0
 11
934.8748249304292
 21
242.6336927163984
 31
0.0
  0
ARC
  5
1C9
330
1F
100
AcDbEntity
  8
0
  6
Continuous
 62
     7
370
    15
100
AcDbCircle
 10
1224.474825174825
 20
273.633688206796
 30
0.0
 40
31.00000000000014
100
AcDbArc
 50
270.0000000000008
 51
0.0
  0
LINE
  5
1CA
330
1F
100
AcDbEntity
  8
0
  6
Continuous
 62
     7
370
    15
100
AcDbLine
 10
1255.474820483922
 20
623.6336899745846
 30
0.0
 11
1255.474820483922
 21
273.633681033888
 31
0.0
  0
ARC
  5
1CB
330
1F
100
AcDbEntity
  8
0
  6
Continuous
 62
     7
370
    15
100
AcDbCircle
 10
1224.474825174825
 20
623.633688206796
 30
0.0
 40
31.00000000000045
100
AcDbArc
 50
0.0000000000002101
 51
90.0
  0
LINE
  5
1CC
330
1F
100
AcDbEntity
  8
0
  6
Continuous
 62
     7
370
    15
100
AcDbLine
 10
1224.474832166433
 20
654.6336931932354
 30
0.0
 11
1224.474832166433
 21
649.6336830604458
 31
0.0
  0
LINE
  5
1CD
330
1F
100
AcDbEntity
  8
0
  6
Continuous
 62
     7
370
    15
100
AcDbLine
 10
1224.474832166433
 20
649.6336830604458
 30
0.0
 11
934.8748249304292
 21
649.6336830604458
 31
0.0
  0
LINE
  5
1CE
330
1F
100
AcDbEntity
  8
0
  6
Continuous
 62
     7
370
    15
100
AcDbLine
 10
934.8748249304292
 20
654.6336931932354
 30
0.0
 11
934.8748249304292
 21
649.6336830604458
 31
0.0
  0
LINE
  5
1CF
330
1F
100
AcDbEntity
  8
0
  6
Continuous
 62
     7
370
    15
100
AcDbLine
 10
1255.474820483922
 20
623.6336899745846
 30
0.0
 11
1250.474825252294
 21
623.6336899745846
 31
0.0
  0
ARC
  5
1D0
330
1F
100
AcDbEntity
  8
0
  6
Continuous
 62
     7
370
    15
100
AcDbCircle
 10
1224.474825174825
 20
623.633688206796
 30
0.0
 40
26.0
100
AcDbArc
 50
0.0000000000002505
 51
90.0
  0
ARC
  5
1D1
330
1F
100
AcDbEntity
  8
0
  6
Continuous
 62
     7
370
    15
100
AcDbCircle
 10
934.8748251748251
 20
623.633688206796
 30
0.0
 40
26.0
100
AcDbArc
 50
90.0
 51
180.0
  0
LINE
  5
1D2
330
1F
100
AcDbEntity
  8
0
  6
Continuous
 62
     7
370
    15
100
AcDbLine
 10
903.874829162359
 20
623.6336899745846
 30
0.0
 11
908.8748243939874
 21
623.6336899745846
 31
0.0
  0
LINE
  5
1D3
330
1F
100
AcDbEntity
  8
0
  6
Continuous
 62
     7
370
    15
100
AcDbLine
 10
875.6748286378381
 20
273.633681033888
 30
0.0
 11
875.6748286378381
 21
563.2336882698918
 31
0.0
  0
LINE
  5
1D4
330
1F
100
AcDbEntity
  8
0
  6
Continuous
 62
     7
370
    15
100
AcDbLine
 10
880.6748238694665
 20
563.2336882698918
 30
0.0
 11
875.6748286378381
 21
563.2336882698918
 31
0.0
  0
LINE
  5
1D5
330
1F
100
AcDbEntity
  8
0
  6
Continuous
 62
     7
370
    15
100
AcDbLine
 10
875.6748286378381
 20
273.633681033888
 30
0.0
 11
880.6748238694665
 21
273.633681033888
 31
0.0
  0
LINE
  5
1D6
330
1F
100
AcDbEntity
  8
0
  6
Continuous
 62
     7
370
    15
100
AcDbLine
 10
703.6748376977441
 20
563.2336882698918
 30
0.0
 11
703.6748376977441
 21
273.633681033888
 31
0.0
  0
LINE
  5
1D7
330
1F
100
AcDbEntity
  8
0
  6
Continuous
 62
     7
370
    15
100
AcDbLine
 10
703.6748376977441
 20
273.633681033888
 30
0.0
 11
698.6748126637933
 21
273.633681033888
 31
0.0
  0
LINE
  5
1D8
330
1F
100
AcDbEntity
  8
0
  6
Continuous
 62
     7
370
    15
100
AcDbLine
 10
698.6748126637933
 20
563.2336882698918
 30
0.0
 11
703.6748376977441
 21
563.2336882698918
 31
0.0
  0
LINE
  5
1D9
330
1F
100
AcDbEntity
  8
0
  6
Continuous
 62
     7
370
    15
100
AcDbLine
 10
908.8748243939874
 20
623.6336899745846
 30
0.0
 11
908.8748243939874
 21
273.633681033888
 31
0.0
  0
LINE
  5
1DA
330
1F
100
AcDbEntity
  8
0
  6
Continuous
 62
     7
370
    15
100
AcDbLine
 10
908.8748243939874
 20
273.633681033888
 30
0.0
 11
903.874829162359
 21
273.633681033888
 31
0.0
  0
LINE
  5
1DB
330
1F
100
AcDbEntity
  8
0
  6
Continuous
 62
     7
370
    15
100
AcDbLine
 10
729.6748307836053
 20
594.2336914885426
 30
0.0
 11
729.6748307836053
 21
589.2336888063336
 31
0.0
  0
ARC
  5
1DC
330
1F
100
AcDbEntity
  8
0
  6
Continuous
 62
     7
370
    15
100
AcDbCircle
 10
729.6748251748251
 20
563.2336882067959
 30
0.0
 40
26.0
100
AcDbArc
 50
90.0
 51
180.0
  0
ARC
  5
1DD
330
1F
100
AcDbEntity
  8
0
  6
Continuous
 62
     7
370
    15
100
AcDbCircle
 10
849.6748251748252
 20
563.2336882067959
 30
0.0
 40
26.0
100
AcDbArc
 50
0.0
 51
90.0
  0
LINE
  5
1DE
330
1F
100
AcDbEntity
  8
0
  6
Continuous
 62
     7
370
    15
100
AcDbLine
 10
849.6748206508157
 20
594.2336914885426
 30
0.0
 11
849.6748206508157
 21
589.2336888063336
 31
0.0
  0
LINE
  5
1DF
330
1F
100
AcDbEntity
  8
0
  6
Continuous
 62
     7
370
    15
100
AcDbLine
 10
1250.474825252294
 20
273.633681033888
 30
0.0
 11
1250.474825252294
 21
623.6336899745846
 31
0.0
  0
LINE
  5
1E0
330
1F
100
AcDbEntity
  8
0
  6
Continuous
 62
     7
370
    15
100
AcDbLine
 10
1250.474825252294
 20
273.633681033888
 30
0.0
 11
1255.474820483922
 21
273.633681033888
 31
0.0
  0
LINE
  5
1E1
330
1F
100
AcDbEntity
  8
0
  6
Continuous
 62
     7
370
    15
100
AcDbLine
 10
849.6748206508157
 20
589.2336888063336
 30
0.0
 11
729.6748307836053
 21
589.2336888063336
 31
0.0
  0
ARC
  5
1E2
330
1F
100
AcDbEntity
  8
0
  6
Continuous
 62
     7
370
    15
100
AcDbCircle
 10
934.8748251748251
 20
273.6336882067959
 30
0.0
 40
25.99999999999997
100
AcDbArc
 50
180.000000000001
 51
270.0000000000008
  0
LINE
  5
1E3
330
1F
100
AcDbEntity
  8
0
  6
Continuous
 62
     7
370
    15
100
AcDbLine
 10
934.8748249304292
 20
247.6336879480268
 30
0.0
 11
934.8748249304292
 21
242.6336927163984
 31
0.0
  0
LINE
  5
1E4
330
1F
100
AcDbEntity
  8
0
  6
Continuous
 62
     7
370
    15
100
AcDbLine
 10
729.6748307836053
 20
247.6336879480268
 30
0.0
 11
849.6748206508157
 21
247.6336879480268
 31
0.0
  0
LINE
  5
1E5
330
1F
100
AcDbEntity
  8
0
  6
Continuous
 62
     7
370
    15
100
AcDbLine
 10
849.6748206508157
 20
247.6336879480268
 30
0.0
 11
849.6748206508157
 21
242.6336927163984
 31
0.0
  0
LINE
  5
1E6
330
1F
100
AcDbEntity
  8
0
  6
Continuous
 62
     7
370
    15
100
AcDbLine
 10
729.6748307836053
 20
247.6336879480268
 30
0.0
 11
729.6748307836053
 21
242.6336927163984
 31
0.0
  0
ARC
  5
1E7
330
1F
100
AcDbEntity
  8
0
  6
Continuous
 62
     7
370
    15
100
AcDbCircle
 10
729.6748251748252
 20
273.633688206796
 30
0.0
 40
26.00000000000003
100
AcDbArc
 50
180.0
 51
270.0000000000008
  0
LINE
  5
1E8
330
1F
100
AcDbEntity
  8
0
  6
Continuous
 62
     7
370
    15
100
AcDbLine
 10
934.8748249304292
 20
247.6336879480268
 30
0.0
 11
1224.474832166433
 21
247.6336879480268
 31
0.0
  0
LINE
  5
1E9
330
1F
100
AcDbEntity
  8
0
  6
Continuous
 62
     7
370
    15
100
AcDbLine
 10
1224.474832166433
 20
247.6336879480268
 30
0.0
 11
1224.474832166433
 21
242.6336927163984
 31
0.0
  0
ARC
  5
1EA
330
1F
100
AcDbEntity
  8
0
  6
Continuous
 62
     7
370
    15
100
AcDbCircle
 10
849.6748251748252
 20
273.633688206796
 30
0.0
 40
26.00000000000003
100
AcDbArc
 50
270.0000000000008
 51
0.0
  0
ARC
  5
1EB
330
1F
100
AcDbEntity
  8
0
  6
Continuous
 62
     7
370
    15
100
AcDbCircle
 10
1224.474825174825
 20
273.633688206796
 30
0.0
 40
26.00000000000003
100
AcDbArc
 50
270.0000000000008
 51
0.0
  0
LINE
  5
1EC
330
1F
100
AcDbEntity
  8
0
  6
Continuous
 62
     8
370
    15
100
AcDbLine
 10
849.6748206508157
 20
589.2336888063336
 30
0.0
 11
849.6748206508157
 21
588.4336901653195
 31
0.0
  0
LINE
  5
1ED
330
1F
100
AcDbEntity
  8
0
  6
Continuous
 62
     8
370
    15
100
AcDbLine
 10
729.6748307836053
 20
589.2336888063336
 30
0.0
 11
729.6748307836053
 21
588.4336901653195
 31
0.0
  0
LINE
  5
1EE
330
1F
100
AcDbEntity
  8
0
  6
Continuous
 62
     8
370
    15
100
AcDbLine
 10
875.674053777456
 20
273.4336925495054
 30
0.0
 11
874.6748266112802
 21
273.4336925495054
 31
0.0
  0
LINE
  5
1EF
330
1F
100
AcDbEntity
  8
0
  6
Continuous
 62
     8
370
    15
100
AcDbLine
 10
875.674053777456
 20
563.4336916554356
 30
0.0
 11
874.6748266112802
 21
563.4336916554356
 31
0.0
  0
LINE
  5
1F0
330
1F
100
AcDbEntity
  8
0
  6
Continuous
 62
     8
370
    15
100
AcDbLine
 10
849.6748206508157
 20
248.4336865890409
 30
0.0
 11
849.6748206508157
 21
247.6336879480268
 31
0.0
  0
LINE
  5
1F1
330
1F
100
AcDbEntity
  8
0
  6
Continuous
 62
     8
370
    15
100
AcDbLine
 10
729.6748307836053
 20
248.4336865890409
 30
0.0
 11
729.6748307836053
 21
247.6336879480268
 31
0.0
  0
LINE
  5
1F2
330
1F
100
AcDbEntity
  8
0
  6
Continuous
 62
     8
370
    15
100
AcDbLine
 10
704.6748248231409
 20
273.4336925495054
 30
0.0
 11
703.6755827558038
 21
273.4336925495054
 31
0.0
  0
LINE
  5
1F3
330
1F
100
AcDbEntity
  8
0
  6
Continuous
 62
     8
370
    15
100
AcDbLine
 10
704.6748248231409
 20
563.4336916554356
 30
0.0
 11
703.6755827558038
 21
563.4336916554356
 31
0.0
  0
LINE
  5
1F4
330
1F
100
AcDbEntity
  8
0
  6
Continuous
 62
     8
370
    15
100
AcDbLine
 10
934.6748215448854
 20
649.632923101225
 30
0.0
 11
934.6748215448854
 21
648.6336810338879
 31
0.0
  0
LINE
  5
1F5
330
1F
100
AcDbEntity
  8
0
  6
Continuous
 62
     8
370
    15
100
AcDbLine
 10
908.8748243939874
 20
623.6336899745846
 30
0.0
 11
909.6748230350015
 21
623.6336899745846
 31
0.0
  0
LINE
  5
1F6
330
1F
100
AcDbEntity
  8
0
  6
Continuous
 62
     8
370
    15
100
AcDbLine
 10
908.8748243939874
 20
273.633681033888
 30
0.0
 11
909.6748230350015
 21
273.633681033888
 31
0.0
  0
LINE
  5
1F7
330
1F
100
AcDbEntity
  8
0
  6
Continuous
 62
     8
370
    15
100
AcDbLine
 10
1224.674820650815
 20
648.6336810338879
 30
0.0
 11
1224.674820650815
 21
649.632923101225
 31
0.0
  0
LINE
  5
1F8
330
1F
100
AcDbEntity
  8
0
  6
Continuous
 62
     8
370
    15
100
AcDbLine
 10
1249.67482661128
 20
623.6336899745846
 30
0.0
 11
1250.474825252294
 21
623.6336899745846
 31
0.0
  0
LINE
  5
1F9
330
1F
100
AcDbEntity
  8
0
  6
Continuous
 62
     8
370
    15
100
AcDbLine
 10
1249.67482661128
 20
273.633681033888
 30
0.0
 11
1250.474825252294
 21
273.633681033888
 31
0.0
  0
LINE
  5
1FA
330
1F
100
AcDbEntity
  8
0
  6
Continuous
 62
     8
370
    15
100
AcDbLine
 10
1224.674820650815
 20
248.6336899745847
 30
0.0
 11
1224.674820650815
 21
247.6344628084089
 31
0.0
  0
LINE
  5
1FB
330
1F
100
AcDbEntity
  8
0
  6
Continuous
 62
     8
370
    15
100
AcDbLine
 10
934.6748215448854
 20
247.6344628084089
 30
0.0
 11
934.6748215448854
 21
248.6336899745847
 31
0.0
  0
LINE
  5
1FC
330
1F
100
AcDbEntity
  8
0
  6
Continuous
 62
     8
370
    15
100
AcDbLine
 10
910.1712552201745
 20
471.8836881510551
 30
0.0
 11
909.7299722325799
 21
471.8836881510551
 31
0.0
  0
LINE
  5
1FD
330
1F
100
AcDbEntity
  8
0
  6
Continuous
 62
     8
370
    15
100
AcDbLine
 10
910.1712552201745
 20
425.3836868155386
 30
0.0
 11
909.7299722325799
 21
425.3836868155386
 31
0.0
  0
ENDSEC
  0
SECTION
  2
OBJECTS
  0
DICTIONARY
  5
C
330
0
100
AcDbDictionary
281
     1
  3
ACAD_GROUP
350
D
  3
ACAD_IMAGE_VARS
350
241
  3
ACAD_LAYOUT
350
1A
  3
ACAD_MLINESTYLE
350
17
  3
ACAD_PLOTSETTINGS
350
19
  3
ACAD_PLOTSTYLENAME
350
E
  3
ACAD_SCALELIST
350
217
  3
APPDATA
350
23F
  3
DWGPROPS
350
242
  0
DICTIONARY
  5
D
102
{ACAD_REACTORS
330
C
102
}
330
C
100
AcDbDictionary
281
     1
  0
RASTERVARIABLES
  5
241
102
{ACAD_REACTORS
330
C
102
}
330
C
100
AcDbRasterVariables
 90
        0
 70
     1
 71
     1
 72
     1
  0
DICTIONARY
  5
1A
102
{ACAD_REACTORS
330
C
102
}
330
C
100
AcDbDictionary
281
     1
  3
Layout1
350
1E
  3
Layout2
350
26
  3
Model
350
22
  0
DICTIONARY
  5
17
102
{ACAD_REACTORS
330
C
102
}
330
C
100
AcDbDictionary
281
     1
  3
Standard
350
18
  0
DICTIONARY
  5
19
102
{ACAD_REACTORS
330
C
102
}
330
C
100
AcDbDictionary
281
     1
  0
ACDBDICTIONARYWDFLT
  5
E
102
{ACAD_REACTORS
330
C
102
}
330
C
100
AcDbDictionary
281
     1
  3
Normal
350
F
100
AcDbDictionaryWithDefault
340
F
  0
DICTIONARY
  5
217
102
{ACAD_REACTORS
330
C
102
}
330
C
100
AcDbDictionary
281
     1
  3
A0
350
218
  3
A1
350
219
  3
A2
350
21A
  3
A3
350
21B
  3
A4
350
21C
  3
A5
350
21D
  3
A6
350
21E
  3
A7
350
21F
  3
A8
350
220
  3
A9
350
221
  3
B0
350
222
  3
B1
350
223
  3
B2
350
224
  3
B3
350
225
  3
B4
350
226
  3
B5
350
227
  3
B6
350
228
  3
B7
350
229
  3
B8
350
22A
  3
B9
350
22B
  3
C0
350
22C
  3
C1
350
22D
  3
C2
350
22E
  3
C3
350
22F
  3
C4
350
230
  3
C5
350
231
  3
C6
350
232
  3
C7
350
233
  3
C8
350
234
  3
C9
350
235
  3
D0
350
236
  3
D1
350
237
  3
D2
350
238
  0
DICTIONARY
  5
23F
102
{ACAD_REACTORS
330
C
102
}
330
C
100
AcDbDictionary
281
     1
  0
XRECORD
  5
242
102
{ACAD_REACTORS
330
C
102
}
330
C
100
AcDbXrecord
280
     1
  1
DWGPROPS COOKIE
  2

  3

  4

  6

  7

  8
Ismo
  9

300
=
301
=
302
=
303
=
304
=
305
=
306
=
307
=
308
=
309
=
 40
0.0
 41
2456338.549027349
 42
2457758.277084699
  1

 90
        0
  0
LAYOUT
  5
1E
102
{ACAD_REACTORS
330
1A
102
}
330
1A
100
AcDbPlotSettings
  1

  2
none_device
  4

  6

 40
0.0
 41
0.0
 42
0.0
 43
0.0
 44
0.0
 45
0.0
 46
0.0
 47
0.0
 48
0.0
 49
0.0
140
0.0
141
0.0
142
1.0
143
1.0
 70
   688
 72
     0
 73
     0
 74
     5
  7

 75
    16
147
1.0
148
0.0
149
0.0
100
AcDbLayout
  1
Layout1
 70
     1
 71
     1
 10
0.0
 20
0.0
 11
420.0
 21
297.0
 12
0.0
 22
0.0
 32
0.0
 14
1.000000000000000E+20
 24
1.000000000000000E+20
 34
1.000000000000000E+20
 15
-1.000000000000000E+20
 25
-1.000000000000000E+20
 35
-1.000000000000000E+20
146
0.0
 13
0.0
 23
0.0
 33
0.0
 16
1.0
 26
0.0
 36
0.0
 17
0.0
 27
1.0
 37
0.0
 76
     0
330
1B
  0
LAYOUT
  5
26
102
{ACAD_REACTORS
330
1A
102
}
330
1A
100
AcDbPlotSettings
  1

  2
none_device
  4

  6

 40
0.0
 41
0.0
 42
0.0
 43
0.0
 44
0.0
 45
0.0
 46
0.0
 47
0.0
 48
0.0
 49
0.0
140
0.0
141
0.0
142
1.0
143
1.0
 70
   688
 72
     0
 73
     0
 74
     5
  7

 75
    16
147
1.0
148
0.0
149
0.0
100
AcDbLayout
  1
Layout2
 70
     1
 71
     2
 10
0.0
 20
0.0
 11
0.0
 21
0.0
 12
0.0
 22
0.0
 32
0.0
 14
0.0
 24
0.0
 34
0.0
 15
0.0
 25
0.0
 35
0.0
146
0.0
 13
0.0
 23
0.0
 33
0.0
 16
1.0
 26
0.0
 36
0.0
 17
0.0
 27
1.0
 37
0.0
 76
     0
330
23
  0
LAYOUT
  5
22
102
{ACAD_REACTORS
330
1A
102
}
330
1A
100
AcDbPlotSettings
  1

  2
none_device
  4

  6

 40
0.0
 41
0.0
 42
0.0
 43
0.0
 44
0.0
 45
0.0
 46
0.0
 47
0.0
 48
0.0
 49
0.0
140
0.0
141
0.0
142
1.0
143
1.0
 70
  1712
 72
     0
 73
     0
 74
     0
  7

 75
     0
147
1.0
148
0.0
149
0.0
100
AcDbLayout
  1
Model
 70
     1
 71
     0
 10
0.0
 20
0.0
 11
2000.0
 21
900.0
 12
0.0
 22
0.0
 32
0.0
 14
0.0
 24
0.0
 34
0.0
 15
2000.0
 25
900.0
 35
0.0
146
0.0
 13
0.0
 23
0.0
 33
0.0
 16
1.0
 26
0.0
 36
0.0
 17
0.0
 27
1.0
 37
0.0
 76
     0
330
1F
331
29
  0
MLINESTYLE
  5
18
102
{ACAD_REACTORS
330
17
102
}
330
17
100
AcDbMlineStyle
  2
Standard
 70
     0
  3

 62
   256
 51
90.0
 52
90.0
 71
     2
 49
0.5
 62
   256
  6
BYLAYER
 49
-0.5
 62
   256
  6
BYLAYER
  0
ACDBPLACEHOLDER
  5
F
102
{ACAD_REACTORS
330
E
102
}
330
E
  0
SCALE
  5
218
102
{ACAD_REACTORS
330
217
102
}
330
217
100
AcDbScale
 70
     0
300
1:1
140
1.0
141
1.0
290
     1
  0
SCALE
  5
219
102
{ACAD_REACTORS
330
217
102
}
330
217
100
AcDbScale
 70
     0
300
1:2
140
1.0
141
2.0
290
     0
  0
SCALE
  5
21A
102
{ACAD_REACTORS
330
217
102
}
330
217
100
AcDbScale
 70
     0
300
1:4
140
1.0
141
4.0
290
     0
  0
SCALE
  5
21B
102
{ACAD_REACTORS
330
217
102
}
330
217
100
AcDbScale
 70
     0
300
1:5
140
1.0
141
5.0
290
     0
  0
SCALE
  5
21C
102
{ACAD_REACTORS
330
217
102
}
330
217
100
AcDbScale
 70
     0
300
1:8
140
1.0
141
8.0
290
     0
  0
SCALE
  5
21D
102
{ACAD_REACTORS
330
217
102
}
330
217
100
AcDbScale
 70
     0
300
1:10
140
1.0
141
10.0
290
     0
  0
SCALE
  5
21E
102
{ACAD_REACTORS
330
217
102
}
330
217
100
AcDbScale
 70
     0
300
1:16
140
1.0
141
16.0
290
     0
  0
SCALE
  5
21F
102
{ACAD_REACTORS
330
217
102
}
330
217
100
AcDbScale
 70
     0
300
1:20
140
1.0
141
20.0
290
     0
  0
SCALE
  5
220
102
{ACAD_REACTORS
330
217
102
}
330
217
100
AcDbScale
 70
     0
300
1:30
140
1.0
141
30.0
290
     0
  0
SCALE
  5
221
102
{ACAD_REACTORS
330
217
102
}
330
217
100
AcDbScale
 70
     0
300
1:40
140
1.0
141
40.0
290
     0
  0
SCALE
  5
222
102
{ACAD_REACTORS
330
217
102
}
330
217
100
AcDbScale
 70
     0
300
1:50
140
1.0
141
50.0
290
     0
  0
SCALE
  5
223
102
{ACAD_REACTORS
330
217
102
}
330
217
100
AcDbScale
 70
     0
300
1:100
140
1.0
141
100.0
290
     0
  0
SCALE
  5
224
102
{ACAD_REACTORS
330
217
102
}
330
217
100
AcDbScale
 70
     0
300
2:1
140
2.0
141
1.0
290
     0
  0
SCALE
  5
225
102
{ACAD_REACTORS
330
217
102
}
330
217
100
AcDbScale
 70
     0
300
4:1
140
4.0
141
1.0
290
     0
  0
SCALE
  5
226
102
{ACAD_REACTORS
330
217
102
}
330
217
100
AcDbScale
 70
     0
300
8:1
140
8.0
141
1.0
290
     0
  0
SCALE
  5
227
102
{ACAD_REACTORS
330
217
102
}
330
217
100
AcDbScale
 70
     0
300
10:1
140
10.0
141
1.0
290
     0
  0
SCALE
  5
228
102
{ACAD_REACTORS
330
217
102
}
330
217
100
AcDbScale
 70
     0
300
100:1
140
100.0
141
1.0
290
     0
  0
SCALE
  5
229
102
{ACAD_REACTORS
330
217
102
}
330
217
100
AcDbScale
 70
     0
300
1/128" = 1'-0"
140
0.0078125
141
12.0
290
     0
  0
SCALE
  5
22A
102
{ACAD_REACTORS
330
217
102
}
330
217
100
AcDbScale
 70
     0
300
1/64" = 1'-0"
140
0.015625
141
12.0
290
     0
  0
SCALE
  5
22B
102
{ACAD_REACTORS
330
217
102
}
330
217
100
AcDbScale
 70
     0
300
1/32" = 1'-0"
140
0.03125
141
12.0
290
     0
  0
SCALE
  5
22C
102
{ACAD_REACTORS
330
217
102
}
330
217
100
AcDbScale
 70
     0
300
1/16" = 1'-0"
140
0.0625
141
12.0
290
     0
  0
SCALE
  5
22D
102
{ACAD_REACTORS
330
217
102
}
330
217
100
AcDbScale
 70
     0
300
3/32" = 1'-0"
140
0.09375
141
12.0
290
     0
  0
SCALE
  5
22E
102
{ACAD_REACTORS
330
217
102
}
330
217
100
AcDbScale
 70
     0
300
1/8" = 1'-0"
140
0.125
141
12.0
290
     0
  0
SCALE
  5
22F
102
{ACAD_REACTORS
330
217
102
}
330
217
100
AcDbScale
 70
     0
300
3/16" = 1'-0"
140
0.1875
141
12.0
290
     0
  0
SCALE
  5
230
102
{ACAD_REACTORS
330
217
102
}
330
217
100
AcDbScale
 70
     0
300
1/4" = 1'-0"
140
0.25
141
12.0
290
     0
  0
SCALE
  5
231
102
{ACAD_REACTORS
330
217
102
}
330
217
100
AcDbScale
 70
     0
300
3/8" = 1'-0"
140
0.375
141
12.0
290
     0
  0
SCALE
  5
232
102
{ACAD_REACTORS
330
217
102
}
330
217
100
AcDbScale
 70
     0
300
1/2" = 1'-0"
140
0.5
141
12.0
290
     0
  0
SCALE
  5
233
102
{ACAD_REACTORS
330
217
102
}
330
217
100
AcDbScale
 70
     0
300
3/4" = 1'-0"
140
0.75
141
12.0
290
     0
  0
SCALE
  5
234
102
{ACAD_REACTORS
330
217
102
}
330
217
100
AcDbScale
 70
     0
300
1" = 1'-0"
140
1.0
141
12.0
290
     0
  0
SCALE
  5
235
102
{ACAD_REACTORS
330
217
102
}
330
217
100
AcDbScale
 70
     0
300
1-1/2" = 1'-0"
140
1.5
141
12.0
290
     0
  0
SCALE
  5
236
102
{ACAD_REACTORS
330
217
102
}
330
217
100
AcDbScale
 70
     0
300
3" = 1'-0"
140
3.0
141
12.0
290
     0
  0
SCALE
  5
237
102
{ACAD_REACTORS
330
217
102
}
330
217
100
AcDbScale
 70
     0
300
6" = 1'-0"
140
6.0
141
12.0
290
     0
  0
SCALE
  5
238
102
{ACAD_REACTORS
330
217
102
}
330
217
100
AcDbScale
 70
     0
300
1'-0" = 1'-0"
140
12.0
141
12.0
290
     0
  0
ENDSEC
  0
EOF
