  0
SECTION
  2
HEADER
  9
$ACADVER
  1
AC1015
  9
$ACADMAINTVER
 70
     6
  9
$DWGCODEPAGE
  3
ANSI_1252
  9
$INSBASE
 10
0.0
 20
0.0
 30
0.0
  9
$EXTMIN
 10
0.0
 20
0.0
 30
0.0
  9
$EXTMAX
 10
2000.0
 20
1000.0
 30
0.0
  9
$LIMMIN
 10
0.0
 20
0.0
  9
$LIMMAX
 10
2000.0
 20
1000.0
  9
$ORTHOMODE
 70
     0
  9
$REGENMODE
 70
     1
  9
$FILLMODE
 70
     1
  9
$QTEXTMODE
 70
     0
  9
$MIRRTEXT
 70
     1
  9
$LTSCALE
 40
1.0
  9
$ATTMODE
 70
     1
  9
$TEXTSIZE
 40
3.5
  9
$TRACEWID
 40
1.0
  9
$TEXTSTYLE
  7
Standard
  9
$CLAYER
  8
0
  9
$CELTYPE
  6
ByLayer
  9
$CECOLOR
 62
   256
  9
$CELTSCALE
 40
1.0
  9
$DISPSILH
 70
     0
  9
$DIMSCALE
 40
1.0
  9
$DIMASZ
 40
6.0
  9
$DIMEXO
 40
1.0
  9
$DIMDLI
 40
3.75
  9
$DIMRND
 40
0.0
  9
$DIMDLE
 40
0.0
  9
$DIMEXE
 40
1.0
  9
$DIMTP
 40
0.0
  9
$DIMTM
 40
0.0
  9
$DIMTXT
 40
3.5
  9
$DIMCEN
 40
2.5
  9
$DIMTSZ
 40
0.0
  9
$DIMTOL
 70
     0
  9
$DIMLIM
 70
     0
  9
$DIMTIH
 70
     1
  9
$DIMTOH
 70
     1
  9
$DIMSE1
 70
     0
  9
$DIMSE2
 70
     0
  9
$DIMTAD
 70
     1
  9
$DIMZIN
 70
     0
  9
$DIMBLK
  1

  9
$DIMASO
 70
     1
  9
$DIMSHO
 70
     1
  9
$DIMPOST
  1

  9
$DIMAPOST
  1

  9
$DIMALT
 70
     0
  9
$DIMALTD
 70
     3
  9
$DIMALTF
 40
0.0393700787401575
  9
$DIMLFAC
 40
1.0
  9
$DIMTOFL
 70
     1
  9
$DIMTVP
 40
0.0
  9
$DIMTIX
 70
     0
  9
$DIMSOXD
 70
     0
  9
$DIMSAH
 70
     0
  9
$DIMBLK1
  1

  9
$DIMBLK2
  1

  9
$DIMSTYLE
  2
ISO-25
  9
$DIMCLRD
 70
     0
  9
$DIMCLRE
 70
     0
  9
$DIMCLRT
 70
     0
  9
$DIMTFAC
 40
1.0
  9
$DIMGAP
 40
1.524
  9
$DIMJUST
 70
     0
  9
$DIMSD1
 70
     0
  9
$DIMSD2
 70
     0
  9
$DIMTOLJ
 70
     0
  9
$DIMTZIN
 70
     0
  9
$DIMALTZ
 70
     0
  9
$DIMALTTZ
 70
     0
  9
$DIMUPT
 70
     0
  9
$DIMDEC
 70
     2
  9
$DIMTDEC
 70
     2
  9
$DIMALTU
 70
     2
  9
$DIMALTTD
 70
     3
  9
$DIMTXSTY
  7
Standard
  9
$DIMAUNIT
 70
     0
  9
$DIMADEC
 70
     2
  9
$DIMALTRND
 40
0.0
  9
$DIMAZIN
 70
     0
  9
$DIMDSEP
 70
    44
  9
$DIMATFIT
 70
     3
  9
$DIMFRAC
 70
     0
  9
$DIMLDRBLK
  1

  9
$DIMLUNIT
 70
     2
  9
$DIMLWD
 70
    -2
  9
$DIMLWE
 70
    -2
  9
$DIMTMOVE
 70
     0
  9
$LUNITS
 70
     2
  9
$LUPREC
 70
     2
  9
$SKETCHINC
 40
1.0
  9
$FILLETRAD
 40
10.0
  9
$AUNITS
 70
     0
  9
$AUPREC
 70
     2
  9
$MENU
  1
.
  9
$ELEVATION
 40
0.0
  9
$PELEVATION
 40
0.0
  9
$THICKNESS
 40
0.0
  9
$LIMCHECK
 70
     0
  9
$CHAMFERA
 40
10.0
  9
$CHAMFERB
 40
10.0
  9
$CHAMFERC
 40
20.0
  9
$CHAMFERD
 40
0.0
  9
$SKPOLY
 70
     0
  9
$TDCREATE
 40
2456338.642693947
  9
$TDUCREATE
 40
2456338.559360614
  9
$TDUPDATE
 40
2457758.360787975
  9
$TDUUPDATE
 40
2457758.277454641
  9
$TDINDWG
 40
0.0001417245
  9
$TDUSRTIMER
 40
2457758.277313021
  9
$USRTIMER
 70
     1
  9
$ANGBASE
 50
0.0
  9
$ANGDIR
 70
     0
  9
$PDMODE
 70
     0
  9
$PDSIZE
 40
-1.0
  9
$PLINEWID
 40
0.0
  9
$SPLFRAME
 70
     0
  9
$SPLINETYPE
 70
     6
  9
$SPLINESEGS
 70
     8
  9
$HANDSEED
  5
1A5
  9
$SURFTAB1
 70
     6
  9
$SURFTAB2
 70
     6
  9
$SURFTYPE
 70
     6
  9
$SURFU
 70
     6
  9
$SURFV
 70
     6
  9
$UCSBASE
  2

  9
$UCSNAME
  2

  9
$UCSORG
 10
0.0
 20
0.0
 30
0.0
  9
$UCSXDIR
 10
1.0
 20
0.0
 30
0.0
  9
$UCSYDIR
 10
0.0
 20
1.0
 30
0.0
  9
$UCSORTHOREF
  2

  9
$UCSORTHOVIEW
 70
     0
  9
$UCSORGTOP
 10
0.0
 20
0.0
 30
0.0
  9
$UCSORGBOTTOM
 10
0.0
 20
0.0
 30
0.0
  9
$UCSORGLEFT
 10
0.0
 20
0.0
 30
0.0
  9
$UCSORGRIGHT
 10
0.0
 20
0.0
 30
0.0
  9
$UCSORGFRONT
 10
0.0
 20
0.0
 30
0.0
  9
$UCSORGBACK
 10
0.0
 20
0.0
 30
0.0
  9
$PUCSBASE
  2

  9
$PUCSNAME
  2

  9
$PUCSORG
 10
0.0
 20
0.0
 30
0.0
  9
$PUCSXDIR
 10
1.0
 20
0.0
 30
0.0
  9
$PUCSYDIR
 10
0.0
 20
1.0
 30
0.0
  9
$PUCSORTHOREF
  2

  9
$PUCSORTHOVIEW
 70
     0
  9
$PUCSORGTOP
 10
0.0
 20
0.0
 30
0.0
  9
$PUCSORGBOTTOM
 10
0.0
 20
0.0
 30
0.0
  9
$PUCSORGLEFT
 10
0.0
 20
0.0
 30
0.0
  9
$PUCSORGRIGHT
 10
0.0
 20
0.0
 30
0.0
  9
$PUCSORGFRONT
 10
0.0
 20
0.0
 30
0.0
  9
$PUCSORGBACK
 10
0.0
 20
0.0
 30
0.0
  9
$USERI1
 70
     0
  9
$USERI2
 70
     0
  9
$USERI3
 70
     0
  9
$USERI4
 70
     0
  9
$USERI5
 70
     0
  9
$USERR1
 40
0.0
  9
$USERR2
 40
0.0
  9
$USERR3
 40
0.0
  9
$USERR4
 40
0.0
  9
$USERR5
 40
0.0
  9
$WORLDVIEW
 70
     1
  9
$SHADEDGE
 70
     3
  9
$SHADEDIF
 70
    70
  9
$TILEMODE
 70
     1
  9
$MAXACTVP
 70
    64
  9
$PINSBASE
 10
0.0
 20
0.0
 30
0.0
  9
$PLIMCHECK
 70
     0
  9
$PEXTMIN
 10
1.000000000000000E+20
 20
1.000000000000000E+20
 30
1.000000000000000E+20
  9
$PEXTMAX
 10
-1.000000000000000E+20
 20
-1.000000000000000E+20
 30
-1.000000000000000E+20
  9
$PLIMMIN
 10
0.0
 20
0.0
  9
$PLIMMAX
 10
0.0
 20
0.0
  9
$UNITMODE
 70
     0
  9
$VISRETAIN
 70
     1
  9
$PLINEGEN
 70
     0
  9
$PSLTSCALE
 70
     1
  9
$TREEDEPTH
 70
  3020
  9
$CMLSTYLE
  2
Standard
  9
$CMLJUST
 70
     0
  9
$CMLSCALE
 40
20.0
  9
$PROXYGRAPHICS
 70
     1
  9
$MEASUREMENT
 70
     1
  9
$CELWEIGHT
370
    -1
  9
$ENDCAPS
280
     0
  9
$JOINSTYLE
280
     0
  9
$LWDISPLAY
290
     1
  9
$INSUNITS
 70
     4
  9
$HYPERLINKBASE
  1

  9
$STYLESHEET
  1

  9
$XEDIT
290
     1
  9
$CEPSNTYPE
380
     0
  9
$PSTYLEMODE
290
     1
  9
$FINGERPRINTGUID
  2
{DB670D61-1B7F-4103-A2C4-062B63009B21}
  9
$VERSIONGUID
  2
{FAEB1C32-E019-11D5-929B-00C0DF256EC4}
  9
$EXTNAMES
290
     1
  9
$PSVPSCALE
 40
0.0
  9
$OLESTARTUP
290
     0
  0
ENDSEC
  0
SECTION
  2
CLASSES
  0
CLASS
  1
ACDBDICTIONARYWDFLT
  2
AcDbDictionaryWithDefault
  3
ObjectDBX Classes
 90
        0
280
     0
281
     0
  0
CLASS
  1
VISUALSTYLE
  2
AcDbVisualStyle
  3
ObjectDBX Classes
 90
     4095
280
     0
281
     0
  0
CLASS
  1
MATERIAL
  2
AcDbMaterial
  3
ObjectDBX Classes
 90
     1153
280
     0
281
     0
  0
CLASS
  1
ACDBPLACEHOLDER
  2
AcDbPlaceHolder
  3
ObjectDBX Classes
 90
        0
280
     0
281
     0
  0
CLASS
  1
LAYOUT
  2
AcDbLayout
  3
ObjectDBX Classes
 90
        0
280
     0
281
     0
  0
CLASS
  1
SCALE
  2
AcDbScale
  3
ObjectDBX Classes
 90
     1153
280
     0
281
     0
  0
CLASS
  1
TABLESTYLE
  2
AcDbTableStyle
  3
ObjectDBX Classes
 90
     4095
280
     0
281
     0
  0
CLASS
  1
SUN
  2
AcDbSun
  3
SCENEOE
 90
     1153
280
     0
281
     0
  0
CLASS
  1
RASTERVARIABLES
  2
AcDbRasterVariables
  3
ISM
 90
        0
280
     0
281
     0
  0
ENDSEC
  0
SECTION
  2
TABLES
  0
TABLE
  2
VPORT
  5
8
330
0
100
AcDbSymbolTable
 70
     1
  0
VPORT
  5
29
330
8
100
AcDbSymbolTableRecord
100
AcDbViewportTableRecord
  2
*Active
 70
     0
 10
0.0
 20
0.0
 11
1.0
 21
1.0
 12
1000.0
 22
500.0
 13
0.0
 23
0.0
 14
10.0
 24
10.0
 15
10.0
 25
10.0
 16
0.0
 26
0.0
 36
1.0
 17
0.0
 27
0.0
 37
0.0
 40
1000.0
 41
2.0
 42
50.0
 43
0.0
 44
0.0
 50
0.0
 51
0.0
 71
     0
 72
  2000
 73
     1
 74
     3
 75
     0
 76
     0
 77
     0
 78
     0
281
     0
 65
     1
110
0.0
120
0.0
130
0.0
111
1.0
121
0.0
131
0.0
112
0.0
122
1.0
132
0.0
 79
     0
146
0.0
  0
ENDTAB
  0
TABLE
  2
LTYPE
  5
5
330
0
100
AcDbSymbolTable
 70
     6
  0
LTYPE
  5
14
330
5
100
AcDbSymbolTableRecord
100
AcDbLinetypeTableRecord
  2
ByBlock
 70
     0
  3

 72
    65
 73
     0
 40
0.0
  0
LTYPE
  5
15
330
5
100
AcDbSymbolTableRecord
100
AcDbLinetypeTableRecord
  2
ByLayer
 70
     0
  3

 72
    65
 73
     0
 40
0.0
  0
LTYPE
  5
16
330
5
100
AcDbSymbolTableRecord
100
AcDbLinetypeTableRecord
  2
Continuous
 70
     0
  3
Solid line
 72
    65
 73
     0
 40
0.0
  0
LTYPE
  5
3F
330
5
100
AcDbSymbolTableRecord
100
AcDbLinetypeTableRecord
  2
HIDDEN
 70
     0
  3
Hidden __ __ __ __ __ __ __ __ __ __ __ __ __ __
 72
    65
 73
     2
 40
1.905
 49
1.27
 74
     0
 49
-0.635
 74
     0
  0
LTYPE
  5
40
330
5
100
AcDbSymbolTableRecord
100
AcDbLinetypeTableRecord
  2
PHANTOM
 70
     0
  3
Phantom ______  __  __  ______  __  __  ______
 72
    65
 73
     6
 40
12.7
 49
6.35
 74
     0
 49
-1.27
 74
     0
 49
1.27
 74
     0
 49
-1.27
 74
     0
 49
1.27
 74
     0
 49
-1.27
 74
     0
  0
LTYPE
  5
41
330
5
100
AcDbSymbolTableRecord
100
AcDbLinetypeTableRecord
  2
CENTER
 70
     0
  3
Center ____ _ ____ _ ____ _ ____ _ ____ _ ____
 72
    65
 73
     4
 40
10.16
 49
6.35
 74
     0
 49
-1.27
 74
     0
 49
1.27
 74
     0
 49
-1.27
 74
     0
  0
LTYPE
  5
42
330
5
100
AcDbSymbolTableRecord
100
AcDbLinetypeTableRecord
  2
CENTERX2
 70
     0
  3
Center (2x) ________  __  ________  __  _____
 72
    65
 73
     4
 40
20.32
 49
12.7
 74
     0
 49
-2.54
 74
     0
 49
2.54
 74
     0
 49
-2.54
 74
     0
  0
LTYPE
  5
43
330
5
100
AcDbSymbolTableRecord
100
AcDbLinetypeTableRecord
  2
DOT2
 70
     0
  3
Dot (.5x) ........................................
 72
    65
 73
     2
 40
0.635
 49
0.0
 74
     0
 49
-0.635
 74
     0
  0
ENDTAB
  0
TABLE
  2
LAYER
  5
2
330
0
100
AcDbSymbolTable
 70
     2
  0
LAYER
  5
10
330
2
100
AcDbSymbolTableRecord
100
AcDbLayerTableRecord
  2
0
 70
     0
 62
     7
  6
Continuous
370
    -3
390
F
  0
LAYER
  5
44
330
2
100
AcDbSymbolTableRecord
100
AcDbLayerTableRecord
  2
TABLE_BL1
 70
     0
 62
   179
  6
Continuous
370
    -3
390
F
  0
ENDTAB
  0
TABLE
  2
STYLE
  5
3
330
0
100
AcDbSymbolTable
 70
     1
  0
STYLE
  5
11
330
3
100
AcDbSymbolTableRecord
100
AcDbTextStyleTableRecord
  2
Standard
 70
     0
 40
0.0
 41
1.0
 50
0.0
 71
     0
 42
3.5
  3
txt
  4

  0
ENDTAB
  0
TABLE
  2
VIEW
  5
6
330
0
100
AcDbSymbolTable
 70
     0
  0
ENDTAB
  0
TABLE
  2
UCS
  5
7
330
0
100
AcDbSymbolTable
 70
     0
  0
ENDTAB
  0
TABLE
  2
APPID
  5
9
330
0
100
AcDbSymbolTable
 70
     1
  0
APPID
  5
12
330
9
100
AcDbSymbolTableRecord
100
AcDbRegAppTableRecord
  2
ACAD
 70
     0
  0
ENDTAB
  0
TABLE
  2
DIMSTYLE
  5
A
330
0
100
AcDbSymbolTable
 70
     1
100
AcDbDimStyleTable
  0
DIMSTYLE
105
27
330
A
100
AcDbSymbolTableRecord
100
AcDbDimStyleTableRecord
  2
ISO-25
 70
     0
 41
2.5
 42
0.625
 43
3.75
 44
1.25
 73
     0
 74
     0
 77
     1
 78
     8
140
2.5
141
2.5
143
0.03937007874016
147
0.625
171
     3
172
     1
178
     0
271
     2
272
     2
274
     3
278
    44
283
     0
284
     8
340
11
  0
ENDTAB
  0
TABLE
  2
BLOCK_RECORD
  5
1
330
0
100
AcDbSymbolTable
 70
     1
  0
BLOCK_RECORD
  5
1F
330
1
100
AcDbSymbolTableRecord
100
AcDbBlockTableRecord
  2
*Model_Space
340
22
  0
BLOCK_RECORD
  5
1B
330
1
100
AcDbSymbolTableRecord
100
AcDbBlockTableRecord
  2
*Paper_Space
340
1E
  0
BLOCK_RECORD
  5
23
330
1
100
AcDbSymbolTableRecord
100
AcDbBlockTableRecord
  2
*Paper_Space0
340
26
  0
ENDTAB
  0
ENDSEC
  0
SECTION
  2
BLOCKS
  0
BLOCK
  5
20
330
1F
100
AcDbEntity
  8
0
100
AcDbBlockBegin
  2
*Model_Space
 70
     0
 10
0.0
 20
0.0
 30
0.0
  3
*Model_Space
  1
*Model_Space
  0
ENDBLK
  5
21
330
1F
100
AcDbEntity
  8
0
100
AcDbBlockEnd
  0
BLOCK
  5
1C
330
1B
100
AcDbEntity
 67
     1
  8
0
100
AcDbBlockBegin
  2
*Paper_Space
 70
     0
 10
0.0
 20
0.0
 30
0.0
  3
*Paper_Space
  1
*Paper_Space
  0
ENDBLK
  5
1D
330
1B
100
AcDbEntity
 67
     1
  8
0
100
AcDbBlockEnd
  0
BLOCK
  5
24
330
23
100
AcDbEntity
  8
0
100
AcDbBlockBegin
  2
*Paper_Space0
 70
     0
 10
0.0
 20
0.0
 30
0.0
  3
*Paper_Space0
  1
*Paper_Space0
  0
ENDBLK
  5
25
330
23
100
AcDbEntity
  8
0
100
AcDbBlockEnd
  0
ENDSEC
  0
SECTION
  2
ENTITIES
  0
ARC
  5
45
330
1F
100
AcDbEntity
  8
0
  6
Continuous
 62
     7
370
    15
100
AcDbCircle
 10
1177.935404881266
 20
616.1143198825448
 30
0.0
 40
26.5
100
AcDbArc
 50
0.0000000000002458
 51
90.0000000000005
  0
LINE
  5
46
330
1F
100
AcDbEntity
  8
0
  6
Continuous
 62
     7
370
    15
100
AcDbLine
 10
1204.435404881266
 20
616.1143198825449
 30
0.0
 11
1204.435404881266
 21
326.1143198825449
 31
0.0
  0
ARC
  5
47
330
1F
100
AcDbEntity
  8
0
  6
Continuous
 62
     7
370
    15
100
AcDbCircle
 10
1177.935404881266
 20
326.1143198825448
 30
0.0
 40
24.99999999999994
100
AcDbArc
 50
270.0000000000008
 51
0.0000000000002606
  0
LINE
  5
48
330
1F
100
AcDbEntity
  8
0
  6
Continuous
 62
     7
370
    15
100
AcDbLine
 10
1204.435404881266
 20
326.1143198825449
 30
0.0
 11
1202.935404881266
 21
326.1143198825449
 31
0.0
  0
LINE
  5
49
330
1F
100
AcDbEntity
  8
0
  6
Continuous
 62
     7
370
    15
100
AcDbLine
 10
1204.435404881266
 20
616.1143198825449
 30
0.0
 11
1202.935404881266
 21
616.1143198825449
 31
0.0
  0
ARC
  5
4A
330
1F
100
AcDbEntity
  8
0
  6
Continuous
 62
     7
370
    15
100
AcDbCircle
 10
1177.935404881266
 20
616.1143198825448
 30
0.0
 40
25.0
100
AcDbArc
 50
0.0000000000002606
 51
90.00000000000053
  0
ARC
  5
4B
330
1F
100
AcDbEntity
  8
0
  6
Continuous
 62
     7
370
    15
100
AcDbCircle
 10
727.9354048812662
 20
326.1143198825448
 30
0.0
 40
25.0
100
AcDbArc
 50
180.0
 51
270.0000000000008
  0
LINE
  5
4C
330
1F
100
AcDbEntity
  8
0
  6
Continuous
 62
     7
370
    15
100
AcDbLine
 10
727.9354048812662
 20
301.1143198825449
 30
0.0
 11
1177.935404881266
 21
301.1143198825449
 31
0.0
  0
LINE
  5
4D
330
1F
100
AcDbEntity
  8
0
  6
Continuous
 62
     7
370
    15
100
AcDbLine
 10
702.9354048812663
 20
616.1143198825448
 30
0.0
 11
702.9354048812662
 21
326.1143198825448
 31
0.0
  0
LINE
  5
4E
330
1F
100
AcDbEntity
  8
0
  6
Continuous
 62
     7
370
    15
100
AcDbLine
 10
1202.935404881266
 20
326.1143198825449
 30
0.0
 11
1202.935404881266
 21
616.1143198825449
 31
0.0
  0
ARC
  5
4F
330
1F
100
AcDbEntity
  8
0
  6
Continuous
 62
     7
370
    15
100
AcDbCircle
 10
727.9354048812662
 20
616.1143198825448
 30
0.0
 40
24.99999999999989
100
AcDbArc
 50
90.0
 51
180.0
  0
LINE
  5
50
330
1F
100
AcDbEntity
  8
0
  6
Continuous
 62
     7
370
    15
100
AcDbLine
 10
1177.935404881266
 20
641.1143198825448
 30
0.0
 11
727.9354048812662
 21
641.1143198825447
 31
0.0
  0
LINE
  5
51
330
1F
100
AcDbEntity
  8
0
  6
Continuous
 62
     7
370
    15
100
AcDbLine
 10
928.6854048812662
 20
641.0086879087236
 30
0.0
 11
928.6854048812662
 21
640.3483281679781
 31
0.0
  0
SPLINE
  5
52
330
1F
100
AcDbEntity
  8
0
  6
Continuous
 62
     7
370
    15
100
AcDbSpline
210
0.0
220
0.0
230
1.0
 70
     8
 71
     3
 72
    12
 73
     8
 74
     0
 42
0.000000001
 43
0.00000001
 40
0.0
 40
0.0
 40
0.0
 40
0.0
 40
0.2149558080269413
 40
0.4299146119414304
 40
0.6447843317818255
 40
0.8594537701846963
 40
1.0
 40
1.0
 40
1.0
 40
1.0
 10
928.6854048812662
 20
640.3483281679781
 30
0.0
 10
928.6964751129308
 20
640.3433870050015
 30
0.0
 10
928.718615730548
 20
640.3335046101823
 30
0.0
 10
928.8912868130218
 20
640.320174154184
 30
0.0
 10
929.1453723045928
 20
640.3100522187642
 30
0.0
 10
929.42649677198
 20
640.3046735833049
 30
0.0
 10
929.6120056168751
 20
640.3041260455734
 30
0.0
 10
929.6854048812662
 20
640.3039094043305
 30
0.0
  0
LINE
  5
53
330
1F
100
AcDbEntity
  8
0
  6
Continuous
 62
     7
370
    15
100
AcDbLine
 10
929.6854048812662
 20
640.3039094043304
 30
0.0
 11
976.1854048812661
 21
640.3039094043304
 31
0.0
  0
SPLINE
  5
54
330
1F
100
AcDbEntity
  8
0
  6
Continuous
 62
     7
370
    15
100
AcDbSpline
210
0.0
220
0.0
230
1.0
 70
     8
 71
     3
 72
    12
 73
     8
 74
     0
 42
0.000000001
 43
0.00000001
 40
0.0
 40
0.0
 40
0.0
 40
0.0
 40
0.2144270413370865
 40
0.4288506253483796
 40
0.643373888975371
 40
0.8581025396514045
 40
1.0
 40
1.0
 40
1.0
 40
1.0
 10
976.1854048812661
 20
640.3039094043304
 30
0.0
 10
976.2977447672636
 20
640.3044070245797
 30
0.0
 10
976.5224227279406
 20
640.3054022570549
 30
0.0
 10
976.821903956923
 20
640.3131391105109
 30
0.0
 10
977.0480674003575
 20
640.3244544418438
 30
0.0
 10
977.1682252694287
 20
640.3369157855383
 30
0.0
 10
977.1805149554342
 20
640.3450797998412
 30
0.0
 10
977.1854048812661
 20
640.3483281679781
 30
0.0
  0
LINE
  5
55
330
1F
100
AcDbEntity
  8
0
  6
Continuous
 62
     7
370
    15
100
AcDbLine
 10
977.1854048812661
 20
640.3483281679781
 30
0.0
 11
977.1854048812661
 21
641.0086879087236
 31
0.0
  0
SPLINE
  5
56
330
1F
100
AcDbEntity
  8
0
  6
Continuous
 62
     7
370
    15
100
AcDbSpline
210
0.0
220
0.0
230
1.0
 70
     8
 71
     3
 72
    12
 73
     8
 74
     0
 42
0.000000001
 43
0.00000001
 40
0.0
 40
0.0
 40
0.0
 40
0.0
 40
0.2147272999791378
 40
0.4294551206243605
 40
0.6441687027430911
 40
0.858857089627132
 40
0.9999999999999999
 40
0.9999999999999999
 40
0.9999999999999999
 40
0.9999999999999999
 10
977.1854048812661
 20
641.0086879087236
 30
0.0
 10
977.1743486064069
 20
641.0105010027663
 30
0.0
 10
977.1522360298793
 20
641.0141271952484
 30
0.0
 10
976.9797940771625
 20
641.0187997754238
 30
0.0
 10
976.7260054068581
 20
641.0222573954688
 30
0.0
 10
976.4448392531758
 20
641.0240590336424
 30
0.0
 10
976.2590854098327
 20
641.0242421751483
 30
0.0
 10
976.1854048812661
 20
641.0243148194753
 30
0.0
  0
LINE
  5
57
330
1F
100
AcDbEntity
  8
0
  6
Continuous
 62
     7
370
    15
100
AcDbLine
 10
976.1854048812661
 20
641.0243148194752
 30
0.0
 11
929.6854048812662
 21
641.0243148194752
 31
0.0
  0
SPLINE
  5
58
330
1F
100
AcDbEntity
  8
0
  6
Continuous
 62
     7
370
    15
100
AcDbSpline
210
0.0
220
0.0
230
1.0
 70
     8
 71
     3
 72
    12
 73
     8
 74
     0
 42
0.000000001
 43
0.00000001
 40
0.0
 40
0.0
 40
0.0
 40
0.0
 40
0.2146620845835605
 40
0.4293238139032429
 40
0.6439959070804638
 40
0.8586912898337158
 40
1.0
 40
1.0
 40
1.0
 40
1.0
 10
929.6854048812662
 20
641.0243148194752
 30
0.0
 10
929.5729905678078
 20
641.0241493794974
 30
0.0
 10
929.3481621269354
 20
641.0238184998155
 30
0.0
 10
929.0485101078341
 20
641.0212150681192
 30
0.0
 10
928.8223565301186
 20
641.0173096078518
 30
0.0
 10
928.702488664588
 20
641.0128851441544
 30
0.0
 10
928.6902591447617
 20
641.0098805301911
 30
0.0
 10
928.6854048812661
 20
641.0086879087237
 30
0.0
  0
LINE
  5
59
330
1F
100
AcDbEntity
  8
0
  6
Continuous
 62
     7
370
    15
100
AcDbLine
 10
1177.935404881266
 20
641.1143198825447
 30
0.0
 11
1177.935404881266
 21
632.0286489163678
 31
0.0
  0
SPLINE
  5
5A
330
1F
100
AcDbEntity
  8
0
  6
Continuous
 62
     7
370
    15
100
AcDbSpline
210
0.0
220
0.0
230
1.0
 70
     8
 71
     3
 72
    11
 73
     7
 74
     0
 42
0.000000001
 43
0.00000001
 40
0.0
 40
0.0
 40
0.0
 40
0.0
 40
0.2498141199733742
 40
0.4997214832093029
 40
0.7498353064937647
 40
1.0
 40
1.0
 40
1.0
 40
1.0
 10
975.8624612383815
 20
630.4943939119058
 30
0.0
 10
992.7091293781131
 20
630.5482915168905
 30
0.0
 10
1026.408753686054
 20
630.6561068441712
 30
0.0
 10
1076.937851340336
 20
631.0123869887017
 30
0.0
 10
1127.458362458547
 20
631.4586318421817
 30
0.0
 10
1161.108583512885
 20
631.838630345075
 30
0.0
 10
1177.935404881266
 20
632.028648916368
 30
0.0
  0
LINE
  5
5B
330
1F
100
AcDbEntity
  8
0
  6
Continuous
 62
     7
370
    15
100
AcDbLine
 10
930.0083485241747
 20
630.4943939119056
 30
0.0
 11
975.8624612383815
 21
630.4943939119057
 31
0.0
  0
SPLINE
  5
5C
330
1F
100
AcDbEntity
  8
0
  6
Continuous
 62
     7
370
    15
100
AcDbSpline
210
0.0
220
0.0
230
1.0
 70
     8
 71
     3
 72
    11
 73
     7
 74
     0
 42
0.000000001
 43
0.00000001
 40
0.0
 40
0.0
 40
0.0
 40
0.0
 40
0.2498572747263395
 40
0.4997639547473459
 40
0.7498433433767429
 40
1.0
 40
1.0
 40
1.0
 40
1.0
 10
727.9354048812662
 20
632.028648916368
 30
0.0
 10
744.7415416420547
 20
631.8388541078823
 30
0.0
 10
778.3571383093747
 20
631.4592269620118
 30
0.0
 10
828.85450669266
 20
631.0130138906741
 30
0.0
 10
879.4042620557784
 20
630.656366346515
 30
0.0
 10
913.1385827991589
 20
630.5483902828802
 30
0.0
 10
930.0083485241747
 20
630.4943939119056
 30
0.0
  0
LINE
  5
5D
330
1F
100
AcDbEntity
  8
0
  6
Continuous
 62
     7
370
    15
100
AcDbLine
 10
727.9354048812662
 20
641.1143198825447
 30
0.0
 11
727.9354048812662
 21
632.028648916368
 31
0.0
  0
LINE
  5
5E
330
1F
100
AcDbEntity
  8
0
  6
Continuous
 62
     7
370
    15
100
AcDbLine
 10
1202.935404881266
 20
616.1143198825448
 30
0.0
 11
1193.849733915089
 21
616.1143198825448
 31
0.0
  0
LINE
  5
5F
330
1F
100
AcDbEntity
  8
0
  6
Continuous
 62
     7
370
    15
100
AcDbLine
 10
1202.935404881266
 20
326.1143198825448
 30
0.0
 11
1194.610623846683
 21
326.1143198825448
 31
0.0
  0
LINE
  5
60
330
1F
100
AcDbEntity
  8
0
  6
Continuous
 62
     7
370
    15
100
AcDbLine
 10
1194.610623846683
 20
326.1143198825448
 30
0.0
 11
1194.593316921228
 21
326.1143198825448
 31
0.0
  0
SPLINE
  5
61
330
1F
100
AcDbEntity
  8
0
  6
Continuous
 62
     7
370
    15
100
AcDbSpline
210
0.0
220
0.0
230
1.0
 70
     8
 71
     3
 72
    13
 73
     9
 74
     0
 42
0.000000001
 43
0.00000001
 40
0.0
 40
0.0
 40
0.0
 40
0.0
 40
0.192389209719525
 40
0.3848541407920896
 40
0.577545464383906
 40
0.7703087093052343
 40
0.8851481700188345
 40
1.0
 40
1.0
 40
1.0
 40
1.0
 10
1193.710458491084
 20
616.091195478586
 30
0.0
 10
1193.640779526658
 20
597.4886733304328
 30
0.0
 10
1193.501394173265
 20
560.2763073753441
 30
0.0
 10
1193.506562544372
 20
504.4114528415697
 30
0.0
 10
1193.672310567717
 20
448.5236574606333
 30
0.0
 10
1193.957922252273
 20
400.1702631067569
 30
0.0
 10
1194.276698995231
 20
359.366927814758
 30
0.0
 10
1194.487773823649
 20
337.1991932505384
 30
0.0
 10
1194.593316921228
 20
326.1147290832803
 30
0.0
  0
LINE
  5
62
330
1F
100
AcDbEntity
  8
0
  6
Continuous
 62
     7
370
    15
100
AcDbLine
 10
1193.849733915089
 20
616.1143198825448
 30
0.0
 11
1193.710458490474
 21
616.0911954787005
 31
0.0
  0
LINE
  5
63
330
1F
100
AcDbEntity
  8
0
  6
Continuous
 62
     7
370
    15
100
AcDbLine
 10
1177.935404881266
 20
301.1143198825449
 30
0.0
 11
1177.935404881266
 21
309.4391009171304
 31
0.0
  0
SPLINE
  5
64
330
1F
100
AcDbEntity
  8
0
  6
Continuous
 62
     7
370
    15
100
AcDbSpline
210
0.0
220
0.0
230
1.0
 70
     8
 71
     3
 72
    15
 73
    11
 74
     0
 42
0.000000001
 43
0.00000001
 40
0.0
 40
0.0
 40
0.0
 40
0.0
 40
0.1277067818565643
 40
0.2500045648689302
 40
0.3758463447789225
 40
0.5000006532279117
 40
0.6241516109428699
 40
0.7499937477421916
 40
0.8722917587037718
 40
1.0
 40
1.0
 40
1.0
 40
1.0
 10
1194.610623846683
 20
326.1143198825449
 30
0.0
 10
1194.526056015249
 20
325.0126744065497
 30
0.0
 10
1194.360502208377
 20
322.8560434597659
 30
0.0
 10
1193.331917275819
 20
319.7356901794138
 30
0.0
 10
1191.786068456192
 20
316.8763780093974
 30
0.0
 10
1189.698489603949
 20
314.3512519421521
 30
0.0
 10
1187.173363360521
 20
312.2636706663527
 30
0.0
 10
1184.314076668491
 20
310.7178248909884
 30
0.0
 10
1181.193708330362
 20
309.689226884669
 30
0.0
 10
1179.03706290656
 20
309.5236704741941
 30
0.0
 10
1177.935404881266
 20
309.4391009171284
 30
0.0
  0
LINE
  5
65
330
1F
100
AcDbEntity
  8
0
  6
Continuous
 62
     7
370
    15
100
AcDbLine
 10
702.9354048812662
 20
326.1143198825448
 30
0.0
 11
711.2601859158498
 21
326.1143198825448
 31
0.0
  0
LINE
  5
66
330
1F
100
AcDbEntity
  8
0
  6
Continuous
 62
     7
370
    15
100
AcDbLine
 10
702.9354048812663
 20
616.1143198825448
 30
0.0
 11
712.0210758474431
 21
616.1143198825448
 31
0.0
  0
LINE
  5
67
330
1F
100
AcDbEntity
  8
0
  6
Continuous
 62
     7
370
    15
100
AcDbLine
 10
712.1603512727871
 20
616.0911953189683
 30
0.0
 11
712.021075847443
 21
616.1143198825448
 31
0.0
  0
SPLINE
  5
68
330
1F
100
AcDbEntity
  8
0
  6
Continuous
 62
     7
370
    15
100
AcDbSpline
210
0.0
220
0.0
230
1.0
 70
     8
 71
     3
 72
    15
 73
    11
 74
     0
 42
0.000000001
 43
0.00000001
 40
0.0
 40
0.0
 40
0.0
 40
0.0
 40
0.1248073648449741
 40
0.2496555548361309
 40
0.3745035059020391
 40
0.4994985735221283
 40
0.6244934184691026
 40
0.7496446926346207
 40
0.8747960236022692
 40
1.0
 40
1.0
 40
1.0
 40
1.0
 10
711.2774928410237
 20
326.1147290548973
 30
0.0
 10
711.3918183614925
 20
338.1602976461164
 30
0.0
 10
711.6205067989096
 20
362.2553749974637
 30
0.0
 10
711.8960578430313
 20
398.4305807606204
 30
0.0
 10
712.1156105206076
 20
434.641559868171
 30
0.0
 10
712.2689327802454
 20
470.8823876255742
 30
0.0
 10
712.3537383240836
 20
507.1624834443076
 30
0.0
 10
712.3641648100322
 20
543.4616237741191
 30
0.0
 10
712.3068397859328
 20
579.7798183605831
 30
0.0
 10
712.209187621621
 20
603.9857063049815
 30
0.0
 10
712.1603512721772
 20
616.0911953188552
 30
0.0
  0
LINE
  5
69
330
1F
100
AcDbEntity
  8
0
  6
Continuous
 62
     7
370
    15
100
AcDbLine
 10
711.2601859158498
 20
326.1143198825448
 30
0.0
 11
711.277492841024
 21
326.1143198825448
 31
0.0
  0
SPLINE
  5
6A
330
1F
100
AcDbEntity
  8
0
  6
Continuous
 62
     7
370
    15
100
AcDbSpline
210
0.0
220
0.0
230
1.0
 70
     8
 71
     3
 72
    15
 73
    11
 74
     0
 42
0.000000001
 43
0.00000001
 40
0.0
 40
0.0
 40
0.0
 40
0.0
 40
0.1277050631469756
 40
0.2500052846528075
 40
0.3758494975980122
 40
0.5000006215684636
 40
0.6241484129071292
 40
0.7499931831291219
 40
0.8722930816936403
 40
1.0
 40
1.0
 40
1.0
 40
1.0
 10
1177.935404881266
 20
632.028648916368
 30
0.0
 10
1178.985615418021
 20
631.9462331960787
 30
0.0
 10
1181.041588593374
 20
631.7848898232861
 30
0.0
 10
1184.016857999293
 20
630.8007784927454
 30
0.0
 10
1186.743913524348
 20
629.3242581035765
 30
0.0
 10
1189.152934523751
 20
627.3318664552509
 30
0.0
 10
1191.145329757633
 20
624.9228441711784
 30
0.0
 10
1192.621845666827
 20
622.1958151410314
 30
0.0
 10
1193.605970080759
 20
619.2205314475575
 30
0.0
 10
1193.767316133638
 20
617.1645456742789
 30
0.0
 10
1193.849733915089
 20
616.1143198825448
 30
0.0
  0
LINE
  5
6B
330
1F
100
AcDbEntity
  8
0
  6
Continuous
 62
     7
370
    15
100
AcDbLine
 10
727.9354048812662
 20
301.1143198825448
 30
0.0
 11
727.9354048812662
 21
309.4391009171283
 31
0.0
  0
SPLINE
  5
6C
330
1F
100
AcDbEntity
  8
0
  6
Continuous
 62
     7
370
    15
100
AcDbSpline
210
0.0
220
0.0
230
1.0
 70
     8
 71
     3
 72
    17
 73
    13
 74
     0
 42
0.000000001
 43
0.00000001
 40
0.0
 40
0.0
 40
0.0
 40
0.0
 40
0.1085136308778241
 40
0.217032905497872
 40
0.3255447414885865
 40
0.4343233022142365
 40
0.543110417096574
 40
0.6518887751952512
 40
0.7388885502812218
 40
0.8258885983332589
 40
0.9129442178536804
 40
0.9999999999999999
 40
0.9999999999999999
 40
0.9999999999999999
 40
0.9999999999999999
 10
1177.935404881266
 20
309.4391009171284
 30
0.0
 10
1161.68290596841
 20
309.6068360019361
 30
0.0
 10
1129.177062857976
 20
309.9423148953733
 30
0.0
 10
1080.360381540228
 20
310.3254426327643
 30
0.0
 10
1031.472532308103
 20
310.604328133317
 30
0.0
 10
982.5190830714495
 20
310.7526284317534
 30
0.0
 10
933.5163738168586
 20
310.7671302590489
 30
0.0
 10
887.7895778773953
 20
310.6542501286569
 30
0.0
 10
845.3509971459159
 20
310.4462748227423
 30
0.0
 10
806.1928983378461
 20
310.178627303647
 30
0.0
 10
767.0489924377466
 20
309.8465576944135
 30
0.0
 10
740.9732755186247
 20
309.5749199274632
 30
0.0
 10
727.9354048812662
 20
309.4391009171285
 30
0.0
  0
SPLINE
  5
6D
330
1F
100
AcDbEntity
  8
0
  6
Continuous
 62
     7
370
    15
100
AcDbSpline
210
0.0
220
0.0
230
1.0
 70
     8
 71
     3
 72
    15
 73
    11
 74
     0
 42
0.000000001
 43
0.00000001
 40
0.0
 40
0.0
 40
0.0
 40
0.0
 40
0.1277050628998631
 40
0.2500052846527339
 40
0.3758494972421261
 40
0.5000006215683034
 40
0.6241484130710132
 40
0.7499931831290734
 40
0.8722930822815914
 40
0.9999999999999999
 40
0.9999999999999999
 40
0.9999999999999999
 40
0.9999999999999999
 10
712.0210758474431
 20
616.1143198825448
 30
0.0
 10
712.1034915674614
 20
617.1645304172677
 30
0.0
 10
712.2648349400362
 20
619.220503592619
 30
0.0
 10
713.2489462691702
 20
622.1957729959582
 30
0.0
 10
714.7254666585309
 20
624.922828523078
 30
0.0
 10
716.7178583071144
 20
627.3318495242281
 30
0.0
 10
719.126880593909
 20
629.3242447596057
 30
0.0
 10
721.8539096283401
 20
630.8007606708888
 30
0.0
 10
724.8291933211418
 20
631.7848850831459
 30
0.0
 10
726.8851790943855
 20
631.9462311355428
 30
0.0
 10
727.9354048812662
 20
632.028648916368
 30
0.0
  0
SPLINE
  5
6E
330
1F
100
AcDbEntity
  8
0
  6
Continuous
 62
     7
370
    15
100
AcDbSpline
210
0.0
220
0.0
230
1.0
 70
     8
 71
     3
 72
    15
 73
    11
 74
     0
 42
0.000000001
 43
0.00000001
 40
0.0
 40
0.0
 40
0.0
 40
0.0
 40
0.1277063548677015
 40
0.2500045650795154
 40
0.3758463451918103
 40
0.5000006534385012
 40
0.6241516114679486
 40
0.7499937479527548
 40
0.8722913321338948
 40
1.0
 40
1.0
 40
1.0
 40
1.0
 10
727.9354048812662
 20
309.4391009171283
 30
0.0
 10
726.8337631365849
 20
309.5236683070298
 30
0.0
 10
724.6771322818576
 20
309.6892218032057
 30
0.0
 10
721.5567784200508
 20
310.7178056860096
 30
0.0
 10
718.6974630161053
 20
312.263656315657
 30
0.0
 10
716.1723369370108
 20
314.3512351635772
 30
0.0
 10
714.0847556564963
 20
316.8763613961729
 30
0.0
 10
712.538911689638
 20
319.7356448575255
 30
0.0
 10
711.5103126348442
 20
322.8560126137803
 30
0.0
 10
711.3447559140056
 20
325.012658129581
 30
0.0
 10
711.2601859158498
 20
326.1143198825449
 30
0.0
  0
SPLINE
  5
6F
330
1F
100
AcDbEntity
  8
0
  6
Continuous
 62
     7
370
    15
100
AcDbSpline
210
0.0
220
0.0
230
1.0
 70
     8
 71
     3
 72
    21
 73
    17
 74
     0
 42
0.000000001
 43
0.00000001
 40
0.0
 40
0.0
 40
0.0
 40
0.0
 40
0.117689439950129
 40
0.2395304377820305
 40
0.3666526845216511
 40
0.5000592029695327
 40
0.5569847195059996
 40
0.6176003779313218
 40
0.6819444817521179
 40
0.7500485441532558
 40
0.7780369754780516
 40
0.8114945557602852
 40
0.8504210769763065
 40
0.894815467872238
 40
0.9446759371137443
 40
0.9999999999999999
 40
0.9999999999999999
 40
0.9999999999999999
 40
0.9999999999999999
 10
727.9276372182412
 20
309.4723839464016
 30
0.0
 10
727.9222197592214
 20
309.8783725492889
 30
0.0
 10
727.91119373742
 20
310.7046712199708
 30
0.0
 10
728.7266924199307
 20
313.2829765872438
 30
0.0
 10
730.1608551819588
 20
316.8295520717135
 30
0.0
 10
731.8520995032893
 20
320.4394867134693
 30
0.0
 10
733.4253017702703
 20
323.545833531978
 30
0.0
 10
734.6564035940564
 20
325.9011420376149
 30
0.0
 10
736.0504668864419
 20
328.4983616724819
 30
0.0
 10
737.2734363612761
 20
330.7280955027679
 30
0.0
 10
738.2981459177056
 20
332.5571740071993
 30
0.0
 10
739.1078405414688
 20
333.988012965609
 30
0.0
 10
740.0639129172449
 20
335.6715655406015
 30
0.0
 10
741.1695902677901
 20
337.613081880876
 30
0.0
 10
742.426325834919
 20
339.8145910046684
 30
0.0
 10
743.3239551891535
 20
341.3749279795495
 30
0.0
 10
743.7960826192771
 20
342.1956207104656
 30
0.0
  0
SPLINE
  5
70
330
1F
100
AcDbEntity
  8
0
  6
Continuous
 62
     7
370
    15
100
AcDbSpline
210
0.0
220
0.0
230
1.0
 70
     8
 71
     3
 72
    19
 73
    15
 74
     0
 42
0.000000001
 43
0.00000001
 40
0.0
 40
0.0
 40
0.0
 40
0.0
 40
0.0836286577044958
 40
0.1672799596736048
 40
0.2509311265976358
 40
0.3346065009507803
 40
0.4176633911632195
 40
0.5007497760524822
 40
0.5838361618462976
 40
0.667012907603975
 40
0.7501897982259783
 40
0.8334520723086762
 40
0.9167144787209991
 40
1.0
 40
1.0
 40
1.0
 40
1.0
 10
743.796082619277
 20
342.1956207104658
 30
0.0
 10
755.441669858353
 20
342.2915107855628
 30
0.0
 10
778.7359976306777
 20
342.4833169000649
 30
0.0
 10
813.7053960563342
 20
342.706685967318
 30
0.0
 10
848.6968345059004
 20
342.8802165170708
 30
0.0
 10
883.6195302956628
 20
342.9986272834466
 30
0.0
 10
918.4729709342931
 20
343.0665364072942
 30
0.0
 10
953.249274561809
 20
343.0885143376863
 30
0.0
 10
988.0422578600989
 20
343.065743583679
 30
0.0
 10
1022.842730814419
 20
342.996926962193
 30
0.0
 10
1057.658181174629
 20
342.878123385539
 30
0.0
 10
1092.471503842065
 20
342.7048558917263
 30
0.0
 10
1127.284561821232
 20
342.4821417285311
 30
0.0
 10
1150.476932427738
 20
342.2911365529012
 30
0.0
 10
1162.074727143255
 20
342.1956207104657
 30
0.0
  0
SPLINE
  5
71
330
1F
100
AcDbEntity
  8
0
  6
Continuous
 62
     7
370
    15
100
AcDbSpline
210
0.0
220
0.0
230
1.0
 70
     8
 71
     3
 72
    25
 73
    21
 74
     0
 42
0.000000001
 43
0.00000001
 40
0.0
 40
0.0
 40
0.0
 40
0.0
 40
0.0629848338605816
 40
0.1261681282428574
 40
0.1875325564491233
 40
0.2501812864320241
 40
0.3329282407815905
 40
0.4160528763108627
 40
0.500350100551114
 40
0.5610451207327919
 40
0.6247628837102349
 40
0.6851979254795852
 40
0.7501900433466507
 40
0.7824189934390778
 40
0.8172692183535537
 40
0.8547414875683392
 40
0.8904510976189727
 40
0.9270535403988454
 40
0.956548680023193
 40
1.0
 40
1.0
 40
1.0
 40
1.0
 10
1177.943172515928
 20
309.4723839467088
 30
0.0
 10
1177.962941326414
 20
309.6640849000291
 30
0.0
 10
1178.002541237435
 20
310.0480908420992
 30
0.0
 10
1177.835859385187
 20
310.98622569958
 30
0.0
 10
1177.507470168417
 20
312.1688086996732
 30
0.0
 10
1176.959612620283
 20
313.7539810752891
 30
0.0
 10
1176.130578143771
 20
315.827119800625
 30
0.0
 10
1174.963036334371
 20
318.4411859765261
 30
0.0
 10
1173.689121403158
 20
321.0898436652403
 30
0.0
 10
1172.378370458917
 20
323.6812089034103
 30
0.0
 10
1171.120126160819
 20
326.0858553397447
 30
0.0
 10
1169.745664860387
 20
328.6378171323598
 30
0.0
 10
1168.539364355309
 20
330.8300744210165
 30
0.0
 10
1167.495539035521
 20
332.6988469299028
 30
0.0
 10
1166.653378409662
 20
334.1945680018713
 30
0.0
 10
1165.76837018365
 20
335.7561222696336
 30
0.0
 10
1164.855354778749
 20
337.356466665497
 30
0.0
 10
1163.999001434926
 20
338.8514567036852
 30
0.0
 10
1163.070152538442
 20
340.4681039392256
 30
0.0
 10
1162.44631969009
 20
341.550738271431
 30
0.0
 10
1162.074727143255
 20
342.1956207104656
 30
0.0
  0
LINE
  5
72
330
1F
100
AcDbEntity
  8
0
  6
Continuous
 62
     7
370
    15
100
AcDbLine
 10
1177.935404881266
 20
309.4391009171284
 30
0.0
 11
1177.943172515928
 21
309.4723839467089
 31
0.0
  0
LINE
  5
73
330
1F
100
AcDbEntity
  8
0
  6
Continuous
 62
     7
370
    15
100
AcDbLine
 10
727.9354048812662
 20
309.4391009171284
 30
0.0
 11
727.9276372182412
 21
309.4723839464017
 31
0.0
  0
SPLINE
  5
74
330
1F
100
AcDbEntity
  8
0
  6
Continuous
 62
     7
370
    15
100
AcDbSpline
210
0.0
220
0.0
230
1.0
 70
     8
 71
     3
 72
    21
 73
    17
 74
     0
 42
0.000000001
 43
0.00000001
 40
0.0
 40
0.0
 40
0.0
 40
0.0
 40
0.1173306655534826
 40
0.238992693690133
 40
0.3661992977062052
 40
0.5000241207589141
 40
0.5568694526281238
 40
0.6174584874390894
 40
0.6818322635298404
 40
0.7500248916401475
 40
0.7780635784662663
 40
0.8115510288045829
 40
0.8504882861982909
 40
0.8948757246319627
 40
0.9447131860583977
 40
1.0
 40
1.0
 40
1.0
 40
1.0
 10
712.1603512721771
 20
616.0911953188537
 30
0.0
 10
712.5660109155086
 20
615.993981338126
 30
0.0
 10
713.3923054773259
 20
615.7959646388355
 30
0.0
 10
715.9516015664232
 20
614.6463718805225
 30
0.0
 10
719.4660748880394
 20
612.8692161042371
 30
0.0
 10
723.0337358631712
 20
610.908411307674
 30
0.0
 10
726.0968422280293
 20
609.1378211764071
 30
0.0
 10
728.4129855436714
 20
607.7734088776856
 30
0.0
 10
730.9671626070595
 20
606.2456155850118
 30
0.0
 10
733.1599241299463
 20
604.9189399692291
 30
0.0
 10
734.9585956252936
 20
603.8153162675862
 30
0.0
 10
736.364940194107
 20
602.9473469324311
 30
0.0
 10
738.01869796864
 20
601.9274277686222
 30
0.0
 10
739.9253085417913
 20
600.7539776974522
 30
0.0
 10
742.0870677395536
 20
599.4267499284435
 30
0.0
 10
743.6199144388104
 20
598.485494647732
 30
0.0
 10
744.4260670611814
 20
597.9904709684338
 30
0.0
  0
SPLINE
  5
75
330
1F
100
AcDbEntity
  8
0
  6
Continuous
 62
     7
370
    15
100
AcDbSpline
210
0.0
220
0.0
230
1.0
 70
     8
 71
     3
 72
    12
 73
     8
 74
     0
 42
0.000000001
 43
0.00000001
 40
0.0
 40
0.0
 40
0.0
 40
0.0
 40
0.2020633134341551
 40
0.4041876773207652
 40
0.6064920211469238
 40
0.8088531507959946
 40
1.0
 40
1.0
 40
1.0
 40
1.0
 10
744.4260670611815
 20
597.9904709684339
 30
0.0
 10
744.4605773259111
 20
580.7555919972101
 30
0.0
 10
744.5296082821382
 20
546.2806267900625
 30
0.0
 10
744.5031115279719
 20
494.5399188870866
 30
0.0
 10
744.3784703177162
 20
442.7874019789031
 30
0.0
 10
744.1509872880697
 20
391.9926594902165
 30
0.0
 10
743.912115030115
 20
358.4762475105059
 30
0.0
 10
743.796082619277
 20
342.1956207104656
 30
0.0
  0
SPLINE
  5
76
330
1F
100
AcDbEntity
  8
0
  6
Continuous
 62
     7
370
    15
100
AcDbSpline
210
0.0
220
0.0
230
1.0
 70
     8
 71
     3
 72
    24
 73
    20
 74
     0
 42
0.000000001
 43
0.00000001
 40
0.0
 40
0.0
 40
0.0
 40
0.0
 40
0.0629856791539569
 40
0.1261699478078473
 40
0.18753470999484
 40
0.2501839170245935
 40
0.3329309170782733
 40
0.4160556537076363
 40
0.5003528844835445
 40
0.5610480211653701
 40
0.624765796557702
 40
0.6852014556213311
 40
0.7501934868077648
 40
0.7880497459522623
 40
0.8294723423449829
 40
0.8744624211010869
 40
0.9141731599212661
 40
0.9514477795079811
 40
1.0
 40
1.0
 40
1.0
 40
1.0
 10
711.2774928410238
 20
326.1147290548973
 30
0.0
 10
711.4624708883157
 20
326.1017453867713
 30
0.0
 10
711.8330102059182
 20
326.0757371139095
 30
0.0
 10
712.7515507592353
 20
326.2622640974958
 30
0.0
 10
713.915144807977
 20
326.6099399096635
 30
0.0
 10
715.4801748962537
 20
327.1783186558345
 30
0.0
 10
717.5323361888838
 20
328.0288171839169
 30
0.0
 10
720.1253438540407
 20
329.2180201142482
 30
0.0
 10
722.7567250084287
 20
330.5098226206292
 30
0.0
 10
725.3339082360552
 20
331.8353504973464
 30
0.0
 10
727.7272532801861
 20
333.1054527348559
 30
0.0
 10
730.2689633635001
 20
334.4907698764077
 30
0.0
 10
732.5317307907166
 20
335.7483336675369
 30
0.0
 10
734.5692466452526
 20
336.8971949221311
 30
0.0
 10
736.3474369405122
 20
337.9077486949621
 30
0.0
 10
738.1738211235812
 20
338.9526762114074
 30
0.0
 10
739.9567162714914
 20
339.9784130955873
 30
0.0
 10
741.8041815641105
 20
341.0438506770616
 30
0.0
 10
743.076392968092
 20
341.7794770614445
 30
0.0
 10
743.796082619277
 20
342.1956207104656
 30
0.0
  0
SPLINE
  5
77
330
1F
100
AcDbEntity
  8
0
  6
Continuous
 62
     7
370
    15
100
AcDbSpline
210
0.0
220
0.0
230
1.0
 70
     8
 71
     3
 72
    12
 73
     8
 74
     0
 42
0.000000001
 43
0.00000001
 40
0.0
 40
0.0
 40
0.0
 40
0.0
 40
0.1912926221321264
 40
0.3933255625434197
 40
0.5954131564951419
 40
0.7976757204889445
 40
1.0
 40
1.0
 40
1.0
 40
1.0
 10
1162.074727143255
 20
342.1956207104658
 30
0.0
 10
1161.958611904303
 20
358.4886663279759
 30
0.0
 10
1161.719862018542
 20
391.9895471336476
 30
0.0
 10
1161.492517787783
 20
442.7502479806805
 30
0.0
 10
1161.367802925933
 20
494.4680420568305
 30
0.0
 10
1161.341127290309
 20
546.224312174855
 30
0.0
 10
1161.410200718859
 20
580.7333300399241
 30
0.0
 10
1161.444742701351
 20
597.9904709684338
 30
0.0
  0
SPLINE
  5
78
330
1F
100
AcDbEntity
  8
0
  6
Continuous
 62
     7
370
    15
100
AcDbSpline
210
0.0
220
0.0
230
1.0
 70
     8
 71
     3
 72
    22
 73
    18
 74
     0
 42
0.000000001
 43
0.00000001
 40
0.0
 40
0.0
 40
0.0
 40
0.0
 40
0.1050841440713041
 40
0.1883657926375779
 40
0.249837700803143
 40
0.2957363315474659
 40
0.3399265589993855
 40
0.3824176200598267
 40
0.4232199475113418
 40
0.4623453396586041
 40
0.4998071688644851
 40
0.5676703167958206
 40
0.6337553133739466
 40
0.6981827515151419
 40
0.7610822093153441
 40
0.8827093039482654
 40
1.0
 40
1.0
 40
1.0
 40
1.0
 10
1161.444742701351
 20
597.9904709684338
 30
0.0
 10
1162.976707539736
 20
598.9306025026908
 30
0.0
 10
1165.722790439544
 20
600.6158103254212
 30
0.0
 10
1169.284955806264
 20
602.8107148318884
 30
0.0
 10
1171.943595901795
 20
604.4516570316655
 30
0.0
 10
1174.02097676591
 20
605.7113589243271
 30
0.0
 10
1175.802478856069
 20
606.783988117368
 30
0.0
 10
1177.477836095675
 20
607.7831970791734
 30
0.0
 10
1179.046752607437
 20
608.7097939026894
 30
0.0
 10
1180.510192396167
 20
609.564027462575
 30
0.0
 10
1182.257257425162
 20
610.5692257161077
 30
0.0
 10
1184.235829810485
 20
611.6770144708563
 30
0.0
 10
1186.354182308485
 20
612.8203675147188
 30
0.0
 10
1188.23154738246
 20
613.7936836584663
 30
0.0
 10
1190.364178395625
 20
614.8453875419415
 30
0.0
 10
1192.479986624797
 20
615.7967874856192
 30
0.0
 10
1193.305294360967
 20
615.9942541655514
 30
0.0
 10
1193.710458491084
 20
616.091195478586
 30
0.0
  0
SPLINE
  5
79
330
1F
100
AcDbEntity
  8
0
  6
Continuous
 62
     7
370
    15
100
AcDbSpline
210
0.0
220
0.0
230
1.0
 70
     8
 71
     3
 72
    21
 73
    17
 74
     0
 42
0.000000001
 43
0.00000001
 40
0.0
 40
0.0
 40
0.0
 40
0.0
 40
0.1176881341801243
 40
0.2395275573540708
 40
0.3666495337083224
 40
0.5000590177938682
 40
0.5569839870518202
 40
0.6175991341134361
 40
0.6819430437091708
 40
0.7500475302050524
 40
0.7780628231638904
 40
0.8115363195725107
 40
0.8504679905693976
 40
0.8948569739616903
 40
0.9447017165172595
 40
1.0
 40
1.0
 40
1.0
 40
1.0
 10
1194.593316921228
 20
326.1147290832805
 30
0.0
 10
1194.199882840608
 20
326.1219763736264
 30
0.0
 10
1193.399136826855
 20
326.1367265926361
 30
0.0
 10
1190.857701074674
 20
326.9896309658353
 30
0.0
 10
1187.34592686989
 20
328.4594243929168
 30
0.0
 10
1183.760867547193
 20
330.1764400754288
 30
0.0
 10
1180.671566946567
 20
331.7674564767277
 30
0.0
 10
1178.327489488412
 20
333.0103187770644
 30
0.0
 10
1175.740841270161
 20
334.4155562158825
 30
0.0
 10
1173.518333299171
 20
335.646862679939
 30
0.0
 10
1171.69405980875
 20
336.6777651232737
 30
0.0
 10
1170.26637172572
 20
337.4920330340611
 30
0.0
 10
1168.586580871468
 20
338.4526466730136
 30
0.0
 10
1166.649209376021
 20
339.5625947260368
 30
0.0
 10
1164.452057933059
 20
340.8231544839013
 30
0.0
 10
1162.894106593219
 20
341.7225815244005
 30
0.0
 10
1162.074727143255
 20
342.1956207104656
 30
0.0
  0
LINE
  5
7A
330
1F
100
AcDbEntity
  8
0
  6
Continuous
 62
     7
370
    15
100
AcDbLine
 10
727.8806082542485
 20
631.7393010166109
 30
0.0
 11
727.9354048812662
 21
632.0286489163678
 31
0.0
  0
LWPOLYLINE
  5
7B
330
1F
100
AcDbEntity
  8
0
  6
Continuous
 62
     7
370
    15
100
AcDbPolyline
 90
       14
 70
   128
 43
0.0
 10
929.6011720330031
 20
597.1106347598396
 10
929.6119811772869
 20
600.7966195617765
 10
929.6272189621295
 20
604.4285534713888
 10
929.6467151346768
 20
607.9658566327813
 10
929.6702518628064
 20
611.36900650614
 10
929.6975661689805
 20
614.5999794558786
 10
929.7283528685139
 20
617.6226755914258
 10
929.7622679794227
 20
620.4033221138685
 10
929.7989325657608
 20
622.9108506618364
 10
929.8379369714969
 20
625.1172444405145
 10
929.8788453976316
 20
626.9978512552825
 10
929.9212007714103
 20
628.5316589524401
 10
929.9645298532289
 20
629.7015301894944
 10
930.0083485241747
 20
630.4943939119056
  0
SPLINE
  5
7C
330
1F
100
AcDbEntity
  8
0
  6
Continuous
 62
     7
370
    15
100
AcDbSpline
210
0.0
220
0.0
230
1.0
 70
     8
 71
     3
 72
    11
 73
     7
 74
     0
 42
0.000000001
 43
0.00000001
 40
0.0
 40
0.0
 40
0.0
 40
0.0
 40
0.2498530475767047
 40
0.4997794229799641
 40
0.7498696533239781
 40
1.0
 40
1.0
 40
1.0
 40
1.0
 10
929.6011720330031
 20
597.1106347598396
 30
0.0
 10
914.164572045767
 20
597.1012382611075
 30
0.0
 10
883.2868416789806
 20
597.0824425059229
 30
0.0
 10
836.9850070069648
 20
597.2579656813646
 30
0.0
 10
790.6898725282126
 20
597.559801079169
 30
0.0
 10
759.8481600240574
 20
597.8469066636494
 30
0.0
 10
744.4260670611812
 20
597.9904709684337
 30
0.0
  0
SPLINE
  5
7D
330
1F
100
AcDbEntity
  8
0
  6
Continuous
 62
     7
370
    15
100
AcDbSpline
210
0.0
220
0.0
230
1.0
 70
     8
 71
     3
 72
    22
 73
    18
 74
     0
 42
0.000000001
 43
0.00000001
 40
0.0
 40
0.0
 40
0.0
 40
0.0
 40
0.1051959624412124
 40
0.1884782389937786
 40
0.2498268101044446
 40
0.2957276218044762
 40
0.3399204474658386
 40
0.3824138462343094
 40
0.4232175932020483
 40
0.4623428520223499
 40
0.4998023864823931
 40
0.5676520474213684
 40
0.6337315305854682
 40
0.6981592891378957
 40
0.7610628660263127
 40
0.8827022177203795
 40
1.0
 40
1.0
 40
1.0
 40
1.0
 10
744.4260670611815
 20
597.990470968434
 30
0.0
 10
743.5020987898574
 20
599.5379246607463
 30
0.0
 10
741.8466368441332
 20
602.3104773337107
 30
0.0
 10
739.7178650875516
 20
605.9307697531226
 30
0.0
 10
738.1382055837188
 20
608.642289633838
 30
0.0
 10
736.9342134512502
 20
610.7682829317065
 30
0.0
 10
735.914167886165
 20
612.598652174877
 30
0.0
 10
734.969936941335
 20
614.3254514326935
 30
0.0
 10
734.1001648632944
 20
615.9478104331786
 30
0.0
 10
733.3041179052643
 20
617.4661734586647
 30
0.0
 10
732.374883830719
 20
619.2850022397358
 30
0.0
 10
731.3642313029176
 20
621.3558538658846
 30
0.0
 10
730.3429319442888
 20
623.5911477340256
 30
0.0
 10
729.4970934423071
 20
625.5917339230061
 30
0.0
 10
728.6190580256443
 20
627.8934418205827
 30
0.0
 10
727.8933367728443
 20
630.2304984626724
 30
0.0
 10
727.8847993846935
 20
631.2424962807465
 30
0.0
 10
727.8806082542485
 20
631.7393010166109
 30
0.0
  0
SPLINE
  5
7E
330
1F
100
AcDbEntity
  8
0
  6
Continuous
 62
     7
370
    15
100
AcDbSpline
210
0.0
220
0.0
230
1.0
 70
     8
 71
     3
 72
    23
 73
    19
 74
     0
 42
0.000000001
 43
0.00000001
 40
0.0
 40
0.0
 40
0.0
 40
0.0
 40
0.048744163628593
 40
0.0858467674925764
 40
0.1255376839558193
 40
0.170568358594093
 40
0.2119984934689129
 40
0.2498290818713521
 40
0.3354593840439438
 40
0.4180681583459224
 40
0.4996513908389609
 40
0.5839594505534416
 40
0.667093883222926
 40
0.749785064709388
 40
0.8123915236138545
 40
0.8737048248261573
 40
0.9369780413400042
 40
0.9999999999999999
 40
0.9999999999999999
 40
0.9999999999999999
 40
0.9999999999999999
 10
1161.444742701351
 20
597.990470968434
 30
0.0
 10
1161.874609245491
 20
598.7072215907125
 30
0.0
 10
1162.631677384946
 20
599.9695414140608
 30
0.0
 10
1163.727294913178
 20
601.8080190573845
 30
0.0
 10
1164.780582660846
 20
603.5838836904186
 30
0.0
 10
1165.854985384852
 20
605.4107816449883
 30
0.0
 10
1166.893958239527
 20
607.1946969639146
 30
0.0
 10
1168.243640779726
 20
609.5373447527076
 30
0.0
 10
1169.865320335485
 20
612.4137534548364
 30
0.0
 10
1171.692852258101
 20
615.7764976748196
 30
0.0
 10
1173.343720308954
 20
618.9636436277781
 30
0.0
 10
1174.79721988908
 20
621.9515573757367
 30
0.0
 10
1176.023986202555
 20
624.687852341214
 30
0.0
 10
1176.901659389062
 20
626.8940490118981
 30
0.0
 10
1177.487368820219
 20
628.6146665727839
 30
0.0
 10
1177.845118534658
 20
629.9314084019343
 30
0.0
 10
1178.035572598123
 20
631.0124363142221
 30
0.0
 10
1178.005305239302
 20
631.4973343437548
 30
0.0
 10
1177.99020166758
 20
631.7393010184869
 30
0.0
  0
SPLINE
  5
7F
330
1F
100
AcDbEntity
  8
0
  6
Continuous
 62
     7
370
    15
100
AcDbSpline
210
0.0
220
0.0
230
1.0
 70
     8
 71
     3
 72
    11
 73
     7
 74
     0
 42
0.000000001
 43
0.00000001
 40
0.0
 40
0.0
 40
0.0
 40
0.0
 40
0.2498865268773859
 40
0.4998117341158349
 40
0.7498746690037484
 40
1.0
 40
1.0
 40
1.0
 40
1.0
 10
1161.444742701351
 20
597.9904709684338
 30
0.0
 10
1146.037686561732
 20
597.8470386885986
 30
0.0
 10
1115.221189398036
 20
597.560151926801
 30
0.0
 10
1068.94290214118
 20
597.2582777641486
 30
0.0
 10
1022.626046648651
 20
597.082454166123
 30
0.0
 10
991.7230590361829
 20
597.1012404474343
 30
0.0
 10
976.2696377295508
 20
597.1106347598395
 30
0.0
  0
LWPOLYLINE
  5
80
330
1F
100
AcDbEntity
  8
0
  6
Continuous
 62
     7
370
    15
100
AcDbPolyline
 90
       14
 70
   128
 43
0.0
 10
976.2696377295508
 20
597.1106347598319
 10
976.2588285852668
 20
600.7966195617696
 10
976.2435908004244
 20
604.4285534713825
 10
976.2240946278771
 20
607.9658566327761
 10
976.2005578997477
 20
611.3690065061353
 10
976.1732435935735
 20
614.5999794558747
 10
976.1424568940404
 20
617.6226755914228
 10
976.1085417831316
 20
620.4033221138661
 10
976.0718771967939
 20
622.910850661835
 10
976.0328727910579
 20
625.1172444405136
 10
975.9919643649233
 20
626.9978512552821
 10
975.9496089911449
 20
628.53165895244
 10
975.9062799093266
 20
629.7015301894945
 10
975.8624612383815
 20
630.4943939119058
  0
LINE
  5
81
330
1F
100
AcDbEntity
  8
0
  6
Continuous
 62
     7
370
    15
100
AcDbLine
 10
1177.99020166758
 20
631.7393010184868
 30
0.0
 11
1177.935404881266
 21
632.028648916368
 31
0.0
  0
SPLINE
  5
82
330
1F
100
AcDbEntity
  8
0
  6
Continuous
 62
     7
370
    15
100
AcDbSpline
210
0.0
220
0.0
230
1.0
 70
     8
 71
     3
 72
    15
 73
    11
 74
     0
 42
0.000000001
 43
0.00000001
 40
0.0
 40
0.0
 40
0.0
 40
0.0
 40
0.1250175861599298
 40
0.2500243465757322
 40
0.3750141314741712
 40
0.4999993491598726
 40
0.6249854214514605
 40
0.7499773342916911
 40
0.874978966906178
 40
1.0
 40
1.0
 40
1.0
 40
1.0
 10
711.2774928410239
 20
326.1147290548972
 30
0.0
 10
711.3599546846043
 20
325.0394872621499
 30
0.0
 10
711.524871231083
 20
322.889096785896
 30
0.0
 10
712.5452868380797
 20
319.7812479713971
 30
0.0
 10
714.0989552426671
 20
316.9084312732757
 30
0.0
 10
716.1863056634427
 20
314.382108303137
 30
0.0
 10
718.7140304259452
 20
312.2955141111245
 30
0.0
 10
721.5887978557816
 20
310.7419667297199
 30
0.0
 10
724.6990819479273
 20
309.7210468714989
 30
0.0
 10
726.8513964586059
 20
309.5552758757611
 30
0.0
 10
727.927637218241
 20
309.4723839464019
 30
0.0
  0
SPLINE
  5
83
330
1F
100
AcDbEntity
  8
0
  6
Continuous
 62
     7
370
    15
100
AcDbSpline
210
0.0
220
0.0
230
1.0
 70
     8
 71
     3
 72
    15
 73
    11
 74
     0
 42
0.000000001
 43
0.00000001
 40
0.0
 40
0.0
 40
0.0
 40
0.0
 40
0.1250210332022308
 40
0.250022665708437
 40
0.3750145785479202
 40
0.5000006508387344
 40
0.6249858685252018
 40
0.7499756534243904
 40
0.8749824139484649
 40
1.0
 40
1.0
 40
1.0
 40
1.0
 10
1194.593316921228
 20
326.1147290832803
 30
0.0
 10
1194.510851388366
 20
325.0394574790866
 30
0.0
 10
1194.345933119598
 20
322.8890811307626
 30
0.0
 10
1193.32551319925
 20
319.781231881044
 30
0.0
 10
1191.771856248801
 20
316.9084292446306
 30
0.0
 10
1189.684490348837
 20
314.3820945764874
 30
0.0
 10
1187.156777279528
 20
312.2955158476057
 30
0.0
 10
1184.281995770476
 20
310.7419570109583
 30
0.0
 10
1181.171712101449
 20
309.7210414588031
 30
0.0
 10
1179.019383441534
 20
309.5552721765605
 30
0.0
 10
1177.943172515928
 20
309.4723839467089
 30
0.0
  0
SPLINE
  5
84
330
1F
100
AcDbEntity
  8
0
  6
Continuous
 62
     7
370
    15
100
AcDbSpline
210
0.0
220
0.0
230
1.0
 70
     8
 71
     3
 72
    15
 73
    11
 74
     0
 42
0.000000001
 43
0.00000001
 40
0.0
 40
0.0
 40
0.0
 40
0.0
 40
0.1251302371343367
 40
0.2501416319049701
 40
0.3750909220886517
 40
0.4999994222122432
 40
0.6249092593690376
 40
0.749859887228619
 40
0.8748716523674656
 40
1.0
 40
1.0
 40
1.0
 40
1.0
 10
1193.710458490779
 20
616.0911954786438
 30
0.0
 10
1193.624559889652
 20
617.0960123472911
 30
0.0
 10
1193.452844269541
 20
619.1046917603991
 30
0.0
 10
1192.478143778571
 20
622.0095703582507
 30
0.0
 10
1191.002808658206
 20
624.6946412288706
 30
0.0
 10
1189.035665084768
 20
627.0632638802894
 30
0.0
 10
1186.654629942985
 20
629.0228576652072
 30
0.0
 10
1183.952768662156
 20
630.4958068441321
 30
0.0
 10
1181.027511965349
 20
631.4729658236661
 30
0.0
 10
1179.002952961408
 20
631.6504950399391
 30
0.0
 10
1177.99020166758
 20
631.7393010184869
 30
0.0
  0
SPLINE
  5
85
330
1F
100
AcDbEntity
  8
0
  6
Continuous
 62
     7
370
    15
100
AcDbSpline
210
0.0
220
0.0
230
1.0
 70
     8
 71
     3
 72
    15
 73
    11
 74
     0
 42
0.000000001
 43
0.00000001
 40
0.0
 40
0.0
 40
0.0
 40
0.0
 40
0.1251283509382345
 40
0.2501401128305205
 40
0.3750907407025408
 40
0.5000005778709904
 40
0.6249090779814024
 40
0.7498583681518046
 40
0.8748697661694086
 40
0.9999999999999999
 40
0.9999999999999999
 40
0.9999999999999999
 40
0.9999999999999999
 10
712.1603512727871
 20
616.0911953189683
 30
0.0
 10
712.2462497614835
 20
617.0959966901439
 30
0.0
 10
712.4179667024752
 20
619.1046632031567
 30
0.0
 10
713.3926506969214
 20
622.0095453245833
 30
0.0
 10
714.8680020867529
 20
624.694636670037
 30
0.0
 10
716.835150121979
 20
627.0632692026174
 30
0.0
 10
719.2161753653788
 20
629.0228585661648
 30
0.0
 10
721.9180161159651
 20
630.4957915646008
 30
0.0
 10
724.8432692599488
 20
631.4729669130032
 30
0.0
 10
726.8678413155599
 20
631.6504948690962
 30
0.0
 10
727.8806082542485
 20
631.7393010166105
 30
0.0
  0
LINE
  5
86
330
1F
100
AcDbEntity
  8
0
  6
Continuous
 62
     7
370
    15
100
AcDbLine
 10
976.2696377295534
 20
597.1106347598397
 30
0.0
 11
959.252016977784
 21
597.1539076622907
 31
0.0
  0
SPLINE
  5
87
330
1F
100
AcDbEntity
  8
0
  6
Continuous
 62
     7
370
    15
100
AcDbSpline
210
0.0
220
0.0
230
1.0
 70
     8
 71
     3
 72
    11
 73
     7
 74
     0
 42
0.000000001
 43
0.00000001
 40
0.0
 40
0.0
 40
0.0
 40
0.0
 40
0.2487789199336223
 40
0.4980295361054473
 40
0.7487648420133745
 40
1.0
 40
1.0
 40
1.0
 40
1.0
 10
946.618792784747
 20
597.1539076622906
 30
0.0
 10
947.6648604118682
 20
597.2338074543283
 30
0.0
 10
949.7589790582915
 20
597.3937585320725
 30
0.0
 10
952.9167251591108
 20
597.4575836916694
 30
0.0
 10
956.084894142476
 20
597.395453454742
 30
0.0
 10
958.195608763644
 20
597.2344763590245
 30
0.0
 10
959.252016977784
 20
597.1539076622907
 30
0.0
  0
LINE
  5
88
330
1F
100
AcDbEntity
  8
0
  6
Continuous
 62
     7
370
    15
100
AcDbLine
 10
946.618792784747
 20
597.1539076622906
 30
0.0
 11
929.6011720330031
 21
597.1106347598397
 31
0.0
  0
ARC
  5
89
330
1F
100
AcDbEntity
  8
0
  6
Continuous
 62
     7
370
    15
100
AcDbCircle
 10
952.9354048812662
 20
531.1143198825448
 30
0.0
 40
70.00000000000006
100
AcDbArc
 50
109.4720015611985
 51
70.52799843878283
  0
SPLINE
  5
8A
330
1F
100
AcDbEntity
  8
0
  6
Continuous
 62
     7
370
    15
100
AcDbSpline
210
0.0
220
0.0
230
1.0
 70
     8
 71
     3
 72
    11
 73
     7
 74
     0
 42
0.000000001
 43
0.00000001
 40
0.0
 40
0.0
 40
0.0
 40
0.0
 40
0.2485647878461311
 40
0.4976824781479453
 40
0.7485467000954907
 40
0.9999999999999999
 40
0.9999999999999999
 40
0.9999999999999999
 40
0.9999999999999999
 10
959.188055935203
 20
596.4852009534616
 30
0.0
 10
958.153744642546
 20
596.570909635644
 30
0.0
 10
956.0828213562409
 20
596.7425176486574
 30
0.0
 10
952.9571587098812
 20
596.8113049434339
 30
0.0
 10
949.8193465009165
 20
596.7446588047546
 30
0.0
 10
947.729101809321
 20
596.5717544933581
 30
0.0
 10
946.682753827328
 20
596.4852009534615
 30
0.0
  0
LINE
  5
8B
330
1F
100
AcDbEntity
  8
0
  6
Continuous
 62
     7
370
    15
100
AcDbLine
 10
946.618792784747
 20
597.1539076622906
 30
0.0
 11
946.682753827328
 21
596.4852009534615
 31
0.0
  0
LINE
  5
8C
330
1F
100
AcDbEntity
  8
0
  6
Continuous
 62
     7
370
    15
100
AcDbLine
 10
959.188055935203
 20
596.4852009534616
 30
0.0
 11
959.252016977784
 21
597.1539076622907
 31
0.0
  0
CIRCLE
  5
8D
330
1F
100
AcDbEntity
  8
0
  6
Continuous
 62
     7
370
    15
100
AcDbCircle
 10
952.9354048812662
 20
531.1143198825448
 30
0.0
 40
58.61177143234625
  0
ARC
  5
8E
330
1F
100
AcDbEntity
  8
0
  6
Continuous
 62
     7
370
    15
100
AcDbCircle
 10
952.9354048812662
 20
531.1143198825448
 30
0.0
 40
65.66922975938003
100
AcDbArc
 50
95.46365535823772
 51
84.53634464176348
  0
ARC
  5
8F
330
1F
100
AcDbEntity
  8
0
  6
Continuous
 62
     7
370
    15
100
AcDbCircle
 10
952.9354048812662
 20
531.1143198825448
 30
0.0
 40
66.34098840458022
100
AcDbArc
 50
95.46365535823772
 51
84.53634464176348
  0
CIRCLE
  5
90
330
1F
100
AcDbEntity
  8
0
  6
Continuous
 62
     7
370
    15
100
AcDbCircle
 10
952.9354048812662
 20
531.1143198825448
 30
0.0
 40
57.50000000000011
  0
CIRCLE
  5
91
330
1F
100
AcDbEntity
  8
0
  6
Continuous
 62
     7
370
    15
100
AcDbCircle
 10
952.9354048812662
 20
531.1143198825449
 30
0.0
 40
56.58715574274777
  0
CIRCLE
  5
92
330
1F
100
AcDbEntity
  8
0
  6
Continuous
 62
     7
370
    15
100
AcDbCircle
 10
952.9354048812662
 20
531.1143198825448
 30
0.0
 40
45.00000000000011
  0
LINE
  5
93
330
1F
100
AcDbEntity
  8
0
  6
Continuous
 62
     7
370
    15
100
AcDbLine
 10
1262.935404881266
 20
301.1143198825449
 30
0.0
 11
1382.935404881266
 21
301.1143198825449
 31
0.0
  0
LINE
  5
94
330
1F
100
AcDbEntity
  8
0
  6
Continuous
 62
     7
370
    15
100
AcDbLine
 10
1382.935404881266
 20
641.1143198825448
 30
0.0
 11
1262.935404881266
 21
641.1143198825448
 31
0.0
  0
ARC
  5
95
330
1F
100
AcDbEntity
  8
0
  6
Continuous
 62
     7
370
    15
100
AcDbCircle
 10
1382.935404881266
 20
616.1143198825448
 30
0.0
 40
25.00000000000023
100
AcDbArc
 50
0.0
 51
90.0
  0
LINE
  5
96
330
1F
100
AcDbEntity
  8
0
  6
Continuous
 62
     7
370
    15
100
AcDbLine
 10
1407.935404881266
 20
326.1143198825449
 30
0.0
 11
1407.935404881266
 21
616.1143198825448
 31
0.0
  0
ARC
  5
97
330
1F
100
AcDbEntity
  8
0
  6
Continuous
 62
     7
370
    15
100
AcDbCircle
 10
1262.935404881266
 20
616.1143198825448
 30
0.0
 40
25.0
100
AcDbArc
 50
90.0
 51
180.0
  0
LINE
  5
98
330
1F
100
AcDbEntity
  8
0
  6
Continuous
 62
     7
370
    15
100
AcDbLine
 10
1237.935404881266
 20
616.1143198825448
 30
0.0
 11
1237.935404881266
 21
326.1143198825449
 31
0.0
  0
ARC
  5
99
330
1F
100
AcDbEntity
  8
0
  6
Continuous
 62
     7
370
    15
100
AcDbCircle
 10
1262.935404881266
 20
326.1143198825449
 30
0.0
 40
25.00000000000023
100
AcDbArc
 50
180.0
 51
270.0000000000008
  0
ARC
  5
9A
330
1F
100
AcDbEntity
  8
0
  6
Continuous
 62
     7
370
    15
100
AcDbCircle
 10
1382.935404881266
 20
326.1143198825449
 30
0.0
 40
26.50000000000011
100
AcDbArc
 50
270.0000000000008
 51
0.0
  0
ARC
  5
9B
330
1F
100
AcDbEntity
  8
0
  6
Continuous
 62
     7
370
    15
100
AcDbCircle
 10
1382.935404881266
 20
326.1143198825449
 30
0.0
 40
25.00000000000023
100
AcDbArc
 50
270.0000000000008
 51
0.0
  0
LINE
  5
9C
330
1F
100
AcDbEntity
  8
0
  6
Continuous
 62
     7
370
    15
100
AcDbLine
 10
1262.935404881266
 20
301.1143198825452
 30
0.0
 11
1262.935404881266
 21
303.0614397293895
 31
0.0
  0
SPLINE
  5
9D
330
1F
100
AcDbEntity
  8
0
  6
Continuous
 62
     7
370
    15
100
AcDbSpline
210
0.0
220
0.0
230
1.0
 70
     8
 71
     3
 72
    12
 73
     8
 74
     0
 42
0.000000001
 43
0.00000001
 40
0.0
 40
0.0
 40
0.0
 40
0.0
 40
0.2046389042012551
 40
0.4030902001269405
 40
0.596907015221418
 40
0.7953569189624428
 40
0.9999999999999999
 40
0.9999999999999999
 40
0.9999999999999999
 40
0.9999999999999999
 10
1382.935404881266
 20
303.0614397293895
 30
0.0
 10
1374.750649017918
 20
303.0781021894902
 30
0.0
 10
1358.628617423659
 20
303.11092329163
 30
0.0
 10
1334.750962026111
 20
303.1334041125446
 30
0.0
 10
1311.120237533046
 20
303.1334053772701
 30
0.0
 10
1287.242470714058
 20
303.1109241280396
 30
0.0
 10
1271.120327782502
 20
303.0781026203592
 30
0.0
 10
1262.935404881266
 20
303.0614397293895
 30
0.0
  0
LINE
  5
9E
330
1F
100
AcDbEntity
  8
0
  6
Continuous
 62
     7
370
    15
100
AcDbLine
 10
1382.935404881266
 20
301.1143198825452
 30
0.0
 11
1382.935404881266
 21
303.0615102207919
 31
0.0
  0
SPLINE
  5
9F
330
1F
100
AcDbEntity
  8
0
  6
Continuous
 62
     7
370
    15
100
AcDbSpline
210
0.0
220
0.0
230
1.0
 70
     8
 71
     3
 72
    15
 73
    11
 74
     0
 42
0.000000001
 43
0.00000001
 40
0.0
 40
0.0
 40
0.0
 40
0.0
 40
0.1370471127045684
 40
0.2706621091727383
 40
0.4008396197779987
 40
0.5275746046324015
 40
0.6508623528361431
 40
0.7706984821586419
 40
0.8870789391887837
 40
1.0
 40
1.0
 40
1.0
 40
1.0
 10
1405.978078640133
 20
326.1143198825449
 30
0.0
 10
1405.87618454172
 20
324.4596581389333
 30
0.0
 10
1405.674948112551
 20
321.1917728938148
 30
0.0
 10
1404.08656604959
 20
316.5728672883261
 30
0.0
 10
1401.717747417058
 20
312.4771999499709
 30
0.0
 10
1398.641615168834
 20
309.0387171577019
 30
0.0
 10
1395.059532695243
 20
306.3382545679992
 30
0.0
 10
1391.143428264843
 20
304.4383640860414
 30
0.0
 10
1387.064547614344
 20
303.2727267595891
 30
0.0
 10
1384.297872487863
 20
303.1311567997234
 30
0.0
 10
1382.935404881266
 20
303.0614397293895
 30
0.0
  0
LINE
  5
A0
330
1F
100
AcDbEntity
  8
0
  6
Continuous
 62
     7
370
    15
100
AcDbLine
 10
1407.935404881266
 20
326.1143198825449
 30
0.0
 11
1405.978078640133
 21
326.1143198825449
 31
0.0
  0
SPLINE
  5
A1
330
1F
100
AcDbEntity
  8
0
  6
Continuous
 62
     7
370
    15
100
AcDbSpline
210
0.0
220
0.0
230
1.0
 70
     8
 71
     3
 72
    23
 73
    19
 74
     0
 42
0.000000001
 43
0.00000001
 40
0.0
 40
0.0
 40
0.0
 40
0.0
 40
0.0569686171349746
 40
0.1176844599235767
 40
0.1821502538131105
 40
0.2499421887828469
 40
0.2955170094318846
 40
0.33945451056764
 40
0.390545411393673
 40
0.4487897877835463
 40
0.5133944333990859
 40
0.5741292218096662
 40
0.6412346369939882
 40
0.6985478806667607
 40
0.7460691694644588
 40
0.8109229792435836
 40
0.9095852907792831
 40
1.0
 40
1.0
 40
1.0
 40
1.0
 10
1405.012168950936
 20
440.4440837576477
 30
0.0
 10
1405.026494679844
 20
438.2702307140951
 30
0.0
 10
1405.056088441361
 20
433.7795350600726
 30
0.0
 10
1405.109828663614
 20
426.8324022380405
 30
0.0
 10
1405.171579938815
 20
419.4751633996079
 30
0.0
 10
1405.232586471439
 20
412.6977275645493
 30
0.0
 10
1405.289390550598
 20
406.7046932954138
 30
0.0
 10
1405.341147105349
 20
401.3488411338445
 30
0.0
 10
1405.397962944802
 20
395.5109961101502
 30
0.0
 10
1405.462462073999
 20
388.8864964693405
 30
0.0
 10
1405.530493226873
 20
381.8953078849225
 30
0.0
 10
1405.600333316848
 20
374.5663623772194
 30
0.0
 10
1405.665627919811
 20
367.5144626674823
 30
0.0
 10
1405.724239939004
 20
360.9650242696326
 30
0.0
 10
1405.779767686853
 20
354.500234915307
 30
0.0
 10
1405.844211356285
 20
346.4576786209468
 30
0.0
 10
1405.915174512626
 20
336.7769759353707
 30
0.0
 10
1405.957729349663
 20
329.5636560994542
 30
0.0
 10
1405.978078640133
 20
326.1143198825449
 30
0.0
  0
SPLINE
  5
A2
330
1F
100
AcDbEntity
  8
0
  6
Continuous
 62
     7
370
    15
100
AcDbSpline
210
0.0
220
0.0
230
1.0
 70
     8
 71
     3
 72
    18
 73
    14
 74
     0
 42
0.000000001
 43
0.00000001
 40
0.0
 40
0.0
 40
0.0
 40
0.0
 40
0.0898439705752039
 40
0.1868102208065523
 40
0.2832836172719974
 40
0.3809347368849793
 40
0.4700751813434133
 40
0.5507682697347215
 40
0.6357416250465573
 40
0.7331196176100804
 40
0.8239184293996894
 40
0.9120626080497204
 40
1.0
 40
1.0
 40
1.0
 40
1.0
 10
1405.011431580308
 20
501.7812933085826
 30
0.0
 10
1404.995937326184
 20
499.9417256455241
 30
0.0
 10
1404.963720528378
 20
496.1167606631841
 30
0.0
 10
1404.883226168003
 20
490.3356252877188
 30
0.0
 10
1404.78996043601
 20
484.403931407214
 30
0.0
 10
1404.721164432672
 20
478.6130657307668
 30
0.0
 10
1404.686717213232
 20
473.1290642351696
 30
0.0
 10
1404.692645982915
 20
467.8993623196348
 30
0.0
 10
1404.73586749206
 20
462.5104896342714
 30
0.0
 10
1404.80576830385
 20
456.9294990783591
 30
0.0
 10
1404.88785261096
 20
451.293788623858
 30
0.0
 10
1404.969160208526
 20
445.8515895807656
 30
0.0
 10
1404.997497064032
 20
442.2450472531394
 30
0.0
 10
1405.011648852665
 20
440.4438938151704
 30
0.0
  0
SPLINE
  5
A3
330
1F
100
AcDbEntity
  8
0
  6
Continuous
 62
     7
370
    15
100
AcDbSpline
210
0.0
220
0.0
230
1.0
 70
     8
 71
     3
 72
    24
 73
    20
 74
     0
 42
0.000000001
 43
0.00000001
 40
0.0
 40
0.0
 40
0.0
 40
0.0
 40
0.0576439052250635
 40
0.1187520331960777
 40
0.183326421792139
 40
0.2509879593986529
 40
0.298750208225231
 40
0.3434079345749506
 40
0.3943404066283764
 40
0.4515477042163358
 40
0.5151769116047649
 40
0.5774418779933489
 40
0.6325644690711385
 40
0.6805447452195147
 40
0.7213827985036075
 40
0.7585782333332436
 40
0.8121133241980574
 40
0.9105240118136381
 40
1.0
 40
1.0
 40
1.0
 40
1.0
 10
1405.978078640133
 20
616.1143198825448
 30
0.0
 10
1405.965391477367
 20
613.9150005436733
 30
0.0
 10
1405.939254692081
 20
609.3841894870887
 30
0.0
 10
1405.892305553702
 20
602.3927987857035
 30
0.0
 10
1405.838171648598
 20
595.0217579232922
 30
0.0
 10
1405.783327450945
 20
588.1618042483069
 30
0.0
 10
1405.731116795064
 20
582.0627372936565
 30
0.0
 10
1405.68254289442
 20
576.601933230785
 30
0.0
 10
1405.629275239432
 20
570.7819599668218
 30
0.0
 10
1405.567860444203
 20
564.239907606995
 30
0.0
 10
1405.500545523415
 20
557.2668755331977
 30
0.0
 10
1405.433427083793
 20
550.3729725198393
 30
0.0
 10
1405.372040691054
 20
544.0745677906214
 30
0.0
 10
1405.318798967715
 20
538.5917494518841
 30
0.0
 10
1405.272640491464
 20
533.7912347872866
 30
0.0
 10
1405.225647273346
 20
528.7781446388688
 30
0.0
 10
1405.160980814664
 20
521.5694196115534
 30
0.0
 10
1405.083432625063
 20
512.364607514419
 30
0.0
 10
1405.034986303137
 20
505.1953047803571
 30
0.0
 10
1405.011915042176
 20
501.781116711941
 30
0.0
  0
LINE
  5
A4
330
1F
100
AcDbEntity
  8
0
  6
Continuous
 62
     7
370
    15
100
AcDbLine
 10
1407.935404881266
 20
616.1143198825448
 30
0.0
 11
1405.97808216591
 21
616.1143198825448
 31
0.0
  0
LINE
  5
A5
330
1F
100
AcDbEntity
  8
0
  6
Continuous
 62
     7
370
    15
100
AcDbLine
 10
1382.935404881266
 20
641.1143198825445
 30
0.0
 11
1382.935404881266
 21
639.1672000357003
 31
0.0
  0
SPLINE
  5
A6
330
1F
100
AcDbEntity
  8
0
  6
Continuous
 62
     7
370
    15
100
AcDbSpline
210
0.0
220
0.0
230
1.0
 70
     8
 71
     3
 72
    11
 73
     7
 74
     0
 42
0.000000001
 43
0.00000001
 40
0.0
 40
0.0
 40
0.0
 40
0.0
 40
0.2499284732316509
 40
0.4998839834075813
 40
0.749927364499349
 40
1.0
 40
1.0
 40
1.0
 40
1.0
 10
1262.935404881266
 20
639.1672000357003
 30
0.0
 10
1272.931666862343
 20
639.1472236278644
 30
0.0
 10
1292.925272207401
 20
639.1072686511703
 30
0.0
 10
1322.924996416342
 20
639.0903239631416
 30
0.0
 10
1352.930489898939
 20
639.1072431587748
 30
0.0
 10
1372.933376529239
 20
639.1472136306976
 30
0.0
 10
1382.935404881266
 20
639.1672000357003
 30
0.0
  0
LINE
  5
A7
330
1F
100
AcDbEntity
  8
0
  6
Continuous
 62
     7
370
    15
100
AcDbLine
 10
1262.935404881266
 20
641.1143198825445
 30
0.0
 11
1262.935404881266
 21
639.1670590514984
 31
0.0
  0
SPLINE
  5
A8
330
1F
100
AcDbEntity
  8
0
  6
Continuous
 62
     7
370
    15
100
AcDbSpline
210
0.0
220
0.0
230
1.0
 70
     8
 71
     3
 72
    15
 73
    11
 74
     0
 42
0.000000001
 43
0.00000001
 40
0.0
 40
0.0
 40
0.0
 40
0.0
 40
0.1370431087078733
 40
0.2706552430351006
 40
0.4008310346008076
 40
0.5275654446241279
 40
0.6508537631731462
 40
0.7706916088450562
 40
0.887074928915109
 40
1.0
 40
1.0
 40
1.0
 40
1.0
 10
1239.892731122399
 20
616.1143198825448
 30
0.0
 10
1239.994619246151
 20
617.768933097688
 30
0.0
 10
1240.195844650014
 20
621.0367350769052
 30
0.0
 10
1241.78415106147
 20
625.6555534565107
 30
0.0
 10
1244.152888453951
 20
629.7511950377283
 30
0.0
 10
1247.228958422011
 20
633.1897050178226
 30
0.0
 10
1250.811019991182
 20
635.8902304840011
 30
0.0
 10
1254.727157901229
 20
637.7901959469219
 30
0.0
 10
1258.806130398769
 20
638.955898674275
 30
0.0
 10
1261.572888745605
 20
639.0974779778303
 30
0.0
 10
1262.935404881266
 20
639.1672000357001
 30
0.0
  0
LINE
  5
A9
330
1F
100
AcDbEntity
  8
0
  6
Continuous
 62
     7
370
    15
100
AcDbLine
 10
1237.935404881267
 20
616.1143198825448
 30
0.0
 11
1239.892731122399
 21
616.1143198825448
 31
0.0
  0
SPLINE
  5
AA
330
1F
100
AcDbEntity
  8
0
  6
Continuous
 62
     7
370
    15
100
AcDbSpline
210
0.0
220
0.0
230
1.0
 70
     8
 71
     3
 72
    23
 73
    19
 74
     0
 42
0.000000001
 43
0.00000001
 40
0.0
 40
0.0
 40
0.0
 40
0.0
 40
0.056953871545833
 40
0.1176587068975875
 40
0.1821172410830117
 40
0.249906110964138
 40
0.2955028787947173
 40
0.3394469483615501
 40
0.3905350231837827
 40
0.4487671793338396
 40
0.5133595686516986
 40
0.5741084535235959
 40
0.6412230972224731
 40
0.6985362449339071
 40
0.7460481134506909
 40
0.8109074899900166
 40
0.909579055202096
 40
1.0
 40
1.0
 40
1.0
 40
1.0
 10
1240.858894720049
 20
501.7811167467127
 30
0.0
 10
1240.844578053699
 20
503.9544774880146
 30
0.0
 10
1240.815001829922
 20
508.4443358155171
 30
0.0
 10
1240.761270839653
 20
515.3904285468583
 30
0.0
 10
1240.699516515031
 20
522.7470814445345
 30
0.0
 10
1240.638487354724
 20
529.525164354054
 30
0.0
 10
1240.581655647074
 20
535.5193469610614
 30
0.0
 10
1240.529872946762
 20
540.8763368719184
 30
0.0
 10
1240.473040929195
 20
546.7140313972296
 30
0.0
 10
1240.408529092775
 20
553.3376858963569
 30
0.0
 10
1240.340476602052
 20
560.3286835136362
 30
0.0
 10
1240.270606558293
 20
567.658264687403
 30
0.0
 10
1240.205279626613
 20
574.711255317628
 30
0.0
 10
1240.146646127438
 20
581.2608745756755
 30
0.0
 10
1240.091099663587
 20
587.7257037135753
 30
0.0
 10
1240.02663394159
 20
595.7687056830209
 30
0.0
 10
1239.955645983612
 20
605.4505038843332
 30
0.0
 10
1239.913083706845
 20
612.6646386556713
 30
0.0
 10
1239.892731122399
 20
616.1143198825448
 30
0.0
  0
SPLINE
  5
AB
330
1F
100
AcDbEntity
  8
0
  6
Continuous
 62
     7
370
    15
100
AcDbSpline
210
0.0
220
0.0
230
1.0
 70
     8
 71
     3
 72
    18
 73
    14
 74
     0
 42
0.000000001
 43
0.00000001
 40
0.0
 40
0.0
 40
0.0
 40
0.0
 40
0.0898927453755114
 40
0.1869386535429713
 40
0.2834602253048761
 40
0.3811334162079002
 40
0.4703095502471984
 40
0.5509927390480508
 40
0.6359363297235544
 40
0.733294291784274
 40
0.8240390798178443
 40
0.91211139793217
 40
1.0
 40
1.0
 40
1.0
 40
1.0
 10
1240.859160908206
 20
440.4438935501577
 30
0.0
 10
1240.874671374196
 20
442.2844560907088
 30
0.0
 10
1240.90692654246
 20
446.1120428626442
 30
0.0
 10
1240.987515497997
 20
451.8967473603291
 30
0.0
 10
1241.080867339961
 20
457.8314635165637
 30
0.0
 10
1241.149692371918
 20
463.6244969537695
 30
0.0
 10
1241.184110690634
 20
469.1094956513464
 30
0.0
 10
1241.178136727536
 20
474.3391121893383
 30
0.0
 10
1241.134901227063
 20
479.7267485968332
 30
0.0
 10
1241.065035187034
 20
485.3056215827476
 30
0.0
 10
1240.983023798926
 20
490.9383801153851
 30
0.0
 10
1240.901822034544
 20
496.3770608928664
 30
0.0
 10
1240.873516281767
 20
499.9811368326787
 30
0.0
 10
1240.859378182015
 20
501.7812933433885
 30
0.0
  0
SPLINE
  5
AC
330
1F
100
AcDbEntity
  8
0
  6
Continuous
 62
     7
370
    15
100
AcDbSpline
210
0.0
220
0.0
230
1.0
 70
     8
 71
     3
 72
    24
 73
    20
 74
     0
 42
0.000000001
 43
0.00000001
 40
0.0
 40
0.0
 40
0.0
 40
0.0
 40
0.0576402070494223
 40
0.1187433728174725
 40
0.1833115309572911
 40
0.2509658918042573
 40
0.2987383070122559
 40
0.3433972421150152
 40
0.39432495719291
 40
0.4515215320444342
 40
0.5151432463016994
 40
0.5774257419939992
 40
0.6325564671089458
 40
0.6805354818527803
 40
0.721362878073421
 40
0.7585419520211171
 40
0.8120798538640378
 40
0.9105028153548679
 40
1.0
 40
1.0
 40
1.0
 40
1.0
 10
1239.892731122399
 20
326.1143198825449
 30
0.0
 10
1239.905416558882
 20
328.3134296979063
 30
0.0
 10
1239.931549558583
 20
332.8437693694506
 30
0.0
 10
1239.978485459619
 20
339.8343782017046
 30
0.0
 10
1240.032599855396
 20
347.2044960136053
 30
0.0
 10
1240.08742572829
 20
354.0641214811334
 30
0.0
 10
1240.13961904468
 20
360.163168770273
 30
0.0
 10
1240.188177366802
 20
365.6240648847457
 30
0.0
 10
1240.241420421557
 20
371.443324328767
 30
0.0
 10
1240.302804297737
 20
377.9843105295977
 30
0.0
 10
1240.370093898436
 20
384.9571128506665
 30
0.0
 10
1240.43719464836
 20
391.8515058590841
 30
0.0
 10
1240.498568793378
 20
398.1506544340319
 30
0.0
 10
1240.55179132232
 20
403.6331663234959
 30
0.0
 10
1240.597924903007
 20
408.4324606836577
 30
0.0
 10
1240.644893752152
 20
413.4444790705637
 30
0.0
 10
1240.709541295103
 20
420.6529377659549
 30
0.0
 10
1240.787087368346
 20
429.8588484145776
 30
0.0
 10
1240.835557062647
 20
437.0291968464628
 30
0.0
 10
1240.858640810025
 20
440.4440834925921
 30
0.0
  0
LINE
  5
AD
330
1F
100
AcDbEntity
  8
0
  6
Continuous
 62
     7
370
    15
100
AcDbLine
 10
1237.935404881267
 20
326.1143198825449
 30
0.0
 11
1239.892727596614
 21
326.1143198825449
 31
0.0
  0
SPLINE
  5
AE
330
1F
100
AcDbEntity
  8
0
  6
Continuous
 62
     7
370
    15
100
AcDbSpline
210
0.0
220
0.0
230
1.0
 70
     8
 71
     3
 72
    15
 73
    11
 74
     0
 42
0.000000001
 43
0.00000001
 40
0.0
 40
0.0
 40
0.0
 40
0.0
 40
0.112923150854626
 40
0.2293051002133548
 40
0.3491421243516606
 40
0.4724301701232532
 40
0.5991648556243305
 40
0.7293414703431853
 40
0.8629549748407872
 40
1.0
 40
1.0
 40
1.0
 40
1.0
 10
1262.935404881266
 20
303.0614397293895
 30
0.0
 10
1261.572911973967
 20
303.1311593710644
 30
0.0
 10
1258.806193455367
 20
303.2727341438202
 30
0.0
 10
1254.727264891399
 20
304.4384055136897
 30
0.0
 10
1250.811142967263
 20
306.33833506259
 30
0.0
 10
1247.229071355432
 20
309.0388304402136
 30
0.0
 10
1244.152971556592
 20
312.4773274395871
 30
0.0
 10
1241.784195286466
 20
316.57298139677
 30
0.0
 10
1240.195852704711
 20
321.191841575615
 30
0.0
 10
1239.994622078177
 20
324.4596834305196
 30
0.0
 10
1239.892731122399
 20
326.1143198825449
 30
0.0
  0
SPLINE
  5
AF
330
1F
100
AcDbEntity
  8
0
  6
Continuous
 62
     7
370
    15
100
AcDbSpline
210
0.0
220
0.0
230
1.0
 70
     8
 71
     3
 72
    15
 73
    11
 74
     0
 42
0.000000001
 43
0.00000001
 40
0.0
 40
0.0
 40
0.0
 40
0.0
 40
0.1129274527314696
 40
0.2293124733135262
 40
0.3491513386043105
 40
0.4724399961936865
 40
0.5991740650656853
 40
0.7293488357467247
 40
0.8629592699851951
 40
1.0
 40
1.0
 40
1.0
 40
1.0
 10
1382.935404881266
 20
639.1672000357003
 30
0.0
 10
1384.297949846381
 20
639.0974750437242
 30
0.0
 10
1387.064757636638
 20
638.9558902476888
 30
0.0
 10
1391.143784725803
 20
637.7901487203106
 30
0.0
 10
1395.059942563295
 20
635.890138737613
 30
0.0
 10
1398.641991750033
 20
633.1895759115351
 30
0.0
 10
1401.718024739967
 20
629.7510497480288
 30
0.0
 10
1404.086713863326
 20
625.6554234217025
 30
0.0
 10
1405.674975293652
 20
621.0366568117958
 30
0.0
 10
1405.876194093357
 20
617.7689042773962
 30
0.0
 10
1405.978078640133
 20
616.1143198825448
 30
0.0
  0
SPLINE
  5
B0
330
1F
100
AcDbEntity
  8
0
  6
Continuous
 62
     7
370
    15
100
AcDbSpline
210
0.0
220
0.0
230
1.0
 70
     8
 71
     3
 72
    11
 73
     7
 74
     0
 42
0.000000001
 43
0.00000001
 40
0.0
 40
0.0
 40
0.0
 40
0.0
 40
0.2499381449508734
 40
0.4998997088181107
 40
0.7499372127266088
 40
0.9999999999999999
 40
0.9999999999999999
 40
0.9999999999999999
 40
0.9999999999999999
 10
1383.328279342478
 20
620.2526052317337
 30
0.0
 10
1373.266053622742
 20
620.2546999193097
 30
0.0
 10
1353.140659364308
 20
620.2588894907316
 30
0.0
 10
1322.944462119586
 20
620.2637285781466
 30
0.0
 10
1292.743244448384
 20
620.2588931906253
 30
0.0
 10
1272.609774389354
 20
620.2547012886736
 30
0.0
 10
1262.542530420054
 20
620.2526052317336
 30
0.0
  0
SPLINE
  5
B1
330
1F
100
AcDbEntity
  8
0
  6
Continuous
 62
     7
370
    15
100
AcDbSpline
210
0.0
220
0.0
230
1.0
 70
     8
 71
     3
 72
    15
 73
    11
 74
     0
 42
0.000000001
 43
0.00000001
 40
0.0
 40
0.0
 40
0.0
 40
0.0
 40
0.1250000000000002
 40
0.2500000000000005
 40
0.3750000000000001
 40
0.4999999999999998
 40
0.6250000000000001
 40
0.7500000000000001
 40
0.875
 40
0.9999999999999999
 40
0.9999999999999999
 40
0.9999999999999999
 40
0.9999999999999999
 10
1262.542530420054
 20
620.2526052317336
 30
0.0
 10
1262.547356379914
 20
621.4273660413307
 30
0.0
 10
1262.557008299635
 20
623.776887660525
 30
0.0
 10
1262.586576035689
 20
627.1527800402127
 30
0.0
 10
1262.626146803102
 20
630.285527630744
 30
0.0
 10
1262.675601871687
 20
633.0735517929513
 30
0.0
 10
1262.733099315424
 20
635.4346621089849
 30
0.0
 10
1262.796925385092
 20
637.2798641447888
 30
0.0
 10
1262.865067343693
 20
638.6081189298454
 30
0.0
 10
1262.911959035408
 20
638.980839667082
 30
0.0
 10
1262.935404881266
 20
639.1672000357003
 30
0.0
  0
SPLINE
  5
B2
330
1F
100
AcDbEntity
  8
0
  6
Continuous
 62
     7
370
    15
100
AcDbSpline
210
0.0
220
0.0
230
1.0
 70
     8
 71
     3
 72
    15
 73
    11
 74
     0
 42
0.000000001
 43
0.00000001
 40
0.0
 40
0.0
 40
0.0
 40
0.0
 40
0.125
 40
0.2500000000000011
 40
0.3750000000000001
 40
0.500000000000001
 40
0.6250000000000006
 40
0.7500000000000006
 40
0.8750000000000008
 40
1.0
 40
1.0
 40
1.0
 40
1.0
 10
1383.328279342478
 20
620.2526052317336
 30
0.0
 10
1383.323453382618
 20
621.4273660413306
 30
0.0
 10
1383.313801462897
 20
623.7768876605248
 30
0.0
 10
1383.284233726843
 20
627.1527800402127
 30
0.0
 10
1383.244662959431
 20
630.285527630744
 30
0.0
 10
1383.195207890845
 20
633.0735517929513
 30
0.0
 10
1383.137710447108
 20
635.4346621089849
 30
0.0
 10
1383.07388437744
 20
637.2798641447888
 30
0.0
 10
1383.005742418839
 20
638.6081189298454
 30
0.0
 10
1382.958850727124
 20
638.980839667082
 30
0.0
 10
1382.935404881266
 20
639.1672000357003
 30
0.0
  0
SPLINE
  5
B3
330
1F
100
AcDbEntity
  8
0
  6
Continuous
 62
     7
370
    15
100
AcDbSpline
210
0.0
220
0.0
230
1.0
 70
     8
 71
     3
 72
    11
 73
     7
 74
     0
 42
0.000000001
 43
0.00000001
 40
0.0
 40
0.0
 40
0.0
 40
0.0
 40
0.2532158001419174
 40
0.5064262141317738
 40
0.7537816217623116
 40
1.0
 40
1.0
 40
1.0
 40
1.0
 10
1262.542530420054
 20
620.2526052317337
 30
0.0
 10
1262.117780097089
 20
620.208437179307
 30
0.0
 10
1261.26828848602
 20
620.1201020139522
 30
0.0
 10
1260.227265903774
 20
619.352869516067
 30
0.0
 10
1259.482092525835
 20
618.31364715798
 30
0.0
 10
1259.399913525317
 20
617.4865513367157
 30
0.0
 10
1259.358918681563
 20
617.0739561025489
 30
0.0
  0
SPLINE
  5
B4
330
1F
100
AcDbEntity
  8
0
  6
Continuous
 62
     7
370
    15
100
AcDbSpline
210
0.0
220
0.0
230
1.0
 70
     8
 71
     3
 72
    15
 73
    11
 74
     0
 42
0.000000001
 43
0.00000001
 40
0.0
 40
0.0
 40
0.0
 40
0.0
 40
0.1178530449232337
 40
0.2416255560459385
 40
0.369684714092182
 40
0.5000000000000004
 40
0.6303152859078188
 40
0.7583744439540616
 40
0.882146955076766
 40
1.0
 40
1.0
 40
1.0
 40
1.0
 10
1239.892731122399
 20
616.1143198825448
 30
0.0
 10
1240.069943617119
 20
616.1691360851548
 30
0.0
 10
1240.433269550724
 20
616.2815217723013
 30
0.0
 10
1241.747789684616
 20
616.4484157467637
 30
0.0
 10
1243.661800216562
 20
616.6099056370645
 30
0.0
 10
1246.181449732208
 20
616.7569455229196
 30
0.0
 10
1249.173882706596
 20
616.8816380442967
 30
0.0
 10
1252.478326692754
 20
616.9774054085456
 30
0.0
 10
1255.907298902516
 20
617.044354195972
 30
0.0
 10
1258.22732447879
 20
617.0642512833575
 30
0.0
 10
1259.358918681563
 20
617.0739561025489
 30
0.0
  0
SPLINE
  5
B5
330
1F
100
AcDbEntity
  8
0
  6
Continuous
 62
     7
370
    15
100
AcDbSpline
210
0.0
220
0.0
230
1.0
 70
     8
 71
     3
 72
    15
 73
    11
 74
     0
 42
0.000000001
 43
0.00000001
 40
0.0
 40
0.0
 40
0.0
 40
0.0
 40
0.1181237254843521
 40
0.2419504786112245
 40
0.3698940602338105
 40
0.4999999999999999
 40
0.6301059397661878
 40
0.758049521388774
 40
0.8818762745156478
 40
1.0
 40
1.0
 40
1.0
 40
1.0
 10
1382.935404881266
 20
303.0614397293894
 30
0.0
 10
1382.957557242476
 20
303.2345599900734
 30
0.0
 10
1383.002931483552
 20
303.5891587784035
 30
0.0
 10
1383.070329470848
 20
304.8632927664443
 30
0.0
 10
1383.135626674398
 20
306.7140821973806
 30
0.0
 10
1383.19532085989
 20
309.1490912300692
 30
0.0
 10
1383.246343165753
 20
312.0444301299863
 30
0.0
 10
1383.286096103884
 20
315.251187218776
 30
0.0
 10
1383.314558247278
 20
318.5921547678937
 30
0.0
 10
1383.323778084503
 20
320.8659397808272
 30
0.0
 10
1383.328279342478
 20
321.9760345333561
 30
0.0
  0
SPLINE
  5
B6
330
1F
100
AcDbEntity
  8
0
  6
Continuous
 62
     7
370
    15
100
AcDbSpline
210
0.0
220
0.0
230
1.0
 70
     8
 71
     3
 72
    11
 73
     7
 74
     0
 42
0.000000001
 43
0.00000001
 40
0.0
 40
0.0
 40
0.0
 40
0.0
 40
0.2532158000092003
 40
0.5064262141546346
 40
0.7537816217027166
 40
0.9999999999999999
 40
0.9999999999999999
 40
0.9999999999999999
 40
0.9999999999999999
 10
1383.328279342478
 20
321.9760345333561
 30
0.0
 10
1383.753029665266
 20
322.0202025855569
 30
0.0
 10
1384.602521276462
 20
322.1085377505103
 30
0.0
 10
1385.643543858497
 20
322.8757702488048
 30
0.0
 10
1386.388717236364
 20
323.9149926070763
 30
0.0
 10
1386.470896237096
 20
324.7420884282835
 30
0.0
 10
1386.511891080969
 20
325.1546836625407
 30
0.0
  0
SPLINE
  5
B7
330
1F
100
AcDbEntity
  8
0
  6
Continuous
 62
     7
370
    15
100
AcDbSpline
210
0.0
220
0.0
230
1.0
 70
     8
 71
     3
 72
    15
 73
    11
 74
     0
 42
0.000000001
 43
0.00000001
 40
0.0
 40
0.0
 40
0.0
 40
0.0
 40
0.1178530449232343
 40
0.2416255560459386
 40
0.3696847140921818
 40
0.5000000000000003
 40
0.630315285907819
 40
0.7583744439540613
 40
0.8821469550767664
 40
1.0
 40
1.0
 40
1.0
 40
1.0
 10
1386.511891080969
 20
325.1546836625408
 30
0.0
 10
1387.643485283743
 20
325.1643884817324
 30
0.0
 10
1389.963510860016
 20
325.1842855691176
 30
0.0
 10
1393.392483069779
 20
325.2512343565443
 30
0.0
 10
1396.696927055936
 20
325.3470017207931
 30
0.0
 10
1399.689360030324
 20
325.4716942421703
 30
0.0
 10
1402.20900954597
 20
325.6187341280253
 30
0.0
 10
1404.123020077916
 20
325.7802240183262
 30
0.0
 10
1405.437540211808
 20
325.9471179927884
 30
0.0
 10
1405.800866145413
 20
326.0595036799348
 30
0.0
 10
1405.978078640133
 20
326.1143198825449
 30
0.0
  0
SPLINE
  5
B8
330
1F
100
AcDbEntity
  8
0
  6
Continuous
 62
     7
370
    15
100
AcDbSpline
210
0.0
220
0.0
230
1.0
 70
     8
 71
     3
 72
    15
 73
    11
 74
     0
 42
0.000000001
 43
0.00000001
 40
0.0
 40
0.0
 40
0.0
 40
0.0
 40
0.1178530449232337
 40
0.2416255560459395
 40
0.369684714092181
 40
0.4999999999999994
 40
0.6303152859078169
 40
0.7583744439540615
 40
0.882146955076766
 40
1.0
 40
1.0
 40
1.0
 40
1.0
 10
1239.892731122399
 20
326.1143198825449
 30
0.0
 10
1240.069943617119
 20
326.0595036799347
 30
0.0
 10
1240.433269550724
 20
325.9471179927884
 30
0.0
 10
1241.747789684616
 20
325.780224018326
 30
0.0
 10
1243.661800216562
 20
325.6187341280256
 30
0.0
 10
1246.181449732208
 20
325.47169424217
 30
0.0
 10
1249.173882706596
 20
325.3470017207931
 30
0.0
 10
1252.478326692754
 20
325.2512343565443
 30
0.0
 10
1255.907298902516
 20
325.1842855691177
 30
0.0
 10
1258.227324478789
 20
325.1643884817323
 30
0.0
 10
1259.358918681563
 20
325.1546836625407
 30
0.0
  0
SPLINE
  5
B9
330
1F
100
AcDbEntity
  8
0
  6
Continuous
 62
     7
370
    15
100
AcDbSpline
210
0.0
220
0.0
230
1.0
 70
     8
 71
     3
 72
    11
 73
     7
 74
     0
 42
0.000000001
 43
0.00000001
 40
0.0
 40
0.0
 40
0.0
 40
0.0
 40
0.2462996574075711
 40
0.4937921614712605
 40
0.7468662632991219
 40
1.0
 40
1.0
 40
1.0
 40
1.0
 10
1259.358918681563
 20
325.1546836625407
 30
0.0
 10
1259.399963410888
 20
324.7419544849388
 30
0.0
 10
1259.482251652063
 20
323.9144972531446
 30
0.0
 10
1260.227749068346
 20
322.8752821700181
 30
0.0
 10
1261.268783670718
 20
322.1083726622895
 30
0.0
 10
1262.117914825718
 20
322.0201507073913
 30
0.0
 10
1262.542530420054
 20
321.9760345333562
 30
0.0
  0
SPLINE
  5
BA
330
1F
100
AcDbEntity
  8
0
  6
Continuous
 62
     7
370
    15
100
AcDbSpline
210
0.0
220
0.0
230
1.0
 70
     8
 71
     3
 72
    15
 73
    11
 74
     0
 42
0.000000001
 43
0.00000001
 40
0.0
 40
0.0
 40
0.0
 40
0.0
 40
0.1181237254843521
 40
0.2419504786112243
 40
0.3698940602338119
 40
0.5000000000000003
 40
0.6301059397661893
 40
0.7580495213887767
 40
0.8818762745156478
 40
0.9999999999999999
 40
0.9999999999999999
 40
0.9999999999999999
 40
0.9999999999999999
 10
1262.935404881266
 20
303.0614397293895
 30
0.0
 10
1262.913252520057
 20
303.2345599900734
 30
0.0
 10
1262.86787827898
 20
303.5891587784035
 30
0.0
 10
1262.800480291684
 20
304.8632927664443
 30
0.0
 10
1262.735183088134
 20
306.7140821973807
 30
0.0
 10
1262.675488902642
 20
309.1490912300692
 30
0.0
 10
1262.624466596779
 20
312.0444301299864
 30
0.0
 10
1262.584713658649
 20
315.2511872187761
 30
0.0
 10
1262.556251515255
 20
318.5921547678938
 30
0.0
 10
1262.547031678029
 20
320.8659397808272
 30
0.0
 10
1262.542530420054
 20
321.9760345333561
 30
0.0
  0
SPLINE
  5
BB
330
1F
100
AcDbEntity
  8
0
  6
Continuous
 62
     7
370
    15
100
AcDbSpline
210
0.0
220
0.0
230
1.0
 70
     8
 71
     3
 72
    11
 73
     7
 74
     0
 42
0.000000001
 43
0.00000001
 40
0.0
 40
0.0
 40
0.0
 40
0.0
 40
0.246299657207841
 40
0.4937921614796051
 40
0.7468662632811589
 40
1.0
 40
1.0
 40
1.0
 40
1.0
 10
1386.511891080969
 20
617.0739561025489
 30
0.0
 10
1386.470846351861
 20
617.4866852798631
 30
0.0
 10
1386.388558111051
 20
618.314142511765
 30
0.0
 10
1385.64306069438
 20
619.3533575947457
 30
0.0
 10
1384.602026091933
 20
620.1202671029206
 30
0.0
 10
1383.752894936878
 20
620.2084890577361
 30
0.0
 10
1383.328279342478
 20
620.2526052317337
 30
0.0
  0
SPLINE
  5
BC
330
1F
100
AcDbEntity
  8
0
  6
Continuous
 62
     7
370
    15
100
AcDbSpline
210
0.0
220
0.0
230
1.0
 70
     8
 71
     3
 72
    15
 73
    11
 74
     0
 42
0.000000001
 43
0.00000001
 40
0.0
 40
0.0
 40
0.0
 40
0.0
 40
0.1178530449232338
 40
0.2416255560459397
 40
0.3696847140921827
 40
0.5000000000000008
 40
0.6303152859078196
 40
0.7583744439540615
 40
0.8821469550767667
 40
1.0
 40
1.0
 40
1.0
 40
1.0
 10
1386.511891080969
 20
617.0739561025489
 30
0.0
 10
1387.643485283743
 20
617.0642512833574
 30
0.0
 10
1389.963510860016
 20
617.044354195972
 30
0.0
 10
1393.392483069779
 20
616.9774054085455
 30
0.0
 10
1396.696927055936
 20
616.8816380442968
 30
0.0
 10
1399.689360030324
 20
616.7569455229196
 30
0.0
 10
1402.20900954597
 20
616.6099056370645
 30
0.0
 10
1404.123020077916
 20
616.4484157467637
 30
0.0
 10
1405.437540211808
 20
616.2815217723014
 30
0.0
 10
1405.800866145413
 20
616.169136085155
 30
0.0
 10
1405.978078640133
 20
616.1143198825448
 30
0.0
  0
SPLINE
  5
BD
330
1F
100
AcDbEntity
  8
0
  6
Continuous
 62
     7
370
    15
100
AcDbSpline
210
0.0
220
0.0
230
1.0
 70
     8
 71
     3
 72
    11
 73
     7
 74
     0
 42
0.000000001
 43
0.00000001
 40
0.0
 40
0.0
 40
0.0
 40
0.0
 40
0.2499733454975455
 40
0.4999999999999981
 40
0.750026654502458
 40
1.0
 40
1.0
 40
1.0
 40
1.0
 10
1262.542530420054
 20
321.9760345333562
 30
0.0
 10
1272.606173328137
 20
321.9740225629061
 30
0.0
 10
1292.735605304278
 20
321.9699981929356
 30
0.0
 10
1322.935404881267
 20
321.9647861136101
 30
0.0
 10
1353.135204458255
 20
321.9699981944941
 30
0.0
 10
1373.264636434396
 20
321.9740225634255
 30
0.0
 10
1383.328279342478
 20
321.9760345333561
 30
0.0
  0
SPLINE
  5
BE
330
1F
100
AcDbEntity
  8
0
  6
Continuous
 62
     7
370
    15
100
AcDbSpline
210
0.0
220
0.0
230
1.0
 70
     8
 71
     3
 72
    14
 73
    10
 74
     0
 42
0.000000001
 43
0.00000001
 40
0.0
 40
0.0
 40
0.0
 40
0.0
 40
0.1469405044134171
 40
0.2877593079416542
 40
0.4320989024782126
 40
0.5749993587970954
 40
0.7162284880981611
 40
0.8604613436120593
 40
1.0
 40
1.0
 40
1.0
 40
1.0
 10
1386.511891080969
 20
325.1546836625408
 30
0.0
 10
1386.524285500404
 20
330.7844577557031
 30
0.0
 10
1386.548557974309
 20
341.8094634434358
 30
0.0
 10
1386.874040019473
 20
358.3632220309205
 30
0.0
 10
1387.33105547622
 20
374.7598079102491
 30
0.0
 10
1387.887517510415
 20
391.1709724268871
 30
0.0
 10
1388.46793024666
 20
407.5795231235102
 30
0.0
 10
1389.035120347974
 20
423.8624688452454
 30
0.0
 10
1389.328867992313
 20
434.7399960956066
 30
0.0
 10
1389.473312201436
 20
440.0887907197254
 30
0.0
  0
SPLINE
  5
BF
330
1F
100
AcDbEntity
  8
0
  6
Continuous
 62
     7
370
    15
100
AcDbSpline
210
0.0
220
0.0
230
1.0
 70
     8
 71
     3
 72
    15
 73
    11
 74
     0
 42
0.000000001
 43
0.00000001
 40
0.0
 40
0.0
 40
0.0
 40
0.0
 40
0.1183537387289063
 40
0.2422288037505492
 40
0.3700784446271738
 40
0.5000113788152062
 40
0.6299427159143208
 40
0.7577877187057205
 40
0.881655528913606
 40
1.0
 40
1.0
 40
1.0
 40
1.0
 10
1389.473168901253
 20
440.0804899262237
 30
0.0
 10
1390.373835129974
 20
440.0850575965434
 30
0.0
 10
1392.21718461352
 20
440.0944060238036
 30
0.0
 10
1394.927299216736
 20
440.1215325587488
 30
0.0
 10
1397.532203003046
 20
440.1587150088908
 30
0.0
 10
1399.893302139189
 20
440.2058874628305
 30
0.0
 10
1401.893684613352
 20
440.2607211353603
 30
0.0
 10
1403.434645460091
 20
440.3205008482178
 30
0.0
 10
1404.519926194155
 20
440.3821379043649
 30
0.0
 10
1404.850252186097
 20
440.4236238561349
 30
0.0
 10
1405.011648852664
 20
440.4438938151704
 30
0.0
  0
SPLINE
  5
C0
330
1F
100
AcDbEntity
  8
0
  6
Continuous
 62
     7
370
    15
100
AcDbSpline
210
0.0
220
0.0
230
1.0
 70
     8
 71
     3
 72
    13
 73
     9
 74
     0
 42
0.000000001
 43
0.00000001
 40
0.0
 40
0.0
 40
0.0
 40
0.0
 40
0.1636095473328734
 40
0.3294089263125504
 40
0.5004202284939445
 40
0.6626811559640847
 40
0.8296567444824716
 40
1.0
 40
1.0
 40
1.0
 40
1.0
 10
1389.474914119518
 20
502.1363915798685
 30
0.0
 10
1389.302524784096
 20
508.4079169271796
 30
0.0
 10
1388.955438768551
 20
521.0349088398001
 30
0.0
 10
1388.274306486099
 20
540.2064761035087
 30
0.0
 10
1387.592865717465
 20
559.322761331958
 30
0.0
 10
1387.007842004508
 20
578.4842803459583
 30
0.0
 10
1386.569260680819
 20
597.6230605109971
 30
0.0
 10
1386.531141138074
 20
610.5473139113927
 30
0.0
 10
1386.511891080969
 20
617.073956102549
 30
0.0
  0
SPLINE
  5
C1
330
1F
100
AcDbEntity
  8
0
  6
Continuous
 62
     7
370
    15
100
AcDbSpline
210
0.0
220
0.0
230
1.0
 70
     8
 71
     3
 72
    15
 73
    11
 74
     0
 42
0.000000001
 43
0.00000001
 40
0.0
 40
0.0
 40
0.0
 40
0.0
 40
0.1183512563495723
 40
0.2422213973432165
 40
0.3700649875033513
 40
0.4999926147226026
 40
0.6299214051966563
 40
0.757768265150025
 40
0.88164319727723
 40
1.0
 40
1.0
 40
1.0
 40
1.0
 10
1389.474754578434
 20
502.1363171985723
 30
0.0
 10
1390.375310538135
 20
502.1267201326711
 30
0.0
 10
1392.218416641717
 20
502.1070784762604
 30
0.0
 10
1394.928225115953
 20
502.0692848102001
 30
0.0
 10
1397.532851131793
 20
502.0255566735282
 30
0.0
 10
1399.8937299865
 20
501.9769460999569
 30
0.0
 10
1401.893958861515
 20
501.9258550804877
 30
0.0
 10
1403.434834782603
 20
501.8748107511133
 30
0.0
 10
1404.520081577724
 20
501.8258437353315
 30
0.0
 10
1404.850408037123
 20
501.795797565413
 30
0.0
 10
1405.011808786754
 20
501.7811167119409
 30
0.0
  0
SPLINE
  5
C2
330
1F
100
AcDbEntity
  8
0
  6
Continuous
 62
     7
370
    15
100
AcDbSpline
210
0.0
220
0.0
230
1.0
 70
     8
 71
     3
 72
    14
 73
    10
 74
     0
 42
0.000000001
 43
0.00000001
 40
0.0
 40
0.0
 40
0.0
 40
0.0
 40
0.1469533315911158
 40
0.2877840951483221
 40
0.4321332147989982
 40
0.575037485967194
 40
0.7162655847335957
 40
0.8604802453744919
 40
1.0
 40
1.0
 40
1.0
 40
1.0
 10
1259.358918681563
 20
617.0739561025489
 30
0.0
 10
1259.34649376765
 20
611.4435192262431
 30
0.0
 10
1259.322161603355
 20
600.4172283337989
 30
0.0
 10
1258.996288903788
 20
583.8616572006558
 30
0.0
 10
1258.538813462778
 20
567.4636145531017
 30
0.0
 10
1257.981907625732
 20
551.051492117919
 30
0.0
 10
1257.40118554961
 20
534.643042472551
 30
0.0
 10
1256.83380403026
 20
518.3610678173109
 30
0.0
 10
1256.540245953955
 20
507.4846267976631
 30
0.0
 10
1256.39589564405
 20
502.1363916150001
 30
0.0
  0
SPLINE
  5
C3
330
1F
100
AcDbEntity
  8
0
  6
Continuous
 62
     7
370
    15
100
AcDbSpline
210
0.0
220
0.0
230
1.0
 70
     8
 71
     3
 72
    15
 73
    11
 74
     0
 42
0.000000001
 43
0.00000001
 40
0.0
 40
0.0
 40
0.0
 40
0.0
 40
0.1183568027225581
 40
0.2422317348498978
 40
0.3700785948036295
 40
0.5000073852781043
 40
0.6299350124976664
 40
0.7577786026578498
 40
0.8816487436511737
 40
0.9999999999999999
 40
0.9999999999999999
 40
0.9999999999999999
 40
0.9999999999999999
 10
1240.859000975471
 20
501.7811167467127
 30
0.0
 10
1241.020401725082
 20
501.7957976001946
 30
0.0
 10
1241.35072818444
 20
501.8258437701336
 30
0.0
 10
1242.435974979588
 20
501.8748107859545
 30
0.0
 10
1243.976850900779
 20
501.9258551153741
 30
0.0
 10
1245.977079775973
 20
501.9769461348933
 30
0.0
 10
1248.337958630922
 20
502.0255567085168
 30
0.0
 10
1250.942584647042
 20
502.0692848452398
 30
0.0
 10
1253.652393121568
 20
502.1070785113487
 30
0.0
 10
1255.495499225341
 20
502.1267201677886
 30
0.0
 10
1256.396055185134
 20
502.136317233704
 30
0.0
  0
SPLINE
  5
C4
330
1F
100
AcDbEntity
  8
0
  6
Continuous
 62
     7
370
    15
100
AcDbSpline
210
0.0
220
0.0
230
1.0
 70
     8
 71
     3
 72
    15
 73
    11
 74
     0
 42
0.000000001
 43
0.00000001
 40
0.0
 40
0.0
 40
0.0
 40
0.0
 40
0.1183478934187243
 40
0.2422185293291491
 40
0.3700655220133627
 40
0.4999977834249265
 40
0.6299303939659121
 40
0.7577783680219287
 40
0.8816504419164736
 40
1.0
 40
1.0
 40
1.0
 40
1.0
 10
1240.859223978482
 20
440.4539096050796
 30
0.0
 10
1241.020627507177
 20
440.433575591174
 30
0.0
 10
1241.35096651212
 20
440.3919586700672
 30
0.0
 10
1242.436301254225
 20
440.3301038867863
 30
0.0
 10
1243.977320941122
 20
440.2700944174833
 30
0.0
 10
1245.977748589492
 20
440.2150275728719
 30
0.0
 10
1248.338859024766
 20
440.1676299186088
 30
0.0
 10
1250.943728504994
 20
440.1302410518477
 30
0.0
 10
1253.653762364733
 20
440.1029321721967
 30
0.0
 10
1255.49703977601
 20
440.0934848035181
 30
0.0
 10
1256.397665641952
 20
440.0888688165023
 30
0.0
  0
SPLINE
  5
C5
330
1F
100
AcDbEntity
  8
0
  6
Continuous
 62
     7
370
    15
100
AcDbSpline
210
0.0
220
0.0
230
1.0
 70
     8
 71
     3
 72
    13
 73
     9
 74
     0
 42
0.000000001
 43
0.00000001
 40
0.0
 40
0.0
 40
0.0
 40
0.0
 40
0.1636321502135994
 40
0.3294462093576687
 40
0.5004593361029852
 40
0.662709103981783
 40
0.8296717030128996
 40
0.9999999999999999
 40
0.9999999999999999
 40
0.9999999999999999
 40
0.9999999999999999
 10
1256.397497567716
 20
440.0887904518628
 30
0.0
 10
1256.56998777095
 20
433.8165921273282
 30
0.0
 10
1256.917268201675
 20
421.1885605353696
 30
0.0
 10
1257.598101031807
 20
402.0160692140322
 30
0.0
 10
1258.279120239391
 20
382.9001474387906
 30
0.0
 10
1258.863593084638
 20
363.7400516241812
 30
0.0
 10
1259.301672635117
 20
344.6033433930857
 30
0.0
 10
1259.33971014545
 20
331.6805541107659
 30
0.0
 10
1259.358918681563
 20
325.1546836625407
 30
0.0
  0
SPLINE
  5
C6
330
1F
100
AcDbEntity
  8
0
  6
Continuous
 62
     7
370
    15
100
AcDbSpline
210
0.0
220
0.0
230
1.0
 70
     8
 71
     3
 72
    15
 73
    11
 74
     0
 42
0.000000001
 43
0.00000001
 40
0.0
 40
0.0
 40
0.0
 40
0.0
 40
0.1249999999999997
 40
0.2499999999999999
 40
0.3750000000000001
 40
0.4999999999999998
 40
0.625
 40
0.7500000000000002
 40
0.8750000000000002
 40
1.0
 40
1.0
 40
1.0
 40
1.0
 10
1389.473144236304
 20
440.0888690390974
 30
0.0
 10
1390.524901441292
 20
442.5435473309404
 30
0.0
 10
1392.62841585127
 20
447.4529039146263
 30
0.0
 10
1394.743433493383
 20
455.1969183031629
 30
0.0
 10
1396.062092130951
 20
463.1037702935838
 30
0.0
 10
1396.495347443634
 20
471.1124108770484
 30
0.0
 10
1396.062507807196
 20
479.1210739371485
 30
0.0
 10
1394.744259563892
 20
487.0279943597833
 30
0.0
 10
1392.62964386529
 20
494.7721185144918
 30
0.0
 10
1390.526384270435
 20
499.681584271111
 30
0.0
 10
1389.474754473008
 20
502.1363171494205
 30
0.0
  0
SPLINE
  5
C7
330
1F
100
AcDbEntity
  8
0
  6
Continuous
 62
     7
370
    15
100
AcDbSpline
210
0.0
220
0.0
230
1.0
 70
     8
 71
     3
 72
    15
 73
    11
 74
     0
 42
0.000000001
 43
0.00000001
 40
0.0
 40
0.0
 40
0.0
 40
0.0
 40
0.125
 40
0.2499999999999998
 40
0.3750000000000007
 40
0.4999999999999996
 40
0.6250000000000004
 40
0.7500000000000002
 40
0.875
 40
1.0
 40
1.0
 40
1.0
 40
1.0
 10
1256.396055303164
 20
502.1363171786758
 30
0.0
 10
1255.344425500428
 20
499.6815842900274
 30
0.0
 10
1253.241165894955
 20
494.7721185127308
 30
0.0
 10
1251.126550189425
 20
487.0279943236416
 30
0.0
 10
1249.808301946214
 20
479.1210738656688
 30
0.0
 10
1249.375462317646
 20
471.1124107701955
 30
0.0
 10
1249.808717645728
 20
463.1037701526161
 30
0.0
 10
1251.127376306174
 20
455.1969181306882
 30
0.0
 10
1253.242393977715
 20
447.4529037139158
 30
0.0
 10
1255.345908412575
 20
442.543547115664
 30
0.0
 10
1256.397665630005
 20
440.0888688165381
 30
0.0
  0
ARC
  5
C8
330
1F
100
AcDbEntity
  8
0
  6
Continuous
 62
     7
370
    15
100
AcDbCircle
 10
1322.935404881266
 20
471.1143198825448
 30
0.0
 40
73.41559342890366
100
AcDbArc
 50
24.99588980778586
 51
155.004110167023
  0
ARC
  5
C9
330
1F
100
AcDbEntity
  8
0
  6
Continuous
 62
     7
370
    15
100
AcDbCircle
 10
1322.935404881266
 20
471.1143198825448
 30
0.0
 40
73.41559342890355
100
AcDbArc
 50
204.9988638450935
 51
335.0011363465544
  0
CIRCLE
  5
CA
330
1F
100
AcDbEntity
  8
0
  6
Continuous
 62
     7
370
    15
100
AcDbCircle
 10
1322.935404881266
 20
471.1143198825448
 30
0.0
 40
58.61177143234613
  0
CIRCLE
  5
CB
330
1F
100
AcDbEntity
  8
0
  6
Continuous
 62
     7
370
    15
100
AcDbCircle
 10
1322.935404881266
 20
471.1143198825448
 30
0.0
 40
57.49999999999977
  0
CIRCLE
  5
CC
330
1F
100
AcDbEntity
  8
0
  6
Continuous
 62
     7
370
    15
100
AcDbCircle
 10
1322.935404881266
 20
471.1143198825448
 30
0.0
 40
56.58715574274788
  0
CIRCLE
  5
CD
330
1F
100
AcDbEntity
  8
0
  6
Continuous
 62
     7
370
    15
100
AcDbCircle
 10
1322.935404881266
 20
471.1143198825448
 30
0.0
 40
45.00000000000023
  0
LINE
  5
CE
330
1F
100
AcDbEntity
  8
0
  6
Continuous
 62
     7
370
    15
100
AcDbLine
 10
1446.454099628514
 20
279.3143198825449
 30
0.0
 11
1446.454099628514
 21
729.314319882545
 31
0.0
  0
LINE
  5
CF
330
1F
100
AcDbEntity
  8
0
  6
Continuous
 62
     7
370
    15
100
AcDbLine
 10
1446.454099628514
 20
729.314319882545
 30
0.0
 11
1447.435404881266
 21
729.314319882545
 31
0.0
  0
LINE
  5
D0
330
1F
100
AcDbEntity
  8
0
  6
Continuous
 62
     7
370
    15
100
AcDbLine
 10
1447.435404881266
 20
729.314319882545
 30
0.0
 11
1447.435404881266
 21
279.3143198825449
 31
0.0
  0
LINE
  5
D1
330
1F
100
AcDbEntity
  8
0
  6
Continuous
 62
     7
370
    15
100
AcDbLine
 10
1446.454099628514
 20
279.3143198825449
 30
0.0
 11
1447.435404881266
 21
279.3143198825449
 31
0.0
  0
LINE
  5
D2
330
1F
100
AcDbEntity
  8
0
  6
Continuous
 62
     7
370
    15
100
AcDbLine
 10
680.6349898048468
 20
292.9143198825449
 30
0.0
 11
680.6349898048468
 21
649.314319882545
 31
0.0
  0
ARC
  5
D3
330
1F
100
AcDbEntity
  8
0
  6
Continuous
 62
     7
370
    15
100
AcDbCircle
 10
702.0354048812663
 20
292.9143198825449
 30
0.0
 40
21.40041507641956
100
AcDbArc
 50
179.9999999999998
 51
270.0000000000008
  0
LINE
  5
D4
330
1F
100
AcDbEntity
  8
0
  6
Continuous
 62
     7
370
    15
100
AcDbLine
 10
1408.835404881266
 20
271.5139048061254
 30
0.0
 11
702.0354048812663
 21
271.5139048061254
 31
0.0
  0
ARC
  5
D5
330
1F
100
AcDbEntity
  8
0
  6
Continuous
 62
     7
370
    15
100
AcDbCircle
 10
1408.835404881266
 20
292.9143198825449
 30
0.0
 40
21.40041507641945
100
AcDbArc
 50
270.0000000000008
 51
0.0
  0
LINE
  5
D6
330
1F
100
AcDbEntity
  8
0
  6
Continuous
 62
     7
370
    15
100
AcDbLine
 10
1430.235819957686
 20
649.314319882545
 30
0.0
 11
1430.235819957686
 21
292.9143198825449
 31
0.0
  0
ARC
  5
D7
330
1F
100
AcDbEntity
  8
0
  6
Continuous
 62
     7
370
    15
100
AcDbCircle
 10
1408.835404881266
 20
649.314319882545
 30
0.0
 40
21.40041507641945
100
AcDbArc
 50
0.0
 51
90.0
  0
LINE
  5
D8
330
1F
100
AcDbEntity
  8
0
  6
Continuous
 62
     7
370
    15
100
AcDbLine
 10
702.0354048812661
 20
670.7147349589644
 30
0.0
 11
1408.835404881266
 21
670.7147349589644
 31
0.0
  0
ARC
  5
D9
330
1F
100
AcDbEntity
  8
0
  6
Continuous
 62
     7
370
    15
100
AcDbCircle
 10
702.0354048812661
 20
649.314319882545
 30
0.0
 40
21.40041507641945
100
AcDbArc
 50
90.0
 51
180.0
  0
CIRCLE
  5
DA
330
1F
100
AcDbEntity
  8
0
  6
Continuous
 62
     7
370
    15
100
AcDbCircle
 10
1220.435404881266
 20
704.314319882545
 30
0.0
 40
17.50000000000011
  0
ARC
  5
DC
330
1F
100
AcDbEntity
  8
0
  6
Continuous
 62
     7
370
    15
100
AcDbCircle
 10
1422.435404881266
 20
279.3143198825449
 30
0.0
 40
24.01869474724754
100
AcDbArc
 50
270.0000000000008
 51
0.0
  0
LINE
  5
DD
330
1F
100
AcDbEntity
  8
0
  6
Continuous
 62
     7
370
    15
100
AcDbLine
 10
688.4354048812663
 20
255.2956251352974
 30
0.0
 11
1422.435404881266
 21
255.2956251352975
 31
0.0
  0
ARC
  5
DE
330
1F
100
AcDbEntity
  8
0
  6
Continuous
 62
     7
370
    15
100
AcDbCircle
 10
688.4354048812663
 20
279.3143198825449
 30
0.0
 40
24.01869474724765
100
AcDbArc
 50
180.0
 51
270.0000000000008
  0
LINE
  5
DF
330
1F
100
AcDbEntity
  8
0
  6
Continuous
 62
     7
370
    15
100
AcDbLine
 10
664.4167101340187
 20
729.314319882545
 30
0.0
 11
664.4167101340187
 21
279.3143198825449
 31
0.0
  0
ARC
  5
E0
330
1F
100
AcDbEntity
  8
0
  6
Continuous
 62
     7
370
    15
100
AcDbCircle
 10
688.4354048812661
 20
729.314319882545
 30
0.0
 40
24.01869474724742
100
AcDbArc
 50
90.0
 51
180.0
  0
LINE
  5
E1
330
1F
100
AcDbEntity
  8
0
  6
Continuous
 62
     7
370
    15
100
AcDbLine
 10
1422.435404881266
 20
753.3330146297924
 30
0.0
 11
688.4354048812661
 21
753.3330146297923
 31
0.0
  0
ARC
  5
E2
330
1F
100
AcDbEntity
  8
0
  6
Continuous
 62
     7
370
    15
100
AcDbCircle
 10
1422.435404881266
 20
729.314319882545
 30
0.0
 40
24.01869474724754
100
AcDbArc
 50
0.0
 51
90.0
  0
LINE
  5
E3
330
1F
100
AcDbEntity
  8
0
  6
Continuous
 62
     7
370
    15
100
AcDbLine
 10
1422.435404881266
 20
753.3330146297924
 30
0.0
 11
1422.435404881266
 21
754.314319882545
 31
0.0
  0
ARC
  5
E4
330
1F
100
AcDbEntity
  8
0
  6
Continuous
 62
     7
370
    15
100
AcDbCircle
 10
1422.435404881266
 20
729.314319882545
 30
0.0
 40
25.0
100
AcDbArc
 50
0.0
 51
90.0
  0
ARC
  5
E5
330
1F
100
AcDbEntity
  8
0
  6
Continuous
 62
     7
370
    15
100
AcDbCircle
 10
688.4354048812661
 20
729.314319882545
 30
0.0
 40
24.99999999999989
100
AcDbArc
 50
90.0
 51
180.0
  0
LINE
  5
E6
330
1F
100
AcDbEntity
  8
0
  6
Continuous
 62
     7
370
    15
100
AcDbLine
 10
688.4354048812661
 20
754.3143198825449
 30
0.0
 11
688.4354048812661
 21
753.3330146297923
 31
0.0
  0
LINE
  5
E7
330
1F
100
AcDbEntity
  8
0
  6
Continuous
 62
     7
370
    15
100
AcDbLine
 10
663.4354048812662
 20
729.314319882545
 30
0.0
 11
664.4167101340187
 21
729.314319882545
 31
0.0
  0
LINE
  5
E8
330
1F
100
AcDbEntity
  8
0
  6
Continuous
 62
     7
370
    15
100
AcDbLine
 10
688.4354048812661
 20
754.3143198825449
 30
0.0
 11
1422.435404881266
 21
754.314319882545
 31
0.0
  0
LINE
  5
E9
330
1F
100
AcDbEntity
  8
0
  6
Continuous
 62
     7
370
    15
100
AcDbLine
 10
1428.356434716114
 20
292.9143198825449
 30
0.0
 11
1428.356434716114
 21
649.314319882545
 31
0.0
  0
LINE
  5
EA
330
1F
100
AcDbEntity
  8
0
  6
Continuous
 62
     7
370
    15
100
AcDbLine
 10
1428.356434716114
 20
649.314319882545
 30
0.0
 11
1430.235819957686
 21
649.314319882545
 31
0.0
  0
LINE
  5
EB
330
1F
100
AcDbEntity
  8
0
  6
Continuous
 62
     7
370
    15
100
AcDbLine
 10
1428.356434716114
 20
292.9143198825449
 30
0.0
 11
1430.235819957686
 21
292.9143198825449
 31
0.0
  0
LINE
  5
EC
330
1F
100
AcDbEntity
  8
0
  6
Continuous
 62
     7
370
    15
100
AcDbLine
 10
680.6349898048468
 20
649.314319882545
 30
0.0
 11
682.5143750464185
 21
649.314319882545
 31
0.0
  0
LINE
  5
ED
330
1F
100
AcDbEntity
  8
0
  6
Continuous
 62
     7
370
    15
100
AcDbLine
 10
682.5143750464185
 20
649.314319882545
 30
0.0
 11
682.5143750464185
 21
292.9143198825449
 31
0.0
  0
LINE
  5
EE
330
1F
100
AcDbEntity
  8
0
  6
Continuous
 62
     7
370
    15
100
AcDbLine
 10
680.6349898048468
 20
292.9143198825449
 30
0.0
 11
682.5143750464185
 21
292.9143198825449
 31
0.0
  0
ARC
  5
EF
330
1F
100
AcDbEntity
  8
0
  6
Continuous
 62
     7
370
    15
100
AcDbCircle
 10
1408.835404881266
 20
649.314319882545
 30
0.0
 40
19.52102983484758
100
AcDbArc
 50
0.0
 51
90.0
  0
LINE
  5
F0
330
1F
100
AcDbEntity
  8
0
  6
Continuous
 62
     7
370
    15
100
AcDbLine
 10
1408.835404881266
 20
668.8353497173925
 30
0.0
 11
1408.835404881266
 21
670.7147349589644
 31
0.0
  0
LINE
  5
F1
330
1F
100
AcDbEntity
  8
0
  6
Continuous
 62
     7
370
    15
100
AcDbLine
 10
702.0354048812661
 20
670.7147349589644
 30
0.0
 11
702.0354048812661
 21
668.8353497173924
 31
0.0
  0
ARC
  5
F2
330
1F
100
AcDbEntity
  8
0
  6
Continuous
 62
     7
370
    15
100
AcDbCircle
 10
702.0354048812661
 20
649.314319882545
 30
0.0
 40
19.52102983484758
100
AcDbArc
 50
90.0
 51
180.0
  0
LINE
  5
F3
330
1F
100
AcDbEntity
  8
0
  6
Continuous
 62
     7
370
    15
100
AcDbLine
 10
1408.835404881266
 20
668.8353497173925
 30
0.0
 11
702.0354048812661
 21
668.8353497173924
 31
0.0
  0
ARC
  5
F4
330
1F
100
AcDbEntity
  8
0
  6
Continuous
 62
     7
370
    15
100
AcDbCircle
 10
688.4354048812663
 20
279.3143198825449
 30
0.0
 40
25.00000000000011
100
AcDbArc
 50
180.0
 51
270.0000000000008
  0
LINE
  5
F5
330
1F
100
AcDbEntity
  8
0
  6
Continuous
 62
     7
370
    15
100
AcDbLine
 10
663.4354048812662
 20
279.3143198825449
 30
0.0
 11
664.4167101340187
 21
279.3143198825449
 31
0.0
  0
LINE
  5
F6
330
1F
100
AcDbEntity
  8
0
  6
Continuous
 62
     7
370
    15
100
AcDbLine
 10
688.4354048812663
 20
254.3143198825449
 30
0.0
 11
688.4354048812663
 21
255.2956251352974
 31
0.0
  0
LINE
  5
F7
330
1F
100
AcDbEntity
  8
0
  6
Continuous
 62
     7
370
    15
100
AcDbLine
 10
702.0354048812663
 20
273.3932900476972
 30
0.0
 11
1408.835404881266
 21
273.3932900476972
 31
0.0
  0
LINE
  5
F8
330
1F
100
AcDbEntity
  8
0
  6
Continuous
 62
     7
370
    15
100
AcDbLine
 10
1408.835404881266
 20
273.3932900476972
 30
0.0
 11
1408.835404881266
 21
271.5139048061254
 31
0.0
  0
LINE
  5
F9
330
1F
100
AcDbEntity
  8
0
  6
Continuous
 62
     7
370
    15
100
AcDbLine
 10
702.0354048812663
 20
271.5139048061254
 30
0.0
 11
702.0354048812663
 21
273.3932900476972
 31
0.0
  0
ARC
  5
FA
330
1F
100
AcDbEntity
  8
0
  6
Continuous
 62
     7
370
    15
100
AcDbCircle
 10
1408.835404881266
 20
292.9143198825449
 30
0.0
 40
19.52102983484764
100
AcDbArc
 50
270.0000000000008
 51
0.0
  0
ARC
  5
FB
330
1F
100
AcDbEntity
  8
0
  6
Continuous
 62
     7
370
    15
100
AcDbCircle
 10
702.0354048812663
 20
292.9143198825449
 30
0.0
 40
19.52102983484781
100
AcDbArc
 50
179.9999999999998
 51
270.0000000000008
  0
LINE
  5
FC
330
1F
100
AcDbEntity
  8
0
  6
Continuous
 62
     7
370
    15
100
AcDbLine
 10
1422.435404881266
 20
255.2956251352975
 30
0.0
 11
1422.435404881266
 21
254.3143198825449
 31
0.0
  0
LINE
  5
FD
330
1F
100
AcDbEntity
  8
0
  6
Continuous
 62
     7
370
    15
100
AcDbLine
 10
1422.435404881266
 20
254.3143198825449
 30
0.0
 11
688.4354048812663
 21
254.3143198825449
 31
0.0
  0
ARC
  5
FE
330
1F
100
AcDbEntity
  8
0
  6
Continuous
 62
     7
370
    15
100
AcDbCircle
 10
1422.435404881266
 20
279.3143198825449
 30
0.0
 40
25.00000000000023
100
AcDbArc
 50
270.0000000000008
 51
0.0
  0
LINE
  5
FF
330
1F
100
AcDbEntity
  8
0
  6
Continuous
 62
     7
370
    15
100
AcDbLine
 10
663.4354048812662
 20
279.3143198825449
 30
0.0
 11
663.4354048812662
 21
729.314319882545
 31
0.0
  0
ARC
  5
100
330
1F
100
AcDbEntity
  8
0
  6
Continuous
 62
     7
370
    15
100
AcDbCircle
 10
702.0354048812663
 20
292.9143198825449
 30
0.0
 40
19.38705946235393
100
AcDbArc
 50
179.9999999999998
 51
270.0000000000008
  0
LINE
  5
101
330
1F
100
AcDbEntity
  8
0
  6
Continuous
 62
     7
370
    15
100
AcDbLine
 10
702.0354048812663
 20
273.527260420191
 30
0.0
 11
702.0354048812663
 21
273.3932900476972
 31
0.0
  0
LINE
  5
102
330
1F
100
AcDbEntity
  8
0
  6
Continuous
 62
     7
370
    15
100
AcDbLine
 10
682.6483454189124
 20
292.9143198825449
 30
0.0
 11
682.5143750464185
 21
292.9143198825449
 31
0.0
  0
LINE
  5
103
330
1F
100
AcDbEntity
  8
0
  6
Continuous
 62
     7
370
    15
100
AcDbLine
 10
682.6483454189124
 20
292.9143198825449
 30
0.0
 11
682.6483454189124
 21
649.314319882545
 31
0.0
  0
LINE
  5
104
330
1F
100
AcDbEntity
  8
0
  6
Continuous
 62
     7
370
    15
100
AcDbLine
 10
682.6483454189124
 20
649.314319882545
 30
0.0
 11
682.5143750464185
 21
649.314319882545
 31
0.0
  0
LINE
  5
105
330
1F
100
AcDbEntity
  8
0
  6
Continuous
 62
     7
370
    15
100
AcDbLine
 10
1408.835404881266
 20
273.5272604201911
 30
0.0
 11
702.0354048812663
 21
273.527260420191
 31
0.0
  0
LINE
  5
106
330
1F
100
AcDbEntity
  8
0
  6
Continuous
 62
     7
370
    15
100
AcDbLine
 10
1408.835404881266
 20
273.5272604201911
 30
0.0
 11
1408.835404881266
 21
273.3932900476972
 31
0.0
  0
ARC
  5
107
330
1F
100
AcDbEntity
  8
0
  6
Continuous
 62
     7
370
    15
100
AcDbCircle
 10
1408.835404881266
 20
292.9143198825449
 30
0.0
 40
19.38705946235382
100
AcDbArc
 50
270.0000000000008
 51
0.0
  0
LINE
  5
108
330
1F
100
AcDbEntity
  8
0
  6
Continuous
 62
     7
370
    15
100
AcDbLine
 10
1428.22246434362
 20
292.9143198825449
 30
0.0
 11
1428.356434716114
 21
292.9143198825449
 31
0.0
  0
LINE
  5
109
330
1F
100
AcDbEntity
  8
0
  6
Continuous
 62
     7
370
    15
100
AcDbLine
 10
702.0354048812661
 20
668.7013793448987
 30
0.0
 11
1408.835404881266
 21
668.7013793448988
 31
0.0
  0
LINE
  5
10A
330
1F
100
AcDbEntity
  8
0
  6
Continuous
 62
     7
370
    15
100
AcDbLine
 10
702.0354048812661
 20
668.7013793448987
 30
0.0
 11
702.0354048812661
 21
668.8353497173924
 31
0.0
  0
LINE
  5
10B
330
1F
100
AcDbEntity
  8
0
  6
Continuous
 62
     7
370
    15
100
AcDbLine
 10
1408.835404881266
 20
668.7013793448988
 30
0.0
 11
1408.835404881266
 21
668.8353497173925
 31
0.0
  0
ARC
  5
10C
330
1F
100
AcDbEntity
  8
0
  6
Continuous
 62
     7
370
    15
100
AcDbCircle
 10
1408.835404881266
 20
649.314319882545
 30
0.0
 40
19.38705946235382
100
AcDbArc
 50
0.0
 51
90.0
  0
LINE
  5
10D
330
1F
100
AcDbEntity
  8
0
  6
Continuous
 62
     7
370
    15
100
AcDbLine
 10
1428.22246434362
 20
649.314319882545
 30
0.0
 11
1428.356434716114
 21
649.314319882545
 31
0.0
  0
LINE
  5
10E
330
1F
100
AcDbEntity
  8
0
  6
Continuous
 62
     7
370
    15
100
AcDbLine
 10
1428.22246434362
 20
649.314319882545
 30
0.0
 11
1428.22246434362
 21
292.9143198825449
 31
0.0
  0
ARC
  5
10F
330
1F
100
AcDbEntity
  8
0
  6
Continuous
 62
     7
370
    15
100
AcDbCircle
 10
702.0354048812661
 20
649.314319882545
 30
0.0
 40
19.3870594623537
100
AcDbArc
 50
90.0
 51
180.0
  0
LINE
  5
110
330
1F
100
AcDbEntity
  8
0
  6
Continuous
 62
     7
370
    15
100
AcDbLine
 10
1408.835404881266
 20
666.8219941033269
 30
0.0
 11
702.0354048812661
 21
666.8219941033269
 31
0.0
  0
LINE
  5
111
330
1F
100
AcDbEntity
  8
0
  6
Continuous
 62
     7
370
    15
100
AcDbLine
 10
702.0354048812661
 20
668.7013793448987
 30
0.0
 11
702.0354048812661
 21
666.8219941033269
 31
0.0
  0
LINE
  5
112
330
1F
100
AcDbEntity
  8
0
  6
Continuous
 62
     7
370
    15
100
AcDbLine
 10
1408.835404881266
 20
666.8219941033269
 30
0.0
 11
1408.835404881266
 21
668.7013793448988
 31
0.0
  0
ARC
  5
113
330
1F
100
AcDbEntity
  8
0
  6
Continuous
 62
     7
370
    15
100
AcDbCircle
 10
702.0354048812661
 20
649.314319882545
 30
0.0
 40
17.50767422078195
100
AcDbArc
 50
90.0
 51
180.0
  0
LINE
  5
114
330
1F
100
AcDbEntity
  8
0
  6
Continuous
 62
     7
370
    15
100
AcDbLine
 10
682.6483454189124
 20
649.314319882545
 30
0.0
 11
684.5277306604842
 21
649.314319882545
 31
0.0
  0
ARC
  5
115
330
1F
100
AcDbEntity
  8
0
  6
Continuous
 62
     7
370
    15
100
AcDbCircle
 10
1408.835404881266
 20
649.314319882545
 30
0.0
 40
17.50767422078206
100
AcDbArc
 50
0.0
 51
90.0
  0
LINE
  5
116
330
1F
100
AcDbEntity
  8
0
  6
Continuous
 62
     7
370
    15
100
AcDbLine
 10
1426.343079102048
 20
649.314319882545
 30
0.0
 11
1428.22246434362
 21
649.314319882545
 31
0.0
  0
LINE
  5
117
330
1F
100
AcDbEntity
  8
0
  6
Continuous
 62
     7
370
    15
100
AcDbLine
 10
682.6483454189124
 20
292.9143198825449
 30
0.0
 11
684.5277306604843
 21
292.9143198825449
 31
0.0
  0
ARC
  5
118
330
1F
100
AcDbEntity
  8
0
  6
Continuous
 62
     7
370
    15
100
AcDbCircle
 10
702.0354048812663
 20
292.9143198825449
 30
0.0
 40
17.50767422078206
100
AcDbArc
 50
179.9999999999998
 51
270.0000000000008
  0
LINE
  5
119
330
1F
100
AcDbEntity
  8
0
  6
Continuous
 62
     7
370
    15
100
AcDbLine
 10
702.0354048812663
 20
273.527260420191
 30
0.0
 11
702.0354048812663
 21
275.4066456617628
 31
0.0
  0
ARC
  5
11A
330
1F
100
AcDbEntity
  8
0
  6
Continuous
 62
     7
370
    15
100
AcDbCircle
 10
1408.835404881266
 20
292.9143198825449
 30
0.0
 40
17.50767422078206
100
AcDbArc
 50
270.0000000000008
 51
0.0
  0
LINE
  5
11B
330
1F
100
AcDbEntity
  8
0
  6
Continuous
 62
     7
370
    15
100
AcDbLine
 10
1426.343079102048
 20
292.9143198825449
 30
0.0
 11
1428.22246434362
 21
292.9143198825449
 31
0.0
  0
LINE
  5
11C
330
1F
100
AcDbEntity
  8
0
  6
Continuous
 62
     7
370
    15
100
AcDbLine
 10
1408.835404881266
 20
275.4066456617629
 30
0.0
 11
1408.835404881266
 21
273.5272604201911
 31
0.0
  0
LINE
  5
11D
330
1F
100
AcDbEntity
  8
0
  6
Continuous
 62
     7
370
    15
100
AcDbLine
 10
1426.343079102048
 20
292.9143198825449
 30
0.0
 11
1426.343079102048
 21
649.314319882545
 31
0.0
  0
LINE
  5
11E
330
1F
100
AcDbEntity
  8
0
  6
Continuous
 62
     7
370
    15
100
AcDbLine
 10
684.5277306604842
 20
649.314319882545
 30
0.0
 11
684.5277306604843
 21
292.9143198825449
 31
0.0
  0
LINE
  5
11F
330
1F
100
AcDbEntity
  8
0
  6
Continuous
 62
     7
370
    15
100
AcDbLine
 10
702.0354048812663
 20
275.4066456617628
 30
0.0
 11
1408.835404881266
 21
275.4066456617629
 31
0.0
  0
LINE
  5
120
330
1F
100
AcDbEntity
  8
0
  6
Continuous
 62
     7
370
    15
100
AcDbLine
 10
1177.935404881266
 20
641.914319882545
 30
0.0
 11
727.9354048812659
 21
641.914319882545
 31
0.0
  0
LINE
  5
121
330
1F
100
AcDbEntity
  8
0
  6
Continuous
 62
     7
370
    15
100
AcDbLine
 10
727.9354048812659
 20
641.914319882545
 30
0.0
 11
727.9354048812659
 21
646.9143198825451
 31
0.0
  0
LINE
  5
122
330
1F
100
AcDbEntity
  8
0
  6
Continuous
 62
     7
370
    15
100
AcDbLine
 10
727.9354048812659
 20
646.9143198825451
 30
0.0
 11
1177.935404881266
 21
646.9143198825452
 31
0.0
  0
LINE
  5
123
330
1F
100
AcDbEntity
  8
0
  6
Continuous
 62
     7
370
    15
100
AcDbLine
 10
1177.935404881266
 20
641.914319882545
 30
0.0
 11
1177.935404881266
 21
646.9143198825452
 31
0.0
  0
ARC
  5
124
330
1F
100
AcDbEntity
  8
0
  6
Continuous
 62
     7
370
    15
100
AcDbCircle
 10
727.935404881266
 20
326.3143198825449
 30
0.0
 40
31.00000000000028
100
AcDbArc
 50
180.0
 51
270.0000000000008
  0
LINE
  5
125
330
1F
100
AcDbEntity
  8
0
  6
Continuous
 62
     7
370
    15
100
AcDbLine
 10
696.9354048812658
 20
326.3143198825449
 30
0.0
 11
701.9354048812659
 21
326.3143198825449
 31
0.0
  0
ARC
  5
126
330
1F
100
AcDbEntity
  8
0
  6
Continuous
 62
     7
370
    15
100
AcDbCircle
 10
727.935404881266
 20
326.3143198825449
 30
0.0
 40
26.00000000000011
100
AcDbArc
 50
180.0
 51
270.0000000000008
  0
LINE
  5
127
330
1F
100
AcDbEntity
  8
0
  6
Continuous
 62
     7
370
    15
100
AcDbLine
 10
727.935404881266
 20
295.3143198825446
 30
0.0
 11
727.935404881266
 21
300.3143198825448
 31
0.0
  0
LINE
  5
128
330
1F
100
AcDbEntity
  8
0
  6
Continuous
 62
     7
370
    15
100
AcDbLine
 10
701.9354048812658
 20
615.914319882545
 30
0.0
 11
701.9354048812659
 21
326.3143198825449
 31
0.0
  0
LINE
  5
129
330
1F
100
AcDbEntity
  8
0
  6
Continuous
 62
     7
370
    15
100
AcDbLine
 10
696.9354048812658
 20
326.3143198825449
 30
0.0
 11
696.9354048812655
 21
615.9143198825449
 31
0.0
  0
LINE
  5
12A
330
1F
100
AcDbEntity
  8
0
  6
Continuous
 62
     7
370
    15
100
AcDbLine
 10
701.9354048812658
 20
615.914319882545
 30
0.0
 11
696.9354048812655
 21
615.9143198825449
 31
0.0
  0
LINE
  5
12B
330
1F
100
AcDbEntity
  8
0
  6
Continuous
 62
     7
370
    15
100
AcDbLine
 10
1262.935404881266
 20
646.9143198825451
 30
0.0
 11
1382.935404881266
 21
646.9143198825451
 31
0.0
  0
ARC
  5
12C
330
1F
100
AcDbEntity
  8
0
  6
Continuous
 62
     7
370
    15
100
AcDbCircle
 10
1262.935404881266
 20
615.914319882545
 30
0.0
 40
31.00000000000045
100
AcDbArc
 50
90.0
 51
180.0
  0
LINE
  5
12D
330
1F
100
AcDbEntity
  8
0
  6
Continuous
 62
     7
370
    15
100
AcDbLine
 10
1231.935404881266
 20
326.3143198825449
 30
0.0
 11
1231.935404881266
 21
615.914319882545
 31
0.0
  0
ARC
  5
12E
330
1F
100
AcDbEntity
  8
0
  6
Continuous
 62
     7
370
    15
100
AcDbCircle
 10
1262.935404881266
 20
326.3143198825449
 30
0.0
 40
31.00000000000045
100
AcDbArc
 50
180.0
 51
270.0000000000008
  0
LINE
  5
12F
330
1F
100
AcDbEntity
  8
0
  6
Continuous
 62
     7
370
    15
100
AcDbLine
 10
1382.935404881266
 20
295.3143198825446
 30
0.0
 11
1262.935404881266
 21
295.3143198825447
 31
0.0
  0
ARC
  5
130
330
1F
100
AcDbEntity
  8
0
  6
Continuous
 62
     7
370
    15
100
AcDbCircle
 10
1382.935404881266
 20
326.3143198825449
 30
0.0
 40
31.00000000000028
100
AcDbArc
 50
270.0000000000008
 51
0.0
  0
LINE
  5
131
330
1F
100
AcDbEntity
  8
0
  6
Continuous
 62
     7
370
    15
100
AcDbLine
 10
1413.935404881267
 20
615.914319882545
 30
0.0
 11
1413.935404881267
 21
326.3143198825449
 31
0.0
  0
ARC
  5
132
330
1F
100
AcDbEntity
  8
0
  6
Continuous
 62
     7
370
    15
100
AcDbCircle
 10
1382.935404881266
 20
615.914319882545
 30
0.0
 40
31.00000000000023
100
AcDbArc
 50
0.0
 51
90.0
  0
LINE
  5
133
330
1F
100
AcDbEntity
  8
0
  6
Continuous
 62
     7
370
    15
100
AcDbLine
 10
1177.935404881266
 20
295.3143198825447
 30
0.0
 11
727.935404881266
 21
295.3143198825446
 31
0.0
  0
ARC
  5
134
330
1F
100
AcDbEntity
  8
0
  6
Continuous
 62
     7
370
    15
100
AcDbCircle
 10
1177.935404881266
 20
326.314319882545
 30
0.0
 40
31.00000000000023
100
AcDbArc
 50
270.0000000000008
 51
0.0
  0
LINE
  5
135
330
1F
100
AcDbEntity
  8
0
  6
Continuous
 62
     7
370
    15
100
AcDbLine
 10
1208.935404881266
 20
615.914319882545
 30
0.0
 11
1208.935404881266
 21
326.314319882545
 31
0.0
  0
ARC
  5
136
330
1F
100
AcDbEntity
  8
0
  6
Continuous
 62
     7
370
    15
100
AcDbCircle
 10
1177.935404881266
 20
615.914319882545
 30
0.0
 40
31.00000000000023
100
AcDbArc
 50
0.0
 51
90.0
  0
ARC
  5
137
330
1F
100
AcDbEntity
  8
0
  6
Continuous
 62
     7
370
    15
100
AcDbCircle
 10
727.9354048812659
 20
615.9143198825449
 30
0.0
 40
31.00000000000034
100
AcDbArc
 50
90.0
 51
180.0
  0
LINE
  5
138
330
1F
100
AcDbEntity
  8
0
  6
Continuous
 62
     7
370
    15
100
AcDbLine
 10
1203.935404881266
 20
326.314319882545
 30
0.0
 11
1203.935404881266
 21
615.914319882545
 31
0.0
  0
LINE
  5
139
330
1F
100
AcDbEntity
  8
0
  6
Continuous
 62
     7
370
    15
100
AcDbLine
 10
1203.935404881266
 20
615.914319882545
 30
0.0
 11
1208.935404881266
 21
615.914319882545
 31
0.0
  0
LINE
  5
13A
330
1F
100
AcDbEntity
  8
0
  6
Continuous
 62
     7
370
    15
100
AcDbLine
 10
1208.935404881266
 20
326.314319882545
 30
0.0
 11
1203.935404881266
 21
326.314319882545
 31
0.0
  0
ARC
  5
13B
330
1F
100
AcDbEntity
  8
0
  6
Continuous
 62
     7
370
    15
100
AcDbCircle
 10
1177.935404881266
 20
615.914319882545
 30
0.0
 40
26.0
100
AcDbArc
 50
0.0
 51
90.0
  0
LINE
  5
13C
330
1F
100
AcDbEntity
  8
0
  6
Continuous
 62
     7
370
    15
100
AcDbLine
 10
1177.935404881266
 20
295.3143198825447
 30
0.0
 11
1177.935404881266
 21
300.3143198825449
 31
0.0
  0
ARC
  5
13D
330
1F
100
AcDbEntity
  8
0
  6
Continuous
 62
     7
370
    15
100
AcDbCircle
 10
1177.935404881266
 20
326.314319882545
 30
0.0
 40
26.00000000000011
100
AcDbArc
 50
270.0000000000008
 51
0.0
  0
LINE
  5
13E
330
1F
100
AcDbEntity
  8
0
  6
Continuous
 62
     7
370
    15
100
AcDbLine
 10
1382.935404881266
 20
646.9143198825451
 30
0.0
 11
1382.935404881266
 21
641.9143198825449
 31
0.0
  0
LINE
  5
13F
330
1F
100
AcDbEntity
  8
0
  6
Continuous
 62
     7
370
    15
100
AcDbLine
 10
1382.935404881266
 20
641.9143198825449
 30
0.0
 11
1262.935404881266
 21
641.9143198825449
 31
0.0
  0
LINE
  5
140
330
1F
100
AcDbEntity
  8
0
  6
Continuous
 62
     7
370
    15
100
AcDbLine
 10
1262.935404881266
 20
646.9143198825451
 30
0.0
 11
1262.935404881266
 21
641.9143198825449
 31
0.0
  0
LINE
  5
141
330
1F
100
AcDbEntity
  8
0
  6
Continuous
 62
     7
370
    15
100
AcDbLine
 10
727.935404881266
 20
300.3143198825448
 30
0.0
 11
1177.935404881266
 21
300.3143198825449
 31
0.0
  0
ARC
  5
142
330
1F
100
AcDbEntity
  8
0
  6
Continuous
 62
     7
370
    15
100
AcDbCircle
 10
727.9354048812659
 20
615.9143198825449
 30
0.0
 40
26.00000000000011
100
AcDbArc
 50
90.0
 51
179.9999999999997
  0
LINE
  5
143
330
1F
100
AcDbEntity
  8
0
  6
Continuous
 62
     7
370
    15
100
AcDbLine
 10
1408.935404881266
 20
326.3143198825449
 30
0.0
 11
1408.935404881266
 21
615.914319882545
 31
0.0
  0
LINE
  5
144
330
1F
100
AcDbEntity
  8
0
  6
Continuous
 62
     7
370
    15
100
AcDbLine
 10
1413.935404881267
 20
615.914319882545
 30
0.0
 11
1408.935404881266
 21
615.914319882545
 31
0.0
  0
LINE
  5
145
330
1F
100
AcDbEntity
  8
0
  6
Continuous
 62
     7
370
    15
100
AcDbLine
 10
1408.935404881266
 20
326.3143198825449
 30
0.0
 11
1413.935404881267
 21
326.3143198825449
 31
0.0
  0
ARC
  5
146
330
1F
100
AcDbEntity
  8
0
  6
Continuous
 62
     7
370
    15
100
AcDbCircle
 10
1382.935404881266
 20
615.914319882545
 30
0.0
 40
26.0
100
AcDbArc
 50
0.0
 51
90.0
  0
ARC
  5
147
330
1F
100
AcDbEntity
  8
0
  6
Continuous
 62
     7
370
    15
100
AcDbCircle
 10
1262.935404881266
 20
615.914319882545
 30
0.0
 40
26.00000000000045
100
AcDbArc
 50
90.0
 51
180.0
  0
LINE
  5
148
330
1F
100
AcDbEntity
  8
0
  6
Continuous
 62
     7
370
    15
100
AcDbLine
 10
1231.935404881266
 20
615.914319882545
 30
0.0
 11
1236.935404881266
 21
615.914319882545
 31
0.0
  0
LINE
  5
149
330
1F
100
AcDbEntity
  8
0
  6
Continuous
 62
     7
370
    15
100
AcDbLine
 10
1262.935404881266
 20
300.3143198825449
 30
0.0
 11
1382.935404881266
 21
300.3143198825449
 31
0.0
  0
LINE
  5
14A
330
1F
100
AcDbEntity
  8
0
  6
Continuous
 62
     7
370
    15
100
AcDbLine
 10
1382.935404881266
 20
300.3143198825449
 30
0.0
 11
1382.935404881266
 21
295.3143198825446
 31
0.0
  0
LINE
  5
14B
330
1F
100
AcDbEntity
  8
0
  6
Continuous
 62
     7
370
    15
100
AcDbLine
 10
1262.935404881266
 20
300.3143198825449
 30
0.0
 11
1262.935404881266
 21
295.3143198825447
 31
0.0
  0
LINE
  5
14C
330
1F
100
AcDbEntity
  8
0
  6
Continuous
 62
     7
370
    15
100
AcDbLine
 10
1236.935404881266
 20
615.914319882545
 30
0.0
 11
1236.935404881266
 21
326.3143198825449
 31
0.0
  0
LINE
  5
14D
330
1F
100
AcDbEntity
  8
0
  6
Continuous
 62
     7
370
    15
100
AcDbLine
 10
1236.935404881266
 20
326.3143198825449
 30
0.0
 11
1231.935404881266
 21
326.3143198825449
 31
0.0
  0
ARC
  5
14E
330
1F
100
AcDbEntity
  8
0
  6
Continuous
 62
     7
370
    15
100
AcDbCircle
 10
1262.935404881266
 20
326.3143198825449
 30
0.0
 40
26.00000000000045
100
AcDbArc
 50
180.0
 51
270.0000000000008
  0
ARC
  5
14F
330
1F
100
AcDbEntity
  8
0
  6
Continuous
 62
     7
370
    15
100
AcDbCircle
 10
1382.935404881266
 20
326.3143198825449
 30
0.0
 40
26.00000000000006
100
AcDbArc
 50
270.0000000000008
 51
0.0
  0
LINE
  5
150
330
1F
100
AcDbEntity
  8
0
  6
Continuous
 62
     8
370
    15
100
AcDbLine
 10
1177.935404881266
 20
301.1143198825449
 30
0.0
 11
1177.935404881266
 21
300.3143198825449
 31
0.0
  0
LINE
  5
151
330
1F
100
AcDbEntity
  8
0
  6
Continuous
 62
     8
370
    15
100
AcDbLine
 10
1177.935404881266
 20
641.914319882545
 30
0.0
 11
1177.935404881266
 21
641.1143198825448
 31
0.0
  0
LINE
  5
152
330
1F
100
AcDbEntity
  8
0
  6
Continuous
 62
     8
370
    15
100
AcDbLine
 10
727.9354048812662
 20
301.1143198825449
 30
0.0
 11
727.9354048812662
 21
300.3143198825449
 31
0.0
  0
LINE
  5
153
330
1F
100
AcDbEntity
  8
0
  6
Continuous
 62
     8
370
    15
100
AcDbLine
 10
702.9354048812662
 20
326.1143198825448
 30
0.0
 11
701.9361741234147
 21
326.1143198825448
 31
0.0
  0
LINE
  5
154
330
1F
100
AcDbEntity
  8
0
  6
Continuous
 62
     8
370
    15
100
AcDbLine
 10
702.9354048812663
 20
616.1143198825448
 30
0.0
 11
701.9361741234145
 21
616.1143198825448
 31
0.0
  0
LINE
  5
155
330
1F
100
AcDbEntity
  8
0
  6
Continuous
 62
     8
370
    15
100
AcDbLine
 10
727.9354048812662
 20
641.914319882545
 30
0.0
 11
727.9354048812662
 21
641.1143198825447
 31
0.0
  0
LINE
  5
156
330
1F
100
AcDbEntity
  8
0
  6
Continuous
 62
     8
370
    15
100
AcDbLine
 10
929.6854048812662
 20
640.3039094043304
 30
0.0
 11
929.6854048812662
 21
641.0243148194752
 31
0.0
  0
LINE
  5
157
330
1F
100
AcDbEntity
  8
0
  6
Continuous
 62
     8
370
    15
100
AcDbLine
 10
976.1854048812661
 20
640.3039094043304
 30
0.0
 11
976.1854048812661
 21
641.0243148194752
 31
0.0
  0
LINE
  5
158
330
1F
100
AcDbEntity
  8
0
  6
Continuous
 62
     8
370
    15
100
AcDbLine
 10
1382.935404881266
 20
301.1143198825449
 30
0.0
 11
1382.935404881266
 21
300.3143198825449
 31
0.0
  0
LINE
  5
159
330
1F
100
AcDbEntity
  8
0
  6
Continuous
 62
     8
370
    15
100
AcDbLine
 10
1262.935404881266
 20
301.1143198825449
 30
0.0
 11
1262.935404881266
 21
300.3143198825449
 31
0.0
  0
LINE
  5
15A
330
1F
100
AcDbEntity
  8
0
  6
Continuous
 62
     8
370
    15
100
AcDbLine
 10
1382.935404881266
 20
641.9143198825449
 30
0.0
 11
1382.935404881266
 21
641.1143198825448
 31
0.0
  0
LINE
  5
15B
330
1F
100
AcDbEntity
  8
0
  6
Continuous
 62
     8
370
    15
100
AcDbLine
 10
1262.935404881266
 20
641.9143198825449
 30
0.0
 11
1262.935404881266
 21
641.1143198825448
 31
0.0
  0
LINE
  5
15C
330
1F
100
AcDbEntity
  8
0
  6
Continuous
 62
     8
370
    15
100
AcDbLine
 10
1408.934635639117
 20
616.1143198825448
 30
0.0
 11
1407.935404881266
 21
616.1143198825448
 31
0.0
  0
LINE
  5
15D
330
1F
100
AcDbEntity
  8
0
  6
Continuous
 62
     8
370
    15
100
AcDbLine
 10
1408.934635639117
 20
326.1143198825449
 30
0.0
 11
1407.935404881266
 21
326.1143198825449
 31
0.0
  0
LINE
  5
15E
330
1F
100
AcDbEntity
  8
0
  6
Continuous
 62
     8
370
    15
100
AcDbLine
 10
1237.935404881266
 20
616.1143198825448
 30
0.0
 11
1236.936174123415
 21
616.1143198825448
 31
0.0
  0
LINE
  5
15F
330
1F
100
AcDbEntity
  8
0
  6
Continuous
 62
     8
370
    15
100
AcDbLine
 10
1237.935404881266
 20
326.1143198825449
 30
0.0
 11
1236.936174123415
 21
326.1143198825449
 31
0.0
  0
ENDSEC
  0
SECTION
  2
OBJECTS
  0
DICTIONARY
  5
C
330
0
100
AcDbDictionary
281
     1
  3
ACAD_GROUP
350
D
  3
ACAD_IMAGE_VARS
350
1A3
  3
ACAD_LAYOUT
350
1A
  3
ACAD_MLINESTYLE
350
17
  3
ACAD_PLOTSETTINGS
350
19
  3
ACAD_PLOTSTYLENAME
350
E
  3
ACAD_SCALELIST
350
179
  3
APPDATA
350
1A1
  3
DWGPROPS
350
1A4
  0
DICTIONARY
  5
D
102
{ACAD_REACTORS
330
C
102
}
330
C
100
AcDbDictionary
281
     1
  0
RASTERVARIABLES
  5
1A3
102
{ACAD_REACTORS
330
C
102
}
330
C
100
AcDbRasterVariables
 90
        0
 70
     1
 71
     1
 72
     1
  0
DICTIONARY
  5
1A
102
{ACAD_REACTORS
330
C
102
}
330
C
100
AcDbDictionary
281
     1
  3
Layout1
350
1E
  3
Layout2
350
26
  3
Model
350
22
  0
DICTIONARY
  5
17
102
{ACAD_REACTORS
330
C
102
}
330
C
100
AcDbDictionary
281
     1
  3
Standard
350
18
  0
DICTIONARY
  5
19
102
{ACAD_REACTORS
330
C
102
}
330
C
100
AcDbDictionary
281
     1
  0
ACDBDICTIONARYWDFLT
  5
E
102
{ACAD_REACTORS
330
C
102
}
330
C
100
AcDbDictionary
281
     1
  3
Normal
350
F
100
AcDbDictionaryWithDefault
340
F
  0
DICTIONARY
  5
179
102
{ACAD_REACTORS
330
C
102
}
330
C
100
AcDbDictionary
281
     1
  3
A0
350
17A
  3
A1
350
17B
  3
A2
350
17C
  3
A3
350
17D
  3
A4
350
17E
  3
A5
350
17F
  3
A6
350
180
  3
A7
350
181
  3
A8
350
182
  3
A9
350
183
  3
B0
350
184
  3
B1
350
185
  3
B2
350
186
  3
B3
350
187
  3
B4
350
188
  3
B5
350
189
  3
B6
350
18A
  3
B7
350
18B
  3
B8
350
18C
  3
B9
350
18D
  3
C0
350
18E
  3
C1
350
18F
  3
C2
350
190
  3
C3
350
191
  3
C4
350
192
  3
C5
350
193
  3
C6
350
194
  3
C7
350
195
  3
C8
350
196
  3
C9
350
197
  3
D0
350
198
  3
D1
350
199
  3
D2
350
19A
  0
DICTIONARY
  5
1A1
102
{ACAD_REACTORS
330
C
102
}
330
C
100
AcDbDictionary
281
     1
  0
XRECORD
  5
1A4
102
{ACAD_REACTORS
330
C
102
}
330
C
100
AcDbXrecord
280
     1
  1
DWGPROPS COOKIE
  2

  3

  4

  6

  7

  8
Ismo
  9

300
=
301
=
302
=
303
=
304
=
305
=
306
=
307
=
308
=
309
=
 40
0.0
 41
2456338.559360614
 42
2457758.277454641
  1

 90
        0
  0
LAYOUT
  5
1E
102
{ACAD_REACTORS
330
1A
102
}
330
1A
100
AcDbPlotSettings
  1

  2
none_device
  4

  6

 40
0.0
 41
0.0
 42
0.0
 43
0.0
 44
0.0
 45
0.0
 46
0.0
 47
0.0
 48
0.0
 49
0.0
140
0.0
141
0.0
142
1.0
143
1.0
 70
   688
 72
     0
 73
     0
 74
     5
  7

 75
    16
147
1.0
148
0.0
149
0.0
100
AcDbLayout
  1
Layout1
 70
     1
 71
     1
 10
0.0
 20
0.0
 11
420.0
 21
297.0
 12
0.0
 22
0.0
 32
0.0
 14
1.000000000000000E+20
 24
1.000000000000000E+20
 34
1.000000000000000E+20
 15
-1.000000000000000E+20
 25
-1.000000000000000E+20
 35
-1.000000000000000E+20
146
0.0
 13
0.0
 23
0.0
 33
0.0
 16
1.0
 26
0.0
 36
0.0
 17
0.0
 27
1.0
 37
0.0
 76
     0
330
1B
  0
LAYOUT
  5
26
102
{ACAD_REACTORS
330
1A
102
}
330
1A
100
AcDbPlotSettings
  1

  2
none_device
  4

  6

 40
0.0
 41
0.0
 42
0.0
 43
0.0
 44
0.0
 45
0.0
 46
0.0
 47
0.0
 48
0.0
 49
0.0
140
0.0
141
0.0
142
1.0
143
1.0
 70
   688
 72
     0
 73
     0
 74
     5
  7

 75
    16
147
1.0
148
0.0
149
0.0
100
AcDbLayout
  1
Layout2
 70
     1
 71
     2
 10
0.0
 20
0.0
 11
0.0
 21
0.0
 12
0.0
 22
0.0
 32
0.0
 14
0.0
 24
0.0
 34
0.0
 15
0.0
 25
0.0
 35
0.0
146
0.0
 13
0.0
 23
0.0
 33
0.0
 16
1.0
 26
0.0
 36
0.0
 17
0.0
 27
1.0
 37
0.0
 76
     0
330
23
  0
LAYOUT
  5
22
102
{ACAD_REACTORS
330
1A
102
}
330
1A
100
AcDbPlotSettings
  1

  2
none_device
  4

  6

 40
0.0
 41
0.0
 42
0.0
 43
0.0
 44
0.0
 45
0.0
 46
0.0
 47
0.0
 48
0.0
 49
0.0
140
0.0
141
0.0
142
1.0
143
1.0
 70
  1712
 72
     0
 73
     0
 74
     0
  7

 75
     0
147
1.0
148
0.0
149
0.0
100
AcDbLayout
  1
Model
 70
     1
 71
     0
 10
0.0
 20
0.0
 11
2000.0
 21
1000.0
 12
0.0
 22
0.0
 32
0.0
 14
0.0
 24
0.0
 34
0.0
 15
2000.0
 25
1000.0
 35
0.0
146
0.0
 13
0.0
 23
0.0
 33
0.0
 16
1.0
 26
0.0
 36
0.0
 17
0.0
 27
1.0
 37
0.0
 76
     0
330
1F
331
29
  0
MLINESTYLE
  5
18
102
{ACAD_REACTORS
330
17
102
}
330
17
100
AcDbMlineStyle
  2
Standard
 70
     0
  3

 62
   256
 51
90.0
 52
90.0
 71
     2
 49
0.5
 62
   256
  6
BYLAYER
 49
-0.5
 62
   256
  6
BYLAYER
  0
ACDBPLACEHOLDER
  5
F
102
{ACAD_REACTORS
330
E
102
}
330
E
  0
SCALE
  5
17A
102
{ACAD_REACTORS
330
179
102
}
330
179
100
AcDbScale
 70
     0
300
1:1
140
1.0
141
1.0
290
     1
  0
SCALE
  5
17B
102
{ACAD_REACTORS
330
179
102
}
330
179
100
AcDbScale
 70
     0
300
1:2
140
1.0
141
2.0
290
     0
  0
SCALE
  5
17C
102
{ACAD_REACTORS
330
179
102
}
330
179
100
AcDbScale
 70
     0
300
1:4
140
1.0
141
4.0
290
     0
  0
SCALE
  5
17D
102
{ACAD_REACTORS
330
179
102
}
330
179
100
AcDbScale
 70
     0
300
1:5
140
1.0
141
5.0
290
     0
  0
SCALE
  5
17E
102
{ACAD_REACTORS
330
179
102
}
330
179
100
AcDbScale
 70
     0
300
1:8
140
1.0
141
8.0
290
     0
  0
SCALE
  5
17F
102
{ACAD_REACTORS
330
179
102
}
330
179
100
AcDbScale
 70
     0
300
1:10
140
1.0
141
10.0
290
     0
  0
SCALE
  5
180
102
{ACAD_REACTORS
330
179
102
}
330
179
100
AcDbScale
 70
     0
300
1:16
140
1.0
141
16.0
290
     0
  0
SCALE
  5
181
102
{ACAD_REACTORS
330
179
102
}
330
179
100
AcDbScale
 70
     0
300
1:20
140
1.0
141
20.0
290
     0
  0
SCALE
  5
182
102
{ACAD_REACTORS
330
179
102
}
330
179
100
AcDbScale
 70
     0
300
1:30
140
1.0
141
30.0
290
     0
  0
SCALE
  5
183
102
{ACAD_REACTORS
330
179
102
}
330
179
100
AcDbScale
 70
     0
300
1:40
140
1.0
141
40.0
290
     0
  0
SCALE
  5
184
102
{ACAD_REACTORS
330
179
102
}
330
179
100
AcDbScale
 70
     0
300
1:50
140
1.0
141
50.0
290
     0
  0
SCALE
  5
185
102
{ACAD_REACTORS
330
179
102
}
330
179
100
AcDbScale
 70
     0
300
1:100
140
1.0
141
100.0
290
     0
  0
SCALE
  5
186
102
{ACAD_REACTORS
330
179
102
}
330
179
100
AcDbScale
 70
     0
300
2:1
140
2.0
141
1.0
290
     0
  0
SCALE
  5
187
102
{ACAD_REACTORS
330
179
102
}
330
179
100
AcDbScale
 70
     0
300
4:1
140
4.0
141
1.0
290
     0
  0
SCALE
  5
188
102
{ACAD_REACTORS
330
179
102
}
330
179
100
AcDbScale
 70
     0
300
8:1
140
8.0
141
1.0
290
     0
  0
SCALE
  5
189
102
{ACAD_REACTORS
330
179
102
}
330
179
100
AcDbScale
 70
     0
300
10:1
140
10.0
141
1.0
290
     0
  0
SCALE
  5
18A
102
{ACAD_REACTORS
330
179
102
}
330
179
100
AcDbScale
 70
     0
300
100:1
140
100.0
141
1.0
290
     0
  0
SCALE
  5
18B
102
{ACAD_REACTORS
330
179
102
}
330
179
100
AcDbScale
 70
     0
300
1/128" = 1'-0"
140
0.0078125
141
12.0
290
     0
  0
SCALE
  5
18C
102
{ACAD_REACTORS
330
179
102
}
330
179
100
AcDbScale
 70
     0
300
1/64" = 1'-0"
140
0.015625
141
12.0
290
     0
  0
SCALE
  5
18D
102
{ACAD_REACTORS
330
179
102
}
330
179
100
AcDbScale
 70
     0
300
1/32" = 1'-0"
140
0.03125
141
12.0
290
     0
  0
SCALE
  5
18E
102
{ACAD_REACTORS
330
179
102
}
330
179
100
AcDbScale
 70
     0
300
1/16" = 1'-0"
140
0.0625
141
12.0
290
     0
  0
SCALE
  5
18F
102
{ACAD_REACTORS
330
179
102
}
330
179
100
AcDbScale
 70
     0
300
3/32" = 1'-0"
140
0.09375
141
12.0
290
     0
  0
SCALE
  5
190
102
{ACAD_REACTORS
330
179
102
}
330
179
100
AcDbScale
 70
     0
300
1/8" = 1'-0"
140
0.125
141
12.0
290
     0
  0
SCALE
  5
191
102
{ACAD_REACTORS
330
179
102
}
330
179
100
AcDbScale
 70
     0
300
3/16" = 1'-0"
140
0.1875
141
12.0
290
     0
  0
SCALE
  5
192
102
{ACAD_REACTORS
330
179
102
}
330
179
100
AcDbScale
 70
     0
300
1/4" = 1'-0"
140
0.25
141
12.0
290
     0
  0
SCALE
  5
193
102
{ACAD_REACTORS
330
179
102
}
330
179
100
AcDbScale
 70
     0
300
3/8" = 1'-0"
140
0.375
141
12.0
290
     0
  0
SCALE
  5
194
102
{ACAD_REACTORS
330
179
102
}
330
179
100
AcDbScale
 70
     0
300
1/2" = 1'-0"
140
0.5
141
12.0
290
     0
  0
SCALE
  5
195
102
{ACAD_REACTORS
330
179
102
}
330
179
100
AcDbScale
 70
     0
300
3/4" = 1'-0"
140
0.75
141
12.0
290
     0
  0
SCALE
  5
196
102
{ACAD_REACTORS
330
179
102
}
330
179
100
AcDbScale
 70
     0
300
1" = 1'-0"
140
1.0
141
12.0
290
     0
  0
SCALE
  5
197
102
{ACAD_REACTORS
330
179
102
}
330
179
100
AcDbScale
 70
     0
300
1-1/2" = 1'-0"
140
1.5
141
12.0
290
     0
  0
SCALE
  5
198
102
{ACAD_REACTORS
330
179
102
}
330
179
100
AcDbScale
 70
     0
300
3" = 1'-0"
140
3.0
141
12.0
290
     0
  0
SCALE
  5
199
102
{ACAD_REACTORS
330
179
102
}
330
179
100
AcDbScale
 70
     0
300
6" = 1'-0"
140
6.0
141
12.0
290
     0
  0
SCALE
  5
19A
102
{ACAD_REACTORS
330
179
102
}
330
179
100
AcDbScale
 70
     0
300
1'-0" = 1'-0"
140
12.0
141
12.0
290
     0
  0
ENDSEC
  0
EOF
