  0
SECTION
  2
HEADER
  9
$ACADVER
  1
AC1015
  9
$ACADMAINTVER
 70
     6
  9
$DWGCODEPAGE
  3
ANSI_1252
  9
$INSBASE
 10
0.0
 20
0.0
 30
0.0
  9
$EXTMIN
 10
0.0
 20
0.0
 30
0.0
  9
$EXTMAX
 10
700.0
 20
600.0
 30
0.0
  9
$LIMMIN
 10
0.0
 20
0.0
  9
$LIMMAX
 10
700.0
 20
600.0
  9
$ORTHOMODE
 70
     0
  9
$REGENMODE
 70
     1
  9
$FILLMODE
 70
     1
  9
$QTEXTMODE
 70
     0
  9
$MIRRTEXT
 70
     1
  9
$LTSCALE
 40
1.0
  9
$ATTMODE
 70
     1
  9
$TEXTSIZE
 40
2.8222222222
  9
$TRACEWID
 40
1.0
  9
$TEXTSTYLE
  7
Standard
  9
$CLAYER
  8
0
  9
$CELTYPE
  6
ByLayer
  9
$CECOLOR
 62
   256
  9
$CELTSCALE
 40
1.0
  9
$DISPSILH
 70
     0
  9
$DIMSCALE
 40
1.0
  9
$DIMASZ
 40
2.0
  9
$DIMEXO
 40
1.0
  9
$DIMDLI
 40
3.75
  9
$DIMRND
 40
0.0
  9
$DIMDLE
 40
0.0
  9
$DIMEXE
 40
1.0
  9
$DIMTP
 40
0.0
  9
$DIMTM
 40
0.0
  9
$DIMTXT
 40
8.4666666667
  9
$DIMCEN
 40
2.5
  9
$DIMTSZ
 40
0.0
  9
$DIMTOL
 70
     0
  9
$DIMLIM
 70
     0
  9
$DIMTIH
 70
     1
  9
$DIMTOH
 70
     1
  9
$DIMSE1
 70
     0
  9
$DIMSE2
 70
     0
  9
$DIMTAD
 70
     1
  9
$DIMZIN
 70
     0
  9
$DIMBLK
  1

  9
$DIMASO
 70
     1
  9
$DIMSHO
 70
     1
  9
$DIMPOST
  1

  9
$DIMAPOST
  1

  9
$DIMALT
 70
     0
  9
$DIMALTD
 70
     3
  9
$DIMALTF
 40
0.0393700787
  9
$DIMLFAC
 40
1.0
  9
$DIMTOFL
 70
     1
  9
$DIMTVP
 40
0.0
  9
$DIMTIX
 70
     0
  9
$DIMSOXD
 70
     0
  9
$DIMSAH
 70
     0
  9
$DIMBLK1
  1

  9
$DIMBLK2
  1

  9
$DIMSTYLE
  2
ISO-25
  9
$DIMCLRD
 70
     0
  9
$DIMCLRE
 70
     0
  9
$DIMCLRT
 70
     0
  9
$DIMTFAC
 40
1.0
  9
$DIMGAP
 40
1.524
  9
$DIMJUST
 70
     0
  9
$DIMSD1
 70
     0
  9
$DIMSD2
 70
     0
  9
$DIMTOLJ
 70
     0
  9
$DIMTZIN
 70
     0
  9
$DIMALTZ
 70
     0
  9
$DIMALTTZ
 70
     0
  9
$DIMUPT
 70
     0
  9
$DIMDEC
 70
     2
  9
$DIMTDEC
 70
     2
  9
$DIMALTU
 70
     2
  9
$DIMALTTD
 70
     3
  9
$DIMTXSTY
  7
Standard
  9
$DIMAUNIT
 70
     0
  9
$DIMADEC
 70
     2
  9
$DIMALTRND
 40
0.0
  9
$DIMAZIN
 70
     0
  9
$DIMDSEP
 70
    44
  9
$DIMATFIT
 70
     3
  9
$DIMFRAC
 70
     0
  9
$DIMLDRBLK
  1

  9
$DIMLUNIT
 70
     2
  9
$DIMLWD
 70
    -2
  9
$DIMLWE
 70
    -2
  9
$DIMTMOVE
 70
     0
  9
$LUNITS
 70
     2
  9
$LUPREC
 70
     2
  9
$SKETCHINC
 40
1.0
  9
$FILLETRAD
 40
10.0
  9
$AUNITS
 70
     0
  9
$AUPREC
 70
     2
  9
$MENU
  1
.
  9
$ELEVATION
 40
0.0
  9
$PELEVATION
 40
0.0
  9
$THICKNESS
 40
0.0
  9
$LIMCHECK
 70
     0
  9
$CHAMFERA
 40
0.0
  9
$CHAMFERB
 40
0.0
  9
$CHAMFERC
 40
0.0
  9
$CHAMFERD
 40
0.0
  9
$SKPOLY
 70
     0
  9
$TDCREATE
 40
2458499.527799549
  9
$TDUCREATE
 40
2458499.444466215
  9
$TDUPDATE
 40
2458499.527800614
  9
$TDUUPDATE
 40
2458499.44446728
  9
$TDINDWG
 40
0.0000000116
  9
$TDUSRTIMER
 40
0.0000000116
  9
$USRTIMER
 70
     1
  9
$ANGBASE
 50
0.0
  9
$ANGDIR
 70
     0
  9
$PDMODE
 70
     0
  9
$PDSIZE
 40
-1.0
  9
$PLINEWID
 40
0.0
  9
$SPLFRAME
 70
     0
  9
$SPLINETYPE
 70
     6
  9
$SPLINESEGS
 70
     8
  9
$HANDSEED
  5
25A
  9
$SURFTAB1
 70
     6
  9
$SURFTAB2
 70
     6
  9
$SURFTYPE
 70
     6
  9
$SURFU
 70
     6
  9
$SURFV
 70
     6
  9
$UCSBASE
  2

  9
$UCSNAME
  2

  9
$UCSORG
 10
0.0
 20
0.0
 30
0.0
  9
$UCSXDIR
 10
1.0
 20
0.0
 30
0.0
  9
$UCSYDIR
 10
0.0
 20
1.0
 30
0.0
  9
$UCSORTHOREF
  2

  9
$UCSORTHOVIEW
 70
     0
  9
$UCSORGTOP
 10
0.0
 20
0.0
 30
0.0
  9
$UCSORGBOTTOM
 10
0.0
 20
0.0
 30
0.0
  9
$UCSORGLEFT
 10
0.0
 20
0.0
 30
0.0
  9
$UCSORGRIGHT
 10
0.0
 20
0.0
 30
0.0
  9
$UCSORGFRONT
 10
0.0
 20
0.0
 30
0.0
  9
$UCSORGBACK
 10
0.0
 20
0.0
 30
0.0
  9
$PUCSBASE
  2

  9
$PUCSNAME
  2

  9
$PUCSORG
 10
0.0
 20
0.0
 30
0.0
  9
$PUCSXDIR
 10
1.0
 20
0.0
 30
0.0
  9
$PUCSYDIR
 10
0.0
 20
1.0
 30
0.0
  9
$PUCSORTHOREF
  2

  9
$PUCSORTHOVIEW
 70
     0
  9
$PUCSORGTOP
 10
0.0
 20
0.0
 30
0.0
  9
$PUCSORGBOTTOM
 10
0.0
 20
0.0
 30
0.0
  9
$PUCSORGLEFT
 10
0.0
 20
0.0
 30
0.0
  9
$PUCSORGRIGHT
 10
0.0
 20
0.0
 30
0.0
  9
$PUCSORGFRONT
 10
0.0
 20
0.0
 30
0.0
  9
$PUCSORGBACK
 10
0.0
 20
0.0
 30
0.0
  9
$USERI1
 70
     0
  9
$USERI2
 70
     0
  9
$USERI3
 70
     0
  9
$USERI4
 70
     0
  9
$USERI5
 70
     0
  9
$USERR1
 40
0.0
  9
$USERR2
 40
0.0
  9
$USERR3
 40
0.0
  9
$USERR4
 40
0.0
  9
$USERR5
 40
0.0
  9
$WORLDVIEW
 70
     1
  9
$SHADEDGE
 70
     3
  9
$SHADEDIF
 70
    70
  9
$TILEMODE
 70
     1
  9
$MAXACTVP
 70
    64
  9
$PINSBASE
 10
0.0
 20
0.0
 30
0.0
  9
$PLIMCHECK
 70
     0
  9
$PEXTMIN
 10
1.0000000000E+20
 20
1.0000000000E+20
 30
1.0000000000E+20
  9
$PEXTMAX
 10
-1.0000000000E+20
 20
-1.0000000000E+20
 30
-1.0000000000E+20
  9
$PLIMMIN
 10
0.0
 20
0.0
  9
$PLIMMAX
 10
420.0
 20
297.0
  9
$UNITMODE
 70
     0
  9
$VISRETAIN
 70
     1
  9
$PLINEGEN
 70
     0
  9
$PSLTSCALE
 70
     1
  9
$TREEDEPTH
 70
  3020
  9
$CMLSTYLE
  2
Standard
  9
$CMLJUST
 70
     0
  9
$CMLSCALE
 40
20.0
  9
$PROXYGRAPHICS
 70
     1
  9
$MEASUREMENT
 70
     1
  9
$CELWEIGHT
370
    -1
  9
$ENDCAPS
280
     0
  9
$JOINSTYLE
280
     0
  9
$LWDISPLAY
290
     1
  9
$INSUNITS
 70
     4
  9
$HYPERLINKBASE
  1

  9
$STYLESHEET
  1

  9
$XEDIT
290
     1
  9
$CEPSNTYPE
380
     0
  9
$PSTYLEMODE
290
     1
  9
$FINGERPRINTGUID
  2
{8CA99A1B-F894-4C6C-8223-ABB22788FB4A}
  9
$VERSIONGUID
  2
{FAEB1C32-E019-11D5-929B-00C0DF256EC4}
  9
$EXTNAMES
290
     1
  9
$PSVPSCALE
 40
0.0
  9
$OLESTARTUP
290
     0
  0
ENDSEC
  0
SECTION
  2
CLASSES
  0
CLASS
  1
ACDBDICTIONARYWDFLT
  2
AcDbDictionaryWithDefault
  3
ObjectDBX Classes
 90
        0
280
     0
281
     0
  0
CLASS
  1
VISUALSTYLE
  2
AcDbVisualStyle
  3
ObjectDBX Classes
 90
     4095
280
     0
281
     0
  0
CLASS
  1
MATERIAL
  2
AcDbMaterial
  3
ObjectDBX Classes
 90
     1153
280
     0
281
     0
  0
CLASS
  1
SCALE
  2
AcDbScale
  3
ObjectDBX Classes
 90
     1153
280
     0
281
     0
  0
CLASS
  1
TABLESTYLE
  2
AcDbTableStyle
  3
ObjectDBX Classes
 90
     4095
280
     0
281
     0
  0
CLASS
  1
MLEADERSTYLE
  2
AcDbMLeaderStyle
  3
ACDB_MLEADERSTYLE_CLASS
 90
     4095
280
     0
281
     0
  0
CLASS
  1
SUN
  2
AcDbSun
  3
SCENEOE
 90
     1153
280
     0
281
     0
  0
CLASS
  1
ACDBPLACEHOLDER
  2
AcDbPlaceHolder
  3
ObjectDBX Classes
 90
        0
280
     0
281
     0
  0
CLASS
  1
LAYOUT
  2
AcDbLayout
  3
ObjectDBX Classes
 90
        0
280
     0
281
     0
  0
ENDSEC
  0
SECTION
  2
TABLES
  0
TABLE
  2
VPORT
  5
8
330
0
100
AcDbSymbolTable
 70
     1
  0
VPORT
  5
29
330
8
100
AcDbSymbolTableRecord
100
AcDbViewportTableRecord
  2
*Active
 70
     0
 10
0.0
 20
0.0
 11
1.0
 21
1.0
 12
350.0
 22
300.0
 13
0.0
 23
0.0
 14
10.0
 24
10.0
 15
10.0
 25
10.0
 16
0.0
 26
0.0
 36
1.0
 17
0.0
 27
0.0
 37
0.0
 40
600.0
 41
1.1666666667
 42
50.0
 43
0.0
 44
0.0
 50
0.0
 51
0.0
 71
     0
 72
  2000
 73
     1
 74
     3
 75
     0
 76
     0
 77
     0
 78
     0
281
     0
 65
     1
110
0.0
120
0.0
130
0.0
111
1.0
121
0.0
131
0.0
112
0.0
122
1.0
132
0.0
 79
     0
146
0.0
  0
ENDTAB
  0
TABLE
  2
LTYPE
  5
5
330
0
100
AcDbSymbolTable
 70
     6
  0
LTYPE
  5
14
330
5
100
AcDbSymbolTableRecord
100
AcDbLinetypeTableRecord
  2
ByBlock
 70
     0
  3

 72
    65
 73
     0
 40
0.0
  0
LTYPE
  5
15
330
5
100
AcDbSymbolTableRecord
100
AcDbLinetypeTableRecord
  2
ByLayer
 70
     0
  3

 72
    65
 73
     0
 40
0.0
  0
LTYPE
  5
16
330
5
100
AcDbSymbolTableRecord
100
AcDbLinetypeTableRecord
  2
Continuous
 70
     0
  3
Solid line
 72
    65
 73
     0
 40
0.0
  0
LTYPE
  5
6E
330
5
100
AcDbSymbolTableRecord
100
AcDbLinetypeTableRecord
  2
HIDDEN
 70
     0
  3
Hidden __ __ __ __ __ __ __ __ __ __ __ __ __ __
 72
    65
 73
     2
 40
1.905
 49
1.27
 74
     0
 49
-0.635
 74
     0
  0
LTYPE
  5
6F
330
5
100
AcDbSymbolTableRecord
100
AcDbLinetypeTableRecord
  2
PHANTOM
 70
     0
  3
Phantom ______  __  __  ______  __  __  ______
 72
    65
 73
     6
 40
12.7
 49
6.35
 74
     0
 49
-1.27
 74
     0
 49
1.27
 74
     0
 49
-1.27
 74
     0
 49
1.27
 74
     0
 49
-1.27
 74
     0
  0
LTYPE
  5
70
330
5
100
AcDbSymbolTableRecord
100
AcDbLinetypeTableRecord
  2
CENTER
 70
     0
  3
Center ____ _ ____ _ ____ _ ____ _ ____ _ ____
 72
    65
 73
     4
 40
10.16
 49
6.35
 74
     0
 49
-1.27
 74
     0
 49
1.27
 74
     0
 49
-1.27
 74
     0
  0
LTYPE
  5
71
330
5
100
AcDbSymbolTableRecord
100
AcDbLinetypeTableRecord
  2
CENTERX2
 70
     0
  3
Center (2x) ________  __  ________  __  _____
 72
    65
 73
     4
 40
20.32
 49
12.7
 74
     0
 49
-2.54
 74
     0
 49
2.54
 74
     0
 49
-2.54
 74
     0
  0
LTYPE
  5
72
330
5
100
AcDbSymbolTableRecord
100
AcDbLinetypeTableRecord
  2
DOT2
 70
     0
  3
Dot (.5x) ........................................
 72
    65
 73
     2
 40
0.635
 49
0.0
 74
     0
 49
-0.635
 74
     0
  0
ENDTAB
  0
TABLE
  2
LAYER
  5
2
330
0
100
AcDbSymbolTable
 70
     2
  0
LAYER
  5
10
330
2
100
AcDbSymbolTableRecord
100
AcDbLayerTableRecord
  2
0
 70
     0
 62
     7
  6
Continuous
370
    -3
390
F
  0
LAYER
  5
73
330
2
100
AcDbSymbolTableRecord
100
AcDbLayerTableRecord
  2
TABLE_BL1
 70
     0
 62
   179
  6
Continuous
370
    -3
390
F
  0
ENDTAB
  0
TABLE
  2
STYLE
  5
3
330
0
100
AcDbSymbolTable
 70
     1
  0
STYLE
  5
11
330
3
100
AcDbSymbolTableRecord
100
AcDbTextStyleTableRecord
  2
Standard
 70
     0
 40
0.0
 41
1.0
 50
0.0
 71
     0
 42
2.8222222222
  3
txt
  4

  0
ENDTAB
  0
TABLE
  2
VIEW
  5
6
330
0
100
AcDbSymbolTable
 70
     0
  0
ENDTAB
  0
TABLE
  2
UCS
  5
7
330
0
100
AcDbSymbolTable
 70
     0
  0
ENDTAB
  0
TABLE
  2
APPID
  5
9
330
0
100
AcDbSymbolTable
 70
     1
  0
APPID
  5
12
330
9
100
AcDbSymbolTableRecord
100
AcDbRegAppTableRecord
  2
ACAD
 70
     0
  0
ENDTAB
  0
TABLE
  2
DIMSTYLE
  5
A
330
0
100
AcDbSymbolTable
 70
     1
100
AcDbDimStyleTable
  0
DIMSTYLE
105
27
330
A
100
AcDbSymbolTableRecord
100
AcDbDimStyleTableRecord
  2
ISO-25
 70
     0
 41
2.5
 42
0.625
 43
3.75
 44
1.25
 73
     0
 74
     0
 77
     1
 78
     8
140
2.5
141
2.5
143
0.0393700787
147
0.625
171
     3
172
     1
178
     0
271
     2
272
     2
274
     3
278
    44
283
     0
284
     8
340
11
  0
ENDTAB
  0
TABLE
  2
BLOCK_RECORD
  5
1
330
0
100
AcDbSymbolTable
 70
     1
  0
BLOCK_RECORD
  5
1F
330
1
100
AcDbSymbolTableRecord
100
AcDbBlockTableRecord
  2
*Model_Space
340
22
  0
BLOCK_RECORD
  5
1B
330
1
100
AcDbSymbolTableRecord
100
AcDbBlockTableRecord
  2
*Paper_Space
340
1E
  0
BLOCK_RECORD
  5
23
330
1
100
AcDbSymbolTableRecord
100
AcDbBlockTableRecord
  2
*Paper_Space0
340
26
  0
ENDTAB
  0
ENDSEC
  0
SECTION
  2
BLOCKS
  0
BLOCK
  5
20
330
1F
100
AcDbEntity
  8
0
100
AcDbBlockBegin
  2
*Model_Space
 70
     0
 10
0.0
 20
0.0
 30
0.0
  3
*Model_Space
  1

  0
ENDBLK
  5
21
330
1F
100
AcDbEntity
  8
0
100
AcDbBlockEnd
  0
BLOCK
  5
1C
330
1B
100
AcDbEntity
 67
     1
  8
0
100
AcDbBlockBegin
  2
*Paper_Space
 70
     0
 10
0.0
 20
0.0
 30
0.0
  3
*Paper_Space
  1

  0
ENDBLK
  5
1D
330
1B
100
AcDbEntity
 67
     1
  8
0
100
AcDbBlockEnd
  0
BLOCK
  5
24
330
23
100
AcDbEntity
  8
0
100
AcDbBlockBegin
  2
*Paper_Space0
 70
     0
 10
0.0
 20
0.0
 30
0.0
  3
*Paper_Space0
  1

  0
ENDBLK
  5
25
330
23
100
AcDbEntity
  8
0
100
AcDbBlockEnd
  0
ENDSEC
  0
SECTION
  2
ENTITIES
  0
SPLINE
  5
74
330
1F
100
AcDbEntity
  8
0
  6
Continuous
 62
     7
370
    25
100
AcDbSpline
210
0.0
220
0.0
230
1.0
 70
     8
 71
     3
 72
    29
 73
    25
 74
     0
 42
0.000000001
 43
0.00000001
 40
0.0
 40
0.0
 40
0.0
 40
0.0
 40
0.0349321416654424
 40
0.0633980039447191
 40
0.083898473231309
 40
0.141048117016029
 40
0.1993926422273097
 40
0.2579538156266817
 40
0.316735854866234
 40
0.3756685153412512
 40
0.4347110479106633
 40
0.4938367824448976
 40
0.5530116432468513
 40
0.6120982968775996
 40
0.6710427998629379
 40
0.7298261118207005
 40
0.7884258282708722
 40
0.8467958362862253
 40
0.8655669226748047
 40
0.8834824459002514
 40
0.9012872676289829
 40
0.9267778951071656
 40
0.9604934253979674
 40
1.0
 40
1.0
 40
1.0
 40
1.0
 10
146.992030573104
 20
314.398699481795
 30
0.0
 10
145.753909215782
 20
313.830155453471
 30
0.0
 10
143.5068548139273
 20
312.798310429606
 30
0.0
 10
140.7297214942536
 20
311.05976716041
 30
0.0
 10
137.3867345545714
 20
308.6254938485091
 30
0.0
 10
133.4959920900114
 20
304.98053264983
 30
0.0
 10
129.4408102752861
 20
299.4992214261131
 30
0.0
 10
126.4264643396375
 20
293.3098255294939
 30
0.0
 10
124.5917802820891
 20
286.6507152351467
 30
0.0
 10
124.0113731435681
 20
279.7486475438802
 30
0.0
 10
124.7143953612532
 20
272.8443381299262
 30
0.0
 10
126.6826011460074
 20
266.1792512734286
 30
0.0
 10
129.8494974939132
 20
259.9911141407284
 30
0.0
 10
134.1007299957769
 20
254.5002990521759
 30
0.0
 10
139.2797876359188
 20
249.8978310764147
 30
0.0
 10
145.2008870046879
 20
246.3363886577077
 30
0.0
 10
151.651776706151
 20
243.9290935254509
 30
0.0
 10
156.8942720581901
 20
243.0118670703366
 30
0.0
 10
160.5942530918924
 20
242.8188276630952
 30
0.0
 10
162.7185262526401
 20
242.8304465850306
 30
0.0
 10
165.1003996240446
 20
242.9762919278192
 30
0.0
 10
168.0772570036328
 20
243.3681430341577
 30
0.0
 10
171.8457573734169
 20
244.1940122724878
 30
0.0
 10
174.5153222178062
 20
245.2107820777415
 30
0.0
 10
175.955670905326
 20
245.759374503801
 30
0.0
  0
SPLINE
  5
75
330
1F
100
AcDbEntity
  8
0
  6
Continuous
 62
     7
370
    25
100
AcDbSpline
210
0.0
220
0.0
230
1.0
 70
     8
 71
     3
 72
    29
 73
    25
 74
     0
 42
0.000000001
 43
0.00000001
 40
0.0
 40
0.0
 40
0.0
 40
0.0
 40
0.0349321411458732
 40
0.0633980197591513
 40
0.0838985917133109
 40
0.1410481198022109
 40
0.199392660159667
 40
0.2579538205999667
 40
0.3167358565647603
 40
0.375668520133054
 40
0.434711051824287
 40
0.4938367945533235
 40
0.5530116425060444
 40
0.6120983047080868
 40
0.6710427962314096
 40
0.7298261155287643
 40
0.788425831107343
 40
0.8467958382545198
 40
0.8655669243639043
 40
0.883482319928274
 40
0.9012872676553845
 40
0.9267777683376357
 40
0.9604934259855753
 40
1.0
 40
1.0
 40
1.0
 40
1.0
 10
175.955670905326
 20
245.759374503801
 30
0.0
 10
177.1937928453406
 20
246.3279176755588
 30
0.0
 10
179.4408488986609
 20
247.3597614175874
 30
0.0
 10
182.2179799093195
 20
249.0983164102996
 30
0.0
 10
185.560981453511
 20
251.5325700756848
 30
0.0
 10
189.4517088877423
 20
255.1775501060727
 30
0.0
 10
193.5068911106012
 20
260.6588529982854
 30
0.0
 10
196.5212372793392
 20
266.8482497509474
 30
0.0
 10
198.3559212471309
 20
273.5073594015734
 30
0.0
 10
198.9363283844529
 20
280.4094272594809
 30
0.0
 10
198.2333058616829
 20
287.3137370396457
 30
0.0
 10
196.2651010769782
 20
293.9788242331467
 30
0.0
 10
193.0982029114053
 20
300.1669605515316
 30
0.0
 10
188.8469727470511
 20
305.6577769599209
 30
0.0
 10
183.6679125323465
 20
310.2602424319388
 30
0.0
 10
177.7468151768601
 20
313.8216875631666
 30
0.0
 10
171.2959246531746
 20
316.2289825662884
 30
0.0
 10
166.0534294528052
 20
317.1462077103633
 30
0.0
 10
162.3534533187035
 20
317.3392490615367
 30
0.0
 10
160.2291803330526
 20
317.3276252745706
 30
0.0
 10
157.8473114875128
 20
317.1817870676677
 30
0.0
 10
154.8704498583306
 20
316.7899291158509
 30
0.0
 10
151.1019486426509
 20
315.9640643811306
 30
0.0
 10
148.4323792172059
 20
314.9472922206597
 30
0.0
 10
146.992030573104
 20
314.398699481795
 30
0.0
  0
SPLINE
  5
76
330
1F
100
AcDbEntity
  8
0
  6
Continuous
 62
     7
370
    25
100
AcDbSpline
210
0.0
220
0.0
230
1.0
 70
     8
 71
     3
 72
    29
 73
    25
 74
     0
 42
0.000000001
 43
0.00000001
 40
0.0
 40
0.0
 40
0.0
 40
0.0
 40
0.0349321344200819
 40
0.063398058726991
 40
0.0838985481377998
 40
0.1410481640550771
 40
0.1993926549074965
 40
0.2579538663170369
 40
0.3167358704961751
 40
0.3756685414301049
 40
0.4347110606595757
 40
0.4938368175126892
 40
0.5530116331699346
 40
0.6120983034907761
 40
0.671042833681333
 40
0.7298261782795018
 40
0.7884258331515459
 40
0.8467958143462644
 40
0.8655669660004143
 40
0.8834823969912992
 40
0.9012873232994567
 40
0.9267778550686011
 40
0.9604934893436786
 40
0.9999999999999999
 40
0.9999999999999999
 40
0.9999999999999999
 40
0.9999999999999999
 10
425.7238460900527
 20
280.0790379241206
 30
0.0
 10
425.6813754782319
 20
281.4407948604969
 30
0.0
 10
425.6042958955757
 20
283.9122369197214
 30
0.0
 10
425.0822048267091
 20
287.1468067021869
 30
0.0
 10
424.1390904700352
 20
291.173195161085
 30
0.0
 10
422.293478043982
 20
296.1749257430536
 30
0.0
 10
418.8199204740264
 20
302.0420934546088
 30
0.0
 10
414.2893185550928
 20
307.2255802626248
 30
0.0
 10
408.8673377860162
 20
311.504826866181
 30
0.0
 10
402.733875291033
 20
314.7229049966936
 30
0.0
 10
396.0993910160676
 20
316.7594095545047
 30
0.0
 10
389.1934382452632
 20
317.5372412394088
 30
0.0
 10
382.2608963406704
 20
317.025262513439
 30
0.0
 10
375.5492564815048
 20
315.2431493953951
 30
0.0
 10
369.2953683508376
 20
312.260822027651
 30
0.0
 10
363.7121252551518
 20
308.1901120690314
 30
0.0
 10
358.986268168831
 20
303.1825881882179
 30
0.0
 10
356.1030539360837
 20
298.7090965757655
 30
0.0
 10
354.4867455333405
 20
295.3752315222304
 30
0.0
 10
353.6715895377068
 20
293.4135473881736
 30
0.0
 10
352.8799481086888
 20
291.1623520901179
 30
0.0
 10
352.0836534927435
 20
288.2673272557511
 30
0.0
 10
351.3794564332657
 20
284.474209199545
 30
0.0
 10
351.2783866050501
 20
281.6193550681834
 30
0.0
 10
351.2238550661397
 20
280.0790379241206
 30
0.0
  0
SPLINE
  5
77
330
1F
100
AcDbEntity
  8
0
  6
Continuous
 62
     7
370
    25
100
AcDbSpline
210
0.0
220
0.0
230
1.0
 70
     8
 71
     3
 72
    29
 73
    25
 74
     0
 42
0.000000001
 43
0.00000001
 40
0.0
 40
0.0
 40
0.0
 40
0.0
 40
0.0349321495037969
 40
0.0633980733979612
 40
0.0838985469740502
 40
0.1410481675524509
 40
0.1993926623434927
 40
0.2579538579634496
 40
0.3167358806475053
 40
0.3756685432936098
 40
0.4347110761734366
 40
0.4938368296573371
 40
0.5530116437275931
 40
0.6120983083743383
 40
0.671042808217088
 40
0.7298261594214788
 40
0.7884258407167455
 40
0.8467958167341515
 40
0.8655669600364323
 40
0.8834823948348598
 40
0.9012873233064141
 40
0.9267778618275287
 40
0.9604934845497806
 40
1.0
 40
1.0
 40
1.0
 40
1.0
 10
351.2238550661397
 20
280.0790379241206
 30
0.0
 10
351.2663251695408
 20
278.7172802739042
 30
0.0
 10
351.3434038140242
 20
276.2458374143897
 30
0.0
 10
351.8655010083185
 20
273.011268567383
 30
0.0
 10
352.8086109763669
 20
268.9848796779722
 30
0.0
 10
354.6542197503257
 20
263.9831467347238
 30
0.0
 10
358.127788670079
 20
258.1159865904309
 30
0.0
 10
362.6583811354045
 20
252.9324911699092
 30
0.0
 10
368.0803680744613
 20
248.6532516252001
 30
0.0
 10
374.2138279551278
 20
245.4351674563219
 30
0.0
 10
380.8483136152237
 20
243.3986644450108
 30
0.0
 10
387.7542670129086
 20
242.6208349172807
 30
0.0
 10
394.6868083457679
 20
243.1328140065567
 30
0.0
 10
401.3984482312918
 20
244.9149230380313
 30
0.0
 10
407.6523336261724
 20
247.8972538861703
 30
0.0
 10
413.2355788804347
 20
251.9679609622108
 30
0.0
 10
417.9614371911907
 20
256.9754856427082
 30
0.0
 10
420.844651855649
 20
261.4489781066981
 30
0.0
 10
422.4609564961999
 20
264.7828446333212
 30
0.0
 10
423.2761133155911
 20
266.7445283621722
 30
0.0
 10
424.0677552686638
 20
268.9957240250686
 30
0.0
 10
424.8640549916989
 20
271.8907474594503
 30
0.0
 10
425.5682484964031
 20
275.683866549937
 30
0.0
 10
425.6693158660149
 20
278.538720531688
 30
0.0
 10
425.7238460900527
 20
280.0790379241206
 30
0.0
  0
ARC
  5
78
330
1F
100
AcDbEntity
  8
0
  6
Continuous
 62
     7
370
    25
100
AcDbCircle
 10
161.4738518479
 20
280.0790375802
 30
0.0
 40
36.31056399417614
100
AcDbArc
 50
292.8782154518
 51
112.8782154687
  0
ARC
  5
79
330
1F
100
AcDbEntity
  8
0
  6
Continuous
 62
     7
370
    25
100
AcDbCircle
 10
161.4738518479
 20
280.0790375802
 30
0.0
 40
36.31056399417614
100
AcDbArc
 50
112.8782154687
 51
292.8782154518
  0
ARC
  5
7A
330
1F
100
AcDbEntity
  8
0
  6
Continuous
 62
     7
370
    25
100
AcDbCircle
 10
388.4738518479
 20
280.0790375802
 30
0.0
 40
36.31056399417611
100
AcDbArc
 50
179.9999997113
 51
0.0000000118
  0
ARC
  5
7B
330
1F
100
AcDbEntity
  8
0
  6
Continuous
 62
     7
370
    25
100
AcDbCircle
 10
388.4738518479
 20
280.0790375802
 30
0.0
 40
36.31056399417611
100
AcDbArc
 50
0.0000000118
 51
179.9999997113
  0
SPLINE
  5
7C
330
1F
100
AcDbEntity
  8
0
  6
Continuous
 62
     7
370
    25
100
AcDbSpline
210
0.0
220
0.0
230
1.0
 70
     8
 71
     3
 72
     9
 73
     5
 74
     0
 42
0.000000001
 43
0.00000001
 40
0.0
 40
0.0
 40
0.0
 40
0.0
 40
0.5599973498886699
 40
1.0
 40
1.0
 40
1.0
 40
1.0
 10
130.9897629739982
 20
256.8942560300328
 30
0.0
 10
130.8349067254427
 20
256.7764764250676
 30
0.0
 10
130.558376401529
 20
256.5661547066011
 30
0.0
 10
130.1941146974018
 20
256.2891152809749
 30
0.0
 10
130.0338385822517
 20
256.1672171995141
 30
0.0
  0
SPLINE
  5
7D
330
1F
100
AcDbEntity
  8
0
  6
Continuous
 62
     7
370
    25
100
AcDbSpline
210
0.0
220
0.0
230
1.0
 70
     8
 71
     3
 72
     9
 73
     5
 74
     0
 42
0.000000001
 43
0.00000001
 40
0.0
 40
0.0
 40
0.0
 40
0.0
 40
0.560006742477142
 40
1.0
 40
1.0
 40
1.0
 40
1.0
 10
192.9138777973396
 20
303.9908595800497
 30
0.0
 10
192.7089896506772
 20
303.8350348880474
 30
0.0
 10
192.3431223653013
 20
303.5567798597008
 30
0.0
 10
192.0756323205687
 20
303.3533331403449
 30
0.0
 10
191.9579385044319
 20
303.2638179555632
 30
0.0
  0
ARC
  5
7E
330
1F
100
AcDbEntity
  8
0
  6
Continuous
 62
     7
370
    25
100
AcDbCircle
 10
161.4738518479
 20
280.0790375802
 30
0.0
 40
38.29899805700136
100
AcDbArc
 50
37.2549368278
 51
217.2549368278
  0
ARC
  5
7F
330
1F
100
AcDbEntity
  8
0
  6
Continuous
 62
     7
370
    25
100
AcDbCircle
 10
161.4738518479
 20
280.0790375802
 30
0.0
 40
39.50000000000158
100
AcDbArc
 50
37.2549368278
 51
217.2549368513
  0
ARC
  5
80
330
1F
100
AcDbEntity
  8
0
  6
Continuous
 62
     7
370
    25
100
AcDbCircle
 10
161.4738518479
 20
280.0790375802
 30
0.0
 40
38.29899805700136
100
AcDbArc
 50
217.2549368278
 51
37.2549368278
  0
ARC
  5
81
330
1F
100
AcDbEntity
  8
0
  6
Continuous
 62
     7
370
    25
100
AcDbCircle
 10
161.4738518479
 20
280.0790375802
 30
0.0
 40
39.500000000001
100
AcDbArc
 50
217.2549368513
 51
37.2549368176
  0
SPLINE
  5
82
330
1F
100
AcDbEntity
  8
0
  6
Continuous
 62
     7
370
    25
100
AcDbSpline
210
0.0
220
0.0
230
1.0
 70
     8
 71
     3
 72
     9
 73
     5
 74
     0
 42
0.000000001
 43
0.00000001
 40
0.0
 40
0.0
 40
0.0
 40
0.0
 40
0.5600001251115571
 40
1.0
 40
1.0
 40
1.0
 40
1.0
 10
357.9897703798753
 20
256.8942560300328
 30
0.0
 10
357.8349092342483
 20
256.7764769316145
 30
0.0
 10
357.5583715359824
 20
256.5661571599988
 30
0.0
 10
357.194108597133
 20
256.2891154967031
 30
0.0
 10
357.0338329496128
 20
256.1672171995141
 30
0.0
  0
SPLINE
  5
83
330
1F
100
AcDbEntity
  8
0
  6
Continuous
 62
     7
370
    25
100
AcDbSpline
210
0.0
220
0.0
230
1.0
 70
     8
 71
     3
 72
     9
 73
     5
 74
     0
 42
0.000000001
 43
0.00000001
 40
0.0
 40
0.0
 40
0.0
 40
0.0
 40
0.5600010371128326
 40
1.0
 40
1.0
 40
1.0
 40
1.0
 10
419.9138684394104
 20
303.9908595800497
 30
0.0
 10
419.7089866168346
 20
303.83503418923
 30
0.0
 10
419.3431268969455
 20
303.5567750780985
 30
0.0
 10
419.0756334404988
 20
303.3533324853706
 30
0.0
 10
418.9579365970832
 20
303.2638179555632
 30
0.0
  0
ARC
  5
84
330
1F
100
AcDbEntity
  8
0
  6
Continuous
 62
     7
370
    25
100
AcDbCircle
 10
388.4738518479
 20
280.0790375802
 30
0.0
 40
38.29899805700134
100
AcDbArc
 50
37.2549368278
 51
217.2549368278
  0
ARC
  5
85
330
1F
100
AcDbEntity
  8
0
  6
Continuous
 62
     7
370
    25
100
AcDbCircle
 10
388.4738518479
 20
280.0790375802
 30
0.0
 40
39.50000000000153
100
AcDbArc
 50
37.2549368278
 51
217.2549368513
  0
ARC
  5
86
330
1F
100
AcDbEntity
  8
0
  6
Continuous
 62
     7
370
    25
100
AcDbCircle
 10
388.4738518479
 20
280.0790375802
 30
0.0
 40
38.29899805700134
100
AcDbArc
 50
217.2549368278
 51
37.2549368278
  0
ARC
  5
87
330
1F
100
AcDbEntity
  8
0
  6
Continuous
 62
     7
370
    25
100
AcDbCircle
 10
388.4738518479
 20
280.0790375802
 30
0.0
 40
39.50000000000108
100
AcDbArc
 50
217.2549368513
 51
37.2549368176
  0
CIRCLE
  5
88
330
1F
100
AcDbEntity
  8
0
  6
Continuous
 62
     7
370
    25
100
AcDbCircle
 10
388.4738518479
 20
280.0790375802
 30
0.0
 40
57.00000000000149
  0
SPLINE
  5
89
330
1F
100
AcDbEntity
  8
0
  6
Continuous
 62
     7
370
    25
100
AcDbSpline
210
0.0
220
0.0
230
1.0
 70
     8
 71
     3
 72
    35
 73
    31
 74
     0
 42
0.000000001
 43
0.00000001
 40
0.0
 40
0.0
 40
0.0
 40
0.0
 40
0.0282546115500859
 40
0.0583834502587745
 40
0.0903495494062228
 40
0.1258616499110682
 40
0.1640104856053626
 40
0.2048405271894411
 40
0.2374624889842893
 40
0.2716127207582532
 40
0.3071914535994093
 40
0.3440550225971381
 40
0.3820151180988278
 40
0.420841362874001
 40
0.4602672814186854
 40
0.500000003996562
 40
0.5397327435572312
 40
0.5791586535563188
 40
0.6179848826943937
 40
0.655945009647572
 40
0.6928085722212738
 40
0.728387298025115
 40
0.7625375328153934
 40
0.7951594839658835
 40
0.8359928372513479
 40
0.874141594762095
 40
0.9096504685628177
 40
0.9416198424745867
 40
0.9717470305224664
 40
1.0
 40
1.0
 40
1.0
 40
1.0
 10
432.4817164065582
 20
275.4334053441979
 30
0.0
 10
432.5856383733028
 20
276.7387641148212
 30
0.0
 10
432.8003758141441
 20
279.4360706666893
 30
0.0
 10
432.6495700853896
 20
283.6272524167526
 30
0.0
 10
432.0758171971295
 20
288.117554268438
 30
0.0
 10
430.9353408267834
 20
292.8861856031348
 30
0.0
 10
429.1128660336336
 20
297.8789849463059
 30
0.0
 10
426.7456392098985
 20
302.4907849775021
 30
0.0
 10
423.9701002435974
 20
306.6399594547632
 30
0.0
 10
420.9305294030106
 20
310.28972468782
 30
0.0
 10
417.3679912724979
 20
313.7223647752739
 30
0.0
 10
413.297635582047
 20
316.8362488279049
 30
0.0
 10
408.7599585838521
 20
319.5286114056333
 30
0.0
 10
403.8218617289097
 20
321.7035682540279
 30
0.0
 10
398.5751083833134
 20
323.2804132176215
 30
0.0
 10
393.1315648590661
 20
324.2013539617722
 30
0.0
 10
387.6157141249533
 20
324.4373273384598
 30
0.0
 10
382.1553624328944
 20
323.9907645916983
 30
0.0
 10
376.8719782489638
 20
322.894821381738
 30
0.0
 10
371.8721511188078
 20
321.2092765102201
 30
0.0
 10
367.241332205419
 20
319.0139188300685
 30
0.0
 10
363.0405820850726
 20
316.4007999863651
 30
0.0
 10
359.3059375834281
 20
313.4661452161171
 30
0.0
 10
355.7251126189546
 20
309.9878564008212
 30
0.0
 10
352.4470558404931
 20
305.9718415639887
 30
0.0
 10
349.6222758955998
 20
301.4696099076673
 30
0.0
 10
347.5112895569408
 20
297.0442039816444
 30
0.0
 10
346.0126116085382
 20
292.772748843718
 30
0.0
 10
344.990115672381
 20
288.7054122689857
 30
0.0
 10
344.6369196157475
 20
286.0228773805915
 30
0.0
 10
344.4659910360617
 20
284.7246695727207
 30
0.0
  0
SPLINE
  5
8A
330
1F
100
AcDbEntity
  8
0
  6
Continuous
 62
     7
370
    25
100
AcDbSpline
210
0.0
220
0.0
230
1.0
 70
     8
 71
     3
 72
    35
 73
    31
 74
     0
 42
0.000000001
 43
0.00000001
 40
0.0
 40
0.0
 40
0.0
 40
0.0
 40
0.028254611478046
 40
0.0583834418997483
 40
0.0903495403059328
 40
0.1258616552478736
 40
0.1640104800528668
 40
0.2048405264987515
 40
0.2374624926146962
 40
0.2716127137545272
 40
0.3071914365950517
 40
0.3440549999094479
 40
0.3820151249385957
 40
0.4208413693348288
 40
0.4602672874947203
 40
0.5000000229023469
 40
0.5397327352890144
 40
0.5791586459959709
 40
0.617984887881053
 40
0.6559450271666889
 40
0.6928085715250187
 40
0.7283872926796097
 40
0.7625375324068685
 40
0.7951595070028135
 40
0.8359928377444557
 40
0.8741415928269788
 40
0.9096504712987404
 40
0.9416198440693677
 40
0.9717470263738294
 40
0.9999999999999999
 40
0.9999999999999999
 40
0.9999999999999999
 40
0.9999999999999999
 10
344.4659910360617
 20
284.7246695727207
 30
0.0
 10
344.3620694267943
 20
283.4193108152635
 30
0.0
 10
344.1473327548177
 20
280.7220046699094
 30
0.0
 10
344.2981293809857
 20
276.5308231148229
 30
0.0
 10
344.8718827828877
 20
272.0405205304378
 30
0.0
 10
346.0123655349831
 20
267.2718908944095
 30
0.0
 10
347.8348331162957
 20
262.2790884628668
 30
0.0
 10
350.2020644292988
 20
257.6672905608081
 30
0.0
 10
352.9776008845689
 20
253.5181145328532
 30
0.0
 10
356.0171736973597
 20
249.8683517904373
 30
0.0
 10
359.5797090037426
 20
246.4357106695877
 30
0.0
 10
363.6500652321388
 20
243.3218259578825
 30
0.0
 10
368.187743480057
 20
240.6294632866767
 30
0.0
 10
373.1258415022066
 20
238.4545057256502
 30
0.0
 10
378.3725954533999
 20
236.8776604613979
 30
0.0
 10
383.8161384173154
 20
235.9567205936339
 30
0.0
 10
389.3319886109404
 20
235.7207458846943
 30
0.0
 10
394.7923394288034
 20
236.1673121380862
 30
0.0
 10
400.0757250379768
 20
237.2632541889765
 30
0.0
 10
405.0755524483261
 20
238.9487992328762
 30
0.0
 10
409.7063722300688
 20
241.1441543673539
 30
0.0
 10
413.9071191469625
 20
243.7572770139112
 30
0.0
 10
417.6417652413808
 20
246.6919311604161
 30
0.0
 10
421.2225921032193
 20
250.1702189813826
 30
0.0
 10
424.5006434569677
 20
254.1862377457489
 30
0.0
 10
427.3254322074679
 20
258.6884626745958
 30
0.0
 10
429.4364158661229
 20
263.113870455672
 30
0.0
 10
430.9350902025133
 20
267.3853268302764
 30
0.0
 10
431.9575823933335
 20
271.4526639049956
 30
0.0
 10
432.3107847487967
 20
274.1351977939253
 30
0.0
 10
432.4817164065582
 20
275.4334053441979
 30
0.0
  0
SPLINE
  5
8B
330
1F
100
AcDbEntity
  8
0
  6
Continuous
 62
     7
370
    25
100
AcDbSpline
210
0.0
220
0.0
230
1.0
 70
     8
 71
     3
 72
    11
 73
     7
 74
     0
 42
0.000000001
 43
0.00000001
 40
0.0
 40
0.0
 40
0.0
 40
0.0
 40
0.2706998346800664
 40
0.5623154371527012
 40
0.7892987382914668
 40
1.0
 40
1.0
 40
1.0
 40
1.0
 10
344.4659910360617
 20
284.7246695727207
 30
0.0
 10
345.0042448504471
 20
284.667849427561
 30
0.0
 10
346.1223409486327
 20
284.5498188982764
 30
0.0
 10
347.4059713749719
 20
284.4143145150027
 30
0.0
 10
348.175579620132
 20
284.333071486594
 30
0.0
 10
348.2879722630212
 20
284.3212066109766
 30
0.0
 10
348.342078059007
 20
284.3154948622085
 30
0.0
  0
ARC
  5
8C
330
1F
100
AcDbEntity
  8
0
  6
Continuous
 62
     7
370
    25
100
AcDbCircle
 10
388.4738518479
 20
280.0790375802
 30
0.0
 40
40.35476230894978
100
AcDbArc
 50
173.973964907
 51
353.973964907
  0
SPLINE
  5
8D
330
1F
100
AcDbEntity
  8
0
  6
Continuous
 62
     7
370
    25
100
AcDbSpline
210
0.0
220
0.0
230
1.0
 70
     8
 71
     3
 72
    11
 73
     7
 74
     0
 42
0.000000001
 43
0.00000001
 40
0.0
 40
0.0
 40
0.0
 40
0.0
 40
0.2706995391172448
 40
0.562316098655895
 40
0.7892986104496219
 40
0.9999999999999999
 40
0.9999999999999999
 40
0.9999999999999999
 40
0.9999999999999999
 10
428.6056263568145
 20
275.8425800547101
 30
0.0
 10
428.6898935866333
 20
275.8336844284539
 30
0.0
 10
428.8649393959864
 20
275.8152058086979
 30
0.0
 10
429.9138387903128
 20
275.704479062672
 30
0.0
 10
431.1957284304531
 20
275.5691597238742
 30
0.0
 10
432.0638175780135
 20
275.4775205282359
 30
0.0
 10
432.4817164065582
 20
275.4334053441979
 30
0.0
  0
ARC
  5
8E
330
1F
100
AcDbEntity
  8
0
  6
Continuous
 62
     7
370
    25
100
AcDbCircle
 10
388.4738518479
 20
280.0790375802
 30
0.0
 40
40.35476230894978
100
AcDbArc
 50
353.973964907
 51
173.973964907
  0
CIRCLE
  5
8F
330
1F
100
AcDbEntity
  8
0
  6
Continuous
 62
     7
370
    25
100
AcDbCircle
 10
388.4738518479
 20
280.0790375802
 30
0.0
 40
39.93812333100105
  0
CIRCLE
  5
90
330
1F
100
AcDbEntity
  8
0
  6
Continuous
 62
     7
370
    25
100
AcDbCircle
 10
161.4738518479
 20
280.0790375802
 30
0.0
 40
57.00000000000155
  0
SPLINE
  5
91
330
1F
100
AcDbEntity
  8
0
  6
Continuous
 62
     7
370
    25
100
AcDbSpline
210
0.0
220
0.0
230
1.0
 70
     8
 71
     3
 72
    35
 73
    31
 74
     0
 42
0.000000001
 43
0.00000001
 40
0.0
 40
0.0
 40
0.0
 40
0.0
 40
0.0282546143213432
 40
0.0583834508536886
 40
0.0903495563171375
 40
0.1258616562082003
 40
0.1640104912431395
 40
0.2048405566058635
 40
0.2374625178368816
 40
0.2716127147052657
 40
0.3071914469314876
 40
0.3440550152920754
 40
0.3820151562528102
 40
0.42084140035692
 40
0.4602672411915202
 40
0.4999999630826659
 40
0.5397327555290324
 40
0.5791586915681978
 40
0.6179849069092627
 40
0.6559450205034032
 40
0.6928086187793294
 40
0.7283873098200135
 40
0.7625375071280796
 40
0.795159510600573
 40
0.8359928123224941
 40
0.8741416154918489
 40
0.9096504861331229
 40
0.941619851156218
 40
0.9717470232724568
 40
1.0
 40
1.0
 40
1.0
 40
1.0
 10
205.4817108633262
 20
275.4334053441979
 30
0.0
 10
205.5856350203914
 20
276.7387640295472
 30
0.0
 10
205.8003769682913
 20
279.4360701681397
 30
0.0
 10
205.6495841013055
 20
283.6272532438766
 30
0.0
 10
205.0758155654272
 20
288.1175535798632
 30
0.0
 10
203.9353434010766
 20
292.8861855087083
 30
0.0
 10
202.1128691119168
 20
297.8789869063967
 30
0.0
 10
199.7456331315003
 20
302.4907835676659
 30
0.0
 10
196.970094529135
 20
306.6399571136196
 30
0.0
 10
193.9305318119502
 20
310.2897272370876
 30
0.0
 10
190.3679925650818
 20
313.7223641234812
 30
0.0
 10
186.2976365421162
 20
316.8362512643756
 30
0.0
 10
181.759954269902
 20
319.5286094621311
 30
0.0
 10
176.8218593912424
 20
321.7035662055183
 30
0.0
 10
171.5751108081805
 20
323.2804149736889
 30
0.0
 10
166.1315679492373
 20
324.2013541239647
 30
0.0
 10
160.6157135688232
 20
324.4373272988508
 30
0.0
 10
155.1553587274797
 20
323.9907650092103
 30
0.0
 10
149.8719743888741
 20
322.8948216854412
 30
0.0
 10
144.8721476742478
 20
321.2092745697572
 30
0.0
 10
140.2413271852571
 20
319.0139215903028
 30
0.0
 10
136.0405793381196
 20
316.4008008751144
 30
0.0
 10
132.3059424167798
 20
313.4661392023896
 30
0.0
 10
128.7251050827862
 20
309.987864640466
 30
0.0
 10
125.4470654443446
 20
305.9718330672496
 30
0.0
 10
122.6222665853652
 20
301.4696144474325
 30
0.0
 10
120.5112849772649
 20
297.0442037353768
 30
0.0
 10
119.0126064994564
 20
292.7727498321457
 30
0.0
 10
117.9901267736914
 20
288.7054103051182
 30
0.0
 10
117.6369229991427
 20
286.0228770947177
 30
0.0
 10
117.4659906151039
 20
284.7246695727207
 30
0.0
  0
SPLINE
  5
92
330
1F
100
AcDbEntity
  8
0
  6
Continuous
 62
     7
370
    25
100
AcDbSpline
210
0.0
220
0.0
230
1.0
 70
     8
 71
     3
 72
    35
 73
    31
 74
     0
 42
0.000000001
 43
0.00000001
 40
0.0
 40
0.0
 40
0.0
 40
0.0
 40
0.0282546141452201
 40
0.0583834471015795
 40
0.0903495386288688
 40
0.1258616468552692
 40
0.16401047968489
 40
0.2048405447931027
 40
0.2374625113919279
 40
0.2716126977465989
 40
0.3071914297510434
 40
0.3440549978818448
 40
0.3820151454463315
 40
0.4208413893084208
 40
0.4602672298972628
 40
0.5000000572810388
 40
0.5397327423348781
 40
0.5791586792209455
 40
0.6179848943199902
 40
0.6559450076775091
 40
0.6928085999811888
 40
0.7283872978808372
 40
0.7625374949760304
 40
0.7951595075856065
 40
0.8359928716707217
 40
0.8741415977250829
 40
0.9096504757083387
 40
0.9416198480391542
 40
0.9717470427383139
 40
1.0
 40
1.0
 40
1.0
 40
1.0
 10
117.4659906151038
 20
284.7246695727207
 30
0.0
 10
117.3620645719186
 20
283.4193107938095
 30
0.0
 10
117.1473187391284
 20
280.7220046184201
 30
0.0
 10
117.2981429058583
 20
276.5308238935283
 30
0.0
 10
117.8718783946824
 20
272.0405204403321
 30
0.0
 10
119.0123601752491
 20
267.2718898127035
 30
0.0
 10
120.8348316748866
 20
262.2790878086525
 30
0.0
 10
123.2020689245577
 20
257.6672913651626
 30
0.0
 10
125.9776059982298
 20
253.5181170829366
 30
0.0
 10
129.0171704223562
 20
249.8683486237189
 30
0.0
 10
132.5797087263903
 20
246.4357115063979
 30
0.0
 10
136.6500655172397
 20
243.3218249266068
 30
0.0
 10
141.1877466001531
 20
240.6294640847213
 30
0.0
 10
146.1258422003608
 20
238.4545081218126
 30
0.0
 10
151.3725952436063
 20
236.8776567985439
 30
0.0
 10
156.8161387798736
 20
235.956722227508
 30
0.0
 10
162.331992922906
 20
235.7207456736391
 30
0.0
 10
167.7923426328049
 20
236.1673117416497
 30
0.0
 10
173.0757272070327
 20
237.2632537363337
 30
0.0
 10
178.075553162782
 20
238.9488019835896
 30
0.0
 10
182.7063754902066
 20
241.1441515310741
 30
0.0
 10
186.9071211582472
 20
243.7572756911115
 30
0.0
 10
190.6417607566065
 20
246.6919357003121
 30
0.0
 10
194.2225940875219
 20
250.1702180709452
 30
0.0
 10
197.5006544458597
 20
254.1862332882209
 30
0.0
 10
200.32543230875
 20
258.6884652266342
 30
0.0
 10
202.4364194552642
 20
263.1138698963575
 30
0.0
 10
203.9350882425943
 20
267.3853283171255
 30
0.0
 10
204.9575979076573
 20
271.4526614091626
 30
0.0
 10
205.3107861317808
 20
274.1351974272065
 30
0.0
 10
205.4817108633262
 20
275.4334053441979
 30
0.0
  0
SPLINE
  5
93
330
1F
100
AcDbEntity
  8
0
  6
Continuous
 62
     7
370
    25
100
AcDbSpline
210
0.0
220
0.0
230
1.0
 70
     8
 71
     3
 72
    11
 73
     7
 74
     0
 42
0.000000001
 43
0.00000001
 40
0.0
 40
0.0
 40
0.0
 40
0.0
 40
0.270698728226531
 40
0.5623161352913486
 40
0.7892992161533048
 40
1.0
 40
1.0
 40
1.0
 40
1.0
 10
117.4659906151039
 20
284.7246695727207
 30
0.0
 10
118.0042436681072
 20
284.6678492888752
 30
0.0
 10
119.1223441429654
 20
284.5498178425235
 30
0.0
 10
120.4059688264057
 20
284.4143150997635
 30
0.0
 10
121.1755859406417
 20
284.3330714479226
 30
0.0
 10
121.2879761005666
 20
284.3212065958153
 30
0.0
 10
121.3420806648475
 20
284.3154948622085
 30
0.0
  0
ARC
  5
94
330
1F
100
AcDbEntity
  8
0
  6
Continuous
 62
     7
370
    25
100
AcDbCircle
 10
161.4738518479
 20
280.0790375802
 30
0.0
 40
40.35476230894981
100
AcDbArc
 50
173.973964907
 51
353.973964907
  0
SPLINE
  5
95
330
1F
100
AcDbEntity
  8
0
  6
Continuous
 62
     7
370
    25
100
AcDbSpline
210
0.0
220
0.0
230
1.0
 70
     8
 71
     3
 72
    11
 73
     7
 74
     0
 42
0.000000001
 43
0.00000001
 40
0.0
 40
0.0
 40
0.0
 40
0.0
 40
0.2706999448309547
 40
0.562316618786291
 40
0.7892981252544283
 40
0.9999999999999999
 40
0.9999999999999999
 40
0.9999999999999999
 40
0.9999999999999999
 10
201.6056208135826
 20
275.8425800547101
 30
0.0
 10
201.6898910310288
 20
275.8336844130143
 30
0.0
 10
201.86494294605
 20
275.8152057717886
 30
0.0
 10
202.9138392141649
 20
275.7044795439591
 30
0.0
 10
204.1957259493439
 20
275.5691591731407
 30
0.0
 10
205.063812045023
 20
275.4775204532311
 30
0.0
 10
205.4817108633262
 20
275.4334053441979
 30
0.0
  0
ARC
  5
96
330
1F
100
AcDbEntity
  8
0
  6
Continuous
 62
     7
370
    25
100
AcDbCircle
 10
161.4738518479
 20
280.0790375802
 30
0.0
 40
40.35476230894981
100
AcDbArc
 50
353.973964907
 51
173.973964907
  0
CIRCLE
  5
97
330
1F
100
AcDbEntity
  8
0
  6
Continuous
 62
     7
370
    25
100
AcDbCircle
 10
161.4738518479
 20
280.0790375802
 30
0.0
 40
39.93812333100108
  0
ARC
  5
98
330
1F
100
AcDbEntity
  8
0
  6
Continuous
 62
     7
370
    25
100
AcDbCircle
 10
126.4738518479
 20
160.0790375802
 30
0.0
 40
51.49999999999993
100
AcDbArc
 50
180.0
 51
270.0
  0
LINE
  5
99
330
1F
100
AcDbEntity
  8
0
  6
Continuous
 62
     7
370
    25
100
AcDbLine
 10
74.9738393547
 20
160.0790387437
 30
0.0
 11
74.9738393547
 21
400.0790408298
 31
0.0
  0
LINE
  5
9A
330
1F
100
AcDbEntity
  8
0
  6
Continuous
 62
     7
370
    25
100
AcDbLine
 10
196.4738546135
 20
450.079030399
 30
0.0
 11
126.4738468649
 21
450.079030399
 31
0.0
  0
ARC
  5
9B
330
1F
100
AcDbEntity
  8
0
  6
Continuous
 62
     7
370
    25
100
AcDbCircle
 10
196.4738518479
 20
400.0790375802
 30
0.0
 40
50.00000000000011
100
AcDbArc
 50
0.0
 51
90.0
  0
ARC
  5
9C
330
1F
100
AcDbEntity
  8
0
  6
Continuous
 62
     7
370
    25
100
AcDbCircle
 10
126.4738518479
 20
400.0790375802
 30
0.0
 40
50.00000000000017
100
AcDbArc
 50
90.0
 51
180.0
  0
LINE
  5
9D
330
1F
100
AcDbEntity
  8
0
  6
Continuous
 62
     7
370
    25
100
AcDbLine
 10
74.9738393547
 20
400.0790408298
 30
0.0
 11
76.4738498451
 21
400.0790408298
 31
0.0
  0
LINE
  5
9E
330
1F
100
AcDbEntity
  8
0
  6
Continuous
 62
     7
370
    25
100
AcDbLine
 10
76.4738498451
 20
400.0790408298
 30
0.0
 11
76.4738498451
 21
160.0790387437
 31
0.0
  0
LINE
  5
9F
330
1F
100
AcDbEntity
  8
0
  6
Continuous
 62
     7
370
    25
100
AcDbLine
 10
74.9738393547
 20
160.0790387437
 30
0.0
 11
76.4738498451
 21
160.0790387437
 31
0.0
  0
LINE
  5
A0
330
1F
100
AcDbEntity
  8
0
  6
Continuous
 62
     7
370
    25
100
AcDbLine
 10
246.4738516333
 20
160.0790387437
 30
0.0
 11
246.4738516333
 21
400.0790408298
 31
0.0
  0
ARC
  5
A1
330
1F
100
AcDbEntity
  8
0
  6
Continuous
 62
     7
370
    25
100
AcDbCircle
 10
126.4738518479
 20
160.0790375802
 30
0.0
 40
50.00000000000001
100
AcDbArc
 50
180.0
 51
270.0
  0
ARC
  5
A2
330
1F
100
AcDbEntity
  8
0
  6
Continuous
 62
     7
370
    25
100
AcDbCircle
 10
196.4738518479
 20
160.0790375802
 30
0.0
 40
50.0
100
AcDbArc
 50
270.0
 51
0.0
  0
LINE
  5
A3
330
1F
100
AcDbEntity
  8
0
  6
Continuous
 62
     7
370
    25
100
AcDbLine
 10
126.4738468649
 20
110.0790417239
 30
0.0
 11
196.4738546135
 21
110.0790417239
 31
0.0
  0
LINE
  5
A4
330
1F
100
AcDbEntity
  8
0
  6
Continuous
 62
     7
370
    25
100
AcDbLine
 10
246.4738516333
 20
400.0790408298
 30
0.0
 11
244.3800298693
 21
400.0790408298
 31
0.0
  0
SPLINE
  5
A5
330
1F
100
AcDbEntity
  8
0
  6
Continuous
 62
     7
370
    25
100
AcDbSpline
210
0.0
220
0.0
230
1.0
 70
     8
 71
     3
 72
    21
 73
    17
 74
     0
 42
0.000000001
 43
0.00000001
 40
0.0
 40
0.0
 40
0.0
 40
0.0
 40
0.0827986596341692
 40
0.1658337337990398
 40
0.2491017867874553
 40
0.3117240489505262
 40
0.3744743260451316
 40
0.4373513529930937
 40
0.5003541540738157
 40
0.5771200233915006
 40
0.6564899429751495
 40
0.7384594037011367
 40
0.8016596326857675
 40
0.8663180411270961
 40
0.9324324971140803
 40
1.0
 40
1.0
 40
1.0
 40
1.0
 10
196.4738546135169
 20
448.085687164972
 30
0.0
 10
198.554646822318
 20
448.0089445506235
 30
0.0
 10
202.7221725137972
 20
447.8552401991864
 30
0.0
 10
208.8766225391868
 20
446.5935199979563
 30
0.0
 10
214.3391950798663
 20
444.7590937131955
 30
0.0
 10
219.0850745807148
 20
442.5178483473678
 30
0.0
 10
223.1477786788915
 20
440.0861687834957
 30
0.0
 10
226.9580322883356
 20
437.2588230003852
 30
0.0
 10
230.7305536558088
 20
433.8319176712149
 30
0.0
 10
234.3815567461739
 20
429.6966514929569
 30
0.0
 10
237.7677620754821
 20
424.7508893782085
 30
0.0
 10
240.3440381731805
 20
419.7182697810942
 30
0.0
 10
242.1995572048916
 20
414.778346761755
 30
0.0
 10
243.4378525843624
 20
410.061940121444
 30
0.0
 10
244.2391274928741
 20
405.1337762732229
 30
0.0
 10
244.3313672398924
 20
401.7761179234849
 30
0.0
 10
244.3779884102088
 20
400.079040829847
 30
0.0
  0
LINE
  5
A6
330
1F
100
AcDbEntity
  8
0
  6
Continuous
 62
     7
370
    25
100
AcDbLine
 10
196.4738546135
 20
450.079030399
 30
0.0
 11
196.4738546135
 21
448.085687165
 31
0.0
  0
SPLINE
  5
A7
330
1F
100
AcDbEntity
  8
0
  6
Continuous
 62
     7
370
    25
100
AcDbSpline
210
0.0
220
0.0
230
1.0
 70
     8
 71
     3
 72
     9
 73
     5
 74
     0
 42
0.000000001
 43
0.00000001
 40
0.0
 40
0.0
 40
0.0
 40
0.0
 40
0.5000001064323866
 40
1.0
 40
1.0
 40
1.0
 40
1.0
 10
126.4738468649131
 20
448.085687164972
 30
0.0
 10
138.1405173065928
 20
448.0733564523342
 30
0.0
 10
161.4738532231067
 20
448.0486950323083
 30
0.0
 10
184.8071891389953
 20
448.073356455834
 30
0.0
 10
196.4738546135169
 20
448.085687164972
 30
0.0
  0
LINE
  5
A8
330
1F
100
AcDbEntity
  8
0
  6
Continuous
 62
     7
370
    25
100
AcDbLine
 10
126.4738468649
 20
450.079030399
 30
0.0
 11
126.4738468649
 21
448.085687165
 31
0.0
  0
LINE
  5
A9
330
1F
100
AcDbEntity
  8
0
  6
Continuous
 62
     7
370
    25
100
AcDbLine
 10
246.4738516333
 20
160.0790387437
 30
0.0
 11
244.3779884102
 21
160.0790387437
 31
0.0
  0
SPLINE
  5
AA
330
1F
100
AcDbEntity
  8
0
  6
Continuous
 62
     7
370
    25
100
AcDbSpline
210
0.0
220
0.0
230
1.0
 70
     8
 71
     3
 72
    24
 73
    20
 74
     0
 42
0.000000001
 43
0.00000001
 40
0.0
 40
0.0
 40
0.0
 40
0.0
 40
0.056812898798833
 40
0.117489370785361
 40
0.1820314213978332
 40
0.2498913008089249
 40
0.289107363998044
 40
0.3310654895088183
 40
0.3828316877530138
 40
0.444406080798474
 40
0.5127416395427042
 40
0.5709741366244214
 40
0.6381464493773342
 40
0.697355071592467
 40
0.7486003353224118
 40
0.8158345528280608
 40
0.8803956203794376
 40
0.9417831917707216
 40
1.0
 40
1.0
 40
1.0
 40
1.0
 10
243.5748679759246
 20
249.0585772737958
 30
0.0
 10
243.5880122901543
 20
247.3717541419437
 30
0.0
 10
243.6151948004801
 20
243.883395114723
 30
0.0
 10
243.6625131886991
 20
238.4814532127587
 30
0.0
 10
243.7158994452842
 20
232.753705618761
 30
0.0
 10
243.765798682878
 20
227.6643163231213
 30
0.0
 10
243.8110909980506
 20
223.2461525568993
 30
0.0
 10
243.8519905878208
 20
219.3056155961674
 30
0.0
 10
243.8998447611318
 20
214.7026541774763
 30
0.0
 10
243.955598158722
 20
209.3181179899968
 30
0.0
 10
244.013131674626
 20
203.742270019011
 30
0.0
 10
244.0710694045182
 20
198.0000678385493
 30
0.0
 10
244.124537792105
 20
192.5276005454651
 30
0.0
 10
244.174017791364
 20
187.2612931676594
 30
0.0
 10
244.2211682747991
 20
181.9918713529142
 30
0.0
 10
244.2663239485139
 20
176.5617977300502
 30
0.0
 10
244.3097785462012
 20
170.8285856848172
 30
0.0
 10
244.3473555179626
 20
165.360962096602
 30
0.0
 10
244.3679595197545
 20
161.8082855372567
 30
0.0
 10
244.3779884102088
 20
160.0790387436845
 30
0.0
  0
SPLINE
  5
AB
330
1F
100
AcDbEntity
  8
0
  6
Continuous
 62
     7
370
    25
100
AcDbSpline
210
0.0
220
0.0
230
1.0
 70
     8
 71
     3
 72
    18
 73
    14
 74
     0
 42
0.000000001
 43
0.00000001
 40
0.0
 40
0.0
 40
0.0
 40
0.0
 40
0.0897547536382164
 40
0.1869555188198464
 40
0.2834432638988158
 40
0.3810106648709809
 40
0.4702423106400138
 40
0.5512778361534189
 40
0.6362990779184042
 40
0.733331836678707
 40
0.8240316084685319
 40
0.9121087500059806
 40
1.0
 40
1.0
 40
1.0
 40
1.0
 10
243.5745550515396
 20
311.1033281728722
 30
0.0
 10
243.5566962369719
 20
309.2447373548866
 30
0.0
 10
243.5194970490997
 20
305.3733679113147
 30
0.0
 10
243.4326600235623
 20
299.5242260740816
 30
0.0
 10
243.3338714115694
 20
293.5218511538998
 30
0.0
 10
243.2612286666166
 20
287.6628847466233
 30
0.0
 10
243.2249261692399
 20
282.106102230802
 30
0.0
 10
243.2312215653591
 20
276.8034649410191
 30
0.0
 10
243.2767505146016
 20
271.3496250446856
 30
0.0
 10
243.3505474678782
 20
265.7120001421173
 30
0.0
 10
243.437701361115
 20
260.0227477085269
 30
0.0
 10
243.5249009994926
 20
254.5242803440877
 30
0.0
 10
243.5578563597272
 20
250.8790332650941
 30
0.0
 10
243.5743166329605
 20
249.0583351299264
 30
0.0
  0
SPLINE
  5
AC
330
1F
100
AcDbEntity
  8
0
  6
Continuous
 62
     7
370
    25
100
AcDbSpline
210
0.0
220
0.0
230
1.0
 70
     8
 71
     3
 72
    23
 73
    19
 74
     0
 42
0.000000001
 43
0.00000001
 40
0.0
 40
0.0
 40
0.0
 40
0.0
 40
0.0730918968435442
 40
0.1511193514609606
 40
0.2340872471305
 40
0.3020181646168573
 40
0.3476930849664003
 40
0.3982619540731085
 40
0.4537249042860544
 40
0.5164439515566813
 40
0.5835918774936895
 40
0.6409138391339108
 40
0.6884099227283945
 40
0.726080135419889
 40
0.7584623111966303
 40
0.8121474653084193
 40
0.9106660219335708
 40
1.0
 40
1.0
 40
1.0
 40
1.0
 10
244.3779884102088
 20
400.079040829847
 30
0.0
 10
244.3652520790268
 20
397.9081033550648
 30
0.0
 10
244.3389193911184
 20
393.4196350375216
 30
0.0
 10
244.2889692785782
 20
386.4712826264344
 30
0.0
 10
244.2344578892998
 20
379.6791854271294
 30
0.0
 10
244.1827995753825
 20
373.8496584903475
 30
0.0
 10
244.1373610330245
 20
368.9822125029598
 30
0.0
 10
244.0939998787384
 20
364.4851068411221
 30
0.0
 10
244.0443880687225
 20
359.4833811162721
 30
0.0
 10
243.9882448258211
 20
353.9910102934533
 30
0.0
 10
243.9309593051559
 20
348.4434688403642
 30
0.0
 10
243.8780788578093
 20
343.3468544198205
 30
0.0
 10
243.8342041883747
 20
339.1236304889083
 30
0.0
 10
243.7981268506639
 20
335.6393485127804
 30
0.0
 10
243.7609479526787
 20
331.9709509447158
 30
0.0
 10
243.7073673786206
 20
326.4971860422376
 30
0.0
 10
243.6404410330433
 20
319.3320833671891
 30
0.0
 10
243.5961781340321
 20
313.7551882578885
 30
0.0
 10
243.5751287462455
 20
311.1030748531319
 30
0.0
  0
SPLINE
  5
AD
330
1F
100
AcDbEntity
  8
0
  6
Continuous
 62
     7
370
    25
100
AcDbSpline
210
0.0
220
0.0
230
1.0
 70
     8
 71
     3
 72
    21
 73
    17
 74
     0
 42
0.000000001
 43
0.00000001
 40
0.0
 40
0.0
 40
0.0
 40
0.0
 40
0.0675013741343882
 40
0.1335523126823364
 40
0.1981502051471173
 40
0.2612924771324385
 40
0.3229768213550357
 40
0.3832012803807919
 40
0.4419635445597551
 40
0.4992617595278763
 40
0.5832874078857774
 40
0.6670895298834189
 40
0.7506650124901766
 40
0.8340106176995384
 40
0.917123311967322
 40
1.0
 40
1.0
 40
1.0
 40
1.0
 10
78.56972796938244
 20
400.079040829847
 30
0.0
 10
78.61624733389355
 20
401.7744323975094
 30
0.0
 10
78.70828647820206
 20
405.128785811303
 30
0.0
 10
79.50798594608005
 20
410.0523023041745
 30
0.0
 10
80.74384122296601
 20
414.7644106330321
 30
0.0
 10
82.41764760691794
 20
419.2249007484994
 30
0.0
 10
84.46996703901056
 20
423.4009946128029
 30
0.0
 10
86.85575049041555
 20
427.2672364020619
 30
0.0
 10
89.52613728441183
 20
430.8053685958182
 30
0.0
 10
92.91016867458518
 20
434.5272387845843
 30
0.0
 10
97.16723297112084
 20
438.2734872308238
 30
0.0
 10
102.4301017981499
 20
441.7919835039811
 30
0.0
 10
108.0947475884949
 20
444.5853592163705
 30
0.0
 10
114.0596264409305
 20
446.5907445587362
 30
0.0
 10
120.2197603581652
 20
447.8548172818314
 30
0.0
 10
124.3911283341979
 20
448.008803517251
 30
0.0
 10
126.4738468649131
 20
448.085687164972
 30
0.0
  0
LINE
  5
AE
330
1F
100
AcDbEntity
  8
0
  6
Continuous
 62
     7
370
    25
100
AcDbLine
 10
76.4738498451
 20
400.0790408298
 30
0.0
 11
78.5697279694
 21
400.0790408298
 31
0.0
  0
SPLINE
  5
AF
330
1F
100
AcDbEntity
  8
0
  6
Continuous
 62
     7
370
    25
100
AcDbSpline
210
0.0
220
0.0
230
1.0
 70
     8
 71
     3
 72
    24
 73
    20
 74
     0
 42
0.000000001
 43
0.00000001
 40
0.0
 40
0.0
 40
0.0
 40
0.0
 40
0.0568325278284864
 40
0.1175217259893682
 40
0.1820695950731241
 40
0.2499276774032401
 40
0.2890991036363484
 40
0.3310434326957492
 40
0.3828146547550559
 40
0.4444127496009937
 40
0.5127772938974479
 40
0.5710000811831145
 40
0.6381654002449808
 40
0.6973730001015991
 40
0.7486234019705196
 40
0.8158505081567506
 40
0.8804052501071781
 40
0.9417874642802105
 40
1.0
 40
1.0
 40
1.0
 40
1.0
 10
79.37257273218457
 20
311.1030748531319
 30
0.0
 10
79.35942266570828
 20
312.7904093826197
 30
0.0
 10
79.33223016577529
 20
316.2795814079305
 30
0.0
 10
79.28491574238406
 20
321.6824326773873
 30
0.0
 10
79.23153366121022
 20
327.410442604236
 30
0.0
 10
79.18162692759462
 20
332.4984241192298
 30
0.0
 10
79.13644348608356
 20
336.9146257747124
 30
0.0
 10
79.09550330718935
 20
340.8534239033431
 30
0.0
 10
79.04773307497864
 20
345.4566450555426
 30
0.0
 10
78.99192666411508
 20
350.8426807864737
 30
0.0
 10
78.93445461201165
 20
356.4195841518497
 30
0.0
 10
78.87649172974132
 20
362.1619269224909
 30
0.0
 10
78.8230894812072
 20
367.6336526474518
 30
0.0
 10
78.77360900922365
 20
372.8996688075483
 30
0.0
 10
78.72649160332956
 20
378.1687910423103
 30
0.0
 10
78.68133415834966
 20
383.5984034180594
 30
0.0
 10
78.6379139038959
 20
389.3308224660966
 30
0.0
 10
78.60033264787536
 20
394.7977506905863
 30
0.0
 10
78.57974767095894
 20
398.3499930587219
 30
0.0
 10
78.56972796938238
 20
400.079040829847
 30
0.0
  0
SPLINE
  5
B0
330
1F
100
AcDbEntity
  8
0
  6
Continuous
 62
     7
370
    25
100
AcDbSpline
210
0.0
220
0.0
230
1.0
 70
     8
 71
     3
 72
    18
 73
    14
 74
     0
 42
0.000000001
 43
0.00000001
 40
0.0
 40
0.0
 40
0.0
 40
0.0
 40
0.0896962511924739
 40
0.1868268703926936
 40
0.2832696291965559
 40
0.3808185490844131
 40
0.4700178079030361
 40
0.5510619469676648
 40
0.6361096245702346
 40
0.733159364832227
 40
0.8239104148342837
 40
0.9120494448274097
 40
1.0
 40
1.0
 40
1.0
 40
1.0
 10
79.37337739488898
 20
249.0583351299264
 30
0.0
 10
79.39121840372421
 20
250.9157182669514
 30
0.0
 10
79.42837915237338
 20
254.7844315520352
 30
0.0
 10
79.5151215459205
 20
260.6300277189556
 30
0.0
 10
79.61384365148393
 20
266.6296851400409
 30
0.0
 10
79.68644340392711
 20
272.4866704585223
 30
0.0
 10
79.72274051007744
 20
278.0425629141874
 30
0.0
 10
79.7165196713498
 20
283.3452589117209
 30
0.0
 10
79.67099730930954
 20
288.8001882106688
 30
0.0
 10
79.59715476308187
 20
294.4397654318803
 30
0.0
 10
79.50992770994608
 20
300.1316724135504
 30
0.0
 10
79.42261231881919
 20
305.6336524355229
 30
0.0
 10
79.38961831893698
 20
309.2814043657664
 30
0.0
 10
79.37313897630993
 20
311.1033281728722
 30
0.0
  0
SPLINE
  5
B1
330
1F
100
AcDbEntity
  8
0
  6
Continuous
 62
     7
370
    25
100
AcDbSpline
210
0.0
220
0.0
230
1.0
 70
     8
 71
     3
 72
    23
 73
    19
 74
     0
 42
0.000000001
 43
0.00000001
 40
0.0
 40
0.0
 40
0.0
 40
0.0
 40
0.0730973995001476
 40
0.1511319581386719
 40
0.2341085679887122
 40
0.302036202033089
 40
0.3477113370277477
 40
0.3982840746221026
 40
0.4537546720719788
 40
0.5164722624309499
 40
0.5835858824643679
 40
0.6408922974731207
 40
0.6883916156009675
 40
0.7260837140336157
 40
0.7584999886981818
 40
0.8121858681589266
 40
0.9106934210307753
 40
0.9999999999999999
 40
0.9999999999999999
 40
0.9999999999999999
 40
0.9999999999999999
 10
78.56972796938238
 20
160.0790387436844
 30
0.0
 10
78.58245697429989
 20
162.2502298150781
 30
0.0
 10
78.6087747291243
 20
166.7392589783147
 30
0.0
 10
78.65874910740023
 20
173.6885277988776
 30
0.0
 10
78.71327474137473
 20
180.4812702538862
 30
0.0
 10
78.76498625102663
 20
186.3111964620858
 30
0.0
 10
78.81043875007926
 20
191.1788565687577
 30
0.0
 10
78.85381581296124
 20
195.6764889442342
 30
0.0
 10
78.90343770367575
 20
200.6787052530324
 30
0.0
 10
78.95963287655633
 20
206.170460067919
 30
0.0
 10
79.01688097731335
 20
211.7166968886973
 30
0.0
 10
79.06980843826483
 20
216.812131773785
 30
0.0
 10
79.11364766382701
 20
221.0358062964374
 30
0.0
 10
79.14980883261924
 20
224.5219811129967
 30
0.0
 10
79.18701378580828
 20
228.1922065347304
 30
0.0
 10
79.24061008429872
 20
233.6668984042799
 30
0.0
 10
79.30751768402256
 20
240.8311759504575
 30
0.0
 10
79.35178948540577
 20
246.4071656783009
 30
0.0
 10
79.37284095308605
 20
249.0585772737958
 30
0.0
  0
LINE
  5
B2
330
1F
100
AcDbEntity
  8
0
  6
Continuous
 62
     7
370
    25
100
AcDbLine
 10
76.4738498451
 20
160.0790387437
 30
0.0
 11
78.5676716091
 21
160.0790387437
 31
0.0
  0
LINE
  5
B3
330
1F
100
AcDbEntity
  8
0
  6
Continuous
 62
     7
370
    25
100
AcDbLine
 10
196.4738546135
 20
110.0790417239
 30
0.0
 11
196.4738546135
 21
112.072384958
 31
0.0
  0
SPLINE
  5
B4
330
1F
100
AcDbEntity
  8
0
  6
Continuous
 62
     7
370
    25
100
AcDbSpline
210
0.0
220
0.0
230
1.0
 70
     8
 71
     3
 72
    21
 73
    17
 74
     0
 42
0.000000001
 43
0.00000001
 40
0.0
 40
0.0
 40
0.0
 40
0.0
 40
0.0675014795039173
 40
0.1335523324868455
 40
0.1981502669959388
 40
0.2612925706560006
 40
0.3229769555418841
 40
0.3832013597581103
 40
0.4419634632686857
 40
0.4992618883447684
 40
0.5832855608982307
 40
0.66708639031115
 40
0.7506616014306057
 40
0.8340075799342669
 40
0.9171213166661183
 40
0.9999999999999999
 40
0.9999999999999999
 40
0.9999999999999999
 40
0.9999999999999999
 10
244.3779884102088
 20
160.0790387436845
 30
0.0
 10
244.3314644248467
 20
158.3836444456817
 30
0.0
 10
244.239416268164
 20
155.0292903685976
 30
0.0
 10
243.439699139202
 20
150.1057762347415
 30
0.0
 10
242.2038755343508
 20
145.3936596741115
 30
0.0
 10
240.5300529754258
 20
140.9331707943697
 30
0.0
 10
238.4777241192892
 20
136.7570822553899
 30
0.0
 10
236.0919576745707
 20
132.8908342321733
 30
0.0
 10
233.4215540267373
 20
129.352714592796
 30
0.0
 10
230.0375654640258
 20
125.6308711495435
 30
0.0
 10
225.7805622697811
 20
121.8846704714939
 30
0.0
 10
220.517787496517
 20
118.3661935254142
 30
0.0
 10
214.8531760133044
 20
115.5728165693891
 30
0.0
 10
208.8882852836552
 20
113.5673741350826
 30
0.0
 10
202.7280663919009
 20
112.3032820784988
 30
0.0
 10
198.5566228835294
 20
112.1492779723661
 30
0.0
 10
196.4738546135169
 20
112.0723849579789
 30
0.0
  0
SPLINE
  5
B5
330
1F
100
AcDbEntity
  8
0
  6
Continuous
 62
     7
370
    25
100
AcDbSpline
210
0.0
220
0.0
230
1.0
 70
     8
 71
     3
 72
    21
 73
    17
 74
     0
 42
0.000000001
 43
0.00000001
 40
0.0
 40
0.0
 40
0.0
 40
0.0
 40
0.0828002493932403
 40
0.1658362126905831
 40
0.249104765089617
 40
0.3117267523603325
 40
0.3744765021018446
 40
0.4373528537612876
 40
0.5003541832403503
 40
0.5771199852645508
 40
0.6564897912220531
 40
0.7384592950433073
 40
0.8016594646715446
 40
0.866318012228577
 40
0.9324324148251337
 40
1.0
 40
1.0
 40
1.0
 40
1.0
 10
126.4738468649131
 20
112.0723849579789
 30
0.0
 10
124.3930141709826
 20
112.149128556339
 30
0.0
 10
120.2254251149967
 20
112.3028342250242
 30
0.0
 10
114.0709109575226
 20
113.5646158637945
 30
0.0
 10
108.6083114055113
 20
115.3990513636939
 30
0.0
 10
103.8624574396994
 20
117.6403326634063
 30
0.0
 10
99.7997808979095
 20
120.0719857338859
 30
0.0
 10
95.98960009933877
 20
122.8993175097779
 30
0.0
 10
92.21711434115632
 20
126.3261777105074
 30
0.0
 10
88.56614421103065
 20
130.4614194758293
 30
0.0
 10
85.17995564996478
 20
135.4071886269948
 30
0.0
 10
82.60367687681807
 20
140.4398010572338
 30
0.0
 10
80.74813138182269
 20
145.3797197427144
 30
0.0
 10
79.50988162254191
 20
150.096138043926
 30
0.0
 10
78.7085503133903
 20
155.0242971593917
 30
0.0
 10
78.61633622010122
 20
158.3819584590729
 30
0.0
 10
78.56972796938244
 20
160.0790387436845
 30
0.0
  0
LINE
  5
B6
330
1F
100
AcDbEntity
  8
0
  6
Continuous
 62
     7
370
    25
100
AcDbLine
 10
126.4738468649
 20
110.0790417239
 30
0.0
 11
126.4738468649
 21
112.072384958
 31
0.0
  0
SPLINE
  5
B7
330
1F
100
AcDbEntity
  8
0
  6
Continuous
 62
     7
370
    25
100
AcDbSpline
210
0.0
220
0.0
230
1.0
 70
     8
 71
     3
 72
     9
 73
     5
 74
     0
 42
0.000000001
 43
0.00000001
 40
0.0
 40
0.0
 40
0.0
 40
0.0
 40
0.4999575335273718
 40
1.0
 40
1.0
 40
1.0
 40
1.0
 10
196.4738546135169
 20
112.0723849579789
 30
0.0
 10
184.8081776040063
 20
112.0848863243887
 30
0.0
 10
161.4748418160538
 20
112.1098911809443
 30
0.0
 10
138.141505771611
 20
112.0848877401726
 30
0.0
 10
126.4738468649131
 20
112.0723849579789
 30
0.0
  0
SPLINE
  5
B8
330
1F
100
AcDbEntity
  8
0
  6
Continuous
 62
     7
370
    25
100
AcDbSpline
210
0.0
220
0.0
230
1.0
 70
     8
 71
     3
 72
     9
 73
     5
 74
     0
 42
0.000000001
 43
0.00000001
 40
0.0
 40
0.0
 40
0.0
 40
0.0
 40
0.4999633200385762
 40
0.9999999999999999
 40
0.9999999999999999
 40
0.9999999999999999
 40
0.9999999999999999
 10
126.2331484081489
 20
130.9357649132706
 30
0.0
 10
137.9791873853071
 20
130.9335000475334
 30
0.0
 10
161.4729888430858
 20
130.9289699837337
 30
0.0
 10
184.9667904933906
 20
130.9334998259887
 30
0.0
 10
196.7145530702812
 20
130.9357649132706
 30
0.0
  0
SPLINE
  5
B9
330
1F
100
AcDbEntity
  8
0
  6
Continuous
 62
     7
370
    25
100
AcDbSpline
210
0.0
220
0.0
230
1.0
 70
     8
 71
     3
 72
    15
 73
    11
 74
     0
 42
0.000000001
 43
0.00000001
 40
0.0
 40
0.0
 40
0.0
 40
0.0
 40
0.1250000179820922
 40
0.2499996358411644
 40
0.3749999660184848
 40
0.499999754253903
 40
0.6249997797883846
 40
0.7499998594494276
 40
0.8749998176853521
 40
0.9999999999999999
 40
0.9999999999999999
 40
0.9999999999999999
 40
0.9999999999999999
 10
196.7145530702812
 20
130.9357649132706
 30
0.0
 10
196.7115513770663
 20
129.7643601255263
 30
0.0
 10
196.705548000245
 20
127.4215542996851
 30
0.0
 10
196.6873626916405
 20
124.056554793329
 30
0.0
 10
196.6630720381552
 20
120.9341686555784
 30
0.0
 10
196.6327764498701
 20
118.1552850596934
 30
0.0
 10
196.5975576586651
 20
115.8012989838719
 30
0.0
 10
196.5585326912146
 20
113.9605788223094
 30
0.0
 10
196.5168569038736
 20
112.6339919111554
 30
0.0
 10
196.4881887188677
 20
112.2595873875658
 30
0.0
 10
196.4738546135169
 20
112.0723849579789
 30
0.0
  0
SPLINE
  5
BA
330
1F
100
AcDbEntity
  8
0
  6
Continuous
 62
     7
370
    25
100
AcDbSpline
210
0.0
220
0.0
230
1.0
 70
     8
 71
     3
 72
    15
 73
    11
 74
     0
 42
0.000000001
 43
0.00000001
 40
0.0
 40
0.0
 40
0.0
 40
0.0
 40
0.12500001821517
 40
0.2499996389600541
 40
0.374999969370453
 40
0.4999997533215916
 40
0.6249997790891509
 40
0.7499998589832718
 40
0.874999817452274
 40
0.9999999999999999
 40
0.9999999999999999
 40
0.9999999999999999
 40
0.9999999999999999
 10
126.2331484081489
 20
130.9357649132706
 30
0.0
 10
126.2361485350189
 20
129.7643601183755
 30
0.0
 10
126.2421487792191
 20
127.4215542533735
 30
0.0
 10
126.2603575831729
 20
124.0565548320574
 30
0.0
 10
126.2846483595905
 20
120.9341687214069
 30
0.0
 10
126.3149199598801
 20
118.1552849950737
 30
0.0
 10
126.3501451775626
 20
115.8012989935852
 30
0.0
 10
126.3891684251364
 20
113.9605788197193
 30
0.0
 10
126.4308446650764
 20
112.633991911803
 30
0.0
 10
126.4595127897357
 20
112.2595873877817
 30
0.0
 10
126.4738468649131
 20
112.0723849579789
 30
0.0
  0
SPLINE
  5
BB
330
1F
100
AcDbEntity
  8
0
  6
Continuous
 62
     7
370
    25
100
AcDbSpline
210
0.0
220
0.0
230
1.0
 70
     8
 71
     3
 72
    15
 73
    11
 74
     0
 42
0.000000001
 43
0.00000001
 40
0.0
 40
0.0
 40
0.0
 40
0.0
 40
0.1179247357131618
 40
0.2417112312081358
 40
0.3697402287915818
 40
0.5000000645085014
 40
0.6302600474501837
 40
0.7582886580520847
 40
0.8820756617562483
 40
0.9999999999999999
 40
0.9999999999999999
 40
0.9999999999999999
 40
0.9999999999999999
 10
244.3779884102088
 20
400.079040829847
 30
0.0
 10
244.19761248414
 20
400.1317925886888
 30
0.0
 10
243.8278945712125
 20
400.239918271574
 30
0.0
 10
242.511406493511
 20
400.4004956999664
 30
0.0
 10
240.6021531578583
 20
400.5559209945076
 30
0.0
 10
238.0942564273049
 20
400.6976045387242
 30
0.0
 10
235.1187708156345
 20
400.8179879501926
 30
0.0
 10
231.8337339193019
 20
400.9108167860643
 30
0.0
 10
228.4238160988167
 20
400.9761280109543
 30
0.0
 10
226.1150888603258
 20
400.9960129335141
 30
0.0
 10
224.9887241246444
 20
401.00571424217
 30
0.0
  0
SPLINE
  5
BC
330
1F
100
AcDbEntity
  8
0
  6
Continuous
 62
     7
370
    25
100
AcDbSpline
210
0.0
220
0.0
230
1.0
 70
     8
 71
     3
 72
    15
 73
    11
 74
     0
 42
0.000000001
 43
0.00000001
 40
0.0
 40
0.0
 40
0.0
 40
0.0
 40
0.1234197343701879
 40
0.2492402089829751
 40
0.3737188531178884
 40
0.4988930021794554
 40
0.6240566733414216
 40
0.7492863116079375
 40
0.8746308301637
 40
1.0
 40
1.0
 40
1.0
 40
1.0
 10
224.9887241246444
 20
401.00571424217
 30
0.0
 10
224.8912620916078
 20
402.8305479915269
 30
0.0
 10
224.6944422102013
 20
406.515711854258
 30
0.0
 10
223.0160029868075
 20
411.8285952837401
 30
0.0
 10
220.411981532232
 20
416.754417214278
 30
0.0
 10
216.8660009191844
 20
421.0542366412
 30
0.0
 10
212.5561944808
 20
424.6060389638752
 30
0.0
 10
207.6259400793354
 20
427.2168959905425
 30
0.0
 10
202.27955396951
 20
428.9083562880905
 30
0.0
 10
198.5696749606039
 20
429.1176500429206
 30
0.0
 10
196.7145530702812
 20
429.2223072096803
 30
0.0
  0
SPLINE
  5
BD
330
1F
100
AcDbEntity
  8
0
  6
Continuous
 62
     7
370
    25
100
AcDbSpline
210
0.0
220
0.0
230
1.0
 70
     8
 71
     3
 72
    15
 73
    11
 74
     0
 42
0.000000001
 43
0.00000001
 40
0.0
 40
0.0
 40
0.0
 40
0.0
 40
0.1181601752385963
 40
0.2419940430771304
 40
0.3699220775052412
 40
0.4999999387616448
 40
0.6300782348765583
 40
0.7580062389506167
 40
0.8818397554196032
 40
1.0
 40
1.0
 40
1.0
 40
1.0
 10
196.4738546135169
 20
448.085687164972
 30
0.0
 10
196.487401837636
 20
447.911686931469
 30
0.0
 10
196.5151467824147
 20
447.5553315019284
 30
0.0
 10
196.5563725601045
 20
446.2823613151299
 30
0.0
 10
196.5963047627411
 20
444.4359821439188
 30
0.0
 10
196.6328418823369
 20
442.0087448605753
 30
0.0
 10
196.6640928222538
 20
439.1234649809298
 30
0.0
 10
196.6884822269345
 20
435.9277119091599
 30
0.0
 10
196.7060077585699
 20
432.597289101576
 30
0.0
 10
196.7117495026239
 20
430.3295798751709
 30
0.0
 10
196.7145530702812
 20
429.2223072096803
 30
0.0
  0
SPLINE
  5
BE
330
1F
100
AcDbEntity
  8
0
  6
Continuous
 62
     7
370
    25
100
AcDbSpline
210
0.0
220
0.0
230
1.0
 70
     8
 71
     3
 72
    15
 73
    11
 74
     0
 42
0.000000001
 43
0.00000001
 40
0.0
 40
0.0
 40
0.0
 40
0.0
 40
0.1234199084787421
 40
0.2492401806734584
 40
0.3737189800336586
 40
0.498893349473195
 40
0.6240565544798433
 40
0.7492861997614348
 40
0.8746308231408081
 40
1.0
 40
1.0
 40
1.0
 40
1.0
 10
97.95898480436627
 20
159.1523653313615
 30
0.0
 10
98.05644691551063
 20
157.3275291051399
 30
0.0
 10
98.2532666546424
 20
153.6423658577431
 30
0.0
 10
99.93170077532793
 20
148.3294801723293
 30
0.0
 10
102.5357166104608
 20
143.4036510335707
 30
0.0
 10
106.0817114186053
 20
139.1038452917281
 30
0.0
 10
110.3915120685967
 20
135.5520428833028
 30
0.0
 10
115.3217643959221
 20
132.9411954802668
 30
0.0
 10
120.6681446232311
 20
131.2497113415178
 30
0.0
 10
124.3780260383
 20
131.0404205549351
 30
0.0
 10
126.2331484081489
 20
130.9357649132706
 30
0.0
  0
SPLINE
  5
BF
330
1F
100
AcDbEntity
  8
0
  6
Continuous
 62
     7
370
    25
100
AcDbSpline
210
0.0
220
0.0
230
1.0
 70
     8
 71
     3
 72
    15
 73
    11
 74
     0
 42
0.000000001
 43
0.00000001
 40
0.0
 40
0.0
 40
0.0
 40
0.0
 40
0.1179246054744676
 40
0.2417113762946477
 40
0.3697397602403281
 40
0.4999997558927759
 40
0.630259953072022
 40
0.7582888272838676
 40
0.8820752527797459
 40
1.0
 40
1.0
 40
1.0
 40
1.0
 10
97.95898480436627
 20
159.1523653313615
 30
0.0
 10
96.83261748864969
 20
159.1620625028196
 30
0.0
 10
94.52388986560817
 20
159.1819389030829
 30
0.0
 10
91.11397505874724
 20
159.2472687828266
 30
0.0
 10
87.82894316884415
 20
159.3400805804949
 30
0.0
 10
84.85346070783284
 20
159.4604686363975
 30
0.0
 10
82.3455467788855
 20
159.6021512648819
 30
0.0
 10
80.43630239376209
 20
159.757573774723
 30
0.0
 10
79.11982315840088
 20
159.9181637208536
 30
0.0
 10
78.75010437929042
 20
160.0262877659603
 30
0.0
 10
78.56972796938244
 20
160.0790387436845
 30
0.0
  0
SPLINE
  5
C0
330
1F
100
AcDbEntity
  8
0
  6
Continuous
 62
     7
370
    25
100
AcDbSpline
210
0.0
220
0.0
230
1.0
 70
     8
 71
     3
 72
    15
 73
    11
 74
     0
 42
0.000000001
 43
0.00000001
 40
0.0
 40
0.0
 40
0.0
 40
0.0
 40
0.1256473901094542
 40
0.2512920209596683
 40
0.3764394514077088
 40
0.5015636746023728
 40
0.6267410874361805
 40
0.7512639594370744
 40
0.8768180505471547
 40
1.0
 40
1.0
 40
1.0
 40
1.0
 10
196.7145530702812
 20
130.9357649132706
 30
0.0
 10
198.5737990873627
 20
131.0409275976586
 30
0.0
 10
202.2922502918536
 20
131.2512506570262
 30
0.0
 10
207.6448090422011
 20
132.9486513602674
 30
0.0
 10
212.5751061207721
 20
135.5649111271496
 30
0.0
 10
216.8808825699661
 20
139.1188051587243
 30
0.0
 10
220.423831751669
 20
143.4212665499529
 30
0.0
 10
223.0225689748048
 20
148.3462613989083
 30
0.0
 10
224.6957209772096
 20
153.6533598093646
 30
0.0
 10
224.8916793463176
 20
157.3310546165375
 30
0.0
 10
224.9887241246444
 20
159.1523653313615
 30
0.0
  0
SPLINE
  5
C1
330
1F
100
AcDbEntity
  8
0
  6
Continuous
 62
     7
370
    25
100
AcDbSpline
210
0.0
220
0.0
230
1.0
 70
     8
 71
     3
 72
    15
 73
    11
 74
     0
 42
0.000000001
 43
0.00000001
 40
0.0
 40
0.0
 40
0.0
 40
0.0
 40
0.1179247348692466
 40
0.2417112412308988
 40
0.3697402378981196
 40
0.5000000726828492
 40
0.6302600546923404
 40
0.7582886577741723
 40
0.8820756652553161
 40
1.0
 40
1.0
 40
1.0
 40
1.0
 10
244.3779884102088
 20
160.0790387436845
 30
0.0
 10
244.1976124693973
 20
160.0262877601574
 30
0.0
 10
243.8278945082748
 20
159.9181636611835
 30
0.0
 10
242.5114065902303
 20
159.7575737108383
 30
0.0
 10
240.6021531526476
 20
159.6021516351873
 30
0.0
 10
238.0942564085192
 20
159.4604683819189
 30
0.0
 10
235.1187709459163
 20
159.3400805046147
 30
0.0
 10
231.8337337054176
 20
159.2472687705624
 30
0.0
 10
228.4238162434963
 20
159.1819390188178
 30
0.0
 10
226.115088884433
 20
159.1620625267248
 30
0.0
 10
224.9887241246444
 20
159.1523653313615
 30
0.0
  0
SPLINE
  5
C2
330
1F
100
AcDbEntity
  8
0
  6
Continuous
 62
     7
370
    25
100
AcDbSpline
210
0.0
220
0.0
230
1.0
 70
     8
 71
     3
 72
    15
 73
    11
 74
     0
 42
0.000000001
 43
0.00000001
 40
0.0
 40
0.0
 40
0.0
 40
0.0
 40
0.1181601752385963
 40
0.2419940430771304
 40
0.3699220775052412
 40
0.4999999387616448
 40
0.6300782348765583
 40
0.7580062389506167
 40
0.8818397554196032
 40
1.0
 40
1.0
 40
1.0
 40
1.0
 10
126.4738468649131
 20
448.085687164972
 30
0.0
 10
126.4602996407941
 20
447.911686931469
 30
0.0
 10
126.4325546960153
 20
447.5553315019284
 30
0.0
 10
126.3913289183256
 20
446.2823613151299
 30
0.0
 10
126.351396715689
 20
444.4359821439188
 30
0.0
 10
126.3148595960932
 20
442.0087448605753
 30
0.0
 10
126.2836086561764
 20
439.1234649809298
 30
0.0
 10
126.2592192514956
 20
435.9277119091599
 30
0.0
 10
126.2416937198602
 20
432.597289101576
 30
0.0
 10
126.2359519758062
 20
430.3295798751709
 30
0.0
 10
126.2331484081489
 20
429.2223072096803
 30
0.0
  0
SPLINE
  5
C3
330
1F
100
AcDbEntity
  8
0
  6
Continuous
 62
     7
370
    25
100
AcDbSpline
210
0.0
220
0.0
230
1.0
 70
     8
 71
     3
 72
    15
 73
    11
 74
     0
 42
0.000000001
 43
0.00000001
 40
0.0
 40
0.0
 40
0.0
 40
0.0
 40
0.1256474077813051
 40
0.2512917346724587
 40
0.3764394791657021
 40
0.5015637199586356
 40
0.6267410204572432
 40
0.7512639889499375
 40
0.8768180491285558
 40
1.0
 40
1.0
 40
1.0
 40
1.0
 10
126.2331484081489
 20
429.2223072096803
 30
0.0
 10
124.3739021118976
 20
429.1171453161977
 30
0.0
 10
120.6554551083465
 20
428.9068241078155
 30
0.0
 10
115.3029006193419
 20
427.2094134398187
 30
0.0
 10
110.3725974564897
 20
424.5931663278831
 30
0.0
 10
106.066821230444
 20
421.0392669106548
 30
0.0
 10
102.5238692846674
 20
416.7368103813307
 30
0.0
 10
99.92512214531948
 20
411.8118213799639
 30
0.0
 10
98.2519811297966
 20
406.5047186070191
 30
0.0
 10
98.05602733164353
 20
402.8270247322927
 30
0.0
 10
97.95898480436627
 20
401.00571424217
 30
0.0
  0
SPLINE
  5
C4
330
1F
100
AcDbEntity
  8
0
  6
Continuous
 62
     7
370
    25
100
AcDbSpline
210
0.0
220
0.0
230
1.0
 70
     8
 71
     3
 72
    15
 73
    11
 74
     0
 42
0.000000001
 43
0.00000001
 40
0.0
 40
0.0
 40
0.0
 40
0.0
 40
0.1179246089735332
 40
0.2417113760167232
 40
0.3697397674824854
 40
0.499999764067126
 40
0.6302599621785663
 40
0.7582888373066381
 40
0.882075251935829
 40
1.0
 40
1.0
 40
1.0
 40
1.0
 10
97.95898480436627
 20
401.00571424217
 30
0.0
 10
96.83261751275695
 20
400.9960129574121
 30
0.0
 10
94.52389001028799
 20
400.9761281266852
 30
0.0
 10
91.11397484486267
 20
400.9108167737935
 30
0.0
 10
87.82894329912627
 20
400.8179878743065
 30
0.0
 10
84.85346068904704
 20
400.6976042842505
 30
0.0
 10
82.34554677367473
 20
400.5559213648152
 30
0.0
 10
80.436302490481
 20
400.4004956360834
 30
0.0
 10
79.11982309546323
 20
400.2399182119059
 30
0.0
 10
78.75010436454765
 20
400.1317925828868
 30
0.0
 10
78.56972796938244
 20
400.079040829847
 30
0.0
  0
SPLINE
  5
C5
330
1F
100
AcDbEntity
  8
0
  6
Continuous
 62
     7
370
    25
100
AcDbSpline
210
0.0
220
0.0
230
1.0
 70
     8
 71
     3
 72
    10
 73
     6
 74
     0
 42
0.000000001
 43
0.00000001
 40
0.0
 40
0.0
 40
0.0
 40
0.0
 40
0.3335559635636901
 40
0.6664440364363099
 40
1.0
 40
1.0
 40
1.0
 40
1.0
 10
196.7145530702812
 20
429.2223072096803
 30
0.0
 10
188.8782280650743
 20
429.2219673950946
 30
0.0
 10
173.2212690003935
 20
429.2212884463458
 30
0.0
 10
149.7264324780366
 20
429.2212884463459
 30
0.0
 10
134.0694734133558
 20
429.2219673950946
 30
0.0
 10
126.2331484081489
 20
429.2223072096803
 30
0.0
  0
SPLINE
  5
C6
330
1F
100
AcDbEntity
  8
0
  6
Continuous
 62
     7
370
    25
100
AcDbSpline
210
0.0
220
0.0
230
1.0
 70
     8
 71
     3
 72
    15
 73
    11
 74
     0
 42
0.000000001
 43
0.00000001
 40
0.0
 40
0.0
 40
0.0
 40
0.0
 40
0.118340277250857
 40
0.2422102448648151
 40
0.3700604827304009
 40
0.4999986036805691
 40
0.6299374797611466
 40
0.757788438995467
 40
0.8816586795152614
 40
1.0
 40
1.0
 40
1.0
 40
1.0
 10
243.5745252492172
 20
311.099343974898
 30
0.0
 10
243.4115194716594
 20
311.1201364086597
 30
0.0
 10
243.0778911397521
 20
311.1626928449781
 30
0.0
 10
241.9796559925456
 20
311.2259296586909
 30
0.0
 10
240.4194694606915
 20
311.2872645653213
 30
0.0
 10
238.3935448541408
 20
311.3435272566485
 30
0.0
 10
236.0019811753905
 20
311.391932732063
 30
0.0
 10
233.3633454661759
 20
311.4300796752189
 30
0.0
 10
230.6182016345651
 20
311.4579069344983
 30
0.0
 10
228.7511317741933
 20
311.4674942464846
 30
0.0
 10
227.8389064790946
 20
311.4721784785487
 30
0.0
  0
SPLINE
  5
C7
330
1F
100
AcDbEntity
  8
0
  6
Continuous
 62
     7
370
    25
100
AcDbSpline
210
0.0
220
0.0
230
1.0
 70
     8
 71
     3
 72
    15
 73
    11
 74
     0
 42
0.000000001
 43
0.00000001
 40
0.0
 40
0.0
 40
0.0
 40
0.0
 40
0.117042199894921
 40
0.2385789272960313
 40
0.3660960402586956
 40
0.5005414598701033
 40
0.6148610043184016
 40
0.736118991597899
 40
0.8644744146160789
 40
1.0
 40
1.0
 40
1.0
 40
1.0
 10
227.839085293029
 20
311.4722660228707
 30
0.0
 10
227.7156675179085
 20
314.9667794010871
 30
0.0
 10
227.4640926122424
 20
322.0899986668307
 30
0.0
 10
227.0122876742329
 20
333.0161119388831
 30
0.0
 10
226.5129565222196
 20
344.4589829903055
 30
0.0
 10
226.0279103237722
 20
355.6852538613093
 30
0.0
 10
225.6185760429692
 20
366.7263488942323
 30
0.0
 10
225.2894656489899
 20
377.5871135481241
 30
0.0
 10
225.0308465063874
 20
389.0827049846923
 30
0.0
 10
225.0030169794252
 20
396.9600303844236
 30
0.0
 10
224.9887241246444
 20
401.00571424217
 30
0.0
  0
SPLINE
  5
C8
330
1F
100
AcDbEntity
  8
0
  6
Continuous
 62
     7
370
    25
100
AcDbSpline
210
0.0
220
0.0
230
1.0
 70
     8
 71
     3
 72
    15
 73
    11
 74
     0
 42
0.000000001
 43
0.00000001
 40
0.0
 40
0.0
 40
0.0
 40
0.0
 40
0.1170372433105715
 40
0.2385661861902668
 40
0.3660722264023926
 40
0.5005030156851955
 40
0.6148327808629828
 40
0.736100596681149
 40
0.8644653450088999
 40
1.0
 40
1.0
 40
1.0
 40
1.0
 10
95.10688765070257
 20
248.6894494339921
 30
0.0
 10
95.23028634275809
 20
245.1949394522775
 30
0.0
 10
95.48181956852298
 20
238.0718058636878
 30
0.0
 10
95.93377633027345
 20
227.1459574826985
 30
0.0
 10
96.43338179010807
 20
215.7036277369912
 30
0.0
 10
96.91872456624762
 20
204.477368502856
 30
0.0
 10
97.32844552437969
 20
193.4356683955966
 30
0.0
 10
97.65787367775825
 20
182.5735883840179
 30
0.0
 10
97.91679388810381
 20
171.0766855529727
 30
0.0
 10
97.94466872099672
 20
163.1984865711917
 30
0.0
 10
97.95898480436627
 20
159.1523653313615
 30
0.0
  0
SPLINE
  5
C9
330
1F
100
AcDbEntity
  8
0
  6
Continuous
 62
     7
370
    25
100
AcDbSpline
210
0.0
220
0.0
230
1.0
 70
     8
 71
     3
 72
    15
 73
    11
 74
     0
 42
0.000000001
 43
0.00000001
 40
0.0
 40
0.0
 40
0.0
 40
0.0
 40
0.1183422000247533
 40
0.2422118015627632
 40
0.3700609112616295
 40
0.4999964301361676
 40
0.6299320767565632
 40
0.7577824959942951
 40
0.8816544431773147
 40
1.0
 40
1.0
 40
1.0
 40
1.0
 10
95.1070664646369
 20
248.6895351156689
 30
0.0
 10
94.194925663395
 20
248.6984546998676
 30
0.0
 10
92.32804075926526
 20
248.7167104747095
 30
0.0
 10
89.58314406882589
 20
248.753662528173
 30
0.0
 10
86.94475453394834
 20
248.7975939955553
 30
0.0
 10
84.55341212482243
 20
248.8475912761097
 30
0.0
 10
82.52771025403338
 20
248.9011931635192
 30
0.0
 10
80.96764224488857
 20
248.9557388754081
 30
0.0
 10
79.86954232831195
 20
249.0089220182998
 30
0.0
 10
79.53593047374585
 20
249.0422792125154
 30
0.0
 10
79.37293036005322
 20
249.0585772737958
 30
0.0
  0
SPLINE
  5
CA
330
1F
100
AcDbEntity
  8
0
  6
Continuous
 62
     7
370
    25
100
AcDbSpline
210
0.0
220
0.0
230
1.0
 70
     8
 71
     3
 72
    16
 73
    12
 74
     0
 42
0.000000001
 43
0.00000001
 40
0.0
 40
0.0
 40
0.0
 40
0.0
 40
0.1018687691808402
 40
0.1997352780354873
 40
0.2936204885555383
 40
0.3835643958831849
 40
0.4696372433784119
 40
0.5648973414042597
 40
0.7179465229696478
 40
0.8622591047201555
 40
1.0
 40
1.0
 40
1.0
 40
1.0
 10
97.95898480436627
 20
401.00571424217
 30
0.0
 10
97.9524242511437
 20
397.9647713209891
 30
0.0
 10
97.9395608982977
 20
392.0023592418377
 30
0.0
 10
97.78673680344319
 20
383.2378881234213
 30
0.0
 10
97.57779997073146
 20
374.8304516389005
 30
0.0
 10
97.32494061157715
 20
366.7759501756852
 30
0.0
 10
97.03300606748044
 20
358.6811745955183
 30
0.0
 10
96.62351021113602
 20
348.7045046961601
 30
0.0
 10
96.10584795158134
 20
336.9903808234334
 30
0.0
 10
95.55521635948944
 20
324.0058141161254
 30
0.0
 10
95.25515247046978
 20
315.5847130904608
 30
0.0
 10
95.10861618540112
 20
311.4722660228707
 30
0.0
  0
SPLINE
  5
CB
330
1F
100
AcDbEntity
  8
0
  6
Continuous
 62
     7
370
    25
100
AcDbSpline
210
0.0
220
0.0
230
1.0
 70
     8
 71
     3
 72
    15
 73
    11
 74
     0
 42
0.000000001
 43
0.00000001
 40
0.0
 40
0.0
 40
0.0
 40
0.0
 40
0.1183429338268541
 40
0.2422148368479086
 40
0.3700667479381988
 40
0.5000049429657171
 40
0.6299421079008354
 40
0.7577922742558049
 40
0.8816604849879826
 40
1.0
 40
1.0
 40
1.0
 40
1.0
 10
95.10879499933544
 20
311.4755088880755
 30
0.0
 10
94.1965517574973
 20
311.4708437244103
 30
0.0
 10
92.32944536726106
 20
311.4612954411329
 30
0.0
 10
89.58426225812377
 20
311.4335432300167
 30
0.0
 10
86.94561489246883
 20
311.3954737669976
 30
0.0
 10
84.55403788939614
 20
311.3471615064115
 30
0.0
 10
82.52815794356933
 20
311.2909909953029
 30
0.0
 10
80.96799205682387
 20
311.2297475467269
 30
0.0
 10
79.86977455037669
 20
311.1665986221859
 30
0.0
 10
79.53614566816402
 20
311.1240949225239
 30
0.0
 10
79.37313897630993
 20
311.1033281728722
 30
0.0
  0
SPLINE
  5
CC
330
1F
100
AcDbEntity
  8
0
  6
Continuous
 62
     7
370
    25
100
AcDbSpline
210
0.0
220
0.0
230
1.0
 70
     8
 71
     3
 72
    16
 73
    12
 74
     0
 42
0.000000001
 43
0.00000001
 40
0.0
 40
0.0
 40
0.0
 40
0.0
 40
0.1018753933125217
 40
0.199748872131223
 40
0.2936412567592752
 40
0.3835925185183471
 40
0.4696729810441678
 40
0.5649283779716185
 40
0.7179627277629442
 40
0.8622651841602993
 40
1.0
 40
1.0
 40
1.0
 40
1.0
 10
224.9887241246444
 20
159.1523653313615
 30
0.0
 10
224.9952975892617
 20
162.1936311470166
 30
0.0
 10
225.0081862967365
 20
168.1566944224119
 30
0.0
 10
225.1611668341837
 20
176.9221456271313
 30
0.0
 10
225.3703229506222
 20
185.3305642074162
 30
0.0
 10
225.6234808520854
 20
193.3860520557768
 30
0.0
 10
225.9156526954276
 20
201.4814580988115
 30
0.0
 10
226.3254513796267
 20
211.4581741726692
 30
0.0
 10
226.8434133367242
 20
223.1718802553383
 30
0.0
 10
227.3942743477398
 20
236.1560477684722
 30
0.0
 10
227.6942911404653
 20
244.5770136163688
 30
0.0
 10
227.8408063771469
 20
248.6894494339921
 30
0.0
  0
SPLINE
  5
CD
330
1F
100
AcDbEntity
  8
0
  6
Continuous
 62
     7
370
    25
100
AcDbSpline
210
0.0
220
0.0
230
1.0
 70
     8
 71
     3
 72
    15
 73
    11
 74
     0
 42
0.000000001
 43
0.00000001
 40
0.0
 40
0.0
 40
0.0
 40
0.0
 40
0.1183454557483261
 40
0.2422177279407441
 40
0.3700676014745964
 40
0.5000036438789979
 40
0.6299391265373241
 40
0.7577876284158019
 40
0.8816571954283198
 40
1.0
 40
1.0
 40
1.0
 40
1.0
 10
243.5747711183769
 20
249.0585772737958
 30
0.0
 10
243.4117765373233
 20
249.0422791865655
 30
0.0
 10
243.0781754130572
 20
249.0089218799098
 30
0.0
 10
241.980033224059
 20
248.9557391509882
 30
0.0
 10
240.4200053540072
 20
248.9011928742465
 30
0.0
 10
238.3942794453225
 20
248.8475914065807
 30
0.0
 10
236.0029434157333
 20
248.7975941128629
 30
0.0
 10
233.3645614346839
 20
248.7536624162209
 30
0.0
 10
230.6196632676162
 20
248.7167103879639
 30
0.0
 10
228.7527733345487
 20
248.6984546879038
 30
0.0
 10
227.8406275632125
 20
248.6895351156689
 30
0.0
  0
SPLINE
  5
CE
330
1F
100
AcDbEntity
  8
0
  6
Continuous
 62
     7
370
    25
100
AcDbSpline
210
0.0
220
0.0
230
1.0
 70
     8
 71
     3
 72
    15
 73
    11
 74
     0
 42
0.000000001
 43
0.00000001
 40
0.0
 40
0.0
 40
0.0
 40
0.0
 40
0.1249999607767774
 40
0.2499999834323324
 40
0.3749999978197021
 40
0.5000000017159557
 40
0.6250000061273249
 40
0.7500000194584535
 40
0.8750000244168002
 40
1.0
 40
1.0
 40
1.0
 40
1.0
 10
227.8406275632125
 20
248.6895351156689
 30
0.0
 10
228.9183424633826
 20
251.1699266498844
 30
0.0
 10
231.0737727972244
 20
256.1307109461843
 30
0.0
 10
233.2418423852174
 20
263.9662376576165
 30
0.0
 10
234.593591459932
 20
271.970819088424
 30
0.0
 10
235.0374809080903
 20
280.0810536826278
 30
0.0
 10
234.5931431968843
 20
288.1912637103543
 30
0.0
 10
233.2409533134289
 20
296.1957701030303
 30
0.0
 10
231.0724579973974
 20
304.0311788412599
 30
0.0
 10
228.9167569007635
 20
308.9918454604128
 30
0.0
 10
227.8389064790946
 20
311.4721784785487
 30
0.0
  0
SPLINE
  5
CF
330
1F
100
AcDbEntity
  8
0
  6
Continuous
 62
     7
370
    25
100
AcDbSpline
210
0.0
220
0.0
230
1.0
 70
     8
 71
     3
 72
    15
 73
    11
 74
     0
 42
0.000000001
 43
0.00000001
 40
0.0
 40
0.0
 40
0.0
 40
0.0
 40
0.1250000244974692
 40
0.2500000663747207
 40
0.3750000094769525
 40
0.5000000385139924
 40
0.6250000670169035
 40
0.7500000680436548
 40
0.8750000336358547
 40
1.0
 40
1.0
 40
1.0
 40
1.0
 10
95.10879499933544
 20
311.4721784785487
 30
0.0
 10
94.03094339885054
 20
308.9918453245184
 30
0.0
 10
91.87524004801794
 20
304.0311786715965
 30
0.0
 10
89.70671841797356
 20
296.195774730772
 30
0.0
 10
88.35459454386357
 20
288.1912594356311
 30
0.0
 10
87.91019347094591
 20
280.081054174789
 30
0.0
 10
88.35413729291864
 20
271.9708201670703
 30
0.0
 10
89.70586570802413
 20
263.9662394946058
 30
0.0
 10
91.8739184406872
 20
256.1307084820012
 30
0.0
 10
94.02935045443522
 20
251.1699262428857
 30
0.0
 10
95.10706646463696
 20
248.6895351156689
 30
0.0
  0
ARC
  5
D0
330
1F
100
AcDbEntity
  8
0
  6
Continuous
 62
     7
370
    25
100
AcDbCircle
 10
161.4738518479
 20
280.0790375802
 30
0.0
 40
73.4155934289034
100
AcDbArc
 50
205.3127521999
 51
334.6872478089
  0
ARC
  5
D1
330
1F
100
AcDbEntity
  8
0
  6
Continuous
 62
     7
370
    25
100
AcDbCircle
 10
161.4738518479
 20
280.0790375802
 30
0.0
 40
73.4155934289034
100
AcDbArc
 50
25.315892654
 51
154.6841073144
  0
CIRCLE
  5
D2
330
1F
100
AcDbEntity
  8
0
  6
Continuous
 62
     7
370
    25
100
AcDbCircle
 10
161.4738518479
 20
280.0790375802
 30
0.0
 40
58.61177143234623
  0
CIRCLE
  5
D3
330
1F
100
AcDbEntity
  8
0
  6
Continuous
 62
     7
370
    25
100
AcDbCircle
 10
161.4738518479
 20
280.0790375802
 30
0.0
 40
57.50000000000003
  0
ARC
  5
D4
330
1F
100
AcDbEntity
  8
0
  6
Continuous
 62
     7
370
    25
100
AcDbCircle
 10
328.4738518479
 20
430.0790375802
 30
0.0
 40
50.0
100
AcDbArc
 50
90.0
 51
180.0
  0
ARC
  5
D5
330
1F
100
AcDbEntity
  8
0
  6
Continuous
 62
     7
370
    25
100
AcDbCircle
 10
568.4738518479
 20
430.0790375802
 30
0.0
 40
50.0
100
AcDbArc
 50
0.0
 51
90.0
  0
LINE
  5
D6
330
1F
100
AcDbEntity
  8
0
  6
Continuous
 62
     7
370
    25
100
AcDbLine
 10
568.4738485338
 20
480.0790315911
 30
0.0
 11
328.4738520356
 21
480.0790315911
 31
0.0
  0
LINE
  5
D7
330
1F
100
AcDbEntity
  8
0
  6
Continuous
 62
     7
370
    25
100
AcDbLine
 10
278.4738494279
 20
430.0790345714
 30
0.0
 11
278.4738494279
 21
130.0790375516
 31
0.0
  0
LINE
  5
D8
330
1F
100
AcDbEntity
  8
0
  6
Continuous
 62
     7
370
    25
100
AcDbLine
 10
618.4738455536
 20
130.0790375516
 30
0.0
 11
618.4738455536
 21
430.0790345714
 31
0.0
  0
ARC
  5
D9
330
1F
100
AcDbEntity
  8
0
  6
Continuous
 62
     7
370
    25
100
AcDbCircle
 10
568.4738518479
 20
130.0790375802
 30
0.0
 40
49.99999999999997
100
AcDbArc
 50
270.0
 51
0.0
  0
ARC
  5
DA
330
1F
100
AcDbEntity
  8
0
  6
Continuous
 62
     7
370
    25
100
AcDbCircle
 10
328.4738518479
 20
130.0790375802
 30
0.0
 40
50.0
100
AcDbArc
 50
180.0
 51
270.0
  0
LINE
  5
DB
330
1F
100
AcDbEntity
  8
0
  6
Continuous
 62
     7
370
    25
100
AcDbLine
 10
328.4738520356
 20
80.0790405318
 30
0.0
 11
568.4738485338
 21
80.0790405318
 31
0.0
  0
LINE
  5
DC
330
1F
100
AcDbEntity
  8
0
  6
Continuous
 62
     7
370
    25
100
AcDbLine
 10
568.4738485338
 20
480.0790315911
 30
0.0
 11
568.4738485338
 21
472.0515078351
 31
0.0
  0
SPLINE
  5
DD
330
1F
100
AcDbEntity
  8
0
  6
Continuous
 62
     7
370
    25
100
AcDbSpline
210
0.0
220
0.0
230
1.0
 70
     8
 71
     3
 72
    13
 73
     9
 74
     0
 42
0.000000001
 43
0.00000001
 40
0.0
 40
0.0
 40
0.0
 40
0.0
 40
0.1744080823217142
 40
0.3488153626870904
 40
0.523708417299114
 40
0.6986035049837687
 40
0.8492714582679204
 40
0.9999999999999999
 40
0.9999999999999999
 40
0.9999999999999999
 40
0.9999999999999999
 10
328.4738520356161
 20
470.7649266764619
 30
0.0
 10
342.442148786675
 20
470.700106018927
 30
0.0
 10
370.3786780603239
 20
470.5704650019132
 30
0.0
 10
412.3466233551211
 20
470.5905193048083
 30
0.0
 10
454.3335153990178
 20
470.7732623086246
 30
0.0
 10
494.3750653313131
 20
471.1037617771866
 30
0.0
 10
532.4309578400541
 20
471.531646162452
 30
0.0
 10
556.4579416219951
 20
471.8781973889804
 30
0.0
 10
568.4738485338432
 20
472.0515078350999
 30
0.0
  0
LINE
  5
DE
330
1F
100
AcDbEntity
  8
0
  6
Continuous
 62
     7
370
    25
100
AcDbLine
 10
328.4738520356
 20
480.0790315911
 30
0.0
 11
328.4738520356
 21
470.7649266765
 31
0.0
  0
LINE
  5
DF
330
1F
100
AcDbEntity
  8
0
  6
Continuous
 62
     7
370
    25
100
AcDbLine
 10
618.4738455536
 20
430.0790345714
 30
0.0
 11
610.4647396328
 21
430.0790345714
 31
0.0
  0
SPLINE
  5
E0
330
1F
100
AcDbEntity
  8
0
  6
Continuous
 62
     7
370
    25
100
AcDbSpline
210
0.0
220
0.0
230
1.0
 70
     8
 71
     3
 72
    17
 73
    13
 74
     0
 42
0.000000001
 43
0.00000001
 40
0.0
 40
0.0
 40
0.0
 40
0.0
 40
0.1055801523121674
 40
0.2111597878424613
 40
0.3167498389961507
 40
0.42233960061762
 40
0.527301915452934
 40
0.6322643965653179
 40
0.7368401484967448
 40
0.8414158857454708
 40
0.9207080262614895
 40
1.0
 40
1.0
 40
1.0
 40
1.0
 10
568.4738485338432
 20
472.0515078350999
 30
0.0
 10
570.7960253392838
 20
471.9435885167542
 30
0.0
 10
575.4403675838347
 20
471.7277504082941
 30
0.0
 10
582.2228367492996
 20
469.9634212194125
 30
0.0
 10
588.621374305695
 20
467.1626243458859
 30
0.0
 10
594.4663573912907
 20
463.345213473801
 30
0.0
 10
599.5756482791414
 20
458.6134894514157
 30
0.0
 10
603.8390119301915
 20
453.135175167786
 30
0.0
 10
607.1251139662234
 20
447.0282971515559
 30
0.0
 10
609.1830838759599
 20
441.0073681179844
 30
0.0
 10
610.2848327558596
 20
435.3089504875657
 30
0.0
 10
610.4047707158776
 20
431.8223386545112
 30
0.0
 10
610.4647396328194
 20
430.0790345713593
 30
0.0
  0
SPLINE
  5
E1
330
1F
100
AcDbEntity
  8
0
  6
Continuous
 62
     7
370
    25
100
AcDbSpline
210
0.0
220
0.0
230
1.0
 70
     8
 71
     3
 72
    17
 73
    13
 74
     0
 42
0.000000001
 43
0.00000001
 40
0.0
 40
0.0
 40
0.0
 40
0.0
 40
0.1066369929107179
 40
0.2132741403567769
 40
0.3197513435154024
 40
0.4262287244847863
 40
0.5322325136400755
 40
0.6382362934259217
 40
0.7438013881330425
 40
0.8493665554231781
 40
0.9246832778901325
 40
1.0
 40
1.0
 40
1.0
 40
1.0
 10
287.8404995622379
 20
430.0790345713593
 30
0.0
 10
287.9481836443738
 20
432.3500804331441
 30
0.0
 10
288.1635519646984
 20
436.8921754478494
 30
0.0
 10
289.9064860655636
 20
443.5176548041752
 30
0.0
 10
292.6680587290068
 20
449.7574818902338
 30
0.0
 10
296.4270328130584
 20
455.448044635944
 30
0.0
 10
301.0847127333714
 20
460.4112764631137
 30
0.0
 10
306.4742469097187
 20
464.5370690164591
 30
0.0
 10
312.474453403167
 20
467.6930195429474
 30
0.0
 10
318.2857141541547
 20
469.6100738641258
 30
0.0
 10
323.6639725057013
 20
470.6021983909699
 30
0.0
 10
326.8705588615116
 20
470.7106839147169
 30
0.0
 10
328.4738520356161
 20
470.7649266764619
 30
0.0
  0
LINE
  5
E2
330
1F
100
AcDbEntity
  8
0
  6
Continuous
 62
     7
370
    25
100
AcDbLine
 10
278.4738494279
 20
430.0790345714
 30
0.0
 11
287.8404995622
 21
430.0790345714
 31
0.0
  0
LINE
  5
E3
330
1F
100
AcDbEntity
  8
0
  6
Continuous
 62
     7
370
    25
100
AcDbLine
 10
618.4738455536
 20
130.0790375516
 30
0.0
 11
610.4647396328
 21
130.0790375516
 31
0.0
  0
SPLINE
  5
E4
330
1F
100
AcDbEntity
  8
0
  6
Continuous
 62
     7
370
    25
100
AcDbSpline
210
0.0
220
0.0
230
1.0
 70
     8
 71
     3
 72
    15
 73
    11
 74
     0
 42
0.000000001
 43
0.00000001
 40
0.0
 40
0.0
 40
0.0
 40
0.0
 40
0.1338067230411129
 40
0.2676302480089817
 40
0.4014336079717632
 40
0.5359403832794928
 40
0.6704685035173032
 40
0.8049770836338896
 40
0.902474968418344
 40
1.0
 40
1.0
 40
1.0
 40
1.0
 10
610.4647396328194
 20
430.0790345713593
 30
0.0
 10
610.307744525054
 20
416.7253620762783
 30
0.0
 10
609.9937345958629
 20
390.0163402837695
 30
0.0
 10
609.6771801320647
 20
349.8712609638114
 30
0.0
 10
609.4894963514128
 20
309.6203454555961
 30
0.0
 10
609.4568855368319
 20
269.2787387363358
 30
0.0
 10
609.5726380647783
 20
228.8736610861219
 30
0.0
 10
609.810245688848
 20
192.2033010875293
 30
0.0
 10
610.1149325568804
 20
159.2700196482989
 30
0.0
 10
610.3481264541329
 20
139.8102678365814
 30
0.0
 10
610.4647396328194
 20
130.0790375515916
 30
0.0
  0
SPLINE
  5
E5
330
1F
100
AcDbEntity
  8
0
  6
Continuous
 62
     7
370
    25
100
AcDbSpline
210
0.0
220
0.0
230
1.0
 70
     8
 71
     3
 72
    17
 73
    13
 74
     0
 42
0.000000001
 43
0.00000001
 40
0.0
 40
0.0
 40
0.0
 40
0.0
 40
0.1074258707938821
 40
0.2148529589702972
 40
0.3222640393337627
 40
0.4296539045422577
 40
0.537027586599189
 40
0.6443944881134664
 40
0.7517640761807965
 40
0.8591468885967223
 40
0.9665502403971525
 40
1.0
 40
1.0
 40
1.0
 40
1.0
 10
278.676378560279
 20
283.1790373146631
 30
0.0
 10
278.6686676834387
 20
283.144753421821
 30
0.0
 10
278.6532458423758
 20
283.0761852476211
 30
0.0
 10
278.634262925461
 20
282.5416473397097
 30
0.0
 10
278.6205018596081
 20
281.7544415092177
 30
0.0
 10
278.612944631111
 20
280.7718251366234
 30
0.0
 10
278.6119142561041
 20
279.7125378851462
 30
0.0
 10
278.6174663432025
 20
278.6959580823999
 30
0.0
 10
278.6293253575033
 20
277.8287174690865
 30
0.0
 10
278.6469285898722
 20
277.2400004640272
 30
0.0
 10
278.6635883457172
 20
276.9611883218714
 30
0.0
 10
278.6739962911262
 20
277.0060848400514
 30
0.0
 10
278.6764679672462
 20
277.0167468533017
 30
0.0
  0
LINE
  5
E6
330
1F
100
AcDbEntity
  8
0
  6
Continuous
 62
     7
370
    25
100
AcDbLine
 10
278.5302577736
 20
292.5790375865
 30
0.0
 11
278.9128748896
 21
292.5790375865
 31
0.0
  0
SPLINE
  5
E7
330
1F
100
AcDbEntity
  8
0
  6
Continuous
 62
     7
370
    25
100
AcDbSpline
210
0.0
220
0.0
230
1.0
 70
     8
 71
     3
 72
    17
 73
    13
 74
     0
 42
0.000000001
 43
0.00000001
 40
0.0
 40
0.0
 40
0.0
 40
0.0
 40
0.0740632015632851
 40
0.1814966958406244
 40
0.28891178117197
 40
0.3962740926748126
 40
0.5035724591210455
 40
0.6108275660220579
 40
0.718083445082873
 40
0.8253823287683593
 40
0.9327453282670333
 40
1.0
 40
1.0
 40
1.0
 40
1.0
 10
278.9128748895866
 20
292.5790375865162
 30
0.0
 10
278.9180297970638
 20
292.5896805956322
 30
0.0
 10
278.9306622333442
 20
292.615761982172
 30
0.0
 10
278.9500131128847
 20
292.8648309982374
 30
0.0
 10
278.967671965152
 20
293.3229247928469
 30
0.0
 10
278.9791980784371
 20
293.9261532474501
 30
0.0
 10
278.9830333911098
 20
294.6018766937697
 30
0.0
 10
278.978664438229
 20
295.2748032047946
 30
0.0
 10
278.9666892110593
 20
295.8700977830109
 30
0.0
 10
278.948713435668
 20
296.3167572537097
 30
0.0
 10
278.929695382952
 20
296.5473418103968
 30
0.0
 10
278.917551971496
 20
296.5702243162233
 30
0.0
 10
278.9128748895866
 20
296.579037601883
 30
0.0
  0
LINE
  5
E8
330
1F
100
AcDbEntity
  8
0
  6
Continuous
 62
     7
370
    25
100
AcDbLine
 10
278.9128748896
 20
296.5790376019
 30
0.0
 11
278.5302577736
 21
296.5790376019
 31
0.0
  0
SPLINE
  5
E9
330
1F
100
AcDbEntity
  8
0
  6
Continuous
 62
     7
370
    25
100
AcDbSpline
210
0.0
220
0.0
230
1.0
 70
     8
 71
     3
 72
    17
 73
    13
 74
     0
 42
0.000000001
 43
0.00000001
 40
0.0
 40
0.0
 40
0.0
 40
0.0
 40
0.1073798080763854
 40
0.214760554923655
 40
0.3221367229130389
 40
0.4295071341484042
 40
0.5368735258779496
 40
0.6442382810631881
 40
0.7516039012885275
 40
0.8589725246422774
 40
0.9663463782355447
 40
1.0
 40
1.0
 40
1.0
 40
1.0
 10
278.5302577736122
 20
296.579037601883
 30
0.0
 10
278.5276449623865
 20
296.5569232293464
 30
0.0
 10
278.5224193170926
 20
296.5126942909376
 30
0.0
 10
278.5161033988096
 20
296.1679053541461
 30
0.0
 10
278.5115658525207
 20
295.6601550306071
 30
0.0
 10
278.5091203880007
 20
295.026201941792
 30
0.0
 10
278.5087766852248
 20
294.342976746041
 30
0.0
 10
278.5105851199176
 20
293.6862155176505
 30
0.0
 10
278.5144687208917
 20
293.1296320959951
 30
0.0
 10
278.5202826275565
 20
292.7385119269867
 30
0.0
 10
278.5259676440302
 20
292.5908833886754
 30
0.0
 10
278.5294312480141
 20
292.5813197690301
 30
0.0
 10
278.5302577736122
 20
292.5790375865162
 30
0.0
  0
LINE
  5
EA
330
1F
100
AcDbEntity
  8
0
  6
Continuous
 62
     7
370
    25
100
AcDbLine
 10
278.9128748896
 20
275.5790381178
 30
0.0
 11
278.5302577736
 21
275.5790381178
 31
0.0
  0
SPLINE
  5
EB
330
1F
100
AcDbEntity
  8
0
  6
Continuous
 62
     7
370
    25
100
AcDbSpline
210
0.0
220
0.0
230
1.0
 70
     8
 71
     3
 72
    17
 73
    13
 74
     0
 42
0.000000001
 43
0.00000001
 40
0.0
 40
0.0
 40
0.0
 40
0.0
 40
0.107379816661513
 40
0.2147605235057063
 40
0.3221367988027784
 40
0.4295071889088665
 40
0.5368735023756939
 40
0.6442381754951629
 40
0.7516039071392259
 40
0.8589725666391955
 40
0.9663463760345133
 40
1.0
 40
1.0
 40
1.0
 40
1.0
 10
278.5302577736122
 20
275.5790381178357
 30
0.0
 10
278.5276449627978
 20
275.556923503497
 30
0.0
 10
278.5224193195089
 20
275.5126940914886
 30
0.0
 10
278.5161033937287
 20
275.1679059970965
 30
0.0
 10
278.5115658558182
 20
274.6601546439061
 30
0.0
 10
278.5091203879949
 20
274.0262018270191
 30
0.0
 10
278.5087766846615
 20
273.3429768766568
 30
0.0
 10
278.5105851232633
 20
272.6862158922473
 30
0.0
 10
278.5144687191103
 20
272.129632109953
 30
0.0
 10
278.5202826242871
 20
271.7385107650059
 30
0.0
 10
278.525967645604
 20
271.5908841393122
 30
0.0
 10
278.529431248075
 20
271.5813198139369
 30
0.0
 10
278.5302577736122
 20
271.5790374621846
 30
0.0
  0
LINE
  5
EC
330
1F
100
AcDbEntity
  8
0
  6
Continuous
 62
     7
370
    25
100
AcDbLine
 10
278.5302577736
 20
271.5790374622
 30
0.0
 11
278.9128748896
 21
271.5790374622
 31
0.0
  0
SPLINE
  5
ED
330
1F
100
AcDbEntity
  8
0
  6
Continuous
 62
     7
370
    25
100
AcDbSpline
210
0.0
220
0.0
230
1.0
 70
     8
 71
     3
 72
    17
 73
    13
 74
     0
 42
0.000000001
 43
0.00000001
 40
0.0
 40
0.0
 40
0.0
 40
0.0
 40
0.0740631855414826
 40
0.1814966835848466
 40
0.2889117143532576
 40
0.3962742442994365
 40
0.5035724897710487
 40
0.6108276042459696
 40
0.7180833755574533
 40
0.8253823462365498
 40
0.9327453349949746
 40
1.0
 40
1.0
 40
1.0
 40
1.0
 10
278.9128748895866
 20
271.5790374621846
 30
0.0
 10
278.9180297975774
 20
271.5896802664716
 30
0.0
 10
278.9306622369962
 20
271.6157611549457
 30
0.0
 10
278.9500131034077
 20
271.8648308218353
 30
0.0
 10
278.9676719898266
 20
272.3229242035582
 30
0.0
 10
278.9791980604498
 20
272.9261536226135
 30
0.0
 10
278.9830333930489
 20
273.6018770355361
 30
0.0
 10
278.9786644452182
 20
274.2748033944472
 30
0.0
 10
278.9666891926672
 20
274.8700974196255
 30
0.0
 10
278.9487134485817
 20
275.3167578835078
 30
0.0
 10
278.9296953820376
 20
275.5473422983189
 30
0.0
 10
278.9175519712418
 20
275.5702248243819
 30
0.0
 10
278.9128748895866
 20
275.5790381178357
 30
0.0
  0
LINE
  5
EE
330
1F
100
AcDbEntity
  8
0
  6
Continuous
 62
     7
370
    25
100
AcDbLine
 10
278.9128748896
 20
259.5790392205
 30
0.0
 11
278.5302577736
 21
259.5790392205
 31
0.0
  0
SPLINE
  5
EF
330
1F
100
AcDbEntity
  8
0
  6
Continuous
 62
     7
370
    25
100
AcDbSpline
210
0.0
220
0.0
230
1.0
 70
     8
 71
     3
 72
    17
 73
    13
 74
     0
 42
0.000000001
 43
0.00000001
 40
0.0
 40
0.0
 40
0.0
 40
0.0
 40
0.1073798618929836
 40
0.2147605639712926
 40
0.3221366120595142
 40
0.4295069974001758
 40
0.5368736034982673
 40
0.6442382718525635
 40
0.7516039987314067
 40
0.8589726534660267
 40
0.966346377528164
 40
0.9999999999999999
 40
0.9999999999999999
 40
0.9999999999999999
 40
0.9999999999999999
 10
278.5302577736122
 20
259.5790392205216
 30
0.0
 10
278.5276449628055
 20
259.5569238564127
 30
0.0
 10
278.5224193207484
 20
259.512692955155
 30
0.0
 10
278.5161034008206
 20
259.1679053413861
 30
0.0
 10
278.5115658502905
 20
258.6601556066032
 30
0.0
 10
278.5091203870127
 20
258.0262022538402
 30
0.0
 10
278.5087766837329
 20
257.3429767593811
 30
0.0
 10
278.5105851229086
 20
256.6862150742168
 30
0.0
 10
278.514468719788
 20
256.1296315459973
 30
0.0
 10
278.5202826204767
 20
255.7385093768985
 30
0.0
 10
278.5259676480613
 20
255.5908853894134
 30
0.0
 10
278.5294312481672
 20
255.5813209460762
 30
0.0
 10
278.5302577736122
 20
255.5790385648705
 30
0.0
  0
LINE
  5
F0
330
1F
100
AcDbEntity
  8
0
  6
Continuous
 62
     7
370
    25
100
AcDbLine
 10
278.5302577736
 20
255.5790385649
 30
0.0
 11
278.9128748896
 21
255.5790385649
 31
0.0
  0
SPLINE
  5
F1
330
1F
100
AcDbEntity
  8
0
  6
Continuous
 62
     7
370
    25
100
AcDbSpline
210
0.0
220
0.0
230
1.0
 70
     8
 71
     3
 72
    17
 73
    13
 74
     0
 42
0.000000001
 43
0.00000001
 40
0.0
 40
0.0
 40
0.0
 40
0.0
 40
0.0740631892124304
 40
0.1814965764744364
 40
0.2889116125668821
 40
0.3962741478344934
 40
0.5035726925999383
 40
0.6108278123909675
 40
0.7180833302992564
 40
0.8253823062966351
 40
0.9327453003765149
 40
1.0
 40
1.0
 40
1.0
 40
1.0
 10
278.9128748895866
 20
255.5790385648705
 30
0.0
 10
278.9180297961295
 20
255.5896814659596
 30
0.0
 10
278.9306622239188
 20
255.6157625749688
 30
0.0
 10
278.9500131189147
 20
255.8648296105069
 30
0.0
 10
278.9676719867845
 20
256.3229236050066
 30
0.0
 10
278.9791980739978
 20
256.9261533837217
 30
0.0
 10
278.9830333874835
 20
257.601877499836
 30
0.0
 10
278.9786644626653
 20
258.27480415687
 30
0.0
 10
278.9666891687874
 20
258.8700968169012
 30
0.0
 10
278.9487134520086
 20
259.3167574250894
 30
0.0
 10
278.9296953766163
 20
259.5473407217514
 30
0.0
 10
278.9175519707001
 20
259.5702251802585
 30
0.0
 10
278.9128748895866
 20
259.5790392205216
 30
0.0
  0
SPLINE
  5
F2
330
1F
100
AcDbEntity
  8
0
  6
Continuous
 62
     7
370
    25
100
AcDbSpline
210
0.0
220
0.0
230
1.0
 70
     8
 71
     3
 72
    11
 73
     7
 74
     0
 42
0.000000001
 43
0.00000001
 40
0.0
 40
0.0
 40
0.0
 40
0.0
 40
0.249804406256591
 40
0.4996154648206815
 40
0.7498071001410512
 40
1.0
 40
1.0
 40
1.0
 40
1.0
 10
289.0307409884674
 20
300.9177819311716
 30
0.0
 10
288.9882946356773
 20
311.6909830137394
 30
0.0
 10
288.9034007997481
 20
333.2376720699169
 30
0.0
 10
288.6311516793162
 20
365.5407010482968
 30
0.0
 10
288.2858288308787
 20
397.8301094184678
 30
0.0
 10
287.988942901875
 20
419.3293747432235
 30
0.0
 10
287.8404995622379
 20
430.0790345713593
 30
0.0
  0
SPLINE
  5
F3
330
1F
100
AcDbEntity
  8
0
  6
Continuous
 62
     7
370
    25
100
AcDbSpline
210
0.0
220
0.0
230
1.0
 70
     8
 71
     3
 72
     9
 73
     5
 74
     0
 42
0.000000001
 43
0.00000001
 40
0.0
 40
0.0
 40
0.0
 40
0.0
 40
0.4999248899071108
 40
1.0
 40
1.0
 40
1.0
 40
1.0
 10
289.0307409884674
 20
259.2402948483922
 30
0.0
 10
289.0455493971086
 20
266.1854991084379
 30
0.0
 10
289.0751706641032
 20
280.0779945617772
 30
0.0
 10
289.0455523634349
 20
293.9704904969333
 30
0.0
 10
289.0307409884674
 20
300.9177819311716
 30
0.0
  0
SPLINE
  5
F4
330
1F
100
AcDbEntity
  8
0
  6
Continuous
 62
     7
370
    25
100
AcDbSpline
210
0.0
220
0.0
230
1.0
 70
     8
 71
     3
 72
    11
 73
     7
 74
     0
 42
0.000000001
 43
0.00000001
 40
0.0
 40
0.0
 40
0.0
 40
0.0
 40
0.2498302591617314
 40
0.4996592155236849
 40
0.7498329069078826
 40
1.0
 40
1.0
 40
1.0
 40
1.0
 10
287.8404995622379
 20
130.0790375515916
 30
0.0
 10
287.9887375686711
 20
140.8131095005998
 30
0.0
 10
288.2852128085148
 20
162.2811974232248
 30
0.0
 10
288.6305521145197
 20
194.5549011388064
 30
0.0
 10
288.903163956499
 20
226.873485852484
 30
0.0
 10
288.9882156850205
 20
248.4514533702615
 30
0.0
 10
289.0307409884674
 20
259.2402948483922
 30
0.0
  0
LINE
  5
F5
330
1F
100
AcDbEntity
  8
0
  6
Continuous
 62
     7
370
    25
100
AcDbLine
 10
278.4738494279
 20
130.0790375516
 30
0.0
 11
287.8404995622
 21
130.0790375516
 31
0.0
  0
LINE
  5
F6
330
1F
100
AcDbEntity
  8
0
  6
Continuous
 62
     7
370
    25
100
AcDbLine
 10
278.9128748896
 20
267.5790368065
 30
0.0
 11
278.5302577736
 21
267.5790368065
 31
0.0
  0
SPLINE
  5
F7
330
1F
100
AcDbEntity
  8
0
  6
Continuous
 62
     7
370
    25
100
AcDbSpline
210
0.0
220
0.0
230
1.0
 70
     8
 71
     3
 72
    17
 73
    13
 74
     0
 42
0.000000001
 43
0.00000001
 40
0.0
 40
0.0
 40
0.0
 40
0.0
 40
0.1073797757147833
 40
0.2147606359649523
 40
0.3221366978683241
 40
0.4295070970234072
 40
0.5368734195388861
 40
0.6442383875208287
 40
0.7516038862048225
 40
0.8589725547536415
 40
0.9663463731982427
 40
0.9999999999999999
 40
0.9999999999999999
 40
0.9999999999999999
 40
0.9999999999999999
 10
278.5302577736122
 20
267.5790368065335
 30
0.0
 10
278.5276449614111
 20
267.5569231368069
 30
0.0
 10
278.5224193106195
 20
267.5126955740058
 30
0.0
 10
278.5161034065887
 20
267.1679042108671
 30
0.0
 10
278.5115658495783
 20
266.6601552775148
 30
0.0
 10
278.5091203883849
 20
266.0262022054471
 30
0.0
 10
278.5087766873472
 20
265.3429769933745
 30
0.0
 10
278.5105851137162
 20
264.6862152696283
 30
0.0
 10
278.5144687264895
 20
264.1296325740397
 30
0.0
 10
278.5202826234551
 20
263.7385112592614
 30
0.0
 10
278.5259676456578
 20
263.5908846943489
 30
0.0
 10
278.5294312480853
 20
263.5813203659915
 30
0.0
 10
278.5302577736122
 20
263.5790380135276
 30
0.0
  0
LINE
  5
F8
330
1F
100
AcDbEntity
  8
0
  6
Continuous
 62
     7
370
    25
100
AcDbLine
 10
278.5302577736
 20
263.5790380135
 30
0.0
 11
278.9128748896
 21
263.5790380135
 31
0.0
  0
SPLINE
  5
F9
330
1F
100
AcDbEntity
  8
0
  6
Continuous
 62
     7
370
    25
100
AcDbSpline
210
0.0
220
0.0
230
1.0
 70
     8
 71
     3
 72
    17
 73
    13
 74
     0
 42
0.000000001
 43
0.00000001
 40
0.0
 40
0.0
 40
0.0
 40
0.0
 40
0.0740631976436468
 40
0.181496713241992
 40
0.2889117615623667
 40
0.3962740471278802
 40
0.5035726041079929
 40
0.6108277361087465
 40
0.7180835249461702
 40
0.8253823177034599
 40
0.9327453240053445
 40
1.0
 40
1.0
 40
1.0
 40
1.0
 10
278.9128748895866
 20
263.5790380135276
 30
0.0
 10
278.9180297974667
 20
263.5896808193693
 30
0.0
 10
278.9306622366142
 20
263.6157617116533
 30
0.0
 10
278.950013105769
 20
263.8648313400215
 30
0.0
 10
278.9676719667289
 20
264.3229245052837
 30
0.0
 10
278.9791980872974
 20
264.9261532268225
 30
0.0
 10
278.9830333886619
 20
265.6018770701148
 30
0.0
 10
278.9786644442742
 20
266.2748038154206
 30
0.0
 10
278.9666892120956
 20
266.8700980330356
 30
0.0
 10
278.9487134245217
 20
267.3167563724838
 30
0.0
 10
278.9296953836107
 20
267.5473410390322
 30
0.0
 10
278.9175519716792
 20
267.570223527543
 30
0.0
 10
278.9128748895866
 20
267.5790368065335
 30
0.0
  0
LINE
  5
FA
330
1F
100
AcDbEntity
  8
0
  6
Continuous
 62
     7
370
    25
100
AcDbLine
 10
278.9128748896
 20
304.5790372834
 30
0.0
 11
278.5302577736
 21
304.5790372834
 31
0.0
  0
SPLINE
  5
FB
330
1F
100
AcDbEntity
  8
0
  6
Continuous
 62
     7
370
    25
100
AcDbSpline
210
0.0
220
0.0
230
1.0
 70
     8
 71
     3
 72
    17
 73
    13
 74
     0
 42
0.000000001
 43
0.00000001
 40
0.0
 40
0.0
 40
0.0
 40
0.0
 40
0.1073797968714269
 40
0.2147605811019103
 40
0.3221367503854463
 40
0.42950714569935
 40
0.5368734643737955
 40
0.6442382856077699
 40
0.7516039014550558
 40
0.8589725234322084
 40
0.9663463783196
 40
1.0
 40
1.0
 40
1.0
 40
1.0
 10
278.5302577736122
 20
304.5790372833707
 30
0.0
 10
278.5276449621043
 20
304.5569231413078
 30
0.0
 10
278.5224193150637
 20
304.5126946538421
 30
0.0
 10
278.5161034001604
 20
304.1679049255316
 30
0.0
 10
278.5115658526918
 20
303.6601547805312
 30
0.0
 10
278.5091203882142
 20
303.0262018425154
 30
0.0
 10
278.5087766859136
 20
302.342976737183
 30
0.0
 10
278.5105851188287
 20
301.6862154731022
 30
0.0
 10
278.51446872102
 20
301.129631972121
 30
0.0
 10
278.5202826276474
 20
300.738511865867
 30
0.0
 10
278.5259676439831
 20
300.5908832471096
 30
0.0
 10
278.5294312480124
 20
300.581319719555
 30
0.0
 10
278.5302577736122
 20
300.5790375590421
 30
0.0
  0
LINE
  5
FC
330
1F
100
AcDbEntity
  8
0
  6
Continuous
 62
     7
370
    25
100
AcDbLine
 10
278.5302577736
 20
300.579037559
 30
0.0
 11
278.9128748896
 21
300.579037559
 31
0.0
  0
SPLINE
  5
FD
330
1F
100
AcDbEntity
  8
0
  6
Continuous
 62
     7
370
    25
100
AcDbSpline
210
0.0
220
0.0
230
1.0
 70
     8
 71
     3
 72
    17
 73
    13
 74
     0
 42
0.000000001
 43
0.00000001
 40
0.0
 40
0.0
 40
0.0
 40
0.0
 40
0.0740632044171734
 40
0.1814967173475915
 40
0.2889117630004975
 40
0.3962741113808462
 40
0.5035725187085743
 40
0.6108276480458307
 40
0.7180834342197409
 40
0.8253823220397908
 40
0.9327453256754992
 40
1.0
 40
1.0
 40
1.0
 40
1.0
 10
278.9128748895866
 20
300.5790375590421
 30
0.0
 10
278.9180297973681
 20
300.5896805523361
 30
0.0
 10
278.9306622354043
 20
300.6157619021885
 30
0.0
 10
278.9500131053817
 20
300.8648313016151
 30
0.0
 10
278.9676719725271
 20
301.3229245938396
 30
0.0
 10
278.9791980776574
 20
301.9261533350681
 30
0.0
 10
278.9830333900511
 20
302.6018768869404
 30
0.0
 10
278.9786644449617
 20
303.2748034226562
 30
0.0
 10
278.9666892023236
 20
303.8700975484455
 30
0.0
 10
278.9487134365673
 20
304.3167569489303
 30
0.0
 10
278.9296953828219
 20
304.547341489898
 30
0.0
 10
278.9175519714598
 20
304.5702239971586
 30
0.0
 10
278.9128748895866
 20
304.5790372833707
 30
0.0
  0
LINE
  5
FE
330
1F
100
AcDbEntity
  8
0
  6
Continuous
 62
     7
370
    25
100
AcDbLine
 10
278.9128748896
 20
288.5790374547
 30
0.0
 11
278.5302577736
 21
288.5790374547
 31
0.0
  0
SPLINE
  5
FF
330
1F
100
AcDbEntity
  8
0
  6
Continuous
 62
     7
370
    25
100
AcDbSpline
210
0.0
220
0.0
230
1.0
 70
     8
 71
     3
 72
    17
 73
    13
 74
     0
 42
0.000000001
 43
0.00000001
 40
0.0
 40
0.0
 40
0.0
 40
0.0
 40
0.1073798074249546
 40
0.2147605536207876
 40
0.3221367209587627
 40
0.4295071143272104
 40
0.5368735054054062
 40
0.6442382532405413
 40
0.7516038671424577
 40
0.8589725299047345
 40
0.9663463828466071
 40
1.0
 40
1.0
 40
1.0
 40
1.0
 10
278.5302577736122
 20
288.579037454734
 30
0.0
 10
278.5276449623889
 20
288.5569230821094
 30
0.0
 10
278.5224193170999
 20
288.5126941435247
 30
0.0
 10
278.5161033987803
 20
288.1679052080526
 30
0.0
 10
278.5115658528732
 20
287.6601549066361
 30
0.0
 10
278.5091203877959
 20
287.0262018805548
 30
0.0
 10
278.5087766853077
 20
286.3429767322527
 30
0.0
 10
278.5105851196715
 20
285.6862155085673
 30
0.0
 10
278.5144687223704
 20
285.1296321447487
 30
0.0
 10
278.5202826259961
 20
284.7385116564398
 30
0.0
 10
278.5259676436652
 20
284.5908825154264
 30
0.0
 10
278.5294312480103
 20
284.5813197167764
 30
0.0
 10
278.5302577736122
 20
284.5790377304055
 30
0.0
  0
LINE
  5
100
330
1F
100
AcDbEntity
  8
0
  6
Continuous
 62
     7
370
    25
100
AcDbLine
 10
278.5302577736
 20
284.5790377304
 30
0.0
 11
278.9128748896
 21
284.5790377304
 31
0.0
  0
SPLINE
  5
101
330
1F
100
AcDbEntity
  8
0
  6
Continuous
 62
     7
370
    25
100
AcDbSpline
210
0.0
220
0.0
230
1.0
 70
     8
 71
     3
 72
    17
 73
    13
 74
     0
 42
0.000000001
 43
0.00000001
 40
0.0
 40
0.0
 40
0.0
 40
0.0
 40
0.0740631945270842
 40
0.1814967056046513
 40
0.2889118495592968
 40
0.3962741306070294
 40
0.5035724625903355
 40
0.6108275900778174
 40
0.7180834390818119
 40
0.8253823250513327
 40
0.9327453268354061
 40
1.0
 40
1.0
 40
1.0
 40
1.0
 10
278.9128748895866
 20
284.5790377304055
 30
0.0
 10
278.9180297972122
 20
284.589680544258
 30
0.0
 10
278.9306622357362
 20
284.6157614561729
 30
0.0
 10
278.950013117904
 20
284.8648309723994
 30
0.0
 10
278.9676719570045
 20
285.3229251675075
 30
0.0
 10
278.9791980799155
 20
285.9261534088885
 30
0.0
 10
278.9830333901356
 20
286.6018767790927
 30
0.0
 10
278.9786644409656
 20
287.2748032106604
 30
0.0
 10
278.9666892081371
 20
287.8700976647039
 30
0.0
 10
278.9487134359705
 20
288.3167571109054
 30
0.0
 10
278.9296953829082
 20
288.5473416626194
 30
0.0
 10
278.9175519714839
 20
288.5702241688996
 30
0.0
 10
278.9128748895866
 20
288.579037454734
 30
0.0
  0
SPLINE
  5
102
330
1F
100
AcDbEntity
  8
0
  6
Continuous
 62
     7
370
    25
100
AcDbSpline
210
0.0
220
0.0
230
1.0
 70
     8
 71
     3
 72
    17
 73
    13
 74
     0
 42
0.000000001
 43
0.00000001
 40
0.0
 40
0.0
 40
0.0
 40
0.0
 40
0.1054362009312675
 40
0.2108723807102706
 40
0.3163060027582565
 40
0.4217396475739547
 40
0.5271722765404724
 40
0.6326050464131802
 40
0.7383833264012526
 40
0.8441614139476484
 40
0.9220808465104895
 40
1.0
 40
1.0
 40
1.0
 40
1.0
 10
328.4738520356161
 20
89.39314544648902
 30
0.0
 10
326.2283591462177
 20
89.50120800074623
 30
0.0
 10
321.7373738179045
 20
89.7173330875816
 30
0.0
 10
315.1810755230093
 20
91.43099220234852
 30
0.0
 10
308.9964455011192
 20
94.14368646101384
 30
0.0
 10
303.3355374004082
 20
97.84354351356114
 30
0.0
 10
298.3778525421743
 20
102.4383972429233
 30
0.0
 10
294.2265574581041
 20
107.7825888684968
 30
0.0
 10
291.0278776796661
 20
113.7566075069432
 30
0.0
 10
289.0494795264347
 20
119.6150420487747
 30
0.0
 10
288.0085264902298
 20
125.1029165214815
 30
0.0
 10
287.8965084713685
 20
128.420332521814
 30
0.0
 10
287.8404995622379
 20
130.0790375515916
 30
0.0
  0
LINE
  5
103
330
1F
100
AcDbEntity
  8
0
  6
Continuous
 62
     7
370
    25
100
AcDbLine
 10
328.4738520356
 20
80.0790405318
 30
0.0
 11
328.4738520356
 21
89.3931454465
 31
0.0
  0
LINE
  5
104
330
1F
100
AcDbEntity
  8
0
  6
Continuous
 62
     7
370
    25
100
AcDbLine
 10
568.4738485338
 20
80.0790405318
 30
0.0
 11
568.4738485338
 21
88.1065642879
 31
0.0
  0
SPLINE
  5
105
330
1F
100
AcDbEntity
  8
0
  6
Continuous
 62
     7
370
    25
100
AcDbSpline
210
0.0
220
0.0
230
1.0
 70
     8
 71
     3
 72
    17
 73
    13
 74
     0
 42
0.000000001
 43
0.00000001
 40
0.0
 40
0.0
 40
0.0
 40
0.0
 40
0.1051327821770431
 40
0.210265740172675
 40
0.3154257834744705
 40
0.4205857572163704
 40
0.5252743202040725
 40
0.6299629670043719
 40
0.7345638964703753
 40
0.8391650538633492
 40
0.9195824621541863
 40
1.0
 40
1.0
 40
1.0
 40
1.0
 10
610.4647396328194
 20
130.0790375515916
 30
0.0
 10
610.3567741075004
 20
127.7666366625015
 30
0.0
 10
610.1408428763071
 20
123.1418310171824
 30
0.0
 10
608.3880989275441
 20
116.3866806024582
 30
0.0
 10
605.6071530046511
 20
110.010826357156
 30
0.0
 10
601.8148339198095
 20
104.1795001863907
 30
0.0
 10
597.1107029162063
 20
99.0742158340113
 30
0.0
 10
591.6542153288148
 20
94.80204315132984
 30
0.0
 10
585.5621491098448
 20
91.4991165592297
 30
0.0
 10
579.5234661664979
 20
89.41410399777034
 30
0.0
 10
573.777913717033
 20
88.28950009958783
 30
0.0
 10
570.2418712110183
 20
88.1675429245094
 30
0.0
 10
568.4738485338432
 20
88.10656428785101
 30
0.0
  0
SPLINE
  5
106
330
1F
100
AcDbEntity
  8
0
  6
Continuous
 62
     7
370
    25
100
AcDbSpline
210
0.0
220
0.0
230
1.0
 70
     8
 71
     3
 72
    13
 73
     9
 74
     0
 42
0.000000001
 43
0.00000001
 40
0.0
 40
0.0
 40
0.0
 40
0.0
 40
0.1662343106671897
 40
0.3324876196117466
 40
0.4987170080213638
 40
0.6658023668494625
 40
0.8329146556252335
 40
1.0
 40
1.0
 40
1.0
 40
1.0
 10
568.4738485338432
 20
88.10656428785101
 30
0.0
 10
555.2210677488089
 20
88.29680799573569
 30
0.0
 10
528.7139915696066
 20
88.67731715372365
 30
0.0
 10
488.8555620494047
 20
89.10767297117137
 30
0.0
 10
448.877542042677
 20
89.41683354770949
 30
0.0
 10
408.7913269351411
 20
89.57045103417299
 30
0.0
 10
368.621064147339
 20
89.58007863879835
 30
0.0
 10
341.855536756868
 20
89.45545316131762
 30
0.0
 10
328.4738520356161
 20
89.39314544648902
 30
0.0
  0
SPLINE
  5
107
330
1F
100
AcDbEntity
  8
0
  6
Continuous
 62
     7
370
    25
100
AcDbSpline
210
0.0
220
0.0
230
1.0
 70
     8
 71
     3
 72
    13
 73
     9
 74
     0
 42
0.000000001
 43
0.00000001
 40
0.0
 40
0.0
 40
0.0
 40
0.0
 40
0.1746132972850196
 40
0.3492259500494301
 40
0.5242760530312666
 40
0.6993277381687623
 40
0.8496361203817123
 40
1.0
 40
1.0
 40
1.0
 40
1.0
 10
327.2420531334621
 20
120.7810705944992
 30
0.0
 10
341.4986439311112
 20
120.8268083768014
 30
0.0
 10
370.0117729034608
 20
120.9182837725815
 30
0.0
 10
412.839362165728
 20
120.9019513249632
 30
0.0
 10
455.6844441207459
 20
120.7779952825255
 30
0.0
 10
496.5046404491134
 20
120.5286954370969
 30
0.0
 10
535.2627330717177
 20
120.1808894596666
 30
0.0
 10
559.7082253998974
 20
119.8815085248228
 30
0.0
 10
571.9332276108009
 20
119.7317904278733
 30
0.0
  0
LWPOLYLINE
  5
108
330
1F
100
AcDbEntity
  8
0
  6
Continuous
 62
     7
370
    25
100
AcDbPolyline
 90
       14
 70
   128
 43
0.0
 10
571.9332276108
 20
119.7317904279
 10
571.8321530344
 20
116.1518311545
 10
571.6952560665
 20
112.6423096702
 10
571.5239821198
 20
109.2406427905
 10
571.3201938393
 20
105.9831446454
 10
571.0860369923
 20
102.9045498416
 10
570.8240149739
 20
100.0377005383
 10
570.5369292023
 20
97.4131739184
 10
570.2278344156
 20
95.0589543626
 10
569.9000237705
 20
93.0001652286
 10
569.557013941
 20
91.258770828
 10
569.2024408104
 20
89.8533231065
 10
568.8401041748
 20
88.7988424346
 10
568.4738485338
 20
88.1065642879
  0
LWPOLYLINE
  5
109
330
1F
100
AcDbEntity
  8
0
  6
Continuous
 62
     7
370
    25
100
AcDbPolyline
 90
       14
 70
   128
 43
0.0
 10
327.2420531335
 20
120.7810705945
 10
327.2797418954
 20
117.2477072522
 10
327.3298507752
 20
113.7844538733
 10
327.3918600949
 20
110.4272967622
 10
327.4651253792
 20
107.2111940429
 10
327.5488829436
 20
104.16956902
 10
327.6422629329
 20
101.3340866611
 10
327.7442930462
 20
98.7342214629
 10
327.8539115759
 20
96.3970339343
 10
327.9699785831
 20
94.346812968
 10
328.0912889364
 20
92.604926829
 10
328.2165778997
 20
91.1894506261
 10
328.3445416214
 20
90.1151365087
 10
328.4738520356
 20
89.3931454465
  0
SPLINE
  5
10A
330
1F
100
AcDbEntity
  8
0
  6
Continuous
 62
     7
370
    25
100
AcDbSpline
210
0.0
220
0.0
230
1.0
 70
     8
 71
     3
 72
    15
 73
    11
 74
     0
 42
0.000000001
 43
0.00000001
 40
0.0
 40
0.0
 40
0.0
 40
0.0
 40
0.0974172230508156
 40
0.1948587463781591
 40
0.3287194749406521
 40
0.4625976587859645
 40
0.5964569759998556
 40
0.7309642278352929
 40
0.865489969981006
 40
1.0
 40
1.0
 40
1.0
 40
1.0
 10
579.4133870126946
 20
127.1980023428895
 30
0.0
 10
579.3145036636022
 20
137.107160722636
 30
0.0
 10
579.1167122994227
 20
156.9279492759375
 30
0.0
 10
578.8700284472629
 20
190.4130513103617
 30
0.0
 10
578.683880154583
 20
227.6479677314227
 30
0.0
 10
578.5970886003663
 20
268.6255160308373
 30
0.0
 10
578.6214630709936
 20
309.6757396632543
 30
0.0
 10
578.7626561635253
 20
350.7739703697314
 30
0.0
 10
579.0140829435072
 20
391.9055923831887
 30
0.0
 10
579.2802908386234
 20
419.275776802201
 30
0.0
 10
579.4133870126946
 20
432.9600697800614
 30
0.0
  0
LWPOLYLINE
  5
10B
330
1F
100
AcDbEntity
  8
0
  6
Continuous
 62
     7
370
    25
100
AcDbPolyline
 90
       14
 70
   128
 43
0.0
 10
579.4133870127
 20
432.9600697801
 10
582.9411624195
 20
432.8719741151
 10
586.3947896483
 20
432.7548211858
 10
589.7383121969
 20
432.6098179862
 10
592.9369656565
 20
432.4384844348
 10
595.9574608328
 20
432.2425937697
 10
598.7683413746
 20
432.0241874501
 10
601.340401006
 20
431.7855453536
 10
603.6468325379
 20
431.5291410729
 10
605.6636749031
 20
431.2576568171
 10
607.3699174645
 20
430.9739089057
 10
608.7477980377
 20
430.6808328673
 10
609.7830115082
 20
430.3815132424
 10
610.4647396328
 20
430.0790345714
  0
LWPOLYLINE
  5
10C
330
1F
100
AcDbEntity
  8
0
  6
Continuous
 62
     7
370
    25
100
AcDbPolyline
 90
       14
 70
   128
 43
0.0
 10
579.4133870127
 20
127.1980023429
 10
582.9411624195
 20
127.2860980079
 10
586.3947896483
 20
127.4032509372
 10
589.7383121969
 20
127.5482541368
 10
592.9369656565
 20
127.7195876882
 10
595.9574608328
 20
127.9154783532
 10
598.7683413746
 20
128.1338846728
 10
601.340401006
 20
128.3725267693
 10
603.6468325379
 20
128.62893105
 10
605.6636749031
 20
128.9004153058
 10
607.3699174645
 20
129.1841632173
 10
608.7477980377
 20
129.4772392556
 10
609.7830115082
 20
129.7765588805
 10
610.4647396328
 20
130.0790375516
  0
LWPOLYLINE
  5
10D
330
1F
100
AcDbEntity
  8
0
  6
Continuous
 62
     7
370
    25
100
AcDbPolyline
 90
       14
 70
   128
 43
0.0
 10
571.9332276108
 20
440.4262816951
 10
571.8321530344
 20
444.0062409684
 10
571.6952560665
 20
447.515777354
 10
571.5239821198
 20
450.9174293324
 10
571.3201938393
 20
454.1749274775
 10
571.0860369923
 20
457.2535222814
 10
570.8240149739
 20
460.1203715846
 10
570.5369292023
 20
462.7449131057
 10
570.2278344156
 20
465.0991177604
 10
569.9000237705
 20
467.1579068944
 10
569.557013941
 20
468.8993161962
 10
569.2024408104
 20
470.3047490165
 10
568.8401041748
 20
471.3592296884
 10
568.4738485338
 20
472.0515078351
  0
SPLINE
  5
10E
330
1F
100
AcDbEntity
  8
0
  6
Continuous
 62
     7
370
    25
100
AcDbSpline
210
0.0
220
0.0
230
1.0
 70
     8
 71
     3
 72
    13
 73
     9
 74
     0
 42
0.000000001
 43
0.00000001
 40
0.0
 40
0.0
 40
0.0
 40
0.0
 40
0.150417332547528
 40
0.3008888759512328
 40
0.4754528355305896
 40
0.6500151966795634
 40
0.8250072778855977
 40
1.0
 40
1.0
 40
1.0
 40
1.0
 10
571.9332276108009
 20
440.4262816950776
 30
0.0
 10
559.7038770631212
 20
440.2765136971681
 30
0.0
 10
535.2407684732767
 20
439.9769237245151
 30
0.0
 10
496.5047020954343
 20
439.6294262228247
 30
0.0
 10
455.7507962505709
 20
439.3804910816829
 30
0.0
 10
412.9544978627645
 20
439.2563196711858
 30
0.0
 10
370.1047380262245
 20
439.2395529760726
 30
0.0
 10
341.5296322070683
 20
439.3311852883915
 30
0.0
 10
327.2420531334621
 20
439.3770015284516
 30
0.0
  0
LWPOLYLINE
  5
10F
330
1F
100
AcDbEntity
  8
0
  6
Continuous
 62
     7
370
    25
100
AcDbPolyline
 90
       14
 70
   128
 43
0.0
 10
328.4738520356
 20
470.7649266765
 10
328.3445416214
 20
470.0429356143
 10
328.2165778997
 20
468.9686214969
 10
328.0912889364
 20
467.5531601951
 10
327.9699785831
 20
465.811259155
 10
327.8539115759
 20
463.7610530898
 10
327.7442930462
 20
461.42385066
 10
327.6422629329
 20
458.8240003631
 10
327.5488829436
 20
455.988503103
 10
327.4651253792
 20
452.9468929812
 10
327.3918600949
 20
449.7307753608
 10
327.3298507752
 20
446.3736331508
 10
327.2797418954
 20
442.9103648707
 10
327.2420531335
 20
439.3770015285
  0
SPLINE
  5
110
330
1F
100
AcDbEntity
  8
0
  6
Continuous
 62
     7
370
    25
100
AcDbSpline
210
0.0
220
0.0
230
1.0
 70
     8
 71
     3
 72
    12
 73
     8
 74
     0
 42
0.000000001
 43
0.00000001
 40
0.0
 40
0.0
 40
0.0
 40
0.0
 40
0.1587462305552532
 40
0.3679239637292388
 40
0.5779021162313703
 40
0.7890635532015501
 40
1.0
 40
1.0
 40
1.0
 40
1.0
 10
579.4133870126946
 20
432.9600697800614
 30
0.0
 10
579.3737015328111
 20
433.5813343142175
 30
0.0
 10
579.2817230397776
 20
435.0212306136863
 30
0.0
 10
578.3290513333906
 20
437.1405601939593
 30
0.0
 10
576.6389095548244
 20
438.9786626264078
 30
0.0
 10
574.4144448651332
 20
440.2155959827508
 30
0.0
 10
572.7600060746088
 20
440.35607808462
 30
0.0
 10
571.9332276108009
 20
440.4262816950776
 30
0.0
  0
SPLINE
  5
111
330
1F
100
AcDbEntity
  8
0
  6
Continuous
 62
     7
370
    25
100
AcDbSpline
210
0.0
220
0.0
230
1.0
 70
     8
 71
     3
 72
    12
 73
     8
 74
     0
 42
0.000000001
 43
0.00000001
 40
0.0
 40
0.0
 40
0.0
 40
0.0
 40
0.1608726774884625
 40
0.3700371017781433
 40
0.5794632766977127
 40
0.7898170705369799
 40
1.0
 40
1.0
 40
1.0
 40
1.0
 10
571.9332276108009
 20
119.7317904278733
 30
0.0
 10
572.562002367621
 20
119.7710527678941
 30
0.0
 10
574.0083013434156
 20
119.8613634579203
 30
0.0
 10
576.130171024928
 20
120.8178018553849
 30
0.0
 10
577.9631106290267
 20
122.5046727694358
 30
0.0
 10
579.1981176731077
 20
124.722563230452
 30
0.0
 10
579.3416500052626
 20
126.3730795073978
 30
0.0
 10
579.4133870126946
 20
127.1980023428895
 30
0.0
  0
LWPOLYLINE
  5
112
330
1F
100
AcDbEntity
  8
0
  6
Continuous
 62
     7
370
    25
100
AcDbPolyline
 90
       14
 70
   128
 43
0.0
 10
287.8404995622
 20
430.0790345714
 10
288.5982571366
 20
430.4126715705
 10
289.7365233125
 20
430.742553477
 10
291.2424942674
 20
431.0649699018
 10
293.0992385568
 20
431.3762998626
 10
295.285868478
 20
431.6730415866
 10
297.7777971151
 20
431.9518423125
 10
300.5469879331
 20
432.2095876977
 10
303.5623086812
 20
432.4433869168
 10
306.7898368659
 20
432.6505726621
 10
310.1932732584
 20
432.8288501546
 10
313.7343479516
 20
432.9761928365
 10
317.3732264163
 20
433.09096158
 10
321.0689863386
 20
433.1718450829
  0
SPLINE
  5
113
330
1F
100
AcDbEntity
  8
0
  6
Continuous
 62
     7
370
    25
100
AcDbSpline
210
0.0
220
0.0
230
1.0
 70
     8
 71
     3
 72
    11
 73
     7
 74
     0
 42
0.000000001
 43
0.00000001
 40
0.0
 40
0.0
 40
0.0
 40
0.0
 40
0.2498415298056653
 40
0.49968179959052
 40
0.749843486303458
 40
1.0
 40
1.0
 40
1.0
 40
1.0
 10
321.0689863385898
 20
433.1718450829484
 30
0.0
 10
321.1944124213656
 20
422.2248735106842
 30
0.0
 10
321.4452639543583
 20
400.3309855747993
 30
0.0
 10
321.6982478548174
 20
367.4228766898718
 30
0.0
 10
321.8233287197086
 20
334.472465529076
 30
0.0
 10
321.8243128428342
 20
312.4759076476529
 30
0.0
 10
321.8248048993093
 20
301.4777424231269
 30
0.0
  0
LWPOLYLINE
  5
114
330
1F
100
AcDbEntity
  8
0
  6
Continuous
 62
     7
370
    25
100
AcDbPolyline
 90
       14
 70
   128
 43
0.0
 10
289.0307409885
 20
300.9177819312
 10
289.8100977959
 20
300.9775276713
 10
290.957680923
 20
301.0366214857
 10
292.4609733941
 20
301.0944193646
 10
294.3035764816
 20
301.1502903372
 10
296.4653959694
 20
301.2036253184
 10
298.92285077
 20
301.2538422316
 10
301.6491336944
 20
301.3003934592
 10
304.6145057502
 20
301.342771896
 10
307.7866239669
 20
301.380514209
 10
311.1308915736
 20
301.4132092193
 10
314.6108268025
 20
301.440500696
 10
318.1884726705
 20
301.4620906159
 10
321.8248048993
 20
301.4777424231
  0
LWPOLYLINE
  5
115
330
1F
100
AcDbEntity
  8
0
  6
Continuous
 62
     7
370
    25
100
AcDbPolyline
 90
       14
 70
   128
 43
0.0
 10
289.0307409885
 20
259.2402948484
 10
289.8100977959
 20
259.1805486426
 10
290.957680923
 20
259.1214543626
 10
292.4609733941
 20
259.0636564836
 10
294.3035764816
 20
259.0077845797
 10
296.4653959694
 20
258.9544495985
 10
298.92285077
 20
258.9042326853
 10
301.6491336944
 20
258.8576814577
 10
304.6145057502
 20
258.8153025553
 10
307.7866239669
 20
258.7775616393
 10
311.1308915736
 20
258.7448647663
 10
314.6108268025
 20
258.7175732896
 10
318.1884726705
 20
258.6959852323
 10
321.8248048993
 20
258.6803315625
  0
SPLINE
  5
116
330
1F
100
AcDbEntity
  8
0
  6
Continuous
 62
     7
370
    25
100
AcDbSpline
210
0.0
220
0.0
230
1.0
 70
     8
 71
     3
 72
    11
 73
     7
 74
     0
 42
0.000000001
 43
0.00000001
 40
0.0
 40
0.0
 40
0.0
 40
0.0
 40
0.2498197884940233
 40
0.4996447519838155
 40
0.7498217054113312
 40
1.0
 40
1.0
 40
1.0
 40
1.0
 10
321.8248048993093
 20
258.6803315624692
 30
0.0
 10
321.824327884095
 20
247.6969690127368
 30
0.0
 10
321.8233738437851
 20
225.7300163938467
 30
0.0
 10
321.6986034010424
 20
192.7943403126573
 30
0.0
 10
321.4457384978554
 20
159.8713686049912
 30
0.0
 10
321.1945706160899
 20
137.9479604829638
 30
0.0
 10
321.0689863385898
 20
126.9862270400025
 30
0.0
  0
LWPOLYLINE
  5
117
330
1F
100
AcDbEntity
  8
0
  6
Continuous
 62
     7
370
    25
100
AcDbPolyline
 90
       14
 70
   128
 43
0.0
 10
287.8404995622
 20
130.0790375516
 10
288.5982571366
 20
129.7454005525
 10
289.7365233125
 20
129.415518646
 10
291.2424942674
 20
129.0931022212
 10
293.0992385568
 20
128.7817722604
 10
295.285868478
 20
128.4850454375
 10
297.7777971151
 20
128.2062298104
 10
300.5469879331
 20
127.9484844253
 10
303.5623086812
 20
127.7147001073
 10
306.7898368659
 20
127.5074994609
 10
310.1932732584
 20
127.3292219684
 10
313.7343479516
 20
127.1818792865
 10
317.3732264163
 20
127.0671254441
 10
321.0689863386
 20
126.98622704
  0
SPLINE
  5
118
330
1F
100
AcDbEntity
  8
0
  6
Continuous
 62
     7
370
    25
100
AcDbSpline
210
0.0
220
0.0
230
1.0
 70
     8
 71
     3
 72
    12
 73
     8
 74
     0
 42
0.000000001
 43
0.00000001
 40
0.0
 40
0.0
 40
0.0
 40
0.0
 40
0.1510982283663754
 40
0.3625904897088781
 40
0.5748094867536848
 40
0.7875652773396583
 40
1.0
 40
1.0
 40
1.0
 40
1.0
 10
327.2420531334621
 20
439.3770015284516
 30
0.0
 10
326.7521242383006
 20
439.3443512967738
 30
0.0
 10
325.5764416380496
 20
439.2660005204535
 30
0.0
 10
323.8269451874987
 20
438.4935116769798
 30
0.0
 10
322.2857704706589
 20
437.0900789881009
 30
0.0
 10
321.2476931739721
 20
435.2400544159341
 30
0.0
 10
321.1285252885468
 20
433.8609010539399
 30
0.0
 10
321.0689863385898
 20
433.1718450829484
 30
0.0
  0
SPLINE
  5
119
330
1F
100
AcDbEntity
  8
0
  6
Continuous
 62
     7
370
    25
100
AcDbSpline
210
0.0
220
0.0
230
1.0
 70
     8
 71
     3
 72
    12
 73
     8
 74
     0
 42
0.000000001
 43
0.00000001
 40
0.0
 40
0.0
 40
0.0
 40
0.0
 40
0.1554050137628323
 40
0.3666181245193004
 40
0.577609761170924
 40
0.7888215672409848
 40
1.0
 40
1.0
 40
1.0
 40
1.0
 10
321.0689863385898
 20
126.9862270400025
 30
0.0
 10
321.0995392592267
 20
126.4836455612052
 30
0.0
 10
321.1716170782835
 20
125.2979986202643
 30
0.0
 10
321.9475194034059
 20
123.5443310109254
 30
0.0
 10
323.3433971178945
 20
122.0112259414426
 30
0.0
 10
325.1817022355908
 20
120.9736408750754
 30
0.0
 10
326.5553056772543
 20
120.8452573068032
 30
0.0
 10
327.2420531334621
 20
120.7810705944993
 30
0.0
  0
ARC
  5
11A
330
1F
100
AcDbEntity
  8
0
  6
Continuous
 62
     7
370
    25
100
AcDbCircle
 10
388.4738518479
 20
280.0790375802
 30
0.0
 40
70.00000000000001
100
AcDbArc
 50
197.8000290607
 51
162.1999709393
  0
LINE
  5
11B
330
1F
100
AcDbEntity
  8
0
  6
Continuous
 62
     7
370
    25
100
AcDbLine
 10
321.8248048993
 20
301.4777424231
 30
0.0
 11
321.7666587057
 21
283.0032343462
 31
0.0
  0
LINE
  5
11C
330
1F
100
AcDbEntity
  8
0
  6
Continuous
 62
     7
370
    25
100
AcDbLine
 10
321.7666587057
 20
277.154841502
 30
0.0
 11
321.7666587057
 21
283.0032343462
 31
0.0
  0
LINE
  5
11D
330
1F
100
AcDbEntity
  8
0
  6
Continuous
 62
     7
370
    25
100
AcDbLine
 10
321.7666587057
 20
277.154841502
 30
0.0
 11
321.8248048993
 21
258.6803315625
 31
0.0
  0
ARC
  5
11E
330
1F
100
AcDbEntity
  8
0
  6
Continuous
 62
     7
370
    25
100
AcDbCircle
 10
388.4738518479
 20
280.0790375802
 30
0.0
 40
66.77125453482508
100
AcDbArc
 50
182.5100283872
 51
177.4899716128
  0
LINE
  5
11F
330
1F
100
AcDbEntity
  8
0
  6
Continuous
 62
     7
370
    25
100
AcDbLine
 10
322.3855151059
 20
282.9761058509
 30
0.0
 11
322.3855151059
 21
277.181969066
 31
0.0
  0
LWPOLYLINE
  5
120
330
1F
100
AcDbEntity
  8
0
  6
Continuous
 62
     7
370
    25
100
AcDbPolyline
 90
        9
 70
   128
 43
0.0
 10
321.7666587057
 20
277.154841502
 10
321.8449531319
 20
277.1582724944
 10
321.9230873706
 20
277.1616978988
 10
322.0010055425
 20
277.16511399
 10
322.0786554935
 20
277.1685170427
 10
322.1559850695
 20
277.1719070569
 10
322.2329383912
 20
277.1752803072
 10
322.3094670298
 20
277.1786349312
 10
322.3855151059
 20
277.181969066
  0
LWPOLYLINE
  5
121
330
1F
100
AcDbEntity
  8
0
  6
Continuous
 62
     7
370
    25
100
AcDbPolyline
 90
        9
 70
   128
 43
0.0
 10
322.3855151059
 20
282.9761058509
 10
322.3094670298
 20
282.9794399858
 10
322.2329383912
 20
282.9827946097
 10
322.1559850695
 20
282.98616786
 10
322.0786554935
 20
282.9895578742
 10
322.0010055425
 20
282.9929618582
 10
321.9230873706
 20
282.9963770181
 10
321.8449531319
 20
282.9998024225
 10
321.7666587057
 20
283.0032343462
  0
CIRCLE
  5
122
330
1F
100
AcDbEntity
  8
0
  6
Continuous
 62
     7
370
    25
100
AcDbCircle
 10
388.4738518479
 20
280.0790375802
 30
0.0
 40
58.61177143234625
  0
ARC
  5
123
330
1F
100
AcDbEntity
  8
0
  6
Continuous
 62
     7
370
    25
100
AcDbCircle
 10
388.4738518479
 20
280.0790375802
 30
0.0
 40
66.15180526824551
100
AcDbArc
 50
182.5100283872
 51
177.4899716128
  0
CIRCLE
  5
124
330
1F
100
AcDbEntity
  8
0
  6
Continuous
 62
     7
370
    25
100
AcDbCircle
 10
388.4738518479
 20
280.0790375802
 30
0.0
 40
57.5
  0
ARC
  5
125
330
1F
100
AcDbEntity
  8
0
  6
Continuous
 62
     7
370
    25
100
AcDbCircle
 10
78.5988518479
 20
504.9490375802
 30
0.0
 40
20.46173638225113
100
AcDbArc
 50
90.0
 51
180.0
  0
LINE
  5
126
330
1F
100
AcDbEntity
  8
0
  6
Continuous
 62
     7
370
    25
100
AcDbLine
 10
78.5988448384
 20
525.4107779309
 30
0.0
 11
78.5988448384
 21
524.5340383098
 31
0.0
  0
ARC
  5
127
330
1F
100
AcDbEntity
  8
0
  6
Continuous
 62
     7
370
    25
100
AcDbCircle
 10
78.5988518479
 20
504.9490375802
 30
0.0
 40
19.584994088673
100
AcDbArc
 50
90.0
 51
180.0
  0
LINE
  5
128
330
1F
100
AcDbEntity
  8
0
  6
Continuous
 62
     7
370
    25
100
AcDbLine
 10
58.1371067288
 20
504.9490398213
 30
0.0
 11
59.0138612511
 21
504.9490398213
 31
0.0
  0
LINE
  5
129
330
1F
100
AcDbEntity
  8
0
  6
Continuous
 62
     7
370
    25
100
AcDbLine
 10
635.9838424446
 20
82.1490353391
 30
0.0
 11
635.9838424446
 21
504.9490398213
 31
0.0
  0
LINE
  5
12A
330
1F
100
AcDbEntity
  8
0
  6
Continuous
 62
     7
370
    25
100
AcDbLine
 10
635.9838424446
 20
504.9490398213
 30
0.0
 11
636.860596967
 21
504.9490398213
 31
0.0
  0
LINE
  5
12B
330
1F
100
AcDbEntity
  8
0
  6
Continuous
 62
     7
370
    25
100
AcDbLine
 10
636.860596967
 20
504.9490398213
 30
0.0
 11
636.860596967
 21
82.1490353391
 31
0.0
  0
LINE
  5
12C
330
1F
100
AcDbEntity
  8
0
  6
Continuous
 62
     7
370
    25
100
AcDbLine
 10
635.9838424446
 20
82.1490353391
 30
0.0
 11
636.860596967
 21
82.1490353391
 31
0.0
  0
LINE
  5
12D
330
1F
100
AcDbEntity
  8
0
  6
Continuous
 62
     7
370
    25
100
AcDbLine
 10
78.5988448384
 20
525.4107779309
 30
0.0
 11
616.3988588574
 21
525.4107779309
 31
0.0
  0
LINE
  5
12E
330
1F
100
AcDbEntity
  8
0
  6
Continuous
 62
     7
370
    25
100
AcDbLine
 10
616.3988588574
 20
525.4107779309
 30
0.0
 11
616.3988588574
 21
524.5340383098
 31
0.0
  0
LINE
  5
12F
330
1F
100
AcDbEntity
  8
0
  6
Continuous
 62
     7
370
    25
100
AcDbLine
 10
616.3988588574
 20
524.5340383098
 30
0.0
 11
78.5988448384
 21
524.5340383098
 31
0.0
  0
ARC
  5
130
330
1F
100
AcDbEntity
  8
0
  6
Continuous
 62
     7
370
    25
100
AcDbCircle
 10
616.3988518479
 20
504.9490375802
 30
0.0
 40
19.584994088673
100
AcDbArc
 50
0.0
 51
90.0
  0
ARC
  5
131
330
1F
100
AcDbEntity
  8
0
  6
Continuous
 62
     7
370
    25
100
AcDbCircle
 10
616.3988518479
 20
504.9490375802
 30
0.0
 40
20.46173638225116
100
AcDbArc
 50
0.0
 51
90.0
  0
LINE
  5
132
330
1F
100
AcDbEntity
  8
0
  6
Continuous
 62
     7
370
    25
100
AcDbLine
 10
58.1371067288
 20
82.1490353391
 30
0.0
 11
58.1371067288
 21
504.9490398213
 31
0.0
  0
ARC
  5
133
330
1F
100
AcDbEntity
  8
0
  6
Continuous
 62
     7
370
    25
100
AcDbCircle
 10
78.5988518479
 20
82.1490375802
 30
0.0
 40
20.46173638225113
100
AcDbArc
 50
180.0
 51
270.0
  0
LINE
  5
134
330
1F
100
AcDbEntity
  8
0
  6
Continuous
 62
     7
370
    25
100
AcDbLine
 10
616.3988588574
 20
61.6872972295
 30
0.0
 11
78.5988448384
 21
61.6872972295
 31
0.0
  0
ARC
  5
135
330
1F
100
AcDbEntity
  8
0
  6
Continuous
 62
     7
370
    25
100
AcDbCircle
 10
616.3988518479
 20
82.1490375802
 30
0.0
 40
20.46173638225113
100
AcDbArc
 50
270.0
 51
0.0
  0
LINE
  5
136
330
1F
100
AcDbEntity
  8
0
  6
Continuous
 62
     7
370
    25
100
AcDbLine
 10
644.998866153
 20
542.5490355536
 30
0.0
 11
49.9988375427
 21
542.5490355536
 31
0.0
  0
ARC
  5
137
330
1F
100
AcDbEntity
  8
0
  6
Continuous
 62
     7
370
    25
100
AcDbCircle
 10
644.9988518479
 20
533.5490375802
 30
0.0
 40
8.999999999999886
100
AcDbArc
 50
0.0
 51
90.0
  0
LINE
  5
138
330
1F
100
AcDbEntity
  8
0
  6
Continuous
 62
     7
370
    25
100
AcDbLine
 10
653.9988396885
 20
53.5490429446
 30
0.0
 11
653.9988396885
 21
533.5490322158
 31
0.0
  0
ARC
  5
139
330
1F
100
AcDbEntity
  8
0
  6
Continuous
 62
     7
370
    25
100
AcDbCircle
 10
644.9988518479
 20
53.5490375802
 30
0.0
 40
9.0
100
AcDbArc
 50
270.0
 51
0.0
  0
LINE
  5
13A
330
1F
100
AcDbEntity
  8
0
  6
Continuous
 62
     7
370
    25
100
AcDbLine
 10
49.9988375427
 20
44.5490396068
 30
0.0
 11
644.998866153
 21
44.5490396068
 31
0.0
  0
ARC
  5
13B
330
1F
100
AcDbEntity
  8
0
  6
Continuous
 62
     7
370
    25
100
AcDbCircle
 10
49.9988518479
 20
53.5490375802
 30
0.0
 40
8.9999999999999
100
AcDbArc
 50
180.0
 51
270.0
  0
LINE
  5
13C
330
1F
100
AcDbEntity
  8
0
  6
Continuous
 62
     7
370
    25
100
AcDbLine
 10
40.9988640072
 20
533.5490322158
 30
0.0
 11
40.9988640072
 21
53.5490429446
 31
0.0
  0
ARC
  5
13D
330
1F
100
AcDbEntity
  8
0
  6
Continuous
 62
     7
370
    25
100
AcDbCircle
 10
49.9988518479
 20
533.5490375802
 30
0.0
 40
8.9999999999999
100
AcDbArc
 50
90.0
 51
180.0
  0
LINE
  5
13E
330
1F
100
AcDbEntity
  8
0
  6
Continuous
 62
     7
370
    25
100
AcDbLine
 10
39.9988470795
 20
53.5490429446
 30
0.0
 11
40.9988640072
 21
53.5490429446
 31
0.0
  0
LINE
  5
13F
330
1F
100
AcDbEntity
  8
0
  6
Continuous
 62
     7
370
    25
100
AcDbLine
 10
39.9988470795
 20
53.5490429446
 30
0.0
 11
39.9988470795
 21
533.5490322158
 31
0.0
  0
LINE
  5
140
330
1F
100
AcDbEntity
  8
0
  6
Continuous
 62
     7
370
    25
100
AcDbLine
 10
40.9988640072
 20
533.5490322158
 30
0.0
 11
39.9988470795
 21
533.5490322158
 31
0.0
  0
ARC
  5
141
330
1F
100
AcDbEntity
  8
0
  6
Continuous
 62
     7
370
    25
100
AcDbCircle
 10
644.9988518479
 20
53.5490375802
 30
0.0
 40
10.00000000000011
100
AcDbArc
 50
270.0
 51
0.0
  0
LINE
  5
142
330
1F
100
AcDbEntity
  8
0
  6
Continuous
 62
     7
370
    25
100
AcDbLine
 10
644.998866153
 20
43.5490375802
 30
0.0
 11
644.998866153
 21
44.5490396068
 31
0.0
  0
LINE
  5
143
330
1F
100
AcDbEntity
  8
0
  6
Continuous
 62
     7
370
    25
100
AcDbLine
 10
654.9988566162
 20
53.5490429446
 30
0.0
 11
653.9988396885
 21
53.5490429446
 31
0.0
  0
LINE
  5
144
330
1F
100
AcDbEntity
  8
0
  6
Continuous
 62
     7
370
    25
100
AcDbLine
 10
49.9988375427
 20
542.5490355536
 30
0.0
 11
49.9988375427
 21
543.5490375802
 31
0.0
  0
LINE
  5
145
330
1F
100
AcDbEntity
  8
0
  6
Continuous
 62
     7
370
    25
100
AcDbLine
 10
49.9988375427
 20
543.5490375802
 30
0.0
 11
644.998866153
 21
543.5490375802
 31
0.0
  0
LINE
  5
146
330
1F
100
AcDbEntity
  8
0
  6
Continuous
 62
     7
370
    25
100
AcDbLine
 10
644.998866153
 20
542.5490355536
 30
0.0
 11
644.998866153
 21
543.5490375802
 31
0.0
  0
ARC
  5
147
330
1F
100
AcDbEntity
  8
0
  6
Continuous
 62
     7
370
    25
100
AcDbCircle
 10
78.5988518479
 20
82.1490375802
 30
0.0
 40
19.58499408867298
100
AcDbArc
 50
180.0
 51
270.0
  0
LINE
  5
148
330
1F
100
AcDbEntity
  8
0
  6
Continuous
 62
     7
370
    25
100
AcDbLine
 10
78.5988448384
 20
62.5640368506
 30
0.0
 11
78.5988448384
 21
61.6872972295
 31
0.0
  0
LINE
  5
149
330
1F
100
AcDbEntity
  8
0
  6
Continuous
 62
     7
370
    25
100
AcDbLine
 10
58.1371067288
 20
82.1490353391
 30
0.0
 11
59.0138612511
 21
82.1490353391
 31
0.0
  0
LINE
  5
14A
330
1F
100
AcDbEntity
  8
0
  6
Continuous
 62
     7
370
    25
100
AcDbLine
 10
78.5988448384
 20
62.5640368506
 30
0.0
 11
616.3988588574
 21
62.5640368506
 31
0.0
  0
LINE
  5
14B
330
1F
100
AcDbEntity
  8
0
  6
Continuous
 62
     7
370
    25
100
AcDbLine
 10
616.3988588574
 20
62.5640368506
 30
0.0
 11
616.3988588574
 21
61.6872972295
 31
0.0
  0
LINE
  5
14C
330
1F
100
AcDbEntity
  8
0
  6
Continuous
 62
     7
370
    25
100
AcDbLine
 10
59.0138612511
 20
504.9490398213
 30
0.0
 11
59.0138612511
 21
82.1490353391
 31
0.0
  0
ARC
  5
14D
330
1F
100
AcDbEntity
  8
0
  6
Continuous
 62
     7
370
    25
100
AcDbCircle
 10
616.3988518479
 20
82.1490375802
 30
0.0
 40
19.58499408867298
100
AcDbArc
 50
270.0
 51
0.0
  0
ARC
  5
14E
330
1F
100
AcDbEntity
  8
0
  6
Continuous
 62
     7
370
    25
100
AcDbCircle
 10
49.9988518479
 20
533.5490375802
 30
0.0
 40
10.00000000000001
100
AcDbArc
 50
90.0
 51
180.0
  0
ARC
  5
14F
330
1F
100
AcDbEntity
  8
0
  6
Continuous
 62
     7
370
    25
100
AcDbCircle
 10
49.9988518479
 20
53.5490375802
 30
0.0
 40
10.00000000000006
100
AcDbArc
 50
180.0
 51
270.0
  0
LINE
  5
150
330
1F
100
AcDbEntity
  8
0
  6
Continuous
 62
     7
370
    25
100
AcDbLine
 10
49.9988375427
 20
43.5490375802
 30
0.0
 11
49.9988375427
 21
44.5490396068
 31
0.0
  0
LINE
  5
151
330
1F
100
AcDbEntity
  8
0
  6
Continuous
 62
     7
370
    25
100
AcDbLine
 10
644.998866153
 20
43.5490375802
 30
0.0
 11
49.9988375427
 21
43.5490375802
 31
0.0
  0
LINE
  5
152
330
1F
100
AcDbEntity
  8
0
  6
Continuous
 62
     7
370
    25
100
AcDbLine
 10
653.9988396885
 20
533.5490322158
 30
0.0
 11
654.9988566162
 21
533.5490322158
 31
0.0
  0
LINE
  5
153
330
1F
100
AcDbEntity
  8
0
  6
Continuous
 62
     7
370
    25
100
AcDbLine
 10
654.9988566162
 20
533.5490322158
 30
0.0
 11
654.9988566162
 21
53.5490429446
 31
0.0
  0
ARC
  5
154
330
1F
100
AcDbEntity
  8
0
  6
Continuous
 62
     7
370
    25
100
AcDbCircle
 10
644.9988518479
 20
533.5490375802
 30
0.0
 40
10.0
100
AcDbArc
 50
0.0
 51
90.0
  0
LINE
  5
155
330
1F
100
AcDbEntity
  8
0
  6
Continuous
 62
     7
370
    25
100
AcDbLine
 10
78.5988448384
 20
521.876058583
 30
0.0
 11
616.3988588574
 21
521.876058583
 31
0.0
  0
LINE
  5
156
330
1F
100
AcDbEntity
  8
0
  6
Continuous
 62
     7
370
    25
100
AcDbLine
 10
78.5988448384
 20
521.876058583
 30
0.0
 11
78.5988448384
 21
524.5340383098
 31
0.0
  0
LINE
  5
157
330
1F
100
AcDbEntity
  8
0
  6
Continuous
 62
     7
370
    25
100
AcDbLine
 10
616.3988588574
 20
521.876058583
 30
0.0
 11
616.3988588574
 21
524.5340383098
 31
0.0
  0
LINE
  5
158
330
1F
100
AcDbEntity
  8
0
  6
Continuous
 62
     7
370
    25
100
AcDbLine
 10
61.6718409779
 20
82.1490353391
 30
0.0
 11
61.6718409779
 21
504.9490398213
 31
0.0
  0
LINE
  5
159
330
1F
100
AcDbEntity
  8
0
  6
Continuous
 62
     7
370
    25
100
AcDbLine
 10
61.6718409779
 20
82.1490353391
 30
0.0
 11
59.0138612511
 21
82.1490353391
 31
0.0
  0
LINE
  5
15A
330
1F
100
AcDbEntity
  8
0
  6
Continuous
 62
     7
370
    25
100
AcDbLine
 10
61.6718409779
 20
504.9490398213
 30
0.0
 11
59.0138612511
 21
504.9490398213
 31
0.0
  0
ARC
  5
15B
330
1F
100
AcDbEntity
  8
0
  6
Continuous
 62
     7
370
    25
100
AcDbCircle
 10
616.3988518479
 20
504.9490375802
 30
0.0
 40
16.9270168091366
100
AcDbArc
 50
0.0
 51
90.0
  0
LINE
  5
15C
330
1F
100
AcDbEntity
  8
0
  6
Continuous
 62
     7
370
    25
100
AcDbLine
 10
633.3258627178
 20
504.9490398213
 30
0.0
 11
635.9838424446
 21
504.9490398213
 31
0.0
  0
LINE
  5
15D
330
1F
100
AcDbEntity
  8
0
  6
Continuous
 62
     7
370
    25
100
AcDbLine
 10
633.3258627178
 20
504.9490398213
 30
0.0
 11
633.3258627178
 21
82.1490353391
 31
0.0
  0
LINE
  5
15E
330
1F
100
AcDbEntity
  8
0
  6
Continuous
 62
     7
370
    25
100
AcDbLine
 10
633.3258627178
 20
82.1490353391
 30
0.0
 11
635.9838424446
 21
82.1490353391
 31
0.0
  0
ARC
  5
15F
330
1F
100
AcDbEntity
  8
0
  6
Continuous
 62
     7
370
    25
100
AcDbCircle
 10
616.3988518479
 20
82.1490375802
 30
0.0
 40
16.92701680913672
100
AcDbArc
 50
270.0
 51
0.0
  0
LINE
  5
160
330
1F
100
AcDbEntity
  8
0
  6
Continuous
 62
     7
370
    25
100
AcDbLine
 10
616.3988588574
 20
65.2220165774
 30
0.0
 11
616.3988588574
 21
62.5640368506
 31
0.0
  0
LINE
  5
161
330
1F
100
AcDbEntity
  8
0
  6
Continuous
 62
     7
370
    25
100
AcDbLine
 10
616.3988588574
 20
65.2220165774
 30
0.0
 11
78.5988448384
 21
65.2220165774
 31
0.0
  0
LINE
  5
162
330
1F
100
AcDbEntity
  8
0
  6
Continuous
 62
     7
370
    25
100
AcDbLine
 10
78.5988448384
 20
65.2220165774
 30
0.0
 11
78.5988448384
 21
62.5640368506
 31
0.0
  0
ARC
  5
163
330
1F
100
AcDbEntity
  8
0
  6
Continuous
 62
     7
370
    25
100
AcDbCircle
 10
78.5988518479
 20
504.9490375802
 30
0.0
 40
16.92701680913666
100
AcDbArc
 50
90.0
 51
180.0
  0
ARC
  5
164
330
1F
100
AcDbEntity
  8
0
  6
Continuous
 62
     7
370
    25
100
AcDbCircle
 10
78.5988518479
 20
82.1490375802
 30
0.0
 40
16.92701680913663
100
AcDbArc
 50
180.0
 51
270.0
  0
ARC
  5
165
330
1F
100
AcDbEntity
  8
0
  6
Continuous
 62
     7
370
    25
100
AcDbCircle
 10
609.6988518479
 20
510.4376832425
 30
0.0
 40
0.8999999999999773
100
AcDbArc
 50
0.0
 51
90.0
  0
LINE
  5
166
330
1F
100
AcDbEntity
  8
0
  6
Continuous
 62
     7
370
    25
100
AcDbLine
 10
609.6988497498
 20
511.3376891658
 30
0.0
 11
609.6988497498
 21
511.4376759574
 31
0.0
  0
ARC
  5
167
330
1F
100
AcDbEntity
  8
0
  6
Continuous
 62
     7
370
    25
100
AcDbCircle
 10
609.6988518479
 20
510.4376832425
 30
0.0
 40
1.0
100
AcDbArc
 50
0.0
 51
90.0
  0
LINE
  5
168
330
1F
100
AcDbEntity
  8
0
  6
Continuous
 62
     7
370
    25
100
AcDbLine
 10
610.5988500836
 20
510.437688832
 30
0.0
 11
610.6988666775
 21
510.437688832
 31
0.0
  0
LINE
  5
169
330
1F
100
AcDbEntity
  8
0
  6
Continuous
 62
     7
370
    25
100
AcDbLine
 10
608.109044862
 20
505.7968860909
 30
0.0
 11
608.109044862
 21
506.2968796536
 31
0.0
  0
LINE
  5
16A
330
1F
100
AcDbEntity
  8
0
  6
Continuous
 62
     7
370
    25
100
AcDbLine
 10
608.2090316536
 20
506.3968813464
 30
0.0
 11
608.109044862
 21
506.2968796536
 31
0.0
  0
LINE
  5
16B
330
1F
100
AcDbEntity
  8
0
  6
Continuous
 62
     7
370
    25
100
AcDbLine
 10
608.2090316536
 20
506.3968813464
 30
0.0
 11
608.2090316536
 21
505.6968843982
 31
0.0
  0
LINE
  5
16C
330
1F
100
AcDbEntity
  8
0
  6
Continuous
 62
     7
370
    25
100
AcDbLine
 10
608.109044862
 20
505.7968860909
 30
0.0
 11
608.2090316536
 21
505.6968843982
 31
0.0
  0
LINE
  5
16D
330
1F
100
AcDbEntity
  8
0
  6
Continuous
 62
     7
370
    25
100
AcDbLine
 10
580.0391910794
 20
509.1663217589
 30
0.0
 11
580.0391910794
 21
503.5255169913
 31
0.0
  0
LINE
  5
16E
330
1F
100
AcDbEntity
  8
0
  6
Continuous
 62
     7
370
    25
100
AcDbLine
 10
580.0391910794
 20
503.5255169913
 30
0.0
 11
579.9391893866
 21
503.4255152986
 31
0.0
  0
LINE
  5
16F
330
1F
100
AcDbEntity
  8
0
  6
Continuous
 62
     7
370
    25
100
AcDbLine
 10
579.9391893866
 20
503.4255152986
 30
0.0
 11
579.9391893866
 21
509.0663200662
 31
0.0
  0
LINE
  5
170
330
1F
100
AcDbEntity
  8
0
  6
Continuous
 62
     7
370
    25
100
AcDbLine
 10
579.9391893866
 20
509.0663200662
 30
0.0
 11
580.0391910794
 21
509.1663217589
 31
0.0
  0
LINE
  5
171
330
1F
100
AcDbEntity
  8
0
  6
Continuous
 62
     7
370
    25
100
AcDbLine
 10
604.7750292542
 20
506.3968813464
 30
0.0
 11
608.2090316536
 21
506.3968813464
 31
0.0
  0
LINE
  5
172
330
1F
100
AcDbEntity
  8
0
  6
Continuous
 62
     7
370
    25
100
AcDbLine
 10
608.109044862
 20
506.2968796536
 30
0.0
 11
604.8750160458
 21
506.2968796536
 31
0.0
  0
LINE
  5
173
330
1F
100
AcDbEntity
  8
0
  6
Continuous
 62
     7
370
    25
100
AcDbLine
 10
604.7750292542
 20
506.3968813464
 30
0.0
 11
604.8750160458
 21
506.2968796536
 31
0.0
  0
LINE
  5
174
330
1F
100
AcDbEntity
  8
0
  6
Continuous
 62
     7
370
    25
100
AcDbLine
 10
594.4388536932
 20
503.4255152986
 30
0.0
 11
594.4388536932
 21
511.4376759574
 31
0.0
  0
LINE
  5
175
330
1F
100
AcDbEntity
  8
0
  6
Continuous
 62
     7
370
    25
100
AcDbLine
 10
594.4388536932
 20
511.4376759574
 30
0.0
 11
594.538855386
 21
511.3376891658
 31
0.0
  0
LINE
  5
176
330
1F
100
AcDbEntity
  8
0
  6
Continuous
 62
     7
370
    25
100
AcDbLine
 10
594.538855386
 20
511.3376891658
 30
0.0
 11
594.538855386
 21
503.5255169913
 31
0.0
  0
LINE
  5
177
330
1F
100
AcDbEntity
  8
0
  6
Continuous
 62
     7
370
    25
100
AcDbLine
 10
594.4388536932
 20
503.4255152986
 30
0.0
 11
594.538855386
 21
503.5255169913
 31
0.0
  0
LINE
  5
178
330
1F
100
AcDbEntity
  8
0
  6
Continuous
 62
     7
370
    25
100
AcDbLine
 10
598.1694339039
 20
511.3376891658
 30
0.0
 11
594.538855386
 21
511.3376891658
 31
0.0
  0
LINE
  5
179
330
1F
100
AcDbEntity
  8
0
  6
Continuous
 62
     7
370
    25
100
AcDbLine
 10
594.4388536932
 20
511.4376759574
 30
0.0
 11
598.2694206955
 21
511.4376759574
 31
0.0
  0
LINE
  5
17A
330
1F
100
AcDbEntity
  8
0
  6
Continuous
 62
     7
370
    25
100
AcDbLine
 10
598.1694339039
 20
511.3376891658
 30
0.0
 11
598.2694206955
 21
511.4376759574
 31
0.0
  0
LINE
  5
17B
330
1F
100
AcDbEntity
  8
0
  6
Continuous
 62
     7
370
    25
100
AcDbLine
 10
609.6988497498
 20
503.4255152986
 30
0.0
 11
602.8188644173
 21
503.4255152986
 31
0.0
  0
LINE
  5
17C
330
1F
100
AcDbEntity
  8
0
  6
Continuous
 62
     7
370
    25
100
AcDbLine
 10
602.8188644173
 20
503.4255152986
 30
0.0
 11
602.9188512089
 21
503.5255169913
 31
0.0
  0
LINE
  5
17D
330
1F
100
AcDbEntity
  8
0
  6
Continuous
 62
     7
370
    25
100
AcDbLine
 10
602.9188512089
 20
503.5255169913
 30
0.0
 11
609.6988497498
 21
503.5255169913
 31
0.0
  0
LINE
  5
17E
330
1F
100
AcDbEntity
  8
0
  6
Continuous
 62
     7
370
    25
100
AcDbLine
 10
609.6988497498
 20
503.4255152986
 30
0.0
 11
609.6988497498
 21
503.5255169913
 31
0.0
  0
LINE
  5
17F
330
1F
100
AcDbEntity
  8
0
  6
Continuous
 62
     7
370
    25
100
AcDbLine
 10
593.8388584378
 20
511.3376891658
 30
0.0
 11
586.1588446619
 21
511.3376891658
 31
0.0
  0
LINE
  5
180
330
1F
100
AcDbEntity
  8
0
  6
Continuous
 62
     7
370
    25
100
AcDbLine
 10
586.0588578703
 20
511.4376759574
 30
0.0
 11
586.1588446619
 21
511.3376891658
 31
0.0
  0
LINE
  5
181
330
1F
100
AcDbEntity
  8
0
  6
Continuous
 62
     7
370
    25
100
AcDbLine
 10
586.0588578703
 20
511.4376759574
 30
0.0
 11
593.9388452294
 21
511.4376759574
 31
0.0
  0
LINE
  5
182
330
1F
100
AcDbEntity
  8
0
  6
Continuous
 62
     7
370
    25
100
AcDbLine
 10
593.8388584378
 20
511.3376891658
 30
0.0
 11
593.9388452294
 21
511.4376759574
 31
0.0
  0
LINE
  5
183
330
1F
100
AcDbEntity
  8
0
  6
Continuous
 62
     7
370
    25
100
AcDbLine
 10
610.5988500836
 20
504.4255173251
 30
0.0
 11
610.5988500836
 21
510.437688832
 31
0.0
  0
LINE
  5
184
330
1F
100
AcDbEntity
  8
0
  6
Continuous
 62
     7
370
    25
100
AcDbLine
 10
610.6988666775
 20
510.437688832
 30
0.0
 11
610.6988666775
 21
504.4255173251
 31
0.0
  0
LINE
  5
185
330
1F
100
AcDbEntity
  8
0
  6
Continuous
 62
     7
370
    25
100
AcDbLine
 10
610.5988500836
 20
504.4255173251
 30
0.0
 11
610.6988666775
 21
504.4255173251
 31
0.0
  0
LINE
  5
186
330
1F
100
AcDbEntity
  8
0
  6
Continuous
 62
     7
370
    25
100
AcDbLine
 10
577.0788518908
 20
511.3376891658
 30
0.0
 11
570.2988533499
 21
511.3376891658
 31
0.0
  0
LINE
  5
187
330
1F
100
AcDbEntity
  8
0
  6
Continuous
 62
     7
370
    25
100
AcDbLine
 10
570.2988533499
 20
511.4376759574
 30
0.0
 11
570.2988533499
 21
511.3376891658
 31
0.0
  0
LINE
  5
188
330
1F
100
AcDbEntity
  8
0
  6
Continuous
 62
     7
370
    25
100
AcDbLine
 10
570.2988533499
 20
511.4376759574
 30
0.0
 11
577.1788535835
 21
511.4376759574
 31
0.0
  0
LINE
  5
189
330
1F
100
AcDbEntity
  8
0
  6
Continuous
 62
     7
370
    25
100
AcDbLine
 10
577.0788518908
 20
511.3376891658
 30
0.0
 11
577.1788535835
 21
511.4376759574
 31
0.0
  0
ARC
  5
18A
330
1F
100
AcDbEntity
  8
0
  6
Continuous
 62
     7
370
    25
100
AcDbCircle
 10
570.2988518479
 20
510.4376832425
 30
0.0
 40
1.0
100
AcDbArc
 50
90.0
 51
180.0
  0
ARC
  5
18B
330
1F
100
AcDbEntity
  8
0
  6
Continuous
 62
     7
370
    25
100
AcDbCircle
 10
570.2988518479
 20
510.4376832425
 30
0.0
 40
0.9000000000000341
100
AcDbArc
 50
90.0
 51
180.0
  0
LINE
  5
18C
330
1F
100
AcDbEntity
  8
0
  6
Continuous
 62
     7
370
    25
100
AcDbLine
 10
569.2988513233
 20
510.437688832
 30
0.0
 11
569.3988530161
 21
510.437688832
 31
0.0
  0
LINE
  5
18D
330
1F
100
AcDbEntity
  8
0
  6
Continuous
 62
     7
370
    25
100
AcDbLine
 10
604.8750160458
 20
506.2968796536
 30
0.0
 11
604.8750160458
 21
505.7968860909
 31
0.0
  0
LINE
  5
18E
330
1F
100
AcDbEntity
  8
0
  6
Continuous
 62
     7
370
    25
100
AcDbLine
 10
604.8750160458
 20
505.7968860909
 30
0.0
 11
604.7750292542
 21
505.6968843982
 31
0.0
  0
LINE
  5
18F
330
1F
100
AcDbEntity
  8
0
  6
Continuous
 62
     7
370
    25
100
AcDbLine
 10
604.7750292542
 20
505.6968843982
 30
0.0
 11
604.7750292542
 21
506.3968813464
 31
0.0
  0
LINE
  5
190
330
1F
100
AcDbEntity
  8
0
  6
Continuous
 62
     7
370
    25
100
AcDbLine
 10
586.0588578703
 20
509.0663200662
 30
0.0
 11
586.0588578703
 21
511.4376759574
 31
0.0
  0
LINE
  5
191
330
1F
100
AcDbEntity
  8
0
  6
Continuous
 62
     7
370
    25
100
AcDbLine
 10
586.1588446619
 20
511.3376891658
 30
0.0
 11
586.1588446619
 21
509.1663217589
 31
0.0
  0
LINE
  5
192
330
1F
100
AcDbEntity
  8
0
  6
Continuous
 62
     7
370
    25
100
AcDbLine
 10
586.0588578703
 20
509.0663200662
 30
0.0
 11
586.1588446619
 21
509.1663217589
 31
0.0
  0
ARC
  5
193
330
1F
100
AcDbEntity
  8
0
  6
Continuous
 62
     7
370
    25
100
AcDbCircle
 10
609.6988518479
 20
504.4255154325
 30
0.0
 40
0.9000000000000341
100
AcDbArc
 50
270.0
 51
0.0
  0
ARC
  5
194
330
1F
100
AcDbEntity
  8
0
  6
Continuous
 62
     7
370
    25
100
AcDbCircle
 10
609.6988518479
 20
504.4255154325
 30
0.0
 40
1.0
100
AcDbArc
 50
270.0
 51
0.0
  0
LINE
  5
195
330
1F
100
AcDbEntity
  8
0
  6
Continuous
 62
     7
370
    25
100
AcDbLine
 10
593.8388584378
 20
503.5255169913
 30
0.0
 11
593.8388584378
 21
511.3376891658
 31
0.0
  0
LINE
  5
196
330
1F
100
AcDbEntity
  8
0
  6
Continuous
 62
     7
370
    25
100
AcDbLine
 10
593.9388452294
 20
511.4376759574
 30
0.0
 11
593.9388452294
 21
503.4255152986
 31
0.0
  0
LINE
  5
197
330
1F
100
AcDbEntity
  8
0
  6
Continuous
 62
     7
370
    25
100
AcDbLine
 10
593.8388584378
 20
503.5255169913
 30
0.0
 11
593.9388452294
 21
503.4255152986
 31
0.0
  0
LINE
  5
198
330
1F
100
AcDbEntity
  8
0
  6
Continuous
 62
     7
370
    25
100
AcDbLine
 10
602.2188542607
 20
505.6968843982
 30
0.0
 11
598.1694339039
 21
505.6968843982
 31
0.0
  0
LINE
  5
199
330
1F
100
AcDbEntity
  8
0
  6
Continuous
 62
     7
370
    25
100
AcDbLine
 10
598.1694339039
 20
505.6968843982
 30
0.0
 11
598.2694206955
 21
505.7968860909
 31
0.0
  0
LINE
  5
19A
330
1F
100
AcDbEntity
  8
0
  6
Continuous
 62
     7
370
    25
100
AcDbLine
 10
598.2694206955
 20
505.7968860909
 30
0.0
 11
602.3188410523
 21
505.7968860909
 31
0.0
  0
LINE
  5
19B
330
1F
100
AcDbEntity
  8
0
  6
Continuous
 62
     7
370
    25
100
AcDbLine
 10
602.2188542607
 20
505.6968843982
 30
0.0
 11
602.3188410523
 21
505.7968860909
 31
0.0
  0
LINE
  5
19C
330
1F
100
AcDbEntity
  8
0
  6
Continuous
 62
     7
370
    25
100
AcDbLine
 10
569.2988513233
 20
504.4376766726
 30
0.0
 11
569.2988513233
 21
505.7968860909
 31
0.0
  0
LINE
  5
19D
330
1F
100
AcDbEntity
  8
0
  6
Continuous
 62
     7
370
    25
100
AcDbLine
 10
569.2988513233
 20
505.7968860909
 30
0.0
 11
569.3988530161
 21
505.6968843982
 31
0.0
  0
LINE
  5
19E
330
1F
100
AcDbEntity
  8
0
  6
Continuous
 62
     7
370
    25
100
AcDbLine
 10
569.3988530161
 20
505.6968843982
 30
0.0
 11
569.3988530161
 21
504.4376766726
 31
0.0
  0
LINE
  5
19F
330
1F
100
AcDbEntity
  8
0
  6
Continuous
 62
     7
370
    25
100
AcDbLine
 10
569.2988513233
 20
504.4376766726
 30
0.0
 11
569.3988530161
 21
504.4376766726
 31
0.0
  0
LINE
  5
1A0
330
1F
100
AcDbEntity
  8
0
  6
Continuous
 62
     7
370
    25
100
AcDbLine
 10
598.1694339039
 20
505.6968843982
 30
0.0
 11
598.1694339039
 21
511.3376891658
 31
0.0
  0
LINE
  5
1A1
330
1F
100
AcDbEntity
  8
0
  6
Continuous
 62
     7
370
    25
100
AcDbLine
 10
598.2694206955
 20
511.4376759574
 30
0.0
 11
598.2694206955
 21
505.7968860909
 31
0.0
  0
LINE
  5
1A2
330
1F
100
AcDbEntity
  8
0
  6
Continuous
 62
     7
370
    25
100
AcDbLine
 10
591.531979871
 20
506.2968796536
 30
0.0
 11
588.4083686592
 21
506.2968796536
 31
0.0
  0
LINE
  5
1A3
330
1F
100
AcDbEntity
  8
0
  6
Continuous
 62
     7
370
    25
100
AcDbLine
 10
588.4083686592
 20
506.2968796536
 30
0.0
 11
588.3083669665
 21
506.3968813464
 31
0.0
  0
LINE
  5
1A4
330
1F
100
AcDbEntity
  8
0
  6
Continuous
 62
     7
370
    25
100
AcDbLine
 10
588.3083669665
 20
506.3968813464
 30
0.0
 11
591.6319815638
 21
506.3968813464
 31
0.0
  0
LINE
  5
1A5
330
1F
100
AcDbEntity
  8
0
  6
Continuous
 62
     7
370
    25
100
AcDbLine
 10
591.6319815638
 20
506.3968813464
 30
0.0
 11
591.531979871
 21
506.2968796536
 31
0.0
  0
LINE
  5
1A6
330
1F
100
AcDbEntity
  8
0
  6
Continuous
 62
     7
370
    25
100
AcDbLine
 10
574.8295216086
 20
505.7968860909
 30
0.0
 11
574.8295216086
 21
506.2968796536
 31
0.0
  0
LINE
  5
1A7
330
1F
100
AcDbEntity
  8
0
  6
Continuous
 62
     7
370
    25
100
AcDbLine
 10
574.8295216086
 20
506.2968796536
 30
0.0
 11
574.9295084002
 21
506.3968813464
 31
0.0
  0
LINE
  5
1A8
330
1F
100
AcDbEntity
  8
0
  6
Continuous
 62
     7
370
    25
100
AcDbLine
 10
574.9295084002
 20
506.3968813464
 30
0.0
 11
574.9295084002
 21
505.6968843982
 31
0.0
  0
LINE
  5
1A9
330
1F
100
AcDbEntity
  8
0
  6
Continuous
 62
     7
370
    25
100
AcDbLine
 10
574.8295216086
 20
505.7968860909
 30
0.0
 11
574.9295084002
 21
505.6968843982
 31
0.0
  0
LINE
  5
1AA
330
1F
100
AcDbEntity
  8
0
  6
Continuous
 62
     7
370
    25
100
AcDbLine
 10
586.1588446619
 20
508.4663248107
 30
0.0
 11
586.1588446619
 21
503.5255169913
 31
0.0
  0
LINE
  5
1AB
330
1F
100
AcDbEntity
  8
0
  6
Continuous
 62
     7
370
    25
100
AcDbLine
 10
586.1588446619
 20
503.5255169913
 30
0.0
 11
586.0588578703
 21
503.4255152986
 31
0.0
  0
LINE
  5
1AC
330
1F
100
AcDbEntity
  8
0
  6
Continuous
 62
     7
370
    25
100
AcDbLine
 10
586.0588578703
 20
503.4255152986
 30
0.0
 11
586.0588578703
 21
508.5663265035
 31
0.0
  0
LINE
  5
1AD
330
1F
100
AcDbEntity
  8
0
  6
Continuous
 62
     7
370
    25
100
AcDbLine
 10
586.1588446619
 20
508.4663248107
 30
0.0
 11
586.0588578703
 21
508.5663265035
 31
0.0
  0
LINE
  5
1AE
330
1F
100
AcDbEntity
  8
0
  6
Continuous
 62
     7
370
    25
100
AcDbLine
 10
591.6319815638
 20
508.4663248107
 30
0.0
 11
586.1588446619
 21
508.4663248107
 31
0.0
  0
LINE
  5
1AF
330
1F
100
AcDbEntity
  8
0
  6
Continuous
 62
     7
370
    25
100
AcDbLine
 10
586.0588578703
 20
508.5663265035
 30
0.0
 11
591.531979871
 21
508.5663265035
 31
0.0
  0
LINE
  5
1B0
330
1F
100
AcDbEntity
  8
0
  6
Continuous
 62
     7
370
    25
100
AcDbLine
 10
591.531979871
 20
508.5663265035
 30
0.0
 11
591.6319815638
 21
508.4663248107
 31
0.0
  0
LINE
  5
1B1
330
1F
100
AcDbEntity
  8
0
  6
Continuous
 62
     7
370
    25
100
AcDbLine
 10
569.2988513233
 20
506.2968796536
 30
0.0
 11
569.2988513233
 21
510.437688832
 31
0.0
  0
LINE
  5
1B2
330
1F
100
AcDbEntity
  8
0
  6
Continuous
 62
     7
370
    25
100
AcDbLine
 10
569.3988530161
 20
510.437688832
 30
0.0
 11
569.3988530161
 21
506.3968813464
 31
0.0
  0
LINE
  5
1B3
330
1F
100
AcDbEntity
  8
0
  6
Continuous
 62
     7
370
    25
100
AcDbLine
 10
569.2988513233
 20
506.2968796536
 30
0.0
 11
569.3988530161
 21
506.3968813464
 31
0.0
  0
LINE
  5
1B4
330
1F
100
AcDbEntity
  8
0
  6
Continuous
 62
     7
370
    25
100
AcDbLine
 10
591.531979871
 20
508.5663265035
 30
0.0
 11
591.531979871
 21
509.0663200662
 31
0.0
  0
LINE
  5
1B5
330
1F
100
AcDbEntity
  8
0
  6
Continuous
 62
     7
370
    25
100
AcDbLine
 10
591.531979871
 20
509.0663200662
 30
0.0
 11
591.6319815638
 21
509.1663217589
 31
0.0
  0
LINE
  5
1B6
330
1F
100
AcDbEntity
  8
0
  6
Continuous
 62
     7
370
    25
100
AcDbLine
 10
591.6319815638
 20
509.1663217589
 30
0.0
 11
591.6319815638
 21
508.4663248107
 31
0.0
  0
LINE
  5
1B7
330
1F
100
AcDbEntity
  8
0
  6
Continuous
 62
     7
370
    25
100
AcDbLine
 10
604.8750160458
 20
505.7968860909
 30
0.0
 11
608.109044862
 21
505.7968860909
 31
0.0
  0
LINE
  5
1B8
330
1F
100
AcDbEntity
  8
0
  6
Continuous
 62
     7
370
    25
100
AcDbLine
 10
608.2090316536
 20
505.6968843982
 30
0.0
 11
604.7750292542
 21
505.6968843982
 31
0.0
  0
LINE
  5
1B9
330
1F
100
AcDbEntity
  8
0
  6
Continuous
 62
     7
370
    25
100
AcDbLine
 10
591.531979871
 20
509.0663200662
 30
0.0
 11
586.0588578703
 21
509.0663200662
 31
0.0
  0
LINE
  5
1BA
330
1F
100
AcDbEntity
  8
0
  6
Continuous
 62
     7
370
    25
100
AcDbLine
 10
586.1588446619
 20
509.1663217589
 30
0.0
 11
591.6319815638
 21
509.1663217589
 31
0.0
  0
LINE
  5
1BB
330
1F
100
AcDbEntity
  8
0
  6
Continuous
 62
     7
370
    25
100
AcDbLine
 10
570.2988533499
 20
503.5376763389
 30
0.0
 11
577.0814297917
 21
503.5376763389
 31
0.0
  0
LINE
  5
1BC
330
1F
100
AcDbEntity
  8
0
  6
Continuous
 62
     7
370
    25
100
AcDbLine
 10
577.0814297917
 20
503.5376763389
 30
0.0
 11
577.1814165833
 21
503.4376895473
 31
0.0
  0
LINE
  5
1BD
330
1F
100
AcDbEntity
  8
0
  6
Continuous
 62
     7
370
    25
100
AcDbLine
 10
577.1814165833
 20
503.4376895473
 30
0.0
 11
570.2988533499
 21
503.4376895473
 31
0.0
  0
LINE
  5
1BE
330
1F
100
AcDbEntity
  8
0
  6
Continuous
 62
     7
370
    25
100
AcDbLine
 10
570.2988533499
 20
503.5376763389
 30
0.0
 11
570.2988533499
 21
503.4376895473
 31
0.0
  0
LINE
  5
1BF
330
1F
100
AcDbEntity
  8
0
  6
Continuous
 62
     7
370
    25
100
AcDbLine
 10
585.4588477137
 20
509.1663217589
 30
0.0
 11
585.4588477137
 21
511.3376891658
 31
0.0
  0
LINE
  5
1C0
330
1F
100
AcDbEntity
  8
0
  6
Continuous
 62
     7
370
    25
100
AcDbLine
 10
585.5588494065
 20
511.4376759574
 30
0.0
 11
585.4588477137
 21
511.3376891658
 31
0.0
  0
LINE
  5
1C1
330
1F
100
AcDbEntity
  8
0
  6
Continuous
 62
     7
370
    25
100
AcDbLine
 10
585.5588494065
 20
511.4376759574
 30
0.0
 11
585.5588494065
 21
509.0663200662
 31
0.0
  0
LINE
  5
1C2
330
1F
100
AcDbEntity
  8
0
  6
Continuous
 62
     7
370
    25
100
AcDbLine
 10
585.4588477137
 20
509.1663217589
 30
0.0
 11
585.5588494065
 21
509.0663200662
 31
0.0
  0
ARC
  5
1C3
330
1F
100
AcDbEntity
  8
0
  6
Continuous
 62
     7
370
    25
100
AcDbCircle
 10
570.2988518479
 20
504.4376832425
 30
0.0
 40
0.900000000000091
100
AcDbArc
 50
180.0
 51
270.0
  0
ARC
  5
1C4
330
1F
100
AcDbEntity
  8
0
  6
Continuous
 62
     7
370
    25
100
AcDbCircle
 10
570.2988518479
 20
504.4376832425
 30
0.0
 40
1.000000000000114
100
AcDbArc
 50
180.0
 51
270.0
  0
LINE
  5
1C5
330
1F
100
AcDbEntity
  8
0
  6
Continuous
 62
     7
370
    25
100
AcDbLine
 10
602.9188512089
 20
509.1663217589
 30
0.0
 11
608.2090316536
 21
509.1663217589
 31
0.0
  0
LINE
  5
1C6
330
1F
100
AcDbEntity
  8
0
  6
Continuous
 62
     7
370
    25
100
AcDbLine
 10
608.109044862
 20
509.0663200662
 30
0.0
 11
608.2090316536
 21
509.1663217589
 31
0.0
  0
LINE
  5
1C7
330
1F
100
AcDbEntity
  8
0
  6
Continuous
 62
     7
370
    25
100
AcDbLine
 10
608.109044862
 20
509.0663200662
 30
0.0
 11
602.8188644173
 21
509.0663200662
 31
0.0
  0
LINE
  5
1C8
330
1F
100
AcDbEntity
  8
0
  6
Continuous
 62
     7
370
    25
100
AcDbLine
 10
602.9188512089
 20
509.1663217589
 30
0.0
 11
602.8188644173
 21
509.0663200662
 31
0.0
  0
LINE
  5
1C9
330
1F
100
AcDbEntity
  8
0
  6
Continuous
 62
     7
370
    25
100
AcDbLine
 10
577.0814297917
 20
503.5376763389
 30
0.0
 11
577.0814297917
 21
508.4663248107
 31
0.0
  0
LINE
  5
1CA
330
1F
100
AcDbEntity
  8
0
  6
Continuous
 62
     7
370
    25
100
AcDbLine
 10
577.0814297917
 20
508.4663248107
 30
0.0
 11
577.1814165833
 21
508.5663265035
 31
0.0
  0
LINE
  5
1CB
330
1F
100
AcDbEntity
  8
0
  6
Continuous
 62
     7
370
    25
100
AcDbLine
 10
577.1814165833
 20
508.5663265035
 30
0.0
 11
577.1814165833
 21
503.4376895473
 31
0.0
  0
LINE
  5
1CC
330
1F
100
AcDbEntity
  8
0
  6
Continuous
 62
     7
370
    25
100
AcDbLine
 10
569.2988513233
 20
505.7968860909
 30
0.0
 11
574.8295216086
 21
505.7968860909
 31
0.0
  0
LINE
  5
1CD
330
1F
100
AcDbEntity
  8
0
  6
Continuous
 62
     7
370
    25
100
AcDbLine
 10
574.9295084002
 20
505.6968843982
 30
0.0
 11
569.3988530161
 21
505.6968843982
 31
0.0
  0
LINE
  5
1CE
330
1F
100
AcDbEntity
  8
0
  6
Continuous
 62
     7
370
    25
100
AcDbLine
 10
571.7773763659
 20
508.4663248107
 30
0.0
 11
571.7773763659
 21
509.1663217589
 31
0.0
  0
LINE
  5
1CF
330
1F
100
AcDbEntity
  8
0
  6
Continuous
 62
     7
370
    25
100
AcDbLine
 10
571.7773763659
 20
509.1663217589
 30
0.0
 11
571.8773780586
 21
509.0663200662
 31
0.0
  0
LINE
  5
1D0
330
1F
100
AcDbEntity
  8
0
  6
Continuous
 62
     7
370
    25
100
AcDbLine
 10
571.8773780586
 20
509.0663200662
 30
0.0
 11
571.8773780586
 21
508.5663265035
 31
0.0
  0
LINE
  5
1D1
330
1F
100
AcDbEntity
  8
0
  6
Continuous
 62
     7
370
    25
100
AcDbLine
 10
571.7773763659
 20
508.4663248107
 30
0.0
 11
571.8773780586
 21
508.5663265035
 31
0.0
  0
LINE
  5
1D2
330
1F
100
AcDbEntity
  8
0
  6
Continuous
 62
     7
370
    25
100
AcDbLine
 10
574.8295216086
 20
506.2968796536
 30
0.0
 11
569.2988513233
 21
506.2968796536
 31
0.0
  0
LINE
  5
1D3
330
1F
100
AcDbEntity
  8
0
  6
Continuous
 62
     7
370
    25
100
AcDbLine
 10
569.3988530161
 20
506.3968813464
 30
0.0
 11
574.9295084002
 21
506.3968813464
 31
0.0
  0
LINE
  5
1D4
330
1F
100
AcDbEntity
  8
0
  6
Continuous
 62
     7
370
    25
100
AcDbLine
 10
571.7773763659
 20
509.1663217589
 30
0.0
 11
577.0788518908
 21
509.1663217589
 31
0.0
  0
LINE
  5
1D5
330
1F
100
AcDbEntity
  8
0
  6
Continuous
 62
     7
370
    25
100
AcDbLine
 10
577.0788518908
 20
509.1663217589
 30
0.0
 11
577.1788535835
 21
509.0663200662
 31
0.0
  0
LINE
  5
1D6
330
1F
100
AcDbEntity
  8
0
  6
Continuous
 62
     7
370
    25
100
AcDbLine
 10
577.1788535835
 20
509.0663200662
 30
0.0
 11
571.8773780586
 21
509.0663200662
 31
0.0
  0
LINE
  5
1D7
330
1F
100
AcDbEntity
  8
0
  6
Continuous
 62
     7
370
    25
100
AcDbLine
 10
588.4083686592
 20
505.7968860909
 30
0.0
 11
591.531979871
 21
505.7968860909
 31
0.0
  0
LINE
  5
1D8
330
1F
100
AcDbEntity
  8
0
  6
Continuous
 62
     7
370
    25
100
AcDbLine
 10
591.6319815638
 20
505.6968843982
 30
0.0
 11
591.531979871
 21
505.7968860909
 31
0.0
  0
LINE
  5
1D9
330
1F
100
AcDbEntity
  8
0
  6
Continuous
 62
     7
370
    25
100
AcDbLine
 10
591.6319815638
 20
505.6968843982
 30
0.0
 11
588.3083669665
 21
505.6968843982
 31
0.0
  0
LINE
  5
1DA
330
1F
100
AcDbEntity
  8
0
  6
Continuous
 62
     7
370
    25
100
AcDbLine
 10
588.4083686592
 20
505.7968860909
 30
0.0
 11
588.3083669665
 21
505.6968843982
 31
0.0
  0
LINE
  5
1DB
330
1F
100
AcDbEntity
  8
0
  6
Continuous
 62
     7
370
    25
100
AcDbLine
 10
586.1588446619
 20
503.5255169913
 30
0.0
 11
593.8388584378
 21
503.5255169913
 31
0.0
  0
LINE
  5
1DC
330
1F
100
AcDbEntity
  8
0
  6
Continuous
 62
     7
370
    25
100
AcDbLine
 10
593.9388452294
 20
503.4255152986
 30
0.0
 11
586.0588578703
 21
503.4255152986
 31
0.0
  0
LINE
  5
1DD
330
1F
100
AcDbEntity
  8
0
  6
Continuous
 62
     7
370
    25
100
AcDbLine
 10
583.6697695973
 20
509.1663217589
 30
0.0
 11
585.4588477137
 21
509.1663217589
 31
0.0
  0
LINE
  5
1DE
330
1F
100
AcDbEntity
  8
0
  6
Continuous
 62
     7
370
    25
100
AcDbLine
 10
585.5588494065
 20
509.0663200662
 30
0.0
 11
583.76977129
 21
509.0663200662
 31
0.0
  0
LINE
  5
1DF
330
1F
100
AcDbEntity
  8
0
  6
Continuous
 62
     7
370
    25
100
AcDbLine
 10
583.6697695973
 20
509.1663217589
 30
0.0
 11
583.76977129
 21
509.0663200662
 31
0.0
  0
LINE
  5
1E0
330
1F
100
AcDbEntity
  8
0
  6
Continuous
 62
     7
370
    25
100
AcDbLine
 10
577.6788471462
 20
511.4376759574
 30
0.0
 11
585.5588494065
 21
511.4376759574
 31
0.0
  0
LINE
  5
1E1
330
1F
100
AcDbEntity
  8
0
  6
Continuous
 62
     7
370
    25
100
AcDbLine
 10
585.4588477137
 20
511.3376891658
 30
0.0
 11
577.778848839
 21
511.3376891658
 31
0.0
  0
LINE
  5
1E2
330
1F
100
AcDbEntity
  8
0
  6
Continuous
 62
     7
370
    25
100
AcDbLine
 10
577.6788471462
 20
511.4376759574
 30
0.0
 11
577.778848839
 21
511.3376891658
 31
0.0
  0
LINE
  5
1E3
330
1F
100
AcDbEntity
  8
0
  6
Continuous
 62
     7
370
    25
100
AcDbLine
 10
588.4083686592
 20
506.2968796536
 30
0.0
 11
588.4083686592
 21
505.7968860909
 31
0.0
  0
LINE
  5
1E4
330
1F
100
AcDbEntity
  8
0
  6
Continuous
 62
     7
370
    25
100
AcDbLine
 10
588.3083669665
 20
505.6968843982
 30
0.0
 11
588.3083669665
 21
506.3968813464
 31
0.0
  0
LINE
  5
1E5
330
1F
100
AcDbEntity
  8
0
  6
Continuous
 62
     7
370
    25
100
AcDbLine
 10
602.9188512089
 20
511.3376891658
 30
0.0
 11
602.9188512089
 21
509.1663217589
 31
0.0
  0
LINE
  5
1E6
330
1F
100
AcDbEntity
  8
0
  6
Continuous
 62
     7
370
    25
100
AcDbLine
 10
602.8188644173
 20
509.0663200662
 30
0.0
 11
602.8188644173
 21
511.4376759574
 31
0.0
  0
LINE
  5
1E7
330
1F
100
AcDbEntity
  8
0
  6
Continuous
 62
     7
370
    25
100
AcDbLine
 10
602.9188512089
 20
511.3376891658
 30
0.0
 11
602.8188644173
 21
511.4376759574
 31
0.0
  0
LINE
  5
1E8
330
1F
100
AcDbEntity
  8
0
  6
Continuous
 62
     7
370
    25
100
AcDbLine
 10
608.109044862
 20
508.5663265035
 30
0.0
 11
608.109044862
 21
509.0663200662
 31
0.0
  0
LINE
  5
1E9
330
1F
100
AcDbEntity
  8
0
  6
Continuous
 62
     7
370
    25
100
AcDbLine
 10
608.2090316536
 20
509.1663217589
 30
0.0
 11
608.2090316536
 21
508.4663248107
 31
0.0
  0
LINE
  5
1EA
330
1F
100
AcDbEntity
  8
0
  6
Continuous
 62
     7
370
    25
100
AcDbLine
 10
608.109044862
 20
508.5663265035
 30
0.0
 11
608.2090316536
 21
508.4663248107
 31
0.0
  0
LINE
  5
1EB
330
1F
100
AcDbEntity
  8
0
  6
Continuous
 62
     7
370
    25
100
AcDbLine
 10
602.3188410523
 20
503.4255152986
 30
0.0
 11
594.4388536932
 21
503.4255152986
 31
0.0
  0
LINE
  5
1EC
330
1F
100
AcDbEntity
  8
0
  6
Continuous
 62
     7
370
    25
100
AcDbLine
 10
594.538855386
 20
503.5255169913
 30
0.0
 11
602.2188542607
 21
503.5255169913
 31
0.0
  0
LINE
  5
1ED
330
1F
100
AcDbEntity
  8
0
  6
Continuous
 62
     7
370
    25
100
AcDbLine
 10
602.3188410523
 20
503.4255152986
 30
0.0
 11
602.2188542607
 21
503.5255169913
 31
0.0
  0
LINE
  5
1EE
330
1F
100
AcDbEntity
  8
0
  6
Continuous
 62
     7
370
    25
100
AcDbLine
 10
602.2188542607
 20
503.5255169913
 30
0.0
 11
602.2188542607
 21
505.6968843982
 31
0.0
  0
LINE
  5
1EF
330
1F
100
AcDbEntity
  8
0
  6
Continuous
 62
     7
370
    25
100
AcDbLine
 10
602.3188410523
 20
505.7968860909
 30
0.0
 11
602.3188410523
 21
503.4255152986
 31
0.0
  0
LINE
  5
1F0
330
1F
100
AcDbEntity
  8
0
  6
Continuous
 62
     7
370
    25
100
AcDbLine
 10
577.0814297917
 20
508.4663248107
 30
0.0
 11
571.7773763659
 21
508.4663248107
 31
0.0
  0
LINE
  5
1F1
330
1F
100
AcDbEntity
  8
0
  6
Continuous
 62
     7
370
    25
100
AcDbLine
 10
571.8773780586
 20
508.5663265035
 30
0.0
 11
577.1814165833
 21
508.5663265035
 31
0.0
  0
LINE
  5
1F2
330
1F
100
AcDbEntity
  8
0
  6
Continuous
 62
     7
370
    25
100
AcDbLine
 10
602.8188644173
 20
503.4255152986
 30
0.0
 11
602.8188644173
 21
508.5663265035
 31
0.0
  0
LINE
  5
1F3
330
1F
100
AcDbEntity
  8
0
  6
Continuous
 62
     7
370
    25
100
AcDbLine
 10
602.8188644173
 20
508.5663265035
 30
0.0
 11
602.9188512089
 21
508.4663248107
 31
0.0
  0
LINE
  5
1F4
330
1F
100
AcDbEntity
  8
0
  6
Continuous
 62
     7
370
    25
100
AcDbLine
 10
602.9188512089
 20
508.4663248107
 30
0.0
 11
602.9188512089
 21
503.5255169913
 31
0.0
  0
LINE
  5
1F5
330
1F
100
AcDbEntity
  8
0
  6
Continuous
 62
     7
370
    25
100
AcDbLine
 10
591.6319815638
 20
506.3968813464
 30
0.0
 11
591.6319815638
 21
505.6968843982
 31
0.0
  0
LINE
  5
1F6
330
1F
100
AcDbEntity
  8
0
  6
Continuous
 62
     7
370
    25
100
AcDbLine
 10
591.531979871
 20
505.7968860909
 30
0.0
 11
591.531979871
 21
506.2968796536
 31
0.0
  0
LINE
  5
1F7
330
1F
100
AcDbEntity
  8
0
  6
Continuous
 62
     7
370
    25
100
AcDbLine
 10
602.8188644173
 20
508.5663265035
 30
0.0
 11
608.109044862
 21
508.5663265035
 31
0.0
  0
LINE
  5
1F8
330
1F
100
AcDbEntity
  8
0
  6
Continuous
 62
     7
370
    25
100
AcDbLine
 10
608.2090316536
 20
508.4663248107
 30
0.0
 11
602.9188512089
 21
508.4663248107
 31
0.0
  0
LINE
  5
1F9
330
1F
100
AcDbEntity
  8
0
  6
Continuous
 62
     7
370
    25
100
AcDbLine
 10
577.0788518908
 20
509.1663217589
 30
0.0
 11
577.0788518908
 21
511.3376891658
 31
0.0
  0
LINE
  5
1FA
330
1F
100
AcDbEntity
  8
0
  6
Continuous
 62
     7
370
    25
100
AcDbLine
 10
577.1788535835
 20
511.4376759574
 30
0.0
 11
577.1788535835
 21
509.0663200662
 31
0.0
  0
LINE
  5
1FB
330
1F
100
AcDbEntity
  8
0
  6
Continuous
 62
     7
370
    25
100
AcDbLine
 10
583.6697695973
 20
503.5255169913
 30
0.0
 11
583.6697695973
 21
509.1663217589
 31
0.0
  0
LINE
  5
1FC
330
1F
100
AcDbEntity
  8
0
  6
Continuous
 62
     7
370
    25
100
AcDbLine
 10
583.76977129
 20
509.0663200662
 30
0.0
 11
583.76977129
 21
503.4255152986
 31
0.0
  0
LINE
  5
1FD
330
1F
100
AcDbEntity
  8
0
  6
Continuous
 62
     7
370
    25
100
AcDbLine
 10
583.6697695973
 20
503.5255169913
 30
0.0
 11
583.76977129
 21
503.4255152986
 31
0.0
  0
LINE
  5
1FE
330
1F
100
AcDbEntity
  8
0
  6
Continuous
 62
     7
370
    25
100
AcDbLine
 10
577.6788471462
 20
509.0663200662
 30
0.0
 11
577.6788471462
 21
511.4376759574
 31
0.0
  0
LINE
  5
1FF
330
1F
100
AcDbEntity
  8
0
  6
Continuous
 62
     7
370
    25
100
AcDbLine
 10
577.778848839
 20
511.3376891658
 30
0.0
 11
577.778848839
 21
509.1663217589
 31
0.0
  0
LINE
  5
200
330
1F
100
AcDbEntity
  8
0
  6
Continuous
 62
     7
370
    25
100
AcDbLine
 10
577.6788471462
 20
509.0663200662
 30
0.0
 11
577.778848839
 21
509.1663217589
 31
0.0
  0
LINE
  5
201
330
1F
100
AcDbEntity
  8
0
  6
Continuous
 62
     7
370
    25
100
AcDbLine
 10
579.9391893866
 20
509.0663200662
 30
0.0
 11
577.6788471462
 21
509.0663200662
 31
0.0
  0
LINE
  5
202
330
1F
100
AcDbEntity
  8
0
  6
Continuous
 62
     7
370
    25
100
AcDbLine
 10
577.778848839
 20
509.1663217589
 30
0.0
 11
580.0391910794
 21
509.1663217589
 31
0.0
  0
LINE
  5
203
330
1F
100
AcDbEntity
  8
0
  6
Continuous
 62
     7
370
    25
100
AcDbLine
 10
609.6988497498
 20
511.3376891658
 30
0.0
 11
602.9188512089
 21
511.3376891658
 31
0.0
  0
LINE
  5
204
330
1F
100
AcDbEntity
  8
0
  6
Continuous
 62
     7
370
    25
100
AcDbLine
 10
602.8188644173
 20
511.4376759574
 30
0.0
 11
609.6988497498
 21
511.4376759574
 31
0.0
  0
LINE
  5
205
330
1F
100
AcDbEntity
  8
0
  6
Continuous
 62
     7
370
    25
100
AcDbLine
 10
580.0391910794
 20
503.5255169913
 30
0.0
 11
583.6697695973
 21
503.5255169913
 31
0.0
  0
LINE
  5
206
330
1F
100
AcDbEntity
  8
0
  6
Continuous
 62
     7
370
    25
100
AcDbLine
 10
583.76977129
 20
503.4255152986
 30
0.0
 11
579.9391893866
 21
503.4255152986
 31
0.0
  0
LINE
  5
207
330
1F
100
AcDbEntity
  8
0
  6
Continuous
 62
     7
370
    25
100
AcDbLine
 10
61.6718409779
 20
504.9490398213
 30
0.0
 11
62.1102033379
 21
504.9490398213
 31
0.0
  0
LINE
  5
208
330
1F
100
AcDbEntity
  8
0
  6
Continuous
 62
     7
370
    25
100
AcDbLine
 10
62.1102033379
 20
504.9490398213
 30
0.0
 11
62.1102033379
 21
82.1490353391
 31
0.0
  0
LINE
  5
209
330
1F
100
AcDbEntity
  8
0
  6
Continuous
 62
     7
370
    25
100
AcDbLine
 10
61.6718409779
 20
82.1490353391
 30
0.0
 11
62.1102033379
 21
82.1490353391
 31
0.0
  0
LINE
  5
20A
330
1F
100
AcDbEntity
  8
0
  6
Continuous
 62
     7
370
    25
100
AcDbLine
 10
78.5988448384
 20
521.876058583
 30
0.0
 11
78.5988448384
 21
521.4376813218
 31
0.0
  0
ARC
  5
20B
330
1F
100
AcDbEntity
  8
0
  6
Continuous
 62
     7
370
    25
100
AcDbCircle
 10
78.5988518479
 20
504.9490375802
 30
0.0
 40
16.48864566234755
100
AcDbArc
 50
90.0
 51
180.0
  0
LINE
  5
20C
330
1F
100
AcDbEntity
  8
0
  6
Continuous
 62
     7
370
    25
100
AcDbLine
 10
632.8875003578
 20
82.1490353391
 30
0.0
 11
632.8875003578
 21
504.9490398213
 31
0.0
  0
LINE
  5
20D
330
1F
100
AcDbEntity
  8
0
  6
Continuous
 62
     7
370
    25
100
AcDbLine
 10
632.8875003578
 20
504.9490398213
 30
0.0
 11
633.3258627178
 21
504.9490398213
 31
0.0
  0
LINE
  5
20E
330
1F
100
AcDbEntity
  8
0
  6
Continuous
 62
     7
370
    25
100
AcDbLine
 10
632.8875003578
 20
82.1490353391
 30
0.0
 11
633.3258627178
 21
82.1490353391
 31
0.0
  0
ARC
  5
20F
330
1F
100
AcDbEntity
  8
0
  6
Continuous
 62
     7
370
    25
100
AcDbCircle
 10
616.3988518479
 20
82.1490375802
 30
0.0
 40
16.48864566234754
100
AcDbArc
 50
270.0
 51
0.0
  0
LINE
  5
210
330
1F
100
AcDbEntity
  8
0
  6
Continuous
 62
     7
370
    25
100
AcDbLine
 10
616.3988588574
 20
65.6603938386
 30
0.0
 11
616.3988588574
 21
65.2220165774
 31
0.0
  0
LINE
  5
211
330
1F
100
AcDbEntity
  8
0
  6
Continuous
 62
     7
370
    25
100
AcDbLine
 10
78.5988448384
 20
65.6603938386
 30
0.0
 11
616.3988588574
 21
65.6603938386
 31
0.0
  0
LINE
  5
212
330
1F
100
AcDbEntity
  8
0
  6
Continuous
 62
     7
370
    25
100
AcDbLine
 10
78.5988448384
 20
65.6603938386
 30
0.0
 11
78.5988448384
 21
65.2220165774
 31
0.0
  0
ARC
  5
213
330
1F
100
AcDbEntity
  8
0
  6
Continuous
 62
     7
370
    25
100
AcDbCircle
 10
616.3988518479
 20
504.9490375802
 30
0.0
 40
16.48864566234755
100
AcDbArc
 50
0.0
 51
90.0
  0
LINE
  5
214
330
1F
100
AcDbEntity
  8
0
  6
Continuous
 62
     7
370
    25
100
AcDbLine
 10
616.3988588574
 20
521.876058583
 30
0.0
 11
616.3988588574
 21
521.4376813218
 31
0.0
  0
LINE
  5
215
330
1F
100
AcDbEntity
  8
0
  6
Continuous
 62
     7
370
    25
100
AcDbLine
 10
616.3988588574
 20
521.4376813218
 30
0.0
 11
78.5988448384
 21
521.4376813218
 31
0.0
  0
ARC
  5
216
330
1F
100
AcDbEntity
  8
0
  6
Continuous
 62
     7
370
    25
100
AcDbCircle
 10
78.5988518479
 20
82.1490375802
 30
0.0
 40
16.48864566234755
100
AcDbArc
 50
180.0
 51
270.0
  0
LINE
  5
217
330
1F
100
AcDbEntity
  8
0
  6
Continuous
 62
     7
370
    25
100
AcDbLine
 10
272.9238523366
 20
130.0290441558
 30
0.0
 11
272.9238523366
 21
430.1290428683
 31
0.0
  0
LINE
  5
218
330
1F
100
AcDbEntity
  8
0
  6
Continuous
 62
     7
370
    25
100
AcDbLine
 10
272.9238523366
 20
430.1290428683
 30
0.0
 11
277.9238550188
 21
430.1290428683
 31
0.0
  0
LINE
  5
219
330
1F
100
AcDbEntity
  8
0
  6
Continuous
 62
     7
370
    25
100
AcDbLine
 10
277.9238550188
 20
430.1290428683
 30
0.0
 11
277.9238550188
 21
130.0290441558
 31
0.0
  0
LINE
  5
21A
330
1F
100
AcDbEntity
  8
0
  6
Continuous
 62
     7
370
    25
100
AcDbLine
 10
277.9238550188
 20
130.0290441558
 30
0.0
 11
272.9238523366
 21
130.0290441558
 31
0.0
  0
LINE
  5
21B
330
1F
100
AcDbEntity
  8
0
  6
Continuous
 62
     7
370
    25
100
AcDbLine
 10
624.0238426449
 20
430.1290428683
 30
0.0
 11
624.0238426449
 21
130.0290441558
 31
0.0
  0
LINE
  5
21C
330
1F
100
AcDbEntity
  8
0
  6
Continuous
 62
     7
370
    25
100
AcDbLine
 10
619.0238474133
 20
130.0290441558
 30
0.0
 11
624.0238426449
 21
130.0290441558
 31
0.0
  0
LINE
  5
21D
330
1F
100
AcDbEntity
  8
0
  6
Continuous
 62
     7
370
    25
100
AcDbLine
 10
619.0238474133
 20
130.0290441558
 30
0.0
 11
619.0238474133
 21
430.1290428683
 31
0.0
  0
LINE
  5
21E
330
1F
100
AcDbEntity
  8
0
  6
Continuous
 62
     7
370
    25
100
AcDbLine
 10
624.0238426449
 20
430.1290428683
 30
0.0
 11
619.0238474133
 21
430.1290428683
 31
0.0
  0
LINE
  5
21F
330
1F
100
AcDbEntity
  8
0
  6
Continuous
 62
     7
370
    25
100
AcDbLine
 10
196.4738546135
 20
104.5790380284
 30
0.0
 11
126.4738468649
 21
104.5790380284
 31
0.0
  0
LINE
  5
220
330
1F
100
AcDbEntity
  8
0
  6
Continuous
 62
     7
370
    25
100
AcDbLine
 10
126.4738468649
 20
104.5790380284
 30
0.0
 11
126.4738468649
 21
109.5790332601
 31
0.0
  0
LINE
  5
221
330
1F
100
AcDbEntity
  8
0
  6
Continuous
 62
     7
370
    25
100
AcDbLine
 10
126.4738468649
 20
109.5790332601
 30
0.0
 11
196.4738546135
 21
109.5790332601
 31
0.0
  0
LINE
  5
222
330
1F
100
AcDbEntity
  8
0
  6
Continuous
 62
     7
370
    25
100
AcDbLine
 10
196.4738546135
 20
104.5790380284
 30
0.0
 11
196.4738546135
 21
109.5790332601
 31
0.0
  0
ARC
  5
223
330
1F
100
AcDbEntity
  8
0
  6
Continuous
 62
     7
370
    25
100
AcDbCircle
 10
328.4238518479
 20
430.1290375802
 30
0.0
 40
55.50000000000011
100
AcDbArc
 50
90.0
 51
180.0
  0
LINE
  5
224
330
1F
100
AcDbEntity
  8
0
  6
Continuous
 62
     7
370
    25
100
AcDbLine
 10
328.4238511892
 20
485.6290435836
 30
0.0
 11
328.4238511892
 21
480.6290334508
 31
0.0
  0
ARC
  5
225
330
1F
100
AcDbEntity
  8
0
  6
Continuous
 62
     7
370
    25
100
AcDbCircle
 10
328.4238518479
 20
430.1290375802
 30
0.0
 40
50.5
100
AcDbArc
 50
90.0
 51
180.0
  0
ARC
  5
226
330
1F
100
AcDbEntity
  8
0
  6
Continuous
 62
     7
370
    25
100
AcDbCircle
 10
196.4738518479
 20
400.0790375802
 30
0.0
 40
50.50000000000003
100
AcDbArc
 50
0.0
 51
90.0
  0
LINE
  5
227
330
1F
100
AcDbEntity
  8
0
  6
Continuous
 62
     7
370
    25
100
AcDbLine
 10
196.4738546135
 20
450.5790388629
 30
0.0
 11
196.4738546135
 21
455.5790340945
 31
0.0
  0
ARC
  5
228
330
1F
100
AcDbEntity
  8
0
  6
Continuous
 62
     7
370
    25
100
AcDbCircle
 10
196.4738518479
 20
400.0790375802
 30
0.0
 40
55.5
100
AcDbArc
 50
0.0
 51
90.0
  0
LINE
  5
229
330
1F
100
AcDbEntity
  8
0
  6
Continuous
 62
     7
370
    25
100
AcDbLine
 10
246.9738526466
 20
400.0790408298
 30
0.0
 11
251.9738553288
 21
400.0790408298
 31
0.0
  0
LINE
  5
22A
330
1F
100
AcDbEntity
  8
0
  6
Continuous
 62
     7
370
    25
100
AcDbLine
 10
328.4238511892
 20
79.5290386722
 30
0.0
 11
568.5238568308
 21
79.5290386722
 31
0.0
  0
LINE
  5
22B
330
1F
100
AcDbEntity
  8
0
  6
Continuous
 62
     7
370
    25
100
AcDbLine
 10
568.5238568308
 20
79.5290386722
 30
0.0
 11
568.5238568308
 21
74.5290434405
 31
0.0
  0
LINE
  5
22C
330
1F
100
AcDbEntity
  8
0
  6
Continuous
 62
     7
370
    25
100
AcDbLine
 10
568.5238568308
 20
74.5290434405
 30
0.0
 11
328.4238511892
 21
74.5290434405
 31
0.0
  0
LINE
  5
22D
330
1F
100
AcDbEntity
  8
0
  6
Continuous
 62
     7
370
    25
100
AcDbLine
 10
328.4238511892
 20
79.5290386722
 30
0.0
 11
328.4238511892
 21
74.5290434405
 31
0.0
  0
ARC
  5
22E
330
1F
100
AcDbEntity
  8
0
  6
Continuous
 62
     7
370
    25
100
AcDbCircle
 10
196.4738518479
 20
160.0790375802
 30
0.0
 40
55.5
100
AcDbArc
 50
270.0
 51
0.0
  0
LINE
  5
22F
330
1F
100
AcDbEntity
  8
0
  6
Continuous
 62
     7
370
    25
100
AcDbLine
 10
251.9738553288
 20
400.0790408298
 30
0.0
 11
251.9738553288
 21
160.0790387437
 31
0.0
  0
LINE
  5
230
330
1F
100
AcDbEntity
  8
0
  6
Continuous
 62
     7
370
    25
100
AcDbLine
 10
126.4738468649
 20
455.5790340945
 30
0.0
 11
196.4738546135
 21
455.5790340945
 31
0.0
  0
ARC
  5
231
330
1F
100
AcDbEntity
  8
0
  6
Continuous
 62
     7
370
    25
100
AcDbCircle
 10
126.4738518479
 20
400.0790375802
 30
0.0
 40
55.50000000000004
100
AcDbArc
 50
90.0
 51
180.0
  0
LINE
  5
232
330
1F
100
AcDbEntity
  8
0
  6
Continuous
 62
     7
370
    25
100
AcDbLine
 10
70.9738610508
 20
160.0790387437
 30
0.0
 11
70.9738610508
 21
400.0790408298
 31
0.0
  0
ARC
  5
233
330
1F
100
AcDbEntity
  8
0
  6
Continuous
 62
     7
370
    25
100
AcDbCircle
 10
126.4738518479
 20
160.0790375802
 30
0.0
 40
55.50000000000001
100
AcDbArc
 50
180.0
 51
270.0
  0
LINE
  5
234
330
1F
100
AcDbEntity
  8
0
  6
Continuous
 62
     7
370
    25
100
AcDbLine
 10
328.4238511892
 20
485.6290435836
 30
0.0
 11
568.5238568308
 21
485.6290435836
 31
0.0
  0
ARC
  5
235
330
1F
100
AcDbEntity
  8
0
  6
Continuous
 62
     7
370
    25
100
AcDbCircle
 10
328.4238518479
 20
130.0290375802
 30
0.0
 40
55.50000000000013
100
AcDbArc
 50
180.0
 51
270.0
  0
ARC
  5
236
330
1F
100
AcDbEntity
  8
0
  6
Continuous
 62
     7
370
    25
100
AcDbCircle
 10
568.5238518479
 20
130.0290375802
 30
0.0
 40
55.50000000000021
100
AcDbArc
 50
270.0
 51
0.0
  0
ARC
  5
237
330
1F
100
AcDbEntity
  8
0
  6
Continuous
 62
     7
370
    25
100
AcDbCircle
 10
568.5238518479
 20
430.1290375802
 30
0.0
 40
55.50000000000017
100
AcDbArc
 50
0.0
 51
90.0
  0
CIRCLE
  5
238
330
1F
100
AcDbEntity
  8
0
  6
Continuous
 62
     7
370
    25
100
AcDbCircle
 10
249.4738518479
 20
487.0790375802
 30
0.0
 40
17.50000000000006
  0
ARC
  5
239
330
1F
100
AcDbEntity
  8
0
  6
Continuous
 62
     7
370
    25
100
AcDbCircle
 10
568.5238518479
 20
130.0290375802
 30
0.0
 40
50.50000000000004
100
AcDbArc
 50
270.0
 51
0.0
  0
LINE
  5
23A
330
1F
100
AcDbEntity
  8
0
  6
Continuous
 62
     7
370
    25
100
AcDbLine
 10
568.5238568308
 20
485.6290435836
 30
0.0
 11
568.5238568308
 21
480.6290334508
 31
0.0
  0
LINE
  5
23B
330
1F
100
AcDbEntity
  8
0
  6
Continuous
 62
     7
370
    25
100
AcDbLine
 10
568.5238568308
 20
480.6290334508
 30
0.0
 11
328.4238511892
 21
480.6290334508
 31
0.0
  0
ARC
  5
23C
330
1F
100
AcDbEntity
  8
0
  6
Continuous
 62
     7
370
    25
100
AcDbCircle
 10
196.4738518479
 20
160.0790375802
 30
0.0
 40
50.5
100
AcDbArc
 50
270.0
 51
0.0
  0
LINE
  5
23D
330
1F
100
AcDbEntity
  8
0
  6
Continuous
 62
     7
370
    25
100
AcDbLine
 10
251.9738553288
 20
160.0790387437
 30
0.0
 11
246.9738526466
 21
160.0790387437
 31
0.0
  0
ARC
  5
23E
330
1F
100
AcDbEntity
  8
0
  6
Continuous
 62
     7
370
    25
100
AcDbCircle
 10
568.5238518479
 20
430.1290375802
 30
0.0
 40
50.5
100
AcDbArc
 50
0.0
 51
90.0
  0
ARC
  5
23F
330
1F
100
AcDbEntity
  8
0
  6
Continuous
 62
     7
370
    25
100
AcDbCircle
 10
328.4238518479
 20
130.0290375802
 30
0.0
 40
50.50000000000004
100
AcDbArc
 50
180.0
 51
270.0
  0
LINE
  5
240
330
1F
100
AcDbEntity
  8
0
  6
Continuous
 62
     7
370
    25
100
AcDbLine
 10
75.9738562824
 20
400.0790408298
 30
0.0
 11
70.9738610508
 21
400.0790408298
 31
0.0
  0
LINE
  5
241
330
1F
100
AcDbEntity
  8
0
  6
Continuous
 62
     7
370
    25
100
AcDbLine
 10
75.9738562824
 20
400.0790408298
 30
0.0
 11
75.9738562824
 21
160.0790387437
 31
0.0
  0
LINE
  5
242
330
1F
100
AcDbEntity
  8
0
  6
Continuous
 62
     7
370
    25
100
AcDbLine
 10
70.9738610508
 20
160.0790387437
 30
0.0
 11
75.9738562824
 21
160.0790387437
 31
0.0
  0
LINE
  5
243
330
1F
100
AcDbEntity
  8
0
  6
Continuous
 62
     7
370
    25
100
AcDbLine
 10
246.9738526466
 20
160.0790387437
 30
0.0
 11
246.9738526466
 21
400.0790408298
 31
0.0
  0
LINE
  5
244
330
1F
100
AcDbEntity
  8
0
  6
Continuous
 62
     7
370
    25
100
AcDbLine
 10
196.4738546135
 20
450.5790388629
 30
0.0
 11
126.4738468649
 21
450.5790388629
 31
0.0
  0
LINE
  5
245
330
1F
100
AcDbEntity
  8
0
  6
Continuous
 62
     7
370
    25
100
AcDbLine
 10
126.4738468649
 20
450.5790388629
 30
0.0
 11
126.4738468649
 21
455.5790340945
 31
0.0
  0
ARC
  5
246
330
1F
100
AcDbEntity
  8
0
  6
Continuous
 62
     7
370
    25
100
AcDbCircle
 10
126.4738518479
 20
160.0790375802
 30
0.0
 40
50.5
100
AcDbArc
 50
180.0
 51
270.0
  0
ARC
  5
247
330
1F
100
AcDbEntity
  8
0
  6
Continuous
 62
     7
370
    25
100
AcDbCircle
 10
126.4738518479
 20
400.0790375802
 30
0.0
 40
50.5
100
AcDbArc
 50
90.0
 51
180.0
  0
SPLINE
  5
248
330
1F
100
AcDbEntity
  8
0
  6
Continuous
 62
     8
370
    25
100
AcDbSpline
210
0.0
220
0.0
230
1.0
 70
     8
 71
     3
 72
    12
 73
     8
 74
     0
 42
0.000000001
 43
0.00000001
 40
0.0
 40
0.0
 40
0.0
 40
0.0
 40
0.2635989823883697
 40
0.4531166495046635
 40
0.6509942051514803
 40
0.8488668363647905
 40
0.9999999999999999
 40
0.9999999999999999
 40
0.9999999999999999
 40
0.9999999999999999
 10
147.3572580339653
 20
313.5331692591407
 30
0.0
 10
147.3060767037521
 20
313.6544617740079
 30
0.0
 10
147.2180979389887
 20
313.8629590051
 30
0.0
 10
147.1123311652348
 20
314.1136145298217
 30
0.0
 10
147.0406289621228
 20
314.2835459818853
 30
0.0
 10
146.9978988122516
 20
314.3847779066301
 30
0.0
 10
146.9955819595376
 20
314.3902774193891
 30
0.0
 10
146.9945786716682
 20
314.3926589235761
 30
0.0
  0
SPLINE
  5
249
330
1F
100
AcDbEntity
  8
0
  6
Continuous
 62
     8
370
    25
100
AcDbSpline
210
0.0
220
0.0
230
1.0
 70
     8
 71
     3
 72
    12
 73
     8
 74
     0
 42
0.000000001
 43
0.00000001
 40
0.0
 40
0.0
 40
0.0
 40
0.0
 40
0.1511329277881484
 40
0.3490048271176585
 40
0.5468827903660862
 40
0.7363992193763104
 40
1.0
 40
1.0
 40
1.0
 40
1.0
 10
175.9531228067619
 20
245.7654169246651
 30
0.0
 10
175.9521195372466
 20
245.7677985767041
 30
0.0
 10
175.9498027297257
 20
245.7732984242242
 30
0.0
 10
175.9070722106437
 20
245.8745271195646
 30
0.0
 10
175.8353708676259
 20
246.0444616559809
 30
0.0
 10
175.7296025094515
 20
246.2951155252775
 30
0.0
 10
175.6416245765976
 20
246.503614338799
 30
0.0
 10
175.5904434444648
 20
246.6249084517457
 30
0.0
  0
SPLINE
  5
24A
330
1F
100
AcDbEntity
  8
0
  6
Continuous
 62
     8
370
    25
100
AcDbSpline
210
0.0
220
0.0
230
1.0
 70
    24
 71
     3
 72
    12
 73
     8
 74
     0
 42
0.000000001
 43
0.00000001
 40
0.0
 40
0.0
 40
0.0
 40
0.0
 40
0.2636028908298907
 40
0.4531158103588037
 40
0.6509932948608899
 40
0.8488761040686934
 40
1.0
 40
1.0
 40
1.0
 40
1.0
 10
424.7844172837478
 20
280.0790379241206
 30
0.0
 10
424.9160645807618
 20
280.0790379241206
 30
0.0
 10
425.1423575151078
 20
280.0790379241206
 30
0.0
 10
425.4144264298307
 20
280.0790379241206
 30
0.0
 10
425.5988620716641
 20
280.0790379241206
 30
0.0
 10
425.708736865003
 20
280.0790379241206
 30
0.0
 10
425.7147052152103
 20
280.0790379241206
 30
0.0
 10
425.7172895791275
 20
280.0790379241206
 30
0.0
  0
SPLINE
  5
24B
330
1F
100
AcDbEntity
  8
0
  6
Continuous
 62
     8
370
    25
100
AcDbSpline
210
0.0
220
0.0
230
1.0
 70
    24
 71
     3
 72
    12
 73
     8
 74
     0
 42
0.000000001
 43
0.00000001
 40
0.0
 40
0.0
 40
0.0
 40
0.0
 40
0.1511234489539652
 40
0.3490046347789132
 40
0.5468824260876125
 40
0.7363951269318029
 40
1.0
 40
1.0
 40
1.0
 40
1.0
 10
351.2304118098957
 20
280.0790379241206
 30
0.0
 10
351.2329973703312
 20
280.0790379241206
 30
0.0
 10
351.2389684660267
 20
280.0790379241206
 30
0.0
 10
351.3488367204342
 20
280.0790379241206
 30
0.0
 10
351.5332769036355
 20
280.0790379241206
 30
0.0
 10
351.805347025629
 20
280.0790379241206
 30
0.0
 10
352.0316420814286
 20
280.0790379241206
 30
0.0
 10
352.1632910901946
 20
280.0790379241206
 30
0.0
  0
LINE
  5
24C
330
1F
100
AcDbEntity
  8
0
  6
Continuous
 62
     8
370
    25
100
AcDbLine
 10
126.4738468649
 20
450.079030399
 30
0.0
 11
126.4738468649
 21
450.5790388629
 31
0.0
  0
LINE
  5
24D
330
1F
100
AcDbEntity
  8
0
  6
Continuous
 62
     8
370
    25
100
AcDbLine
 10
196.4738546135
 20
450.079030399
 30
0.0
 11
196.4738546135
 21
450.5790388629
 31
0.0
  0
LINE
  5
24E
330
1F
100
AcDbEntity
  8
0
  6
Continuous
 62
     8
370
    25
100
AcDbLine
 10
246.4738516333
 20
400.0790408298
 30
0.0
 11
246.9738526466
 21
400.0790408298
 31
0.0
  0
LINE
  5
24F
330
1F
100
AcDbEntity
  8
0
  6
Continuous
 62
     8
370
    25
100
AcDbLine
 10
246.4738516333
 20
160.0790387437
 30
0.0
 11
246.9738526466
 21
160.0790387437
 31
0.0
  0
LINE
  5
250
330
1F
100
AcDbEntity
  8
0
  6
Continuous
 62
     8
370
    25
100
AcDbLine
 10
126.4738468649
 20
109.5790332601
 30
0.0
 11
126.4738468649
 21
110.0790417239
 31
0.0
  0
LINE
  5
251
330
1F
100
AcDbEntity
  8
0
  6
Continuous
 62
     8
370
    25
100
AcDbLine
 10
196.4738546135
 20
109.5790332601
 30
0.0
 11
196.4738546135
 21
110.0790417239
 31
0.0
  0
LINE
  5
252
330
1F
100
AcDbEntity
  8
0
  6
Continuous
 62
     8
370
    25
100
AcDbLine
 10
328.4738520356
 20
480.6290334508
 30
0.0
 11
328.4738520356
 21
480.0790315911
 31
0.0
  0
LINE
  5
253
330
1F
100
AcDbEntity
  8
0
  6
Continuous
 62
     8
370
    25
100
AcDbLine
 10
277.9238550188
 20
430.0790345714
 30
0.0
 11
278.4738494279
 21
430.0790345714
 31
0.0
  0
LINE
  5
254
330
1F
100
AcDbEntity
  8
0
  6
Continuous
 62
     8
370
    25
100
AcDbLine
 10
568.4738485338
 20
480.6290334508
 30
0.0
 11
568.4738485338
 21
480.0790315911
 31
0.0
  0
LINE
  5
255
330
1F
100
AcDbEntity
  8
0
  6
Continuous
 62
     8
370
    25
100
AcDbLine
 10
618.4738455536
 20
430.0790345714
 30
0.0
 11
619.0238474133
 21
430.0790345714
 31
0.0
  0
LINE
  5
256
330
1F
100
AcDbEntity
  8
0
  6
Continuous
 62
     8
370
    25
100
AcDbLine
 10
277.9238550188
 20
130.0790375516
 30
0.0
 11
278.4738494279
 21
130.0790375516
 31
0.0
  0
LINE
  5
257
330
1F
100
AcDbEntity
  8
0
  6
Continuous
 62
     8
370
    25
100
AcDbLine
 10
618.4738455536
 20
130.0790375516
 30
0.0
 11
619.0238474133
 21
130.0790375516
 31
0.0
  0
LINE
  5
258
330
1F
100
AcDbEntity
  8
0
  6
Continuous
 62
     8
370
    25
100
AcDbLine
 10
568.4738485338
 20
80.0790405318
 30
0.0
 11
568.4738485338
 21
79.5290386722
 31
0.0
  0
LINE
  5
259
330
1F
100
AcDbEntity
  8
0
  6
Continuous
 62
     8
370
    25
100
AcDbLine
 10
328.4738520356
 20
80.0790405318
 30
0.0
 11
328.4738520356
 21
79.5290386722
 31
0.0
  0
ENDSEC
  0
SECTION
  2
OBJECTS
  0
DICTIONARY
  5
C
330
0
100
AcDbDictionary
281
     1
  3
ACAD_GROUP
350
D
  3
ACAD_LAYOUT
350
1A
  3
ACAD_MLINESTYLE
350
17
  3
ACAD_PLOTSETTINGS
350
19
  3
ACAD_PLOTSTYLENAME
350
E
  3
ACAD_SCALELIST
350
47
  0
DICTIONARY
  5
D
102
{ACAD_REACTORS
330
C
102
}
330
C
100
AcDbDictionary
281
     1
  0
DICTIONARY
  5
1A
102
{ACAD_REACTORS
330
C
102
}
330
C
100
AcDbDictionary
281
     1
  3
Layout1
350
1E
  3
Layout2
350
26
  3
Model
350
22
  0
DICTIONARY
  5
17
102
{ACAD_REACTORS
330
C
102
}
330
C
100
AcDbDictionary
281
     1
  3
Standard
350
18
  0
DICTIONARY
  5
19
102
{ACAD_REACTORS
330
C
102
}
330
C
100
AcDbDictionary
281
     1
  0
ACDBDICTIONARYWDFLT
  5
E
102
{ACAD_REACTORS
330
C
102
}
330
C
100
AcDbDictionary
281
     1
  3
Normal
350
F
100
AcDbDictionaryWithDefault
340
F
  0
DICTIONARY
  5
47
102
{ACAD_REACTORS
330
C
102
}
330
C
100
AcDbDictionary
281
     1
  3
A0
350
48
  3
A1
350
49
  3
A2
350
4A
  3
A3
350
4B
  3
A4
350
4C
  3
A5
350
4D
  3
A6
350
4E
  3
A7
350
4F
  3
A8
350
50
  3
A9
350
51
  3
B0
350
52
  3
B1
350
53
  3
B2
350
54
  3
B3
350
55
  3
B4
350
56
  3
B5
350
57
  3
B6
350
58
  3
B7
350
59
  3
B8
350
5A
  3
B9
350
5B
  3
C0
350
5C
  3
C1
350
5D
  3
C2
350
5E
  3
C3
350
5F
  3
C4
350
60
  3
C5
350
61
  3
C6
350
62
  3
C7
350
63
  3
C8
350
64
  3
C9
350
65
  3
D0
350
66
  3
D1
350
67
  3
D2
350
68
  0
LAYOUT
  5
1E
102
{ACAD_REACTORS
330
1A
102
}
330
1A
100
AcDbPlotSettings
  1

  2
none_device
  4

  6

 40
0.0
 41
0.0
 42
0.0
 43
0.0
 44
0.0
 45
0.0
 46
0.0
 47
0.0
 48
0.0
 49
0.0
140
0.0
141
0.0
142
1.0
143
1.0
 70
   688
 72
     1
 73
     0
 74
     5
  7

 75
    16
147
1.0
148
0.0
149
0.0
100
AcDbLayout
  1
Layout1
 70
     1
 71
     1
 10
0.0
 20
0.0
 11
420.0
 21
297.0
 12
0.0
 22
0.0
 32
0.0
 14
1.0000000000E+20
 24
1.0000000000E+20
 34
1.0000000000E+20
 15
-1.0000000000E+20
 25
-1.0000000000E+20
 35
-1.0000000000E+20
146
0.0
 13
0.0
 23
0.0
 33
0.0
 16
1.0
 26
0.0
 36
0.0
 17
0.0
 27
1.0
 37
0.0
 76
     0
330
1B
  0
LAYOUT
  5
26
102
{ACAD_REACTORS
330
1A
102
}
330
1A
100
AcDbPlotSettings
  1

  2
none_device
  4

  6

 40
0.0
 41
0.0
 42
0.0
 43
0.0
 44
0.0
 45
0.0
 46
0.0
 47
0.0
 48
0.0
 49
0.0
140
0.0
141
0.0
142
1.0
143
1.0
 70
   688
 72
     1
 73
     0
 74
     5
  7

 75
    16
147
1.0
148
0.0
149
0.0
100
AcDbLayout
  1
Layout2
 70
     1
 71
     2
 10
0.0
 20
0.0
 11
0.0
 21
0.0
 12
0.0
 22
0.0
 32
0.0
 14
0.0
 24
0.0
 34
0.0
 15
0.0
 25
0.0
 35
0.0
146
0.0
 13
0.0
 23
0.0
 33
0.0
 16
1.0
 26
0.0
 36
0.0
 17
0.0
 27
1.0
 37
0.0
 76
     0
330
23
  0
LAYOUT
  5
22
102
{ACAD_REACTORS
330
1A
102
}
330
1A
100
AcDbPlotSettings
  1

  2
none_device
  4
Letter_(8.50_x_11.00_Inches)
  6

 40
6.35
 41
6.35
 42
6.35000508
 43
6.35000508
 44
215.9
 45
279.4
 46
0.0
 47
0.0
 48
0.0
 49
0.0
140
0.0
141
0.0
142
1.0
143
1.0
 70
  1712
 72
     1
 73
     0
 74
     0
  7

 75
     0
147
1.0
148
0.0
149
0.0
100
AcDbLayout
  1
Model
 70
     1
 71
     0
 10
0.0
 20
0.0
 11
700.0
 21
600.0
 12
0.0
 22
0.0
 32
0.0
 14
0.0
 24
0.0
 34
0.0
 15
700.0
 25
600.0
 35
0.0
146
0.0
 13
0.0
 23
0.0
 33
0.0
 16
1.0
 26
0.0
 36
0.0
 17
0.0
 27
1.0
 37
0.0
 76
     0
330
1F
331
29
  0
MLINESTYLE
  5
18
102
{ACAD_REACTORS
330
17
102
}
330
17
100
AcDbMlineStyle
  2
Standard
 70
     0
  3

 62
   256
 51
90.0
 52
90.0
 71
     2
 49
0.5
 62
   256
  6
BYLAYER
 49
-0.5
 62
   256
  6
BYLAYER
  0
ACDBPLACEHOLDER
  5
F
102
{ACAD_REACTORS
330
E
102
}
330
E
  0
SCALE
  5
48
102
{ACAD_REACTORS
330
47
102
}
330
47
100
AcDbScale
 70
     0
300
1:1
140
1.0
141
1.0
290
     1
  0
SCALE
  5
49
102
{ACAD_REACTORS
330
47
102
}
330
47
100
AcDbScale
 70
     0
300
1:2
140
1.0
141
2.0
290
     0
  0
SCALE
  5
4A
102
{ACAD_REACTORS
330
47
102
}
330
47
100
AcDbScale
 70
     0
300
1:4
140
1.0
141
4.0
290
     0
  0
SCALE
  5
4B
102
{ACAD_REACTORS
330
47
102
}
330
47
100
AcDbScale
 70
     0
300
1:5
140
1.0
141
5.0
290
     0
  0
SCALE
  5
4C
102
{ACAD_REACTORS
330
47
102
}
330
47
100
AcDbScale
 70
     0
300
1:8
140
1.0
141
8.0
290
     0
  0
SCALE
  5
4D
102
{ACAD_REACTORS
330
47
102
}
330
47
100
AcDbScale
 70
     0
300
1:10
140
1.0
141
10.0
290
     0
  0
SCALE
  5
4E
102
{ACAD_REACTORS
330
47
102
}
330
47
100
AcDbScale
 70
     0
300
1:16
140
1.0
141
16.0
290
     0
  0
SCALE
  5
4F
102
{ACAD_REACTORS
330
47
102
}
330
47
100
AcDbScale
 70
     0
300
1:20
140
1.0
141
20.0
290
     0
  0
SCALE
  5
50
102
{ACAD_REACTORS
330
47
102
}
330
47
100
AcDbScale
 70
     0
300
1:30
140
1.0
141
30.0
290
     0
  0
SCALE
  5
51
102
{ACAD_REACTORS
330
47
102
}
330
47
100
AcDbScale
 70
     0
300
1:40
140
1.0
141
40.0
290
     0
  0
SCALE
  5
52
102
{ACAD_REACTORS
330
47
102
}
330
47
100
AcDbScale
 70
     0
300
1:50
140
1.0
141
50.0
290
     0
  0
SCALE
  5
53
102
{ACAD_REACTORS
330
47
102
}
330
47
100
AcDbScale
 70
     0
300
1:100
140
1.0
141
100.0
290
     0
  0
SCALE
  5
54
102
{ACAD_REACTORS
330
47
102
}
330
47
100
AcDbScale
 70
     0
300
2:1
140
2.0
141
1.0
290
     0
  0
SCALE
  5
55
102
{ACAD_REACTORS
330
47
102
}
330
47
100
AcDbScale
 70
     0
300
4:1
140
4.0
141
1.0
290
     0
  0
SCALE
  5
56
102
{ACAD_REACTORS
330
47
102
}
330
47
100
AcDbScale
 70
     0
300
8:1
140
8.0
141
1.0
290
     0
  0
SCALE
  5
57
102
{ACAD_REACTORS
330
47
102
}
330
47
100
AcDbScale
 70
     0
300
10:1
140
10.0
141
1.0
290
     0
  0
SCALE
  5
58
102
{ACAD_REACTORS
330
47
102
}
330
47
100
AcDbScale
 70
     0
300
100:1
140
100.0
141
1.0
290
     0
  0
SCALE
  5
59
102
{ACAD_REACTORS
330
47
102
}
330
47
100
AcDbScale
 70
     0
300
1/128" = 1'-0"
140
0.0078125
141
12.0
290
     0
  0
SCALE
  5
5A
102
{ACAD_REACTORS
330
47
102
}
330
47
100
AcDbScale
 70
     0
300
1/64" = 1'-0"
140
0.015625
141
12.0
290
     0
  0
SCALE
  5
5B
102
{ACAD_REACTORS
330
47
102
}
330
47
100
AcDbScale
 70
     0
300
1/32" = 1'-0"
140
0.03125
141
12.0
290
     0
  0
SCALE
  5
5C
102
{ACAD_REACTORS
330
47
102
}
330
47
100
AcDbScale
 70
     0
300
1/16" = 1'-0"
140
0.0625
141
12.0
290
     0
  0
SCALE
  5
5D
102
{ACAD_REACTORS
330
47
102
}
330
47
100
AcDbScale
 70
     0
300
3/32" = 1'-0"
140
0.09375
141
12.0
290
     0
  0
SCALE
  5
5E
102
{ACAD_REACTORS
330
47
102
}
330
47
100
AcDbScale
 70
     0
300
1/8" = 1'-0"
140
0.125
141
12.0
290
     0
  0
SCALE
  5
5F
102
{ACAD_REACTORS
330
47
102
}
330
47
100
AcDbScale
 70
     0
300
3/16" = 1'-0"
140
0.1875
141
12.0
290
     0
  0
SCALE
  5
60
102
{ACAD_REACTORS
330
47
102
}
330
47
100
AcDbScale
 70
     0
300
1/4" = 1'-0"
140
0.25
141
12.0
290
     0
  0
SCALE
  5
61
102
{ACAD_REACTORS
330
47
102
}
330
47
100
AcDbScale
 70
     0
300
3/8" = 1'-0"
140
0.375
141
12.0
290
     0
  0
SCALE
  5
62
102
{ACAD_REACTORS
330
47
102
}
330
47
100
AcDbScale
 70
     0
300
1/2" = 1'-0"
140
0.5
141
12.0
290
     0
  0
SCALE
  5
63
102
{ACAD_REACTORS
330
47
102
}
330
47
100
AcDbScale
 70
     0
300
3/4" = 1'-0"
140
0.75
141
12.0
290
     0
  0
SCALE
  5
64
102
{ACAD_REACTORS
330
47
102
}
330
47
100
AcDbScale
 70
     0
300
1" = 1'-0"
140
1.0
141
12.0
290
     0
  0
SCALE
  5
65
102
{ACAD_REACTORS
330
47
102
}
330
47
100
AcDbScale
 70
     0
300
1-1/2" = 1'-0"
140
1.5
141
12.0
290
     0
  0
SCALE
  5
66
102
{ACAD_REACTORS
330
47
102
}
330
47
100
AcDbScale
 70
     0
300
3" = 1'-0"
140
3.0
141
12.0
290
     0
  0
SCALE
  5
67
102
{ACAD_REACTORS
330
47
102
}
330
47
100
AcDbScale
 70
     0
300
6" = 1'-0"
140
6.0
141
12.0
290
     0
  0
SCALE
  5
68
102
{ACAD_REACTORS
330
47
102
}
330
47
100
AcDbScale
 70
     0
300
1'-0" = 1'-0"
140
12.0
141
12.0
290
     0
  0
ENDSEC
  0
EOF
