  0
SECTION
  2
HEADER
  9
$ACADVER
  1
AC1032
  9
$ACADMAINTVER
 90
       55
  9
$DWGCODEPAGE
  3
ANSI_1252
  9
$LASTSAVEDBY
  1
villesi
  9
$REQUIREDVERSIONS
160
                 0
  9
$INSBASE
 10
0.0
 20
0.0
 30
0.0
  9
$EXTMIN
 10
0.0
 20
0.0
 30
0.0
  9
$EXTMAX
 10
800.0
 20
450.0
 30
0.0
  9
$LIMMIN
 10
0.0
 20
0.0
  9
$LIMMAX
 10
800.0
 20
450.0
  9
$ORTHOMODE
 70
     0
  9
$REGENMODE
 70
     1
  9
$FILLMODE
 70
     1
  9
$QTEXTMODE
 70
     0
  9
$MIRRTEXT
 70
     1
  9
$LTSCALE
 40
1.0
  9
$ATTMODE
 70
     1
  9
$TEXTSIZE
 40
3.5
  9
$TRACEWID
 40
1.0
  9
$TEXTSTYLE
  7
Standard
  9
$CLAYER
  8
0
  9
$CELTYPE
  6
ByLayer
  9
$CECOLOR
 62
   256
  9
$CELTSCALE
 40
1.0
  9
$DISPSILH
 70
     0
  9
$DIMSCALE
 40
1.0
  9
$DIMASZ
 40
3.302
  9
$DIMEXO
 40
1.0
  9
$DIMDLI
 40
3.75
  9
$DIMRND
 40
0.0
  9
$DIMDLE
 40
0.0
  9
$DIMEXE
 40
1.0
  9
$DIMTP
 40
0.0
  9
$DIMTM
 40
0.0
  9
$DIMTXT
 40
3.5
  9
$DIMCEN
 40
2.5
  9
$DIMTSZ
 40
0.0
  9
$DIMTOL
 70
     0
  9
$DIMLIM
 70
     0
  9
$DIMTIH
 70
     1
  9
$DIMTOH
 70
     1
  9
$DIMSE1
 70
     0
  9
$DIMSE2
 70
     0
  9
$DIMTAD
 70
     1
  9
$DIMZIN
 70
     1
  9
$DIMBLK
  1

  9
$DIMASO
 70
     1
  9
$DIMSHO
 70
     1
  9
$DIMPOST
  1

  9
$DIMAPOST
  1

  9
$DIMALT
 70
     0
  9
$DIMALTD
 70
     3
  9
$DIMALTF
 40
0.0393700787
  9
$DIMLFAC
 40
1.0
  9
$DIMTOFL
 70
     1
  9
$DIMTVP
 40
0.0
  9
$DIMTIX
 70
     0
  9
$DIMSOXD
 70
     0
  9
$DIMSAH
 70
     0
  9
$DIMBLK1
  1

  9
$DIMBLK2
  1

  9
$DIMSTYLE
  2
ISO-25
  9
$DIMCLRD
 70
     0
  9
$DIMCLRE
 70
     0
  9
$DIMCLRT
 70
     0
  9
$DIMTFAC
 40
1.0
  9
$DIMGAP
 40
1.524
  9
$DIMJUST
 70
     0
  9
$DIMSD1
 70
     0
  9
$DIMSD2
 70
     0
  9
$DIMTOLJ
 70
     0
  9
$DIMTZIN
 70
     1
  9
$DIMALTZ
 70
     0
  9
$DIMALTTZ
 70
     0
  9
$DIMUPT
 70
     0
  9
$DIMDEC
 70
     0
  9
$DIMTDEC
 70
     0
  9
$DIMALTU
 70
     2
  9
$DIMALTTD
 70
     3
  9
$DIMTXSTY
  7
Standard
  9
$DIMAUNIT
 70
     0
  9
$DIMADEC
 70
     0
  9
$DIMALTRND
 40
0.0
  9
$DIMAZIN
 70
     0
  9
$DIMDSEP
 70
    44
  9
$DIMATFIT
 70
     3
  9
$DIMFRAC
 70
     0
  9
$DIMLDRBLK
  1

  9
$DIMLUNIT
 70
     2
  9
$DIMLWD
 70
    -2
  9
$DIMLWE
 70
    -2
  9
$DIMTMOVE
 70
     0
  9
$DIMFXL
 40
1.0
  9
$DIMFXLON
 70
     0
  9
$DIMJOGANG
 40
0.7853981634
  9
$DIMTFILL
 70
     0
  9
$DIMTFILLCLR
 70
     0
  9
$DIMARCSYM
 70
     0
  9
$DIMLTYPE
  6

  9
$DIMLTEX1
  6

  9
$DIMLTEX2
  6

  9
$DIMTXTDIRECTION
 70
     0
  9
$LUNITS
 70
     2
  9
$LUPREC
 70
     2
  9
$SKETCHINC
 40
1.0
  9
$FILLETRAD
 40
0.0
  9
$AUNITS
 70
     0
  9
$AUPREC
 70
     2
  9
$MENU
  1
.
  9
$ELEVATION
 40
0.0
  9
$PELEVATION
 40
0.0
  9
$THICKNESS
 40
0.0
  9
$LIMCHECK
 70
     0
  9
$CHAMFERA
 40
0.0
  9
$CHAMFERB
 40
0.0
  9
$CHAMFERC
 40
0.0
  9
$CHAMFERD
 40
0.0
  9
$SKPOLY
 70
     0
  9
$TDCREATE
 40
2461014.642520949
  9
$TDUCREATE
 40
2461014.559187616
  9
$TDUPDATE
 40
2461014.642521702
  9
$TDUUPDATE
 40
2461014.559188369
  9
$TDINDWG
 40
0.0000000116
  9
$TDUSRTIMER
 40
0.0000000116
  9
$USRTIMER
 70
     1
  9
$ANGBASE
 50
0.0
  9
$ANGDIR
 70
     0
  9
$PDMODE
 70
     0
  9
$PDSIZE
 40
-1.0
  9
$PLINEWID
 40
0.0
  9
$SPLFRAME
 70
     0
  9
$SPLINETYPE
 70
     6
  9
$SPLINESEGS
 70
     8
  9
$HANDSEED
  5
1E5
  9
$SURFTAB1
 70
     6
  9
$SURFTAB2
 70
     6
  9
$SURFTYPE
 70
     6
  9
$SURFU
 70
     6
  9
$SURFV
 70
     6
  9
$UCSBASE
  2

  9
$UCSNAME
  2

  9
$UCSORG
 10
0.0
 20
0.0
 30
0.0
  9
$UCSXDIR
 10
1.0
 20
0.0
 30
0.0
  9
$UCSYDIR
 10
0.0
 20
1.0
 30
0.0
  9
$UCSORTHOREF
  2

  9
$UCSORTHOVIEW
 70
     0
  9
$UCSORGTOP
 10
0.0
 20
0.0
 30
0.0
  9
$UCSORGBOTTOM
 10
0.0
 20
0.0
 30
0.0
  9
$UCSORGLEFT
 10
0.0
 20
0.0
 30
0.0
  9
$UCSORGRIGHT
 10
0.0
 20
0.0
 30
0.0
  9
$UCSORGFRONT
 10
0.0
 20
0.0
 30
0.0
  9
$UCSORGBACK
 10
0.0
 20
0.0
 30
0.0
  9
$PUCSBASE
  2

  9
$PUCSNAME
  2

  9
$PUCSORG
 10
0.0
 20
0.0
 30
0.0
  9
$PUCSXDIR
 10
1.0
 20
0.0
 30
0.0
  9
$PUCSYDIR
 10
0.0
 20
1.0
 30
0.0
  9
$PUCSORTHOREF
  2

  9
$PUCSORTHOVIEW
 70
     0
  9
$PUCSORGTOP
 10
0.0
 20
0.0
 30
0.0
  9
$PUCSORGBOTTOM
 10
0.0
 20
0.0
 30
0.0
  9
$PUCSORGLEFT
 10
0.0
 20
0.0
 30
0.0
  9
$PUCSORGRIGHT
 10
0.0
 20
0.0
 30
0.0
  9
$PUCSORGFRONT
 10
0.0
 20
0.0
 30
0.0
  9
$PUCSORGBACK
 10
0.0
 20
0.0
 30
0.0
  9
$USERI1
 70
     0
  9
$USERI2
 70
     0
  9
$USERI3
 70
     0
  9
$USERI4
 70
     0
  9
$USERI5
 70
     0
  9
$USERR1
 40
0.0
  9
$USERR2
 40
0.0
  9
$USERR3
 40
0.0
  9
$USERR4
 40
0.0
  9
$USERR5
 40
0.0
  9
$WORLDVIEW
 70
     1
  9
$SHADEDGE
 70
     3
  9
$SHADEDIF
 70
    70
  9
$TILEMODE
 70
     1
  9
$MAXACTVP
 70
    64
  9
$PINSBASE
 10
0.0
 20
0.0
 30
0.0
  9
$PLIMCHECK
 70
     0
  9
$PEXTMIN
 10
1.0000000000E+20
 20
1.0000000000E+20
 30
1.0000000000E+20
  9
$PEXTMAX
 10
-1.0000000000E+20
 20
-1.0000000000E+20
 30
-1.0000000000E+20
  9
$PLIMMIN
 10
0.0
 20
0.0
  9
$PLIMMAX
 10
420.0
 20
297.0
  9
$UNITMODE
 70
     0
  9
$VISRETAIN
 70
     1
  9
$PLINEGEN
 70
     0
  9
$PSLTSCALE
 70
     1
  9
$TREEDEPTH
 70
  3020
  9
$CMLSTYLE
  2
Standard
  9
$CMLJUST
 70
     0
  9
$CMLSCALE
 40
20.0
  9
$PROXYGRAPHICS
 70
     1
  9
$MEASUREMENT
 70
     1
  9
$CELWEIGHT
370
    -1
  9
$ENDCAPS
280
     0
  9
$JOINSTYLE
280
     0
  9
$LWDISPLAY
290
     1
  9
$INSUNITS
 70
     4
  9
$HYPERLINKBASE
  1

  9
$STYLESHEET
  1

  9
$XEDIT
290
     1
  9
$CEPSNTYPE
380
     0
  9
$PSTYLEMODE
290
     1
  9
$FINGERPRINTGUID
  2
{1e85151d-5497-4adc-a256-6be39d754ab6}
  9
$VERSIONGUID
  2
{FAEB1C32-E019-11D5-929B-00C0DF256EC4}
  9
$EXTNAMES
290
     1
  9
$PSVPSCALE
 40
0.0
  9
$OLESTARTUP
290
     0
  9
$SORTENTS
280
   127
  9
$INDEXCTL
280
     0
  9
$HIDETEXT
280
     1
  9
$XCLIPFRAME
280
     2
  9
$HALOGAP
280
     0
  9
$OBSCOLOR
 70
   257
  9
$OBSLTYPE
280
     0
  9
$INTERSECTIONDISPLAY
280
     0
  9
$INTERSECTIONCOLOR
 70
   257
  9
$DIMASSOC
280
     2
  9
$PROJECTNAME
  1

  9
$CAMERADISPLAY
290
     0
  9
$LENSLENGTH
 40
50.0
  9
$CAMERAHEIGHT
 40
0.0
  9
$STEPSPERSEC
 40
2.0
  9
$STEPSIZE
 40
6.0
  9
$3DDWFPREC
 40
2.0
  9
$PSOLWIDTH
 40
5.0
  9
$PSOLHEIGHT
 40
80.0
  9
$LOFTANG1
 40
1.5707963268
  9
$LOFTANG2
 40
1.5707963268
  9
$LOFTMAG1
 40
0.0
  9
$LOFTMAG2
 40
0.0
  9
$LOFTPARAM
 70
     7
  9
$LOFTNORMALS
280
     1
  9
$LATITUDE
 40
37.795
  9
$LONGITUDE
 40
-122.394
  9
$NORTHDIRECTION
 40
0.0
  9
$TIMEZONE
 70
 -8000
  9
$LIGHTGLYPHDISPLAY
280
     1
  9
$TILEMODELIGHTSYNCH
280
     1
  9
$CMATERIAL
347
44
  9
$SOLIDHIST
280
     0
  9
$SHOWHIST
280
     1
  9
$DWFFRAME
280
     2
  9
$DGNFRAME
280
     2
  9
$REALWORLDSCALE
290
     1
  9
$INTERFERECOLOR
 62
   256
  9
$CSHADOW
280
     0
  9
$SHADOWPLANELOCATION
 40
0.0
  0
ENDSEC
  0
SECTION
  2
CLASSES
  0
CLASS
  1
ACDBDICTIONARYWDFLT
  2
AcDbDictionaryWithDefault
  3
ObjectDBX Classes
 90
        0
 91
        3
280
     0
281
     0
  0
CLASS
  1
VISUALSTYLE
  2
AcDbVisualStyle
  3
ObjectDBX Classes
 90
     4095
 91
        3
280
     0
281
     0
  0
CLASS
  1
MATERIAL
  2
AcDbMaterial
  3
ObjectDBX Classes
 90
     1153
 91
        3
280
     0
281
     0
  0
CLASS
  1
SCALE
  2
AcDbScale
  3
ObjectDBX Classes
 90
     1153
 91
        3
280
     0
281
     0
  0
CLASS
  1
TABLESTYLE
  2
AcDbTableStyle
  3
ObjectDBX Classes
 90
     4095
 91
        3
280
     0
281
     0
  0
CLASS
  1
MLEADERSTYLE
  2
AcDbMLeaderStyle
  3
ACDB_MLEADERSTYLE_CLASS
 90
     4095
 91
        3
280
     0
281
     0
  0
CLASS
  1
SUN
  2
AcDbSun
  3
SCENEOE
 90
     1153
 91
        3
280
     0
281
     0
  0
CLASS
  1
DICTIONARYVAR
  2
AcDbDictionaryVar
  3
ObjectDBX Classes
 90
        0
 91
        3
280
     0
281
     0
  0
CLASS
  1
CELLSTYLEMAP
  2
AcDbCellStyleMap
  3
ObjectDBX Classes
 90
     1152
 91
        3
280
     0
281
     0
  0
ENDSEC
  0
SECTION
  2
TABLES
  0
TABLE
  2
VPORT
  5
8
330
0
100
AcDbSymbolTable
 70
     1
  0
VPORT
  5
29
330
8
100
AcDbSymbolTableRecord
100
AcDbViewportTableRecord
  2
*Active
 70
     0
 10
0.0
 20
0.0
 11
1.0
 21
1.0
 12
400.0
 22
225.0
 13
0.0
 23
0.0
 14
10.0
 24
10.0
 15
10.0
 25
10.0
 16
0.0
 26
0.0
 36
1.0
 17
0.0
 27
0.0
 37
0.0
 40
450.0
 41
1.7777777778
 42
50.0
 43
0.0
 44
0.0
 50
0.0
 51
0.0
 71
     0
 72
  2000
 73
     1
 74
     3
 75
     0
 76
     0
 77
     0
 78
     0
281
     0
 65
     1
110
0.0
120
0.0
130
0.0
111
1.0
121
0.0
131
0.0
112
0.0
122
1.0
132
0.0
 79
     0
146
0.0
348
2F
 60
     3
 61
     5
292
     1
282
     1
141
0.0
142
0.0
 63
   250
361
5D
  0
ENDTAB
  0
TABLE
  2
LTYPE
  5
5
330
0
100
AcDbSymbolTable
 70
     6
  0
LTYPE
  5
14
330
5
100
AcDbSymbolTableRecord
100
AcDbLinetypeTableRecord
  2
ByBlock
 70
     0
  3

 72
    65
 73
     0
 40
0.0
  0
LTYPE
  5
15
330
5
100
AcDbSymbolTableRecord
100
AcDbLinetypeTableRecord
  2
ByLayer
 70
     0
  3

 72
    65
 73
     0
 40
0.0
  0
LTYPE
  5
16
330
5
100
AcDbSymbolTableRecord
100
AcDbLinetypeTableRecord
  2
Continuous
 70
     0
  3
Solid line
 72
    65
 73
     0
 40
0.0
  0
LTYPE
  5
5E
330
5
100
AcDbSymbolTableRecord
100
AcDbLinetypeTableRecord
  2
HIDDEN
 70
     0
  3
Hidden __ __ __ __ __ __ __ __ __ __ __ __ __ __
 72
    65
 73
     2
 40
1.905
 49
1.27
 74
     0
 49
-0.635
 74
     0
  0
LTYPE
  5
5F
330
5
100
AcDbSymbolTableRecord
100
AcDbLinetypeTableRecord
  2
PHANTOM
 70
     0
  3
Phantom ______  __  __  ______  __  __  ______
 72
    65
 73
     6
 40
12.7
 49
6.35
 74
     0
 49
-1.27
 74
     0
 49
1.27
 74
     0
 49
-1.27
 74
     0
 49
1.27
 74
     0
 49
-1.27
 74
     0
  0
LTYPE
  5
60
330
5
100
AcDbSymbolTableRecord
100
AcDbLinetypeTableRecord
  2
CENTER
 70
     0
  3
Center ____ _ ____ _ ____ _ ____ _ ____ _ ____
 72
    65
 73
     4
 40
10.16
 49
6.35
 74
     0
 49
-1.27
 74
     0
 49
1.27
 74
     0
 49
-1.27
 74
     0
  0
LTYPE
  5
61
330
5
100
AcDbSymbolTableRecord
100
AcDbLinetypeTableRecord
  2
CENTERX2
 70
     0
  3
Center (2x) ________  __  ________  __  _____
 72
    65
 73
     4
 40
20.32
 49
12.7
 74
     0
 49
-2.54
 74
     0
 49
2.54
 74
     0
 49
-2.54
 74
     0
  0
LTYPE
  5
62
330
5
100
AcDbSymbolTableRecord
100
AcDbLinetypeTableRecord
  2
DOT2
 70
     0
  3
Dot (.5x) ........................................
 72
    65
 73
     2
 40
0.635
 49
0.0
 74
     0
 49
-0.635
 74
     0
  0
ENDTAB
  0
TABLE
  2
LAYER
  5
2
330
0
100
AcDbSymbolTable
 70
     2
  0
LAYER
  5
10
330
2
100
AcDbSymbolTableRecord
100
AcDbLayerTableRecord
  2
0
 70
     0
 62
     7
  6
Continuous
370
    -3
390
F
347
46
348
0
  0
LAYER
  5
63
330
2
100
AcDbSymbolTableRecord
100
AcDbLayerTableRecord
  2
TABLE_BL1
 70
     0
 62
   179
  6
Continuous
370
    -3
390
F
347
46
348
0
  0
ENDTAB
  0
TABLE
  2
STYLE
  5
3
330
0
100
AcDbSymbolTable
 70
     1
  0
STYLE
  5
11
330
3
100
AcDbSymbolTableRecord
100
AcDbTextStyleTableRecord
  2
Standard
 70
     0
 40
0.0
 41
1.0
 50
0.0
 71
     0
 42
3.5
  3
txt
  4

  0
ENDTAB
  0
TABLE
  2
VIEW
  5
6
330
0
100
AcDbSymbolTable
 70
     0
  0
ENDTAB
  0
TABLE
  2
UCS
  5
7
330
0
100
AcDbSymbolTable
 70
     0
  0
ENDTAB
  0
TABLE
  2
APPID
  5
9
330
0
100
AcDbSymbolTable
 70
     1
  0
APPID
  5
12
330
9
100
AcDbSymbolTableRecord
100
AcDbRegAppTableRecord
  2
ACAD
 70
     0
  0
ENDTAB
  0
TABLE
  2
DIMSTYLE
  5
A
330
0
100
AcDbSymbolTable
 70
     1
100
AcDbDimStyleTable
  0
DIMSTYLE
105
27
330
A
100
AcDbSymbolTableRecord
100
AcDbDimStyleTableRecord
  2
ISO-25
 70
     0
 41
2.5
 42
0.625
 43
3.75
 44
1.25
 73
     0
 74
     0
 77
     1
 78
     8
140
2.5
141
2.5
143
0.0393700787
147
0.625
171
     3
172
     1
178
     0
271
     2
272
     2
274
     3
278
    44
283
     0
284
     8
340
11
  0
ENDTAB
  0
TABLE
  2
BLOCK_RECORD
  5
1
330
0
100
AcDbSymbolTable
 70
     1
  0
BLOCK_RECORD
  5
1F
330
1
100
AcDbSymbolTableRecord
100
AcDbBlockTableRecord
  2
*Model_Space
340
22
 70
     0
280
     1
281
     0
  0
BLOCK_RECORD
  5
1B
330
1
100
AcDbSymbolTableRecord
100
AcDbBlockTableRecord
  2
*Paper_Space
340
1E
 70
     0
280
     1
281
     0
  0
BLOCK_RECORD
  5
23
330
1
100
AcDbSymbolTableRecord
100
AcDbBlockTableRecord
  2
*Paper_Space0
340
26
 70
     0
280
     1
281
     0
  0
ENDTAB
  0
ENDSEC
  0
SECTION
  2
BLOCKS
  0
BLOCK
  5
20
330
1F
100
AcDbEntity
  8
0
100
AcDbBlockBegin
  2
*Model_Space
 70
     0
 10
0.0
 20
0.0
 30
0.0
  3
*Model_Space
  1

  0
ENDBLK
  5
21
330
1F
100
AcDbEntity
  8
0
100
AcDbBlockEnd
  0
BLOCK
  5
1C
330
1B
100
AcDbEntity
 67
     1
  8
0
100
AcDbBlockBegin
  2
*Paper_Space
 70
     0
 10
0.0
 20
0.0
 30
0.0
  3
*Paper_Space
  1

  0
ENDBLK
  5
1D
330
1B
100
AcDbEntity
 67
     1
  8
0
100
AcDbBlockEnd
  0
BLOCK
  5
24
330
23
100
AcDbEntity
  8
0
100
AcDbBlockBegin
  2
*Paper_Space0
 70
     0
 10
0.0
 20
0.0
 30
0.0
  3
*Paper_Space0
  1

  0
ENDBLK
  5
25
330
23
100
AcDbEntity
  8
0
100
AcDbBlockEnd
  0
ENDSEC
  0
SECTION
  2
ENTITIES
  0
SPLINE
  5
64
330
1F
100
AcDbEntity
  8
0
  6
Continuous
 62
     7
370
    25
100
AcDbSpline
210
0.0
220
0.0
230
1.0
 70
     8
 71
     3
 72
    15
 73
    11
 74
     0
 42
0.00000001
 43
0.00000001
 40
0.0
 40
0.0
 40
0.0
 40
0.0
 40
0.1435697120509283
 40
0.2830630712899255
 40
0.4177869949919167
 40
0.5471035624718796
 40
0.6704392768339343
 40
0.7872946987831237
 40
0.8972547346571133
 40
1.0
 40
1.0
 40
1.0
 40
1.0
 10
384.4504002999109
 20
413.0117987764729
 30
0.0
 10
384.4684409134077
 20
412.9781969249736
 30
0.0
 10
384.5040099160298
 20
412.9119472741903
 30
0.0
 10
384.6315660685856
 20
412.817547302301
 30
0.0
 10
384.8016408866955
 20
412.7301597391645
 30
0.0
 10
385.00676039707
 20
412.6511361530914
 30
0.0
 10
385.2312306037991
 20
412.5812882506177
 30
0.0
 10
385.4595612566528
 20
412.5215313577498
 30
0.0
 10
385.6793435581668
 20
412.4713732030355
 30
0.0
 10
385.8107872242404
 20
412.4454724162772
 30
0.0
 10
385.8742798324222
 20
412.4329612884734
 30
0.0
  0
SPLINE
  5
65
330
1F
100
AcDbEntity
  8
0
  6
Continuous
 62
     7
370
    25
100
AcDbSpline
210
0.0
220
0.0
230
1.0
 70
     8
 71
     3
 72
    15
 73
    11
 74
     0
 42
0.00000001
 43
0.00000001
 40
0.0
 40
0.0
 40
0.0
 40
0.0
 40
0.1027452653428876
 40
0.2127053012168777
 40
0.329560723166068
 40
0.4528964375281235
 40
0.5822130050080853
 40
0.716936928710078
 40
0.856430287949076
 40
1.0
 40
1.0
 40
1.0
 40
1.0
 10
422.0742798324222
 20
412.4329612884734
 30
0.0
 10
422.137772440604
 20
412.4454724162772
 30
0.0
 10
422.2692161066776
 20
412.4713732030355
 30
0.0
 10
422.4889984081916
 20
412.5215313577498
 30
0.0
 10
422.7173290610452
 20
412.5812882506177
 30
0.0
 10
422.9417992677743
 20
412.6511361530913
 30
0.0
 10
423.1469187781489
 20
412.7301597391645
 30
0.0
 10
423.3169935962587
 20
412.817547302301
 30
0.0
 10
423.4445497488146
 20
412.9119472741903
 30
0.0
 10
423.4801187514366
 20
412.9781969249735
 30
0.0
 10
423.4981593649335
 20
413.0117987764729
 30
0.0
  0
LINE
  5
66
330
1F
100
AcDbEntity
  8
0
  6
Continuous
 62
     7
370
    25
100
AcDbLine
 10
385.8742798324
 20
412.3677897764
 30
0.0
 11
422.0742798324
 21
412.3677897764
 31
0.0
  0
SPLINE
  5
67
330
1F
100
AcDbEntity
  8
0
  6
Continuous
 62
     7
370
    25
100
AcDbSpline
210
0.0
220
0.0
230
1.0
 70
     8
 71
     3
 72
    10
 73
     6
 74
     0
 42
0.00000001
 43
0.00000001
 40
0.0
 40
0.0
 40
0.0
 40
0.0
 40
0.3274285650656037
 40
0.6639672068206713
 40
0.9999999999999999
 40
0.9999999999999999
 40
0.9999999999999999
 40
0.9999999999999999
 10
425.2732267243441
 20
413.8914176312941
 30
0.0
 10
425.4586675720662
 20
413.8889626204513
 30
0.0
 10
425.8347088061836
 20
413.8839842927611
 30
0.0
 10
426.355549916353
 20
413.8697000316275
 30
0.0
 10
426.6486983846977
 20
413.856365332985
 30
0.0
 10
426.7951623787324
 20
413.8497029982525
 30
0.0
  0
SPLINE
  5
68
330
1F
100
AcDbEntity
  8
0
  6
Continuous
 62
     7
370
    25
100
AcDbSpline
210
0.0
220
0.0
230
1.0
 70
     8
 71
     3
 72
    10
 73
     6
 74
     0
 42
0.00000001
 43
0.00000001
 40
0.0
 40
0.0
 40
0.0
 40
0.0
 40
0.3284379545068262
 40
0.6638373480172974
 40
1.0
 40
1.0
 40
1.0
 40
1.0
 10
381.6168500626665
 20
413.8690272761304
 30
0.0
 10
381.783295583543
 20
413.8740200308333
 30
0.0
 10
382.1197145377223
 20
413.8841113646632
 30
0.0
 10
382.6890969688443
 20
413.8928590358752
 30
0.0
 10
383.0836499109687
 20
413.8939929473402
 30
0.0
 10
383.2811505950265
 20
413.8945605474416
 30
0.0
  0
LINE
  5
69
330
1F
100
AcDbEntity
  8
0
  6
Continuous
 62
     7
370
    25
100
AcDbLine
 10
383.281150595
 20
413.8801329277
 30
0.0
 11
424.6674090698
 21
413.8801329277
 31
0.0
  0
CIRCLE
  5
6A
330
1F
100
AcDbEntity
  8
0
  6
Continuous
 62
     7
370
    25
100
AcDbCircle
 10
403.9742798324
 20
306.1609481943
 30
0.0
 40
8.900000000000034
  0
LINE
  5
6B
330
1F
100
AcDbEntity
  8
0
  6
Continuous
 62
     7
370
    25
100
AcDbLine
 10
422.0742798324
 20
413.0495276728
 30
0.0
 11
385.8742798324
 21
413.0495276728
 31
0.0
  0
ARC
  5
6C
330
1F
100
AcDbEntity
  8
0
  6
Continuous
 62
     7
370
    25
100
AcDbCircle
 10
385.749622214
 20
410.641486363
 30
0.0
 40
2.411265740499652
100
AcDbArc
 50
87.0366016998
 51
98.9551904986
  0
ARC
  5
6D
330
1F
100
AcDbEntity
  8
0
  6
Continuous
 62
     7
370
    25
100
AcDbCircle
 10
422.1989374509
 20
410.641486363
 30
0.0
 40
2.41126574050837
100
AcDbArc
 50
81.0448095014
 51
92.9633983002
  0
LINE
  5
6E
330
1F
100
AcDbEntity
  8
0
  6
Continuous
 62
     7
370
    25
100
AcDbLine
 10
422.5742798324
 20
412.3953282197
 30
0.0
 11
422.5742798324
 21
413.0233596947
 31
0.0
  0
ARC
  5
6F
330
1F
100
AcDbEntity
  8
0
  6
Continuous
 62
     7
370
    25
100
AcDbCircle
 10
422.1989374509
 20
414.7772015514
 30
0.0
 40
2.411265740495482
100
AcDbArc
 50
267.0366016997
 51
278.9551904986
  0
LINE
  5
70
330
1F
100
AcDbEntity
  8
0
  6
Continuous
 62
     7
370
    25
100
AcDbLine
 10
385.8742798324
 20
412.3691602416
 30
0.0
 11
422.0742798324
 21
412.3691602416
 31
0.0
  0
ARC
  5
71
330
1F
100
AcDbEntity
  8
0
  6
Continuous
 62
     7
370
    25
100
AcDbCircle
 10
385.749622214
 20
414.7772015514
 30
0.0
 40
2.411265740495482
100
AcDbArc
 50
261.0448095014
 51
272.9633983003
  0
LINE
  5
72
330
1F
100
AcDbEntity
  8
0
  6
Continuous
 62
     7
370
    25
100
AcDbLine
 10
385.3742798324
 20
413.0233596947
 30
0.0
 11
385.3742798324
 21
412.3953282197
 31
0.0
  0
LWPOLYLINE
  5
73
330
1F
100
AcDbEntity
  8
0
  6
Continuous
 62
     7
370
    25
100
AcDbPolyline
 90
        3
 70
   128
 43
0.0
 10
384.450324766
 20
413.0119809324
 10
384.393494552
 20
413.199134797
 10
384.3742798324
 20
413.3939577545
  0
LINE
  5
74
330
1F
100
AcDbEntity
  8
0
  6
Continuous
 62
     7
370
    25
100
AcDbLine
 10
384.3742798324
 20
413.3939577545
 30
0.0
 11
384.3742798324
 21
413.8801329277
 31
0.0
  0
LINE
  5
75
330
1F
100
AcDbEntity
  8
0
  6
Continuous
 62
     7
370
    25
100
AcDbLine
 10
423.5742798324
 20
413.8801329277
 30
0.0
 11
423.5742798324
 21
413.3939577545
 31
0.0
  0
LWPOLYLINE
  5
76
330
1F
100
AcDbEntity
  8
0
  6
Continuous
 62
     7
370
    25
100
AcDbPolyline
 90
        4
 70
   128
 43
0.0
 10
423.5742798324
 20
413.3939577545
 10
423.5550651128
 20
413.199134797
 10
423.4981593649
 20
413.0117987765
 10
423.4980828634
 20
413.0116143908
  0
LINE
  5
77
330
1F
100
AcDbEntity
  8
0
  6
Continuous
 62
     7
370
    25
100
AcDbLine
 10
378.4742798324
 20
414.6471043586
 30
0.0
 11
378.4742798324
 21
414.0479266378
 31
0.0
  0
LINE
  5
78
330
1F
100
AcDbEntity
  8
0
  6
Continuous
 62
     7
370
    25
100
AcDbLine
 10
378.4742798324
 20
414.6471043586
 30
0.0
 11
429.4742798324
 21
414.6471043586
 31
0.0
  0
LINE
  5
79
330
1F
100
AcDbEntity
  8
0
  6
Continuous
 62
     7
370
    25
100
AcDbLine
 10
429.4742798324
 20
414.6471043586
 30
0.0
 11
429.4742798324
 21
414.0479266378
 31
0.0
  0
LINE
  5
7A
330
1F
100
AcDbEntity
  8
0
  6
Continuous
 62
     7
370
    25
100
AcDbLine
 10
378.4742798324
 20
414.0479266378
 30
0.0
 11
429.4742798324
 21
414.0479266378
 31
0.0
  0
LINE
  5
7B
330
1F
100
AcDbEntity
  8
0
  6
Continuous
 62
     7
370
    25
100
AcDbLine
 10
376.4742798324
 20
412.582519863
 30
0.0
 11
376.4742798324
 21
413.9432547253
 31
0.0
  0
ARC
  5
7C
330
1F
100
AcDbEntity
  8
0
  6
Continuous
 62
     7
370
    25
100
AcDbCircle
 10
377.9756493586
 20
404.4157613988
 30
0.0
 40
9.645062962005731
100
AcDbArc
 50
87.0366016998
 51
98.9551904986
  0
ARC
  5
7D
330
1F
100
AcDbEntity
  8
0
  6
Continuous
 62
     7
370
    25
100
AcDbCircle
 10
429.9729103063
 20
404.4157613987
 30
0.0
 40
9.645062962019884
100
AcDbArc
 50
81.0448095014
 51
92.9633983002
  0
LINE
  5
7E
330
1F
100
AcDbEntity
  8
0
  6
Continuous
 62
     7
370
    25
100
AcDbLine
 10
431.4742798324
 20
413.9432547253
 30
0.0
 11
431.4742798324
 21
412.582519863
 31
0.0
  0
ARC
  5
7F
330
1F
100
AcDbEntity
  8
0
  6
Continuous
 62
     7
370
    25
100
AcDbCircle
 10
429.9729103063
 20
422.1100131895
 30
0.0
 40
9.645062961997075
100
AcDbArc
 50
267.0366016997
 51
278.9551904986
  0
LINE
  5
80
330
1F
100
AcDbEntity
  8
0
  6
Continuous
 62
     7
370
    25
100
AcDbLine
 10
429.4742798324
 20
412.4778479505
 30
0.0
 11
422.2927535061
 21
412.4778479505
 31
0.0
  0
LINE
  5
81
330
1F
100
AcDbEntity
  8
0
  6
Continuous
 62
     7
370
    25
100
AcDbLine
 10
385.6558061587
 20
412.4778479505
 30
0.0
 11
378.4742798324
 21
412.4778479505
 31
0.0
  0
ARC
  5
82
330
1F
100
AcDbEntity
  8
0
  6
Continuous
 62
     7
370
    25
100
AcDbCircle
 10
377.9756493586
 20
422.1100131895
 30
0.0
 40
9.645062962011222
100
AcDbArc
 50
261.0448095014
 51
272.9633983002
  0
SPLINE
  5
83
330
1F
100
AcDbEntity
  8
0
  6
Continuous
 62
     7
370
    25
100
AcDbSpline
210
0.0
220
0.0
230
1.0
 70
     8
 71
     3
 72
     9
 73
     5
 74
     0
 42
0.00000001
 43
0.00000001
 40
0.0
 40
0.0
 40
0.0
 40
0.0
 40
0.5594717333059703
 40
1.0
 40
1.0
 40
1.0
 40
1.0
 10
380.9550681491789
 20
412.6940367070703
 30
0.0
 10
380.6503218198945
 20
412.7142060352043
 30
0.0
 10
380.1056181089784
 20
412.7502567003824
 30
0.0
 10
380.0279313184849
 20
412.7957384568367
 30
0.0
 10
379.9937080913238
 20
412.8157744561737
 30
0.0
  0
SPLINE
  5
84
330
1F
100
AcDbEntity
  8
0
  6
Continuous
 62
     7
370
    25
100
AcDbSpline
210
0.0
220
0.0
230
1.0
 70
     8
 71
     3
 72
     9
 73
     5
 74
     0
 42
0.00000001
 43
0.00000001
 40
0.0
 40
0.0
 40
0.0
 40
0.0
 40
0.5604800890566275
 40
1.0
 40
1.0
 40
1.0
 40
1.0
 10
383.2811505950266
 20
412.6437230091487
 30
0.0
 10
382.7921477487122
 20
412.6466748356281
 30
0.0
 10
381.9196763516687
 20
412.6519414392722
 30
0.0
 10
381.2495861395385
 20
412.6811840134653
 30
0.0
 10
380.9550681491789
 20
412.6940367070704
 30
0.0
  0
SPLINE
  5
85
330
1F
100
AcDbEntity
  8
0
  6
Continuous
 62
     7
370
    25
100
AcDbSpline
210
0.0
220
0.0
230
1.0
 70
     8
 71
     3
 72
     9
 73
     5
 74
     0
 42
0.00000001
 43
0.00000001
 40
0.0
 40
0.0
 40
0.0
 40
0.0
 40
0.559471733305972
 40
1.0
 40
1.0
 40
1.0
 40
1.0
 10
426.9934915156654
 20
412.6940367070703
 30
0.0
 10
426.6081096561966
 20
412.6780875165157
 30
0.0
 10
425.9192779663603
 20
412.6495799269359
 30
0.0
 10
425.05024337295
 20
412.6455141144679
 30
0.0
 10
424.6674090698178
 20
412.6437230091487
 30
0.0
  0
SPLINE
  5
86
330
1F
100
AcDbEntity
  8
0
  6
Continuous
 62
     7
370
    25
100
AcDbSpline
210
0.0
220
0.0
230
1.0
 70
     8
 71
     3
 72
     9
 73
     5
 74
     0
 42
0.00000001
 43
0.00000001
 40
0.0
 40
0.0
 40
0.0
 40
0.0
 40
0.5604800890566246
 40
1.0
 40
1.0
 40
1.0
 40
1.0
 10
427.9548515735206
 20
412.8157744561737
 30
0.0
 10
427.8984500726915
 20
412.7901820246063
 30
0.0
 10
427.7978193778098
 20
412.7445203997475
 30
0.0
 10
427.2390720787764
 20
412.7094505877266
 30
0.0
 10
426.9934915156654
 20
412.6940367070703
 30
0.0
  0
LINE
  5
87
330
1F
100
AcDbEntity
  8
0
  6
Continuous
 62
     7
370
    25
100
AcDbLine
 10
427.9548515735
 20
413.7100001321
 30
0.0
 11
427.9548515735
 21
412.8157744562
 31
0.0
  0
SPLINE
  5
88
330
1F
100
AcDbEntity
  8
0
  6
Continuous
 62
     7
370
    25
100
AcDbSpline
210
0.0
220
0.0
230
1.0
 70
     8
 71
     3
 72
     9
 73
     5
 74
     0
 42
0.00000001
 43
0.00000001
 40
0.0
 40
0.0
 40
0.0
 40
0.0
 40
0.5594717333059717
 40
1.0
 40
1.0
 40
1.0
 40
1.0
 10
426.9934915156654
 20
413.8317378811693
 30
0.0
 10
427.2982378449498
 20
413.8115685530353
 30
0.0
 10
427.8429415558659
 20
413.7755178878573
 30
0.0
 10
427.9206283463595
 20
413.7300361314029
 30
0.0
 10
427.9548515735206
 20
413.7100001320659
 30
0.0
  0
SPLINE
  5
89
330
1F
100
AcDbEntity
  8
0
  6
Continuous
 62
     7
370
    25
100
AcDbSpline
210
0.0
220
0.0
230
1.0
 70
     8
 71
     3
 72
     9
 73
     5
 74
     0
 42
0.00000001
 43
0.00000001
 40
0.0
 40
0.0
 40
0.0
 40
0.0
 40
0.5604800890566216
 40
1.0
 40
1.0
 40
1.0
 40
1.0
 10
424.6674090698178
 20
413.8820515790908
 30
0.0
 10
425.1564119161322
 20
413.8790997526115
 30
0.0
 10
426.0288833131758
 20
413.8738331489674
 30
0.0
 10
426.6989735253059
 20
413.8445905747744
 30
0.0
 10
426.9934915156654
 20
413.8317378811693
 30
0.0
  0
LINE
  5
8A
330
1F
100
AcDbEntity
  8
0
  6
Continuous
 62
     7
370
    25
100
AcDbLine
 10
383.281150595
 20
413.8820515791
 30
0.0
 11
424.6674090698
 21
413.8820515791
 31
0.0
  0
SPLINE
  5
8B
330
1F
100
AcDbEntity
  8
0
  6
Continuous
 62
     7
370
    25
100
AcDbSpline
210
0.0
220
0.0
230
1.0
 70
     8
 71
     3
 72
     9
 73
     5
 74
     0
 42
0.00000001
 43
0.00000001
 40
0.0
 40
0.0
 40
0.0
 40
0.0
 40
0.559471733305972
 40
1.0
 40
1.0
 40
1.0
 40
1.0
 10
380.9550681491789
 20
413.8317378811693
 30
0.0
 10
381.3404500086477
 20
413.8476870717239
 30
0.0
 10
382.0292816984841
 20
413.8761946613038
 30
0.0
 10
382.8983162918943
 20
413.8802604737717
 30
0.0
 10
383.2811505950265
 20
413.8820515790908
 30
0.0
  0
SPLINE
  5
8C
330
1F
100
AcDbEntity
  8
0
  6
Continuous
 62
     7
370
    25
100
AcDbSpline
210
0.0
220
0.0
230
1.0
 70
     8
 71
     3
 72
     9
 73
     5
 74
     0
 42
0.00000001
 43
0.00000001
 40
0.0
 40
0.0
 40
0.0
 40
0.0
 40
0.5604800890566246
 40
1.0
 40
1.0
 40
1.0
 40
1.0
 10
379.9937080913238
 20
413.7100001320659
 30
0.0
 10
380.0501095921529
 20
413.7355925636334
 30
0.0
 10
380.1507402870345
 20
413.7812541884922
 30
0.0
 10
380.709487586068
 20
413.816324000513
 30
0.0
 10
380.9550681491789
 20
413.8317378811693
 30
0.0
  0
LINE
  5
8D
330
1F
100
AcDbEntity
  8
0
  6
Continuous
 62
     7
370
    25
100
AcDbLine
 10
379.9937080913
 20
412.8157744562
 30
0.0
 11
379.9937080913
 21
413.7100001321
 31
0.0
  0
LINE
  5
8E
330
1F
100
AcDbEntity
  8
0
  6
Continuous
 62
     7
370
    25
100
AcDbLine
 10
376.4742798324
 20
414.5424324461
 30
0.0
 11
376.4742798324
 21
413.9432547253
 31
0.0
  0
ARC
  5
8F
330
1F
100
AcDbEntity
  8
0
  6
Continuous
 62
     7
370
    25
100
AcDbCircle
 10
377.9756493586
 20
405.0149391196
 30
0.0
 40
9.645062961994352
100
AcDbArc
 50
87.0366016997
 51
98.9551904986
  0
ARC
  5
90
330
1F
100
AcDbEntity
  8
0
  6
Continuous
 62
     7
370
    25
100
AcDbCircle
 10
429.9729103063
 20
405.0149391196
 30
0.0
 40
9.645062962007033
100
AcDbArc
 50
81.0448095014
 51
92.9633983002
  0
LINE
  5
91
330
1F
100
AcDbEntity
  8
0
  6
Continuous
 62
     7
370
    25
100
AcDbLine
 10
431.4742798324
 20
414.5424324461
 30
0.0
 11
431.4742798324
 21
413.9432547253
 31
0.0
  0
CIRCLE
  5
92
330
1F
100
AcDbEntity
  8
0
  6
Continuous
 62
     7
370
    25
100
AcDbCircle
 10
403.9742798324
 20
306.1609481943
 30
0.0
 40
8.099999999999966
  0
CIRCLE
  5
93
330
1F
100
AcDbEntity
  8
0
  6
Continuous
 62
     7
370
    25
100
AcDbCircle
 10
403.9742798324
 20
306.1609481943
 30
0.0
 40
55.99540163538481
  0
CIRCLE
  5
94
330
1F
100
AcDbEntity
  8
0
  6
Continuous
 62
     7
370
    25
100
AcDbCircle
 10
403.9742798324
 20
306.1609481943
 30
0.0
 40
56.58542857502064
  0
SPLINE
  5
95
330
1F
100
AcDbEntity
  8
0
  6
Continuous
 62
     7
370
    25
100
AcDbSpline
210
0.0
220
0.0
230
1.0
 70
     8
 71
     3
 72
    17
 73
    13
 74
     0
 42
0.00000001
 43
0.00000001
 40
0.0
 40
0.0
 40
0.0
 40
0.0
 40
0.1073415831264232
 40
0.2147340135529316
 40
0.3221186568153163
 40
0.4294882791417516
 40
0.5368445105545013
 40
0.6441943157237154
 40
0.7515471508446131
 40
0.8589113006666687
 40
0.9662906002105655
 40
1.0
 40
1.0
 40
1.0
 40
1.0
 10
383.6481468732317
 20
259.3437684530123
 30
0.0
 10
383.5306957206628
 20
259.1508061018513
 30
0.0
 10
383.2957377793603
 20
258.764789993997
 30
0.0
 10
382.7254458296881
 20
258.3749871022935
 30
0.0
 10
382.0705071313008
 20
258.1852161648772
 30
0.0
 10
381.3864250606205
 20
258.2258121438265
 30
0.0
 10
380.7552543022414
 20
258.4897880708476
 30
0.0
 10
380.2469358712627
 20
258.9478556179614
 30
0.0
 10
379.9185109971896
 20
259.5486788122141
 30
0.0
 10
379.8090056875899
 20
260.2228807334475
 30
0.0
 10
379.8968769822246
 20
260.7458752197625
 30
0.0
 10
380.0158467366221
 20
261.0150025720893
 30
0.0
 10
380.044271401622
 20
261.0793034094825
 30
0.0
  0
ARC
  5
96
330
1F
100
AcDbEntity
  8
0
  6
Continuous
 62
     7
370
    25
100
AcDbCircle
 10
403.9742798324
 20
306.1609481943
 30
0.0
 40
47.00000000000001
100
AcDbArc
 50
246.7245689767
 51
293.2754310233
  0
SPLINE
  5
97
330
1F
100
AcDbEntity
  8
0
  6
Continuous
 62
     7
370
    25
100
AcDbSpline
210
0.0
220
0.0
230
1.0
 70
     8
 71
     3
 72
    17
 73
    13
 74
     0
 42
0.00000001
 43
0.00000001
 40
0.0
 40
0.0
 40
0.0
 40
0.0
 40
0.1073415831264234
 40
0.2147340135529318
 40
0.3221186568153172
 40
0.4294882791417517
 40
0.5368445105545007
 40
0.6441943157237153
 40
0.7515471508446135
 40
0.8589113006666688
 40
0.966290600210566
 40
1.0
 40
1.0
 40
1.0
 40
1.0
 10
427.9042882632227
 20
261.0793034094827
 30
0.0
 10
427.9819227084482
 20
260.8671663426607
 30
0.0
 10
428.1372283740406
 20
260.4427917204941
 30
0.0
 10
428.0864173320288
 20
259.7538813923301
 30
0.0
 10
427.8264386260711
 20
259.123509454676
 30
0.0
 10
427.3681812169634
 20
258.6139837340977
 30
0.0
 10
426.7682679955239
 20
258.2851008628175
 30
0.0
 10
426.0932050082813
 20
258.1732819545476
 30
0.0
 10
425.4186929599563
 20
258.2911161827083
 30
0.0
 10
424.8233052286107
 20
258.6258595064485
 30
0.0
 10
424.4691985301334
 20
259.0206417796448
 30
0.0
 10
424.3329627218875
 20
259.2814542386712
 30
0.0
 10
424.300412791613
 20
259.3437684530125
 30
0.0
  0
ARC
  5
98
330
1F
100
AcDbEntity
  8
0
  6
Continuous
 62
     7
370
    25
100
AcDbCircle
 10
403.9742798324
 20
306.1609481943
 30
0.0
 40
47.00000000000005
100
AcDbArc
 50
298.1531404052
 51
344.7040024519
  0
SPLINE
  5
99
330
1F
100
AcDbEntity
  8
0
  6
Continuous
 62
     7
370
    25
100
AcDbSpline
210
0.0
220
0.0
230
1.0
 70
     8
 71
     3
 72
    17
 73
    13
 74
     0
 42
0.00000001
 43
0.00000001
 40
0.0
 40
0.0
 40
0.0
 40
0.0
 40
0.1073415831264242
 40
0.2147340135529314
 40
0.322118656815317
 40
0.429488279141752
 40
0.5368445105545009
 40
0.6441943157237151
 40
0.7515471508446127
 40
0.8589113006666697
 40
0.9662906002105657
 40
1.0
 40
1.0
 40
1.0
 40
1.0
 10
454.1406452216079
 20
296.7622363868629
 30
0.0
 10
454.3549049439188
 20
296.6906681425042
 30
0.0
 10
454.7835258825569
 20
296.5474977521815
 30
0.0
 10
455.2904574991967
 20
296.0782435158743
 30
0.0
 10
455.621208053854
 20
295.4819535042801
 30
0.0
 10
455.7338524821245
 20
294.8059893442001
 30
0.0
 10
455.616943689368
 20
294.1319031846807
 30
0.0
 10
455.2834723440307
 20
293.5343997396442
 30
0.0
 10
454.7707944513808
 20
293.0805134245279
 30
0.0
 10
454.1378634036889
 20
292.8237296004789
 30
0.0
 10
453.6084282785133
 20
292.7930205567491
 30
0.0
 10
453.3195752499372
 20
292.8491210212236
 30
0.0
 10
453.2505614857827
 20
292.8625247381356
 30
0.0
  0
ARC
  5
9A
330
1F
100
AcDbEntity
  8
0
  6
Continuous
 62
     7
370
    25
100
AcDbCircle
 10
403.9742798324
 20
306.1609481943
 30
0.0
 40
47.00000000000004
100
AcDbArc
 50
349.5817118338
 51
36.1325738805
  0
SPLINE
  5
9B
330
1F
100
AcDbEntity
  8
0
  6
Continuous
 62
     7
370
    25
100
AcDbSpline
210
0.0
220
0.0
230
1.0
 70
     8
 71
     3
 72
    17
 73
    13
 74
     0
 42
0.00000001
 43
0.00000001
 40
0.0
 40
0.0
 40
0.0
 40
0.0
 40
0.107341583126425
 40
0.2147340135529326
 40
0.3221186568153179
 40
0.429488279141751
 40
0.5368445105545011
 40
0.6441943157237161
 40
0.7515471508446128
 40
0.8589113006666695
 40
0.9662906002105639
 40
1.0
 40
1.0
 40
1.0
 40
1.0
 10
442.6007058345739
 20
339.5225910540028
 30
0.0
 10
442.7902488929683
 20
339.6454839798357
 30
0.0
 10
443.1694247955839
 20
339.8913280454136
 30
0.0
 10
443.852369224025
 20
339.9950879119444
 30
0.0
 10
444.5247871255586
 20
339.8818983672401
 30
0.0
 10
445.123509839192
 20
339.5485105673547
 30
0.0
 10
445.5776401805691
 20
339.0368217465659
 30
0.0
 10
445.8368712017517
 20
338.4035660457245
 30
0.0
 10
445.8720843746654
 20
337.7197448402071
 30
0.0
 10
445.6782199989798
 20
337.0647973253134
 30
0.0
 10
445.3721318948715
 20
336.6317215009363
 30
0.0
 10
445.148173868011
 20
336.4408651768686
 30
0.0
 10
445.0946650420089
 20
336.3952651241306
 30
0.0
  0
ARC
  5
9C
330
1F
100
AcDbEntity
  8
0
  6
Continuous
 62
     7
370
    25
100
AcDbCircle
 10
403.9742798324
 20
306.1609481943
 30
0.0
 40
47.00000000000006
100
AcDbArc
 50
41.0102832624
 51
87.5611453091
  0
SPLINE
  5
9D
330
1F
100
AcDbEntity
  8
0
  6
Continuous
 62
     7
370
    25
100
AcDbSpline
210
0.0
220
0.0
230
1.0
 70
     8
 71
     3
 72
    17
 73
    13
 74
     0
 42
0.00000001
 43
0.00000001
 40
0.0
 40
0.0
 40
0.0
 40
0.0
 40
0.1073415831264228
 40
0.2147340135529326
 40
0.322118656815317
 40
0.4294882791417518
 40
0.5368445105545012
 40
0.6441943157237155
 40
0.7515471508446135
 40
0.8589113006666701
 40
0.9662906002105649
 40
0.9999999999999999
 40
0.9999999999999999
 40
0.9999999999999999
 40
0.9999999999999999
 10
401.9742798324216
 20
357.1609481942709
 30
0.0
 10
401.9963764379548
 20
357.3857614105843
 30
0.0
 10
402.0405801160994
 20
357.8354943363777
 30
0.0
 10
402.3852662721982
 20
358.4341350099334
 30
0.0
 10
402.8930071259277
 20
358.8892799679272
 30
0.0
 10
403.5269577098405
 20
359.1495163414218
 30
0.0
 10
404.2101577757234
 20
359.1855369779674
 30
0.0
 10
404.8668849171263
 20
358.9933834801168
 30
0.0
 10
405.4234729181818
 20
358.5945586993635
 30
0.0
 10
405.8146590435062
 20
358.0346363308345
 30
0.0
 10
405.9624085459182
 20
357.525308654703
 30
0.0
 10
405.9719904829105
 20
357.2312142468757
 30
0.0
 10
405.9742798324216
 20
357.1609481942709
 30
0.0
  0
ARC
  5
9E
330
1F
100
AcDbEntity
  8
0
  6
Continuous
 62
     7
370
    25
100
AcDbCircle
 10
403.9742798324
 20
306.1609481943
 30
0.0
 40
46.99999999999999
100
AcDbArc
 50
92.438854691
 51
138.9897167376
  0
SPLINE
  5
9F
330
1F
100
AcDbEntity
  8
0
  6
Continuous
 62
     7
370
    25
100
AcDbSpline
210
0.0
220
0.0
230
1.0
 70
     8
 71
     3
 72
    17
 73
    13
 74
     0
 42
0.00000001
 43
0.00000001
 40
0.0
 40
0.0
 40
0.0
 40
0.0
 40
0.1073415831264238
 40
0.2147340135529325
 40
0.3221186568153184
 40
0.4294882791417531
 40
0.5368445105545
 40
0.6441943157237151
 40
0.751547150844613
 40
0.8589113006666681
 40
0.9662906002105659
 40
0.9999999999999999
 40
0.9999999999999999
 40
0.9999999999999999
 40
0.9999999999999999
 10
362.8538946228352
 20
336.3952651241302
 30
0.0
 10
362.6919055808521
 20
336.5527096936863
 30
0.0
 10
362.3678507632922
 20
336.8676734136929
 30
0.0
 10
362.11472294119
 20
337.5104062570417
 30
0.0
 10
362.0754475282313
 20
338.1911522810991
 30
0.0
 10
362.2672482625019
 20
338.8490495308778
 30
0.0
 10
362.6650544685392
 20
339.4056553507518
 30
0.0
 10
363.2247487978937
 20
339.7992995589906
 30
0.0
 10
363.88358950997
 20
339.9857943974515
 30
0.0
 10
364.5652550051925
 20
339.9425301391244
 30
0.0
 10
365.055583725268
 20
339.7404847397566
 30
0.0
 10
365.291490232122
 20
339.5646113356962
 30
0.0
 10
365.3478538302701
 20
339.5225910540024
 30
0.0
  0
ARC
  5
A0
330
1F
100
AcDbEntity
  8
0
  6
Continuous
 62
     7
370
    25
100
AcDbCircle
 10
403.9742798324
 20
306.1609481943
 30
0.0
 40
47.00000000000001
100
AcDbArc
 50
143.8674261195
 51
190.4182881662
  0
SPLINE
  5
A1
330
1F
100
AcDbEntity
  8
0
  6
Continuous
 62
     7
370
    25
100
AcDbSpline
210
0.0
220
0.0
230
1.0
 70
     8
 71
     3
 72
    17
 73
    13
 74
     0
 42
0.00000001
 43
0.00000001
 40
0.0
 40
0.0
 40
0.0
 40
0.0
 40
0.1073415831264253
 40
0.2147340135529328
 40
0.3221186568153173
 40
0.4294882791417526
 40
0.5368445105545023
 40
0.6441943157237171
 40
0.7515471508446141
 40
0.8589113006666692
 40
0.9662906002105642
 40
1.0
 40
1.0
 40
1.0
 40
1.0
 10
354.6979981790618
 20
292.8625247381351
 30
0.0
 10
354.4739045421499
 20
292.8340416887742
 30
0.0
 10
354.0256111160217
 20
292.7770620977399
 30
0.0
 10
353.3652797286281
 20
292.9798961704795
 30
0.0
 10
352.8085632360114
 20
293.3736276197972
 30
0.0
 10
352.4137842557121
 20
293.9337756981183
 30
0.0
 10
352.22664041499
 20
294.5918311662661
 30
0.0
 10
352.2678406866085
 20
295.2748509629119
 30
0.0
 10
352.5328136156109
 20
295.9062310034245
 30
0.0
 10
352.9916504593868
 20
296.4122037242497
 30
0.0
 10
353.4553308700259
 20
296.6695849083447
 30
0.0
 10
353.7399195354647
 20
296.7443687684723
 30
0.0
 10
353.8079144432365
 20
296.7622363868624
 30
0.0
  0
ARC
  5
A2
330
1F
100
AcDbEntity
  8
0
  6
Continuous
 62
     7
370
    25
100
AcDbCircle
 10
403.9742798324
 20
306.1609481943
 30
0.0
 40
46.99999999999999
100
AcDbArc
 50
195.2959975481
 51
241.8468595948
  0
LINE
  5
A3
330
1F
100
AcDbEntity
  8
0
  6
Continuous
 62
     7
370
    25
100
AcDbLine
 10
385.4021533333
 20
262.986000397
 30
0.0
 11
383.6481468732
 21
259.343768453
 31
0.0
  0
LINE
  5
A4
330
1F
100
AcDbEntity
  8
0
  6
Continuous
 62
     7
370
    25
100
AcDbLine
 10
439.4400954054
 20
337.0020883441
 30
0.0
 11
442.6007058346
 21
339.522591054
 31
0.0
  0
LINE
  5
A5
330
1F
100
AcDbEntity
  8
0
  6
Continuous
 62
     7
370
    25
100
AcDbLine
 10
401.9742798324
 20
353.1183757218
 30
0.0
 11
401.9742798324
 21
357.1609481943
 31
0.0
  0
LINE
  5
A6
330
1F
100
AcDbEntity
  8
0
  6
Continuous
 62
     7
370
    25
100
AcDbLine
 10
366.014505052
 20
333.8747624142
 30
0.0
 11
362.8538946228
 21
336.3952651241
 31
0.0
  0
LINE
  5
A7
330
1F
100
AcDbEntity
  8
0
  6
Continuous
 62
     7
370
    25
100
AcDbLine
 10
450.1994284811
 20
297.661793389
 30
0.0
 11
454.1406452216
 21
296.7622363869
 31
0.0
  0
LINE
  5
A8
330
1F
100
AcDbEntity
  8
0
  6
Continuous
 62
     7
370
    25
100
AcDbLine
 10
426.1502818032
 20
264.7215353534
 30
0.0
 11
427.9042882632
 21
261.0793034095
 31
0.0
  0
LINE
  5
A9
330
1F
100
AcDbEntity
  8
0
  6
Continuous
 62
     7
370
    25
100
AcDbLine
 10
358.6392149195
 20
293.7620817403
 30
0.0
 11
354.6979981791
 21
292.8625247381
 31
0.0
  0
LINE
  5
AA
330
1F
100
AcDbEntity
  8
0
  6
Continuous
 62
     7
370
    25
100
AcDbLine
 10
424.3004127916
 20
259.343768453
 30
0.0
 11
422.5464063316
 21
262.986000397
 31
0.0
  0
LINE
  5
AB
330
1F
100
AcDbEntity
  8
0
  6
Continuous
 62
     7
370
    25
100
AcDbLine
 10
353.8079144432
 20
296.7622363869
 30
0.0
 11
357.7491311837
 21
297.661793389
 31
0.0
  0
LINE
  5
AC
330
1F
100
AcDbEntity
  8
0
  6
Continuous
 62
     7
370
    25
100
AcDbLine
 10
405.9742798324
 20
357.1609481943
 30
0.0
 11
405.9742798324
 21
353.1183757218
 31
0.0
  0
LINE
  5
AD
330
1F
100
AcDbEntity
  8
0
  6
Continuous
 62
     7
370
    25
100
AcDbLine
 10
445.094665042
 20
336.3952651241
 30
0.0
 11
441.9340546128
 21
333.8747624142
 31
0.0
  0
LINE
  5
AE
330
1F
100
AcDbEntity
  8
0
  6
Continuous
 62
     7
370
    25
100
AcDbLine
 10
365.3478538303
 20
339.522591054
 30
0.0
 11
368.5084642594
 21
337.0020883441
 31
0.0
  0
LINE
  5
AF
330
1F
100
AcDbEntity
  8
0
  6
Continuous
 62
     7
370
    25
100
AcDbLine
 10
380.0442714016
 20
261.0793034095
 30
0.0
 11
381.7982778616
 21
264.7215353534
 31
0.0
  0
LINE
  5
B0
330
1F
100
AcDbEntity
  8
0
  6
Continuous
 62
     7
370
    25
100
AcDbLine
 10
453.2505614858
 20
292.8625247381
 30
0.0
 11
449.3093447453
 21
293.7620817403
 31
0.0
  0
ARC
  5
B1
330
1F
100
AcDbEntity
  8
0
  6
Continuous
 62
     7
370
    25
100
AcDbCircle
 10
403.9742798324
 20
306.1609481943
 30
0.0
 40
32.289889816357
100
AcDbArc
 50
144.9796815998
 51
189.3060326859
  0
SPLINE
  5
B2
330
1F
100
AcDbEntity
  8
0
  6
Continuous
 62
     7
370
    25
100
AcDbSpline
210
0.0
220
0.0
230
1.0
 70
    24
 71
     3
 72
    14
 73
    10
 74
     0
 42
0.00000001
 43
0.00000001
 40
0.0
 40
0.0
 40
0.0
 40
0.0
 40
0.1599365945527953
 40
0.3204782349631291
 40
0.4327831140154428
 40
0.5446248701610644
 40
0.6577837919875138
 40
0.7712520390670936
 40
1.0
 40
1.0
 40
1.0
 40
1.0
 10
377.5305201154426
 20
324.6910468551827
 30
0.0
 10
376.9824123205426
 20
325.1281482358545
 30
0.0
 10
375.8841232193506
 20
326.0040045673547
 30
0.0
 10
374.6242930489988
 20
327.0086856027215
 30
0.0
 10
373.4051628395749
 20
327.9809095023196
 30
0.0
 10
372.1613486051055
 20
328.9728182550221
 30
0.0
 10
370.7234346924554
 20
330.1195163358643
 30
0.0
 10
368.6731454249113
 20
331.754567466242
 30
0.0
 10
367.0796481857275
 20
333.0253391097486
 30
0.0
 10
366.0145050519978
 20
333.8747624142488
 30
0.0
  0
SPLINE
  5
B3
330
1F
100
AcDbEntity
  8
0
  6
Continuous
 62
     7
370
    25
100
AcDbSpline
210
0.0
220
0.0
230
1.0
 70
    24
 71
     3
 72
    13
 73
     9
 74
     0
 42
0.00000001
 43
0.00000001
 40
0.0
 40
0.0
 40
0.0
 40
0.0
 40
0.1649272304776912
 40
0.329178225230281
 40
0.5219202432988935
 40
0.6820453210982799
 40
0.841317717694487
 40
1.0
 40
1.0
 40
1.0
 40
1.0
 10
357.749131183699
 20
297.6617933890302
 30
0.0
 10
358.703727752692
 20
297.879673826578
 30
0.0
 10
360.6090068474898
 20
298.3145413468577
 30
0.0
 10
363.5836256439926
 20
298.9934786759576
 30
0.0
 10
366.2963913545445
 20
299.6126497469406
 30
0.0
 10
368.3353063174136
 20
300.0780187820518
 30
0.0
 10
370.0726586539492
 20
300.4745581155826
 30
0.0
 10
371.4313048093521
 20
300.7846602345585
 30
0.0
 10
372.1093670839178
 20
300.9394235239583
 30
0.0
  0
ARC
  5
B4
330
1F
100
AcDbEntity
  8
0
  6
Continuous
 62
     7
370
    25
100
AcDbCircle
 10
403.9742798324
 20
306.1609481943
 30
0.0
 40
32.28988981635704
100
AcDbArc
 50
42.1225387427
 51
86.4488898288
  0
SPLINE
  5
B5
330
1F
100
AcDbEntity
  8
0
  6
Continuous
 62
     7
370
    25
100
AcDbSpline
210
0.0
220
0.0
230
1.0
 70
    24
 71
     3
 72
    14
 73
    10
 74
     0
 42
0.00000001
 43
0.00000001
 40
0.0
 40
0.0
 40
0.0
 40
0.0
 40
0.1599365945527953
 40
0.3204782349631289
 40
0.4327831140154432
 40
0.5446248701610643
 40
0.6577837919875138
 40
0.7712520390670932
 40
1.0
 40
1.0
 40
1.0
 40
1.0
 10
427.9240803419666
 20
327.818372785055
 30
0.0
 10
428.4721881368666
 20
328.2554741657269
 30
0.0
 10
429.5704772380586
 20
329.131330497227
 30
0.0
 10
430.8303074084104
 20
330.1360115325937
 30
0.0
 10
432.0494376178343
 20
331.108235432192
 30
0.0
 10
433.2932518523037
 20
332.1001441848945
 30
0.0
 10
434.7311657649537
 20
333.2468422657367
 30
0.0
 10
436.7814550324979
 20
334.8818933961143
 30
0.0
 10
438.3749522716817
 20
336.1526650396211
 30
0.0
 10
439.4400954054114
 20
337.0020883441214
 30
0.0
  0
SPLINE
  5
B6
330
1F
100
AcDbEntity
  8
0
  6
Continuous
 62
     7
370
    25
100
AcDbSpline
210
0.0
220
0.0
230
1.0
 70
    24
 71
     3
 72
    13
 73
     9
 74
     0
 42
0.00000001
 43
0.00000001
 40
0.0
 40
0.0
 40
0.0
 40
0.0
 40
0.1649272304776914
 40
0.3291782252302809
 40
0.5219202432988947
 40
0.6820453210982798
 40
0.8413177176944868
 40
1.0
 40
1.0
 40
1.0
 40
1.0
 10
405.9742798324216
 20
353.1183757217665
 30
0.0
 10
405.9742798324216
 20
352.1392299233282
 30
0.0
 10
405.9742798324216
 20
350.1849530265535
 30
0.0
 10
405.9742798324217
 20
347.133836365173
 30
0.0
 10
405.9742798324218
 20
344.3513068297523
 30
0.0
 10
405.9742798324218
 20
342.2599573695589
 30
0.0
 10
405.9742798324218
 20
340.4779257805283
 30
0.0
 10
405.9742798324218
 20
339.0843395077112
 30
0.0
 10
405.9742798324218
 20
338.3888395983401
 30
0.0
  0
ARC
  5
B7
330
1F
100
AcDbEntity
  8
0
  6
Continuous
 62
     7
370
    25
100
AcDbCircle
 10
403.9742798324
 20
306.1609481943
 30
0.0
 40
32.28988981635706
100
AcDbArc
 50
350.6939673141
 51
35.0203184002
  0
SPLINE
  5
B8
330
1F
100
AcDbEntity
  8
0
  6
Continuous
 62
     7
370
    25
100
AcDbSpline
210
0.0
220
0.0
230
1.0
 70
    24
 71
     3
 72
    14
 73
    10
 74
     0
 42
0.00000001
 43
0.00000001
 40
0.0
 40
0.0
 40
0.0
 40
0.0
 40
0.1599365945527954
 40
0.320478234963129
 40
0.4327831140154431
 40
0.5446248701610639
 40
0.6577837919875134
 40
0.7712520390670933
 40
1.0
 40
1.0
 40
1.0
 40
1.0
 10
435.8391925809266
 20
300.9394235239586
 30
0.0
 10
436.5226718218055
 20
300.7834238473469
 30
0.0
 10
437.8922159299771
 20
300.4708343417673
 30
0.0
 10
439.4631984565537
 20
300.1122678316952
 30
0.0
 10
440.9834289619811
 20
299.7652851392626
 30
0.0
 10
442.5344399431779
 20
299.411277004097
 30
0.0
 10
444.3274892641541
 20
299.0020251973244
 30
0.0
 10
446.8841581625025
 20
298.4184822051002
 30
0.0
 10
448.8712167183448
 20
297.9649490564981
 30
0.0
 10
450.1994284811454
 20
297.6617933890306
 30
0.0
  0
SPLINE
  5
B9
330
1F
100
AcDbEntity
  8
0
  6
Continuous
 62
     7
370
    25
100
AcDbSpline
210
0.0
220
0.0
230
1.0
 70
    24
 71
     3
 72
    13
 73
     9
 74
     0
 42
0.00000001
 43
0.00000001
 40
0.0
 40
0.0
 40
0.0
 40
0.0
 40
0.164927230477691
 40
0.3291782252302812
 40
0.521920243298894
 40
0.6820453210982795
 40
0.8413177176944868
 40
1.0
 40
1.0
 40
1.0
 40
1.0
 10
441.9340546128464
 20
333.8747624142492
 30
0.0
 10
441.168527601701
 20
333.2642749943902
 30
0.0
 10
439.6406123983426
 20
332.0458032792429
 30
0.0
 10
437.2551533357926
 20
330.1434631565909
 30
0.0
 10
435.0796841441036
 20
328.4085843678854
 30
0.0
 10
433.4446012952818
 20
327.104649307332
 30
0.0
 10
432.0513528962252
 20
325.9935707849813
 30
0.0
 10
430.9618032746016
 20
325.1246839558694
 30
0.0
 10
430.4180395494016
 20
324.6910468551829
 30
0.0
  0
ARC
  5
BA
330
1F
100
AcDbEntity
  8
0
  6
Continuous
 62
     7
370
    25
100
AcDbCircle
 10
403.9742798324
 20
306.1609481943
 30
0.0
 40
32.28988981635703
100
AcDbArc
 50
247.836824457
 51
292.163175543
  0
SPLINE
  5
BB
330
1F
100
AcDbEntity
  8
0
  6
Continuous
 62
     7
370
    25
100
AcDbSpline
210
0.0
220
0.0
230
1.0
 70
    24
 71
     3
 72
    14
 73
    10
 74
     0
 42
0.00000001
 43
0.00000001
 40
0.0
 40
0.0
 40
0.0
 40
0.0
 40
0.1599365945527958
 40
0.3204782349631292
 40
0.4327831140154432
 40
0.5446248701610645
 40
0.657783791987514
 40
0.7712520390670937
 40
1.0
 40
1.0
 40
1.0
 40
1.0
 10
391.793059541955
 20
276.2568538828294
 30
0.0
 10
391.4888826639148
 20
275.6252240872362
 30
0.0
 10
390.8793781958253
 20
274.3595750179421
 30
0.0
 10
390.1802251977396
 20
272.9077688579393
 30
0.0
 10
389.5036589739464
 20
271.5028646180347
 30
0.0
 10
388.8133941497216
 20
270.0695149412306
 30
0.0
 10
388.0154121306549
 20
268.4124882045585
 30
0.0
 10
386.8775874284998
 20
266.0497708649849
 30
0.0
 10
385.993263177156
 20
264.2134526355617
 30
0.0
 10
385.4021533332556
 20
262.9860003969781
 30
0.0
  0
SPLINE
  5
BC
330
1F
100
AcDbEntity
  8
0
  6
Continuous
 62
     7
370
    25
100
AcDbSpline
210
0.0
220
0.0
230
1.0
 70
    24
 71
     3
 72
    13
 73
     9
 74
     0
 42
0.00000001
 43
0.00000001
 40
0.0
 40
0.0
 40
0.0
 40
0.0
 40
0.1649272304776909
 40
0.3291782252302812
 40
0.5219202432988939
 40
0.6820453210982796
 40
0.8413177176944866
 40
1.0
 40
1.0
 40
1.0
 40
1.0
 10
422.5464063315891
 20
262.9860003969783
 30
0.0
 10
422.1215708914215
 20
263.8681802785086
 30
0.0
 10
421.2736419241778
 20
265.6289229217636
 30
0.0
 10
419.9498120186541
 20
268.3778840460057
 30
0.0
 10
418.7425176996207
 20
270.8848565314388
 30
0.0
 10
417.8351151760305
 20
272.7690972869776
 30
0.0
 10
417.0619206469564
 20
274.3746522703128
 30
0.0
 10
416.4572662241235
 20
275.6302301168571
 30
0.0
 10
416.1555001228896
 20
276.2568538828295
 30
0.0
  0
ARC
  5
BD
330
1F
100
AcDbEntity
  8
0
  6
Continuous
 62
     7
370
    25
100
AcDbCircle
 10
403.9742798324
 20
306.1609481943
 30
0.0
 40
32.28988981635702
100
AcDbArc
 50
93.5511101712
 51
137.8774612573
  0
SPLINE
  5
BE
330
1F
100
AcDbEntity
  8
0
  6
Continuous
 62
     7
370
    25
100
AcDbSpline
210
0.0
220
0.0
230
1.0
 70
    24
 71
     3
 72
    14
 73
    10
 74
     0
 42
0.00000001
 43
0.00000001
 40
0.0
 40
0.0
 40
0.0
 40
0.0
 40
0.1599365945527957
 40
0.3204782349631293
 40
0.4327831140154434
 40
0.5446248701610638
 40
0.6577837919875134
 40
0.7712520390670932
 40
1.0
 40
1.0
 40
1.0
 40
1.0
 10
401.9742798324218
 20
338.38883959834
 30
0.0
 10
401.9742798324218
 20
339.0898957814063
 30
0.0
 10
401.9742798324218
 20
340.4946602681534
 30
0.0
 10
401.9742798324218
 20
342.1060435375696
 30
0.0
 10
401.9742798324218
 20
343.6653696030478
 30
0.0
 10
401.9742798324217
 20
345.2562677215823
 30
0.0
 10
401.9742798324217
 20
347.095428646787
 30
0.0
 10
401.9742798324217
 20
349.7178470496274
 30
0.0
 10
401.9742798324216
 20
351.7560065186649
 30
0.0
 10
401.9742798324216
 20
353.1183757217665
 30
0.0
  0
SPLINE
  5
BF
330
1F
100
AcDbEntity
  8
0
  6
Continuous
 62
     7
370
    25
100
AcDbSpline
210
0.0
220
0.0
230
1.0
 70
    24
 71
     3
 72
    13
 73
     9
 74
     0
 42
0.00000001
 43
0.00000001
 40
0.0
 40
0.0
 40
0.0
 40
0.0
 40
0.1649272304776909
 40
0.3291782252302813
 40
0.5219202432988939
 40
0.6820453210982795
 40
0.8413177176944869
 40
0.9999999999999999
 40
0.9999999999999999
 40
0.9999999999999999
 40
0.9999999999999999
 10
368.5084642594327
 20
337.002088344121
 30
0.0
 10
369.2739912705781
 20
336.3916009242619
 30
0.0
 10
370.8019064739365
 20
335.1731292091147
 30
0.0
 10
373.1873655364864
 20
333.2707890864627
 30
0.0
 10
375.3628347281755
 20
331.5359102977573
 30
0.0
 10
376.9979175769972
 20
330.2319752372038
 30
0.0
 10
378.3911659760538
 20
329.1208967148532
 30
0.0
 10
379.4807155976776
 20
328.2520098857414
 30
0.0
 10
380.0244793228776
 20
327.8183727850548
 30
0.0
  0
ARC
  5
C0
330
1F
100
AcDbEntity
  8
0
  6
Continuous
 62
     7
370
    25
100
AcDbCircle
 10
403.9742798324
 20
306.1609481943
 30
0.0
 40
32.289889816357
100
AcDbArc
 50
196.4082530284
 51
240.7346041145
  0
SPLINE
  5
C1
330
1F
100
AcDbEntity
  8
0
  6
Continuous
 62
     7
370
    25
100
AcDbSpline
210
0.0
220
0.0
230
1.0
 70
    24
 71
     3
 72
    14
 73
    10
 74
     0
 42
0.00000001
 43
0.00000001
 40
0.0
 40
0.0
 40
0.0
 40
0.0
 40
0.1599365945527955
 40
0.3204782349631289
 40
0.4327831140154428
 40
0.5446248701610641
 40
0.6577837919875136
 40
0.7712520390670936
 40
1.0
 40
1.0
 40
1.0
 40
1.0
 10
372.9994508197431
 20
297.039711875231
 30
0.0
 10
372.3159715788642
 20
296.8837121986193
 30
0.0
 10
370.9464274706926
 20
296.5711226930396
 30
0.0
 10
369.375444944116
 20
296.2125561829675
 30
0.0
 10
367.8552144386886
 20
295.8655734905349
 30
0.0
 10
366.3042034574918
 20
295.5115653553693
 30
0.0
 10
364.5111541365156
 20
295.1023135485968
 30
0.0
 10
361.9544852381672
 20
294.5187705563725
 30
0.0
 10
359.9674266823249
 20
294.0652374077703
 30
0.0
 10
358.6392149195242
 20
293.7620817403029
 30
0.0
  0
SPLINE
  5
C2
330
1F
100
AcDbEntity
  8
0
  6
Continuous
 62
     7
370
    25
100
AcDbSpline
210
0.0
220
0.0
230
1.0
 70
    24
 71
     3
 72
    13
 73
     9
 74
     0
 42
0.00000001
 43
0.00000001
 40
0.0
 40
0.0
 40
0.0
 40
0.0
 40
0.1649272304776907
 40
0.329178225230281
 40
0.5219202432988936
 40
0.6820453210982796
 40
0.8413177176944868
 40
1.0
 40
1.0
 40
1.0
 40
1.0
 10
381.7982778616459
 20
264.7215353534484
 30
0.0
 10
382.2231133018136
 20
265.6037152349787
 30
0.0
 10
383.0710422690573
 20
267.3644578782337
 30
0.0
 10
384.3948721745809
 20
270.1134190024758
 30
0.0
 10
385.6021664936142
 20
272.6203914879089
 30
0.0
 10
386.5095690172045
 20
274.5046322434477
 30
0.0
 10
387.2827635462787
 20
276.1101872267829
 30
0.0
 10
387.8874179691115
 20
277.3657650733273
 30
0.0
 10
388.1891840703453
 20
277.9923888392996
 30
0.0
  0
ARC
  5
C3
330
1F
100
AcDbEntity
  8
0
  6
Continuous
 62
     7
370
    25
100
AcDbCircle
 10
403.9742798324
 20
306.1609481943
 30
0.0
 40
32.28988981635707
100
AcDbArc
 50
299.2653958855
 51
343.5917469716
  0
SPLINE
  5
C4
330
1F
100
AcDbEntity
  8
0
  6
Continuous
 62
     7
370
    25
100
AcDbSpline
210
0.0
220
0.0
230
1.0
 70
    24
 71
     3
 72
    14
 73
    10
 74
     0
 42
0.00000001
 43
0.00000001
 40
0.0
 40
0.0
 40
0.0
 40
0.0
 40
0.1599365945527955
 40
0.320478234963129
 40
0.4327831140154433
 40
0.5446248701610644
 40
0.6577837919875137
 40
0.771252039067093
 40
1.0
 40
1.0
 40
1.0
 40
1.0
 10
419.7593755944993
 20
277.9923888392998
 30
0.0
 10
420.0635524725396
 20
277.3607590437066
 30
0.0
 10
420.673056940629
 20
276.0951099744125
 30
0.0
 10
421.3722099387148
 20
274.6433038144097
 30
0.0
 10
422.048776162508
 20
273.2383995745051
 30
0.0
 10
422.7390409867328
 20
271.805049897701
 30
0.0
 10
423.5370230057995
 20
270.1480231610289
 30
0.0
 10
424.6748477079546
 20
267.7853058214554
 30
0.0
 10
425.5591719592985
 20
265.9489875920321
 30
0.0
 10
426.1502818031988
 20
264.7215353534485
 30
0.0
  0
SPLINE
  5
C5
330
1F
100
AcDbEntity
  8
0
  6
Continuous
 62
     7
370
    25
100
AcDbSpline
210
0.0
220
0.0
230
1.0
 70
    24
 71
     3
 72
    13
 73
     9
 74
     0
 42
0.00000001
 43
0.00000001
 40
0.0
 40
0.0
 40
0.0
 40
0.0
 40
0.1649272304776908
 40
0.3291782252302811
 40
0.5219202432988939
 40
0.6820453210982795
 40
0.8413177176944868
 40
1.0
 40
1.0
 40
1.0
 40
1.0
 10
449.3093447453202
 20
293.7620817403033
 30
0.0
 10
448.3547481763272
 20
293.9799621778512
 30
0.0
 10
446.4494690815294
 20
294.4148296981307
 30
0.0
 10
443.4748502850267
 20
295.0937670272308
 30
0.0
 10
440.7620845744746
 20
295.7129380982136
 30
0.0
 10
438.7231696116056
 20
296.1783071333248
 30
0.0
 10
436.98581727507
 20
296.5748464668555
 30
0.0
 10
435.6271711196671
 20
296.8849485858315
 30
0.0
 10
434.9491088451014
 20
297.0397118752313
 30
0.0
  0
CIRCLE
  5
C6
330
1F
100
AcDbEntity
  8
0
  6
Continuous
 62
     7
370
    25
100
AcDbCircle
 10
403.9742798324
 20
306.1609481943
 30
0.0
 40
57.0
  0
SPLINE
  5
C7
330
1F
100
AcDbEntity
  8
0
  6
Continuous
 62
     7
370
    25
100
AcDbSpline
210
0.0
220
0.0
230
1.0
 70
     8
 71
     3
 72
    17
 73
    13
 74
     0
 42
0.00000001
 43
0.00000001
 40
0.0
 40
0.0
 40
0.0
 40
0.0
 40
0.1455223921505467
 40
0.2624588275806998
 40
0.3598828361522082
 40
0.4578119450664188
 40
0.5434089571657931
 40
0.6239661829574467
 40
0.7083342836252703
 40
0.8033999298611112
 40
0.9148734637124012
 40
1.0
 40
1.0
 40
1.0
 40
1.0
 10
380.9844834796307
 20
327.0527950168277
 30
0.0
 10
381.1798242289848
 20
326.8563888890343
 30
0.0
 10
381.5321336110431
 20
326.5021580296559
 30
0.0
 10
381.7516493010536
 20
325.7901611294638
 30
0.0
 10
381.7381467407442
 20
325.108932108778
 30
0.0
 10
381.5117889109569
 20
324.492409318965
 30
0.0
 10
381.1186691035526
 20
324.0035590240379
 30
0.0
 10
380.639035176624
 20
323.6747265582009
 30
0.0
 10
380.0924110585295
 20
323.4924999804929
 30
0.0
 10
379.4868566988384
 20
323.4735776574465
 30
0.0
 10
378.9274219007872
 20
323.6243976827437
 30
0.0
 10
378.6225372982497
 20
323.8344973248601
 30
0.0
 10
378.4905242721958
 20
323.9254690869555
 30
0.0
  0
SPLINE
  5
C8
330
1F
100
AcDbEntity
  8
0
  6
Continuous
 62
     7
370
    25
100
AcDbSpline
210
0.0
220
0.0
230
1.0
 70
     8
 71
     3
 72
    17
 73
    13
 74
     0
 42
0.00000001
 43
0.00000001
 40
0.0
 40
0.0
 40
0.0
 40
0.0
 40
0.1455223921505457
 40
0.2624588275806998
 40
0.359882836152207
 40
0.4578119450664185
 40
0.5434089571657916
 40
0.6239661829574455
 40
0.7083342836252698
 40
0.8033999298611096
 40
0.9148734637124005
 40
0.9999999999999999
 40
0.9999999999999999
 40
0.9999999999999999
 40
0.9999999999999999
 10
405.9742798324218
 20
337.1609481942709
 30
0.0
 10
405.942516303473
 20
336.8857674289153
 30
0.0
 10
405.8852287723618
 20
336.3894615341271
 30
0.0
 10
405.4654329744415
 20
335.7739144505564
 30
0.0
 10
404.9244079706466
 20
335.3597318301724
 30
0.0
 10
404.3012592454685
 20
335.1523098357413
 30
0.0
 10
403.6739545038554
 20
335.1548701040291
 30
0.0
 10
403.117816067541
 20
335.3248393191923
 30
0.0
 10
402.6345310290646
 20
335.6385908509662
 30
0.0
 10
402.2421799934469
 20
336.1002344382716
 30
0.0
 10
402.0112939460212
 20
336.6316529234651
 30
0.0
 10
401.9854640202571
 20
337.0010162884824
 30
0.0
 10
401.9742798324218
 20
337.1609481942708
 30
0.0
  0
SPLINE
  5
C9
330
1F
100
AcDbEntity
  8
0
  6
Continuous
 62
     7
370
    25
100
AcDbSpline
210
0.0
220
0.0
230
1.0
 70
     8
 71
     3
 72
    17
 73
    13
 74
     0
 42
0.00000001
 43
0.00000001
 40
0.0
 40
0.0
 40
0.0
 40
0.0
 40
0.1455223921505464
 40
0.2624588275807
 40
0.3598828361522082
 40
0.4578119450664193
 40
0.5434089571657915
 40
0.6239661829574457
 40
0.7083342836252703
 40
0.8033999298611111
 40
0.9148734637123997
 40
0.9999999999999999
 40
0.9999999999999999
 40
0.9999999999999999
 40
0.9999999999999999
 10
429.4580353926484
 20
323.9254690869558
 30
0.0
 10
429.2230861705531
 20
323.7787304130153
 30
0.0
 10
428.7993404056518
 20
323.5140779443881
 30
0.0
 10
428.0563479179083
 20
323.4585001862399
 30
0.0
 10
427.3952033333843
 20
323.6232519270925
 30
0.0
 10
426.844507412792
 20
323.9811237204876
 30
0.0
 10
426.4553910020896
 20
324.4731666177496
 30
0.0
 10
426.2415316420908
 20
325.013947228155
 30
0.0
 10
426.1855091744233
 20
325.5874155666202
 30
0.0
 10
426.3018097952018
 20
326.1819980272234
 30
0.0
 10
426.5733344013301
 20
326.6938460140008
 30
0.0
 10
426.8460096132743
 20
326.9443349544215
 30
0.0
 10
426.9640761852134
 20
327.0527950168279
 30
0.0
  0
SPLINE
  5
CA
330
1F
100
AcDbEntity
  8
0
  6
Continuous
 62
     7
370
    25
100
AcDbSpline
210
0.0
220
0.0
230
1.0
 70
     8
 71
     3
 72
    17
 73
    13
 74
     0
 42
0.00000001
 43
0.00000001
 40
0.0
 40
0.0
 40
0.0
 40
0.0
 40
0.1455223921505468
 40
0.2624588275807006
 40
0.359882836152208
 40
0.4578119450664188
 40
0.5434089571657926
 40
0.623966182957446
 40
0.7083342836252697
 40
0.8033999298611111
 40
0.9148734637124007
 40
1.0
 40
1.0
 40
1.0
 40
1.0
 10
433.7520032421461
 20
297.3129434172617
 30
0.0
 10
433.4907898832329
 20
297.405144049137
 30
0.0
 10
433.0196750883504
 20
297.5714337134736
 30
0.0
 10
432.5129744083393
 20
298.117676466213
 30
0.0
 10
432.2295656001246
 20
298.7373011471173
 30
0.0
 10
432.1660077444737
 20
299.3909819686577
 30
0.0
 10
432.3080922584691
 20
300.0019891574097
 30
0.0
 10
432.5975524348009
 20
300.506362333508
 30
0.0
 10
433.010978598746
 20
300.9077141231779
 30
0.0
 10
433.5483541363741
 20
301.1875027369729
 30
0.0
 10
434.1178258295492
 20
301.2943482514946
 30
0.0
 10
434.4836761830471
 20
301.2373394861388
 30
0.0
 10
434.6420869779714
 20
301.2126550659891
 30
0.0
  0
SPLINE
  5
CB
330
1F
100
AcDbEntity
  8
0
  6
Continuous
 62
     7
370
    25
100
AcDbSpline
210
0.0
220
0.0
230
1.0
 70
     8
 71
     3
 72
    17
 73
    13
 74
     0
 42
0.00000001
 43
0.00000001
 40
0.0
 40
0.0
 40
0.0
 40
0.0
 40
0.1455223921505461
 40
0.2624588275806989
 40
0.3598828361522078
 40
0.4578119450664187
 40
0.5434089571657915
 40
0.6239661829574454
 40
0.708334283625269
 40
0.8033999298611104
 40
0.9148734637124006
 40
0.9999999999999999
 40
0.9999999999999999
 40
0.9999999999999999
 40
0.9999999999999999
 10
415.6227380092618
 20
277.3631458110608
 30
0.0
 10
415.5319595005736
 20
277.6248567923996
 30
0.0
 10
415.3682347252471
 20
278.0968690807636
 30
0.0
 10
415.479381799827
 20
278.8336004102564
 30
0.0
 10
415.7871213809933
 20
279.4415080084513
 30
0.0
 10
416.2585619519328
 20
279.8987628668585
 30
0.0
 10
416.8248548535916
 20
280.168633471695
 30
0.0
 10
417.3996651495647
 20
280.2567959245463
 30
0.0
 10
417.9712216113149
 20
280.1838050817149
 30
0.0
 10
418.5250173254955
 20
279.9381133158664
 30
0.0
 10
418.963612305651
 20
279.5594995064465
 30
0.0
 10
419.1471450225314
 20
279.2379217983938
 30
0.0
 10
419.2266134808715
 20
279.0986807675311
 30
0.0
  0
SPLINE
  5
CC
330
1F
100
AcDbEntity
  8
0
  6
Continuous
 62
     7
370
    25
100
AcDbSpline
210
0.0
220
0.0
230
1.0
 70
     8
 71
     3
 72
    17
 73
    13
 74
     0
 42
0.00000001
 43
0.00000001
 40
0.0
 40
0.0
 40
0.0
 40
0.0
 40
0.1455223921505459
 40
0.2624588275806997
 40
0.359882836152208
 40
0.4578119450664185
 40
0.5434089571657917
 40
0.6239661829574453
 40
0.7083342836252696
 40
0.8033999298611102
 40
0.9148734637124006
 40
1.0
 40
1.0
 40
1.0
 40
1.0
 10
388.7219461839732
 20
279.0986807675309
 30
0.0
 10
388.8699605940964
 20
279.3328283914541
 30
0.0
 10
389.1369139335234
 20
279.7551284234113
 30
0.0
 10
389.7822127485484
 20
280.1275746119691
 30
0.0
 10
390.4493665377341
 20
280.2659983069587
 30
0.0
 10
391.1008011697117
 20
280.1825049675527
 30
0.0
 10
391.6648723538147
 20
279.9080209186747
 30
0.0
 10
392.0921888925681
 20
279.5135845230957
 30
0.0
 10
392.3914819787984
 20
279.021214641157
 30
0.0
 10
392.5446784013795
 20
278.4350534065476
 30
0.0
 10
392.5221257027512
 20
277.8560841939933
 30
0.0
 10
392.3851369038181
 20
277.5120921163974
 30
0.0
 10
392.3258216555828
 20
277.3631458110607
 30
0.0
  0
SPLINE
  5
CD
330
1F
100
AcDbEntity
  8
0
  6
Continuous
 62
     7
370
    25
100
AcDbSpline
210
0.0
220
0.0
230
1.0
 70
     8
 71
     3
 72
    17
 73
    13
 74
     0
 42
0.00000001
 43
0.00000001
 40
0.0
 40
0.0
 40
0.0
 40
0.0
 40
0.1455223921505462
 40
0.2624588275806997
 40
0.3598828361522084
 40
0.4578119450664183
 40
0.5434089571657915
 40
0.623966182957446
 40
0.7083342836252692
 40
0.8033999298611109
 40
0.9148734637124011
 40
1.0
 40
1.0
 40
1.0
 40
1.0
 10
373.306472686873
 20
301.2126550659887
 30
0.0
 10
373.5818221460412
 20
301.2429213959409
 30
0.0
 10
374.0784322907775
 20
301.2975086340769
 30
0.0
 10
374.7719596768368
 20
301.025210105198
 30
0.0
 10
375.296147263328
 20
300.5899140313263
 30
0.0
 10
375.6370323916195
 20
300.0285446816335
 30
0.0
 10
375.774124751582
 20
299.4163980663004
 30
0.0
 10
375.7321694637656
 20
298.8363814731983
 30
0.0
 10
375.5338253760781
 20
298.2953971157673
 30
0.0
 10
375.1710624762188
 20
297.810157777568
 30
0.0
 10
374.7043447408649
 20
297.4668087877525
 30
0.0
 10
374.3499897857772
 20
297.3594353912026
 30
0.0
 10
374.1965564226983
 20
297.3129434172615
 30
0.0
  0
SPLINE
  5
CE
330
1F
100
AcDbEntity
  8
0
  6
Continuous
 62
     7
370
    25
100
AcDbSpline
210
0.0
220
0.0
230
1.0
 70
    11
 71
     3
 72
    26
 73
    22
 74
     0
 42
0.00000001
 43
0.00000001
 40
0.0
 40
0.0
 40
0.0
 40
0.0
 40
0.0535972164200068
 40
0.1071921782483997
 40
0.1608597534174717
 40
0.2147094977664127
 40
0.2686478624799093
 40
0.3224381663529161
 40
0.3759329881741657
 40
0.4292427722145618
 40
0.482644997917489
 40
0.5363313024995328
 40
0.5902427041024133
 40
0.6441475424480739
 40
0.6978798079301016
 40
0.7514722617449181
 40
0.8050492353698597
 40
0.8586625397260982
 40
0.912290074165448
 40
0.9659177767677235
 40
1.0
 40
1.0
 40
1.0
 40
1.0
 10
388.5732525490333
 20
301.4428576142254
 30
0.0
 10
388.4552325111395
 20
301.3214287844312
 30
0.0
 10
388.2191973999193
 20
301.0785762328027
 30
0.0
 10
387.7379769997643
 20
300.8888522756118
 30
0.0
 10
387.2281614721833
 20
300.8588542214034
 30
0.0
 10
386.734333990289
 20
301.0020559394361
 30
0.0
 10
386.3157447058902
 20
301.3006896120789
 30
0.0
 10
386.0200623424533
 20
301.7212555757421
 30
0.0
 10
385.8808062057527
 20
302.2144144980565
 30
0.0
 10
385.9118705690415
 20
302.724327797254
 30
0.0
 10
386.1089291310518
 20
303.1954581020473
 30
0.0
 10
386.4511943033388
 20
303.5763442484887
 30
0.0
 10
386.9017536218748
 20
303.8233436550468
 30
0.0
 10
387.4095020795006
 20
303.9069327228094
 30
0.0
 10
387.9157524337867
 20
303.8173980977163
 30
0.0
 10
388.3631084003469
 20
303.5656288479096
 30
0.0
 10
388.7016637154508
 20
303.1804555870286
 30
0.0
 10
388.8942497274928
 20
302.704352137509
 30
0.0
 10
388.9166872778861
 20
302.193055562542
 30
0.0
 10
388.7922754169404
 20
301.7564646168576
 30
0.0
 10
388.6345437433686
 20
301.5306171615592
 30
0.0
 10
388.5732525490333
 20
301.4428576142254
 30
0.0
  0
SPLINE
  5
CF
330
1F
100
AcDbEntity
  8
0
  6
Continuous
 62
     7
370
    25
100
AcDbSpline
210
0.0
220
0.0
230
1.0
 70
    11
 71
     3
 72
    26
 73
    22
 74
     0
 42
0.00000001
 43
0.00000001
 40
0.0
 40
0.0
 40
0.0
 40
0.0
 40
0.0535972164200074
 40
0.1071921782484004
 40
0.1608597534174715
 40
0.2147094977664133
 40
0.2686478624799097
 40
0.3224381663529169
 40
0.3759329881741661
 40
0.429242772214562
 40
0.4826449979174898
 40
0.5363313024995335
 40
0.5902427041024138
 40
0.6441475424480746
 40
0.697879807930102
 40
0.7514722617449188
 40
0.8050492353698603
 40
0.858662539726099
 40
0.9122900741654486
 40
0.9659177767677245
 40
1.0
 40
1.0
 40
1.0
 40
1.0
 10
412.0011290060971
 20
292.1959307417834
 30
0.0
 10
412.1457752906646
 20
292.1078901692591
 30
0.0
 10
412.4350617751872
 20
291.9318127276777
 30
0.0
 10
412.7271105695434
 20
291.5048750798032
 30
0.0
 10
412.8698011372451
 20
291.0145168869402
 30
0.0
 10
412.840076737747
 20
290.5012053109981
 30
0.0
 10
412.6420753132787
 20
290.0266586901502
 30
0.0
 10
412.2978493320562
 20
289.6448049698711
 30
0.0
 10
411.8480423391482
 20
289.3993020912768
 30
0.0
 10
411.3440011598361
 20
289.3161212225471
 30
0.0
 10
410.8408334201557
 20
289.4034027595476
 30
0.0
 10
410.3933357188285
 20
289.6523314883407
 30
0.0
 10
410.0522702227194
 20
290.0366318054412
 30
0.0
 10
409.8577922463986
 20
290.5130496317207
 30
0.0
 10
409.8324307498572
 20
291.0265305610634
 30
0.0
 10
409.9783415514328
 20
291.5186943081524
 30
0.0
 10
410.278522069579
 20
291.934470448411
 30
0.0
 10
410.6998341923352
 20
292.2281709112934
 30
0.0
 10
411.1933186700043
 20
292.3638200968431
 30
0.0
 10
411.6466476126508
 20
292.3396781259912
 30
0.0
 10
411.9019312000341
 20
292.2361569014757
 30
0.0
 10
412.0011290060971
 20
292.1959307417834
 30
0.0
  0
SPLINE
  5
D0
330
1F
100
AcDbEntity
  8
0
  6
Continuous
 62
     7
370
    25
100
AcDbSpline
210
0.0
220
0.0
230
1.0
 70
    11
 71
     3
 72
    26
 73
    22
 74
     0
 42
0.00000001
 43
0.00000001
 40
0.0
 40
0.0
 40
0.0
 40
0.0
 40
0.0535972164200073
 40
0.107192178248401
 40
0.1608597534174723
 40
0.2147094977664139
 40
0.2686478624799101
 40
0.3224381663529172
 40
0.3759329881741664
 40
0.4292427722145618
 40
0.4826449979174898
 40
0.5363313024995333
 40
0.5902427041024139
 40
0.6441475424480748
 40
0.6978798079301022
 40
0.7514722617449188
 40
0.8050492353698602
 40
0.8586625397260991
 40
0.9122900741654488
 40
0.9659177767677247
 40
1.0
 40
1.0
 40
1.0
 40
1.0
 10
415.8030231661058
 20
317.0940562268039
 30
0.0
 10
415.856669551329
 20
317.2546667974464
 30
0.0
 10
415.9639600651154
 20
317.5758811825737
 30
0.0
 10
416.3152065243085
 20
317.9556102680567
 30
0.0
 10
416.761518775106
 20
318.2038382483632
 30
0.0
 10
417.2685748592755
 20
318.2890816729089
 30
0.0
 10
417.7752830674692
 20
318.2016411148198
 30
0.0
 10
418.2241604045734
 20
317.9510160440991
 30
0.0
 10
418.5635994855978
 20
317.5671161814523
 30
0.0
 10
418.756854550255
 20
317.0942218514489
 30
0.0
 10
418.7837266989854
 20
316.5842476083945
 30
0.0
 10
418.6406167395837
 20
316.0925777555139
 30
0.0
 10
418.3418458465166
 20
315.674548617994
 30
0.0
 10
417.9206482307405
 20
315.3789336709171
 30
0.0
 10
417.4256848042482
 20
315.2399477840781
 30
0.0
 10
416.9133924220063
 20
315.2726835605613
 30
0.0
 10
416.4412442083956
 20
315.4728190313481
 30
0.0
 10
416.0611566622679
 20
315.8182134782598
 30
0.0
 10
415.8190978581468
 20
316.2691404863089
 30
0.0
 10
415.7417593596783
 20
316.7164756197963
 30
0.0
 10
415.7858791486735
 20
316.9883943542218
 30
0.0
 10
415.8030231661058
 20
317.0940562268039
 30
0.0
  0
SPLINE
  5
D1
330
1F
100
AcDbEntity
  8
0
  6
Continuous
 62
     7
370
    25
100
AcDbSpline
210
0.0
220
0.0
230
1.0
 70
    11
 71
     3
 72
    26
 73
    22
 74
     0
 42
0.00000001
 43
0.00000001
 40
0.0
 40
0.0
 40
0.0
 40
0.0
 40
0.056488554192174
 40
0.1128994301864613
 40
0.1712256558510518
 40
0.2300375349559334
 40
0.286706489655528
 40
0.3395363008404827
 40
0.3890615100952074
 40
0.4374690463182138
 40
0.4871682267512786
 40
0.5398630249433323
 40
0.5960305847835253
 40
0.6545948261961394
 40
0.7132408736152339
 40
0.7696720731029093
 40
0.8229238449446323
 40
0.8735646339153891
 40
0.9230009993634082
 40
0.9728027922198383
 40
1.0
 40
1.0
 40
1.0
 40
1.0
 10
381.3578414225264
 20
300.1969559774606
 30
0.0
 10
381.2752765837106
 20
300.1129206938285
 30
0.0
 10
381.1102604421391
 20
299.9449656846534
 30
0.0
 10
380.7760222419895
 20
299.8210825333657
 30
0.0
 10
380.4201837448482
 20
299.8106009299128
 30
0.0
 10
380.0764624317322
 20
299.9290463575889
 30
0.0
 10
379.798971496916
 20
300.1586041908831
 30
0.0
 10
379.6237618982534
 20
300.4587341555401
 30
0.0
 10
379.5597309055916
 20
300.7835930374125
 30
0.0
 10
379.5992801227683
 20
301.101821757799
 30
0.0
 10
379.7350766146961
 20
301.3926480808647
 30
0.0
 10
379.9618611100981
 20
301.6331612212904
 30
0.0
 10
380.2672854664306
 20
301.7930663476691
 30
0.0
 10
380.6216592493675
 20
301.8411254778108
 30
0.0
 10
380.97635590275
 20
301.7605459972319
 30
0.0
 10
381.2772101143611
 20
301.562150380615
 30
0.0
 10
381.4849297615953
 20
301.2812874705842
 30
0.0
 10
381.584394235499
 20
300.9593712365569
 30
0.0
 10
381.5749987358853
 20
300.6326288078656
 30
0.0
 10
381.4847256263524
 20
300.3737580240074
 30
0.0
 10
381.3909606320246
 20
300.2431047008062
 30
0.0
 10
381.3578414225264
 20
300.1969559774606
 30
0.0
  0
SPLINE
  5
D2
330
1F
100
AcDbEntity
  8
0
  6
Continuous
 62
     7
370
    25
100
AcDbSpline
210
0.0
220
0.0
230
1.0
 70
    11
 71
     3
 72
    26
 73
    22
 74
     0
 42
0.00000001
 43
0.00000001
 40
0.0
 40
0.0
 40
0.0
 40
0.0
 40
0.0564885541921735
 40
0.1128994301864608
 40
0.1712256558510513
 40
0.2300375349559329
 40
0.2867064896555276
 40
0.3395363008404826
 40
0.3890615100952076
 40
0.4374690463182137
 40
0.4871682267512789
 40
0.5398630249433318
 40
0.5960305847835253
 40
0.6545948261961394
 40
0.7132408736152335
 40
0.769672073102909
 40
0.8229238449446323
 40
0.8735646339153882
 40
0.9230009993634074
 40
0.9728027922198381
 40
1.0
 40
1.0
 40
1.0
 40
1.0
 10
414.8213733103613
 20
285.4386642325153
 30
0.0
 10
414.9216740590276
 20
285.3768690763881
 30
0.0
 10
415.1221376314033
 20
285.2533637395137
 30
0.0
 10
415.317289769904
 20
284.9550721833964
 30
0.0
 10
415.4066900923962
 20
284.6104876764942
 30
0.0
 10
415.3676995264997
 20
284.2490275871363
 30
0.0
 10
415.2056447293409
 20
283.927412505945
 30
0.0
 10
414.9520274530471
 20
283.6898105776829
 30
0.0
 10
414.6495616978789
 20
283.5550970738939
 30
0.0
 10
414.3305111071728
 20
283.5228421575522
 30
0.0
 10
414.0167588450071
 20
283.5905190028815
 30
0.0
 10
413.7318115734358
 20
283.7580983288627
 30
0.0
 10
413.5079522894041
 20
284.0202828208451
 30
0.0
 10
413.3822425168451
 20
284.3550775506515
 30
0.0
 10
413.3818742710287
 20
284.7188118396678
 30
0.0
 10
413.5083493351707
 20
285.0562701859674
 30
0.0
 10
413.7359484557526
 20
285.3212797450182
 30
0.0
 10
414.0276606500619
 20
285.4898835379488
 30
0.0
 10
414.3483016592361
 20
285.5534306335222
 30
0.0
 10
414.6207696687122
 20
285.5230250279172
 30
0.0
 10
414.7690119144306
 20
285.4606840172648
 30
0.0
 10
414.8213733103613
 20
285.4386642325153
 30
0.0
  0
SPLINE
  5
D3
330
1F
100
AcDbEntity
  8
0
  6
Continuous
 62
     7
370
    25
100
AcDbSpline
210
0.0
220
0.0
230
1.0
 70
    11
 71
     3
 72
    26
 73
    22
 74
     0
 42
0.00000001
 43
0.00000001
 40
0.0
 40
0.0
 40
0.0
 40
0.0
 40
0.0564885541921732
 40
0.1128994301864614
 40
0.171225655851052
 40
0.2300375349559335
 40
0.2867064896555284
 40
0.3395363008404826
 40
0.3890615100952091
 40
0.437469046318215
 40
0.48716822675128
 40
0.5398630249433325
 40
0.5960305847835259
 40
0.6545948261961403
 40
0.7132408736152342
 40
0.76967207310291
 40
0.8229238449446332
 40
0.8735646339153887
 40
0.9230009993634088
 40
0.9728027922198393
 40
1.0
 40
1.0
 40
1.0
 40
1.0
 10
421.7633074994729
 20
321.347224372837
 30
0.0
 10
421.8012343057493
 20
321.4587610881799
 30
0.0
 10
421.8770357646222
 20
321.6816811431746
 30
0.0
 10
422.1244230925264
 20
321.9383165257794
 30
0.0
 10
422.4404747031537
 20
322.1021526618379
 30
0.0
 10
422.8015484505473
 20
322.1445721075054
 30
0.0
 10
423.1511605549952
 20
322.0581464506935
 30
0.0
 10
423.4392404600346
 20
321.8637592920098
 30
0.0
 10
423.6378813773561
 20
321.5988535594968
 30
0.0
 10
423.7403230310258
 20
321.2949796273283
 30
0.0
 10
423.7441594319141
 20
320.9740342746029
 30
0.0
 10
423.6441884025087
 20
320.658941317919
 30
0.0
 10
423.4383908000913
 20
320.3823531154906
 30
0.0
 10
423.1399631291489
 20
320.1852963134286
 30
0.0
 10
422.7854303605724
 20
320.1039988065999
 30
0.0
 10
422.4282894501711
 20
320.1522113304369
 30
0.0
 10
422.1192786651779
 20
320.3151338912929
 30
0.0
 10
421.889990051426
 20
320.5620143783773
 30
0.0
 10
421.7566868773873
 20
320.8604756889542
 30
0.0
 10
421.7257003150365
 20
321.1328782403259
 30
0.0
 10
421.7534913034262
 20
321.2912759233554
 30
0.0
 10
421.7633074994729
 20
321.347224372837
 30
0.0
  0
SPLINE
  5
D4
330
1F
100
AcDbEntity
  8
0
  6
Continuous
 62
     7
370
    25
100
AcDbSpline
210
0.0
220
0.0
230
1.0
 70
     8
 71
     3
 72
    22
 73
    18
 74
     0
 42
0.00000001
 43
0.00000001
 40
0.0
 40
0.0
 40
0.0
 40
0.0
 40
0.0397003211012275
 40
0.1134355243094691
 40
0.1881134770779574
 40
0.2619711986701825
 40
0.3345451212261227
 40
0.406162487447443
 40
0.4772648119815816
 40
0.5481500003000456
 40
0.618986343157592
 40
0.6899037124886748
 40
0.7610902340069217
 40
0.8328685008582462
 40
0.9056663168670703
 40
0.9797188782555633
 40
1.0
 40
1.0
 40
1.0
 40
1.0
 10
408.9753460741504
 20
299.0103687435851
 30
0.0
 10
409.0923825359181
 20
298.972547325043
 30
0.0
 10
409.4267902191731
 20
298.8644803793998
 30
0.0
 10
409.8676818011483
 20
298.462458415742
 30
0.0
 10
410.2244130170204
 20
297.8686449081721
 30
0.0
 10
410.3524782788979
 20
297.1789675998207
 30
0.0
 10
410.2432603198778
 20
296.4941907207935
 30
0.0
 10
409.9143547468281
 20
295.8899548891247
 30
0.0
 10
409.407082462696
 20
295.4317285622713
 30
0.0
 10
408.7790461825648
 20
295.1673770939002
 30
0.0
 10
408.1003045473234
 20
295.1246304651116
 30
0.0
 10
407.4457141093895
 20
295.3073959777242
 30
0.0
 10
406.888810180556
 20
295.6944847769868
 30
0.0
 10
406.4849121567891
 20
296.2460140291871
 30
0.0
 10
406.3004672430154
 20
296.8970216650502
 30
0.0
 10
406.2857644309888
 20
297.4318842722842
 30
0.0
 10
406.4057276935083
 20
297.69828652411
 30
0.0
 10
406.4315190063376
 20
297.755561256982
 30
0.0
  0
SPLINE
  5
D5
330
1F
100
AcDbEntity
  8
0
  6
Continuous
 62
     7
370
    25
100
AcDbSpline
210
0.0
220
0.0
230
1.0
 70
     8
 71
     3
 72
    22
 73
    18
 74
     0
 42
0.00000001
 43
0.00000001
 40
0.0
 40
0.0
 40
0.0
 40
0.0
 40
0.0319521395346834
 40
0.1074697491138194
 40
0.1839528974061332
 40
0.2595959870149623
 40
0.3339242442210579
 40
0.4072728221874532
 40
0.480093908326915
 40
0.5526926094013425
 40
0.6252412842700121
 40
0.6978729442709911
 40
0.7707802626943151
 40
0.8442936307532167
 40
0.9188511936047377
 40
0.994693832886243
 40
1.0
 40
1.0
 40
1.0
 40
1.0
 10
412.7504577182564
 20
305.6526613998072
 30
0.0
 10
412.8313259734646
 20
305.7054024073036
 30
0.0
 10
413.1033231299949
 20
305.8827946860742
 30
0.0
 10
413.6683174163016
 20
305.9672549281045
 30
0.0
 10
414.3541875353241
 20
305.8777081481738
 30
0.0
 10
414.9734612753577
 20
305.547352943463
 30
0.0
 10
415.4406889741275
 20
305.0351356333467
 30
0.0
 10
415.7080446106826
 20
304.4012191159599
 30
0.0
 10
415.7500190838627
 20
303.7189280969163
 30
0.0
 10
415.5651178503779
 20
303.0630822040798
 30
0.0
 10
415.175373460767
 20
302.5057863601482
 30
0.0
 10
414.6242625291221
 20
302.1078948519901
 30
0.0
 10
413.9747336781149
 20
301.9140776111371
 30
0.0
 10
413.2904436186402
 20
301.941255493939
 30
0.0
 10
412.6712716607104
 20
302.2064340774805
 30
0.0
 10
412.2699564758927
 20
302.4901979387195
 30
0.0
 10
412.1533718496129
 20
302.7052465390371
 30
0.0
 10
412.1457486011954
 20
302.7193081606623
 30
0.0
  0
SPLINE
  5
D6
330
1F
100
AcDbEntity
  8
0
  6
Continuous
 62
     7
370
    25
100
AcDbSpline
210
0.0
220
0.0
230
1.0
 70
     8
 71
     3
 72
    22
 73
    18
 74
     0
 42
0.00000001
 43
0.00000001
 40
0.0
 40
0.0
 40
0.0
 40
0.0
 40
0.0241217545281233
 40
0.0992478720111492
 40
0.1753345227420482
 40
0.2505854697516581
 40
0.3245284006030668
 40
0.3974967309862189
 40
0.4699403041215941
 40
0.5421626450620491
 40
0.614335219138432
 40
0.6865903481425191
 40
0.7591197065235381
 40
0.8322519727081369
 40
0.9064230204577599
 40
0.9818724826512686
 40
1.0
 40
1.0
 40
1.0
 40
1.0
 10
409.8530827655195
 20
312.7743197426635
 30
0.0
 10
409.8605900475939
 20
312.8471182251391
 30
0.0
 10
409.8914784213891
 20
313.1466443007784
 30
0.0
 10
410.1714208171633
 20
313.6188892818554
 30
0.0
 10
410.6670738721384
 20
314.0997952163514
 30
0.0
 10
411.3119948929645
 20
314.3778565222337
 30
0.0
 10
412.0036359880722
 20
314.4238223446417
 30
0.0
 10
412.6659817090852
 20
314.2376002423028
 30
0.0
 10
413.2255792725137
 20
313.8450163224564
 30
0.0
 10
413.6230590740035
 20
313.2915475999177
 30
0.0
 10
413.8157670246345
 20
312.6393398742759
 30
0.0
 10
413.783243564343
 20
311.96047687431
 30
0.0
 10
413.5297851889806
 20
311.3314577147147
 30
0.0
 10
413.0819498297692
 20
310.8147424538635
 30
0.0
 10
412.4883448535152
 20
310.4908862306119
 30
0.0
 10
411.9777748439785
 20
310.3571743809702
 30
0.0
 10
411.6988747322882
 20
310.4124369470523
 30
0.0
 10
411.6448468438271
 20
310.4231422843083
 30
0.0
  0
SPLINE
  5
D7
330
1F
100
AcDbEntity
  8
0
  6
Continuous
 62
     7
370
    25
100
AcDbSpline
210
0.0
220
0.0
230
1.0
 70
     8
 71
     3
 72
    22
 73
    18
 74
     0
 42
0.00000001
 43
0.00000001
 40
0.0
 40
0.0
 40
0.0
 40
0.0
 40
0.0367931029534049
 40
0.1104093009909701
 40
0.1849667270350678
 40
0.2587052457176746
 40
0.3311620373556181
 40
0.4026638164961455
 40
0.4736513852026946
 40
0.5444221681412692
 40
0.6151441844532167
 40
0.6859470964657606
 40
0.7570187262664229
 40
0.8286811463508592
 40
0.9013614700881221
 40
0.9752945141046728
 40
1.0
 40
1.0
 40
1.0
 40
1.0
 10
402.5528898508672
 20
314.792341699539
 30
0.0
 10
402.470447388898
 20
314.8712684852706
 30
0.0
 10
402.2230527994959
 20
315.1081131801343
 30
0.0
 10
402.0051474140375
 20
315.6543955509913
 30
0.0
 10
401.9408961942306
 20
316.343807518647
 30
0.0
 10
402.1248840721151
 20
317.0208503319232
 30
0.0
 10
402.5203653610122
 20
317.5903989932453
 30
0.0
 10
403.0788760446324
 20
317.9920968185689
 30
0.0
 10
403.7347275167911
 20
318.184845144987
 30
0.0
 10
404.4152657282335
 20
318.1505245341481
 30
0.0
 10
405.0453427916025
 20
317.8945383809687
 30
0.0
 10
405.555790444629
 20
317.4458728663371
 30
0.0
 10
405.8896634374848
 20
316.855423843726
 30
0.0
 10
406.0139931682752
 20
316.1835047948096
 30
0.0
 10
405.8987407341451
 20
315.5160383894406
 30
0.0
 10
405.6710296388422
 20
315.0173856811089
 30
0.0
 10
405.4355801020583
 20
314.8215642942189
 30
0.0
 10
405.3766082660499
 20
314.7725179173504
 30
0.0
  0
SPLINE
  5
D8
330
1F
100
AcDbEntity
  8
0
  6
Continuous
 62
     7
370
    25
100
AcDbSpline
210
0.0
220
0.0
230
1.0
 70
     8
 71
     3
 72
    22
 73
    18
 74
     0
 42
0.00000001
 43
0.00000001
 40
0.0
 40
0.0
 40
0.0
 40
0.0
 40
0.0393941738690246
 40
0.1132739451621838
 40
0.1880983144067593
 40
0.2621008442981746
 40
0.3348170580873704
 40
0.406574840080683
 40
0.4778165705762056
 40
0.5488407391304101
 40
0.6198159664554009
 40
0.6908723791175592
 40
0.762198471677047
 40
0.8341174697683482
 40
0.9070580159845721
 40
0.9812557676826777
 40
1.0
 40
1.0
 40
1.0
 40
1.0
 10
396.362429885147
 20
310.4332108936352
 30
0.0
 10
396.241750713312
 20
310.416704286434
 30
0.0
 10
395.8947500137136
 20
310.369241214226
 30
0.0
 10
395.3242600771848
 20
310.5400608412468
 30
0.0
 10
394.7452084636391
 20
310.920207018975
 30
0.0
 10
394.3305863795029
 20
311.486040972134
 30
0.0
 10
394.1318746645378
 20
312.1503858607541
 30
0.0
 10
394.1660403275802
 20
312.8374918075691
 30
0.0
 10
394.4242597206079
 20
313.4704362320053
 30
0.0
 10
394.8754037298797
 20
313.9811036313369
 30
0.0
 10
395.4683792311884
 20
314.3141114892094
 30
0.0
 10
396.137453223324
 20
314.4334633063763
 30
0.0
 10
396.8071225365115
 20
314.3263335196635
 30
0.0
 10
397.4104552851051
 20
314.0046917780808
 30
0.0
 10
397.8585866923416
 20
313.4980897286619
 30
0.0
 10
398.1030445263243
 20
313.0273141382161
 30
0.0
 10
398.1109779431036
 20
312.7402160677695
 30
0.0
 10
398.112577928393
 20
312.6823150773041
 30
0.0
  0
SPLINE
  5
D9
330
1F
100
AcDbEntity
  8
0
  6
Continuous
 62
     7
370
    25
100
AcDbSpline
210
0.0
220
0.0
230
1.0
 70
     8
 71
     3
 72
    22
 73
    18
 74
     0
 42
0.00000001
 43
0.00000001
 40
0.0
 40
0.0
 40
0.0
 40
0.0
 40
0.029574694830405
 40
0.1055178899162456
 40
0.1824320650856253
 40
0.258501447353866
 40
0.3332485873765896
 40
0.4070105270991883
 40
0.4802420022726273
 40
0.553249839112277
 40
0.626207367819499
 40
0.6992483493283568
 40
0.7725665427545654
 40
0.8464942012573689
 40
0.9214719391957559
 40
0.9977419957147554
 40
1.0
 40
1.0
 40
1.0
 40
1.0
 10
395.8339869484689
 20
302.7919677122775
 30
0.0
 10
395.7878277287663
 20
302.7160714272555
 30
0.0
 10
395.6231388455458
 20
302.4452853415856
 30
0.0
 10
395.1558251147003
 20
302.1296990181395
 30
0.0
 10
394.499516276418
 20
301.9123790895266
 30
0.0
 10
393.7981037297727
 20
301.9414350561876
 30
0.0
 10
393.154937482066
 20
302.2001758368747
 30
0.0
 10
392.6390034109419
 20
302.6553212401667
 30
0.0
 10
392.3051528594809
 20
303.251829713139
 30
0.0
 10
392.1871825531265
 20
303.9229543547225
 30
0.0
 10
392.2965251764553
 20
304.5941576729388
 30
0.0
 10
392.6204333701164
 20
305.1917879537988
 30
0.0
 10
393.1214952806853
 20
305.6481399172837
 30
0.0
 10
393.7499975756367
 20
305.9209013254789
 30
0.0
 10
394.4221991206651
 20
305.9493153943005
 30
0.0
 10
394.8991864737593
 20
305.8727609343707
 30
0.0
 10
395.0906851319039
 20
305.7361707950806
 30
0.0
 10
395.0961915048652
 20
305.7322432675614
 30
0.0
  0
SPLINE
  5
DA
330
1F
100
AcDbEntity
  8
0
  6
Continuous
 62
     7
370
    25
100
AcDbSpline
210
0.0
220
0.0
230
1.0
 70
     8
 71
     3
 72
    22
 73
    18
 74
     0
 42
0.00000001
 43
0.00000001
 40
0.0
 40
0.0
 40
0.0
 40
0.0
 40
0.024794251490949
 40
0.099715416029028
 40
0.175594493366533
 40
0.2506401468814646
 40
0.3243813526611703
 40
0.3971506167981093
 40
0.4693965552871847
 40
0.5414218651289662
 40
0.6133975438765749
 40
0.6854555523322678
 40
0.7577870420346791
 40
0.8307197947367855
 40
0.9046884950847929
 40
0.9799321222106938
 40
1.0
 40
1.0
 40
1.0
 40
1.0
 10
401.5450440352519
 20
297.6581759773791
 30
0.0
 10
401.5706862183975
 20
297.5872284169012
 30
0.0
 10
401.6738117739802
 20
297.3018975404324
 30
0.0
 10
401.6268933345937
 20
296.7527705000634
 30
0.0
 10
401.3887733976322
 20
296.1043906926627
 30
0.0
 10
400.9284214240416
 20
295.5740567010583
 30
0.0
 10
400.3252036162336
 20
295.2325481500353
 30
0.0
 10
399.6476558397687
 20
295.1129481497764
 30
0.0
 10
398.9731389758534
 20
295.223853764878
 30
0.0
 10
398.3748815798411
 20
295.5500510877866
 30
0.0
 10
397.9182740476159
 20
296.0540600584923
 30
0.0
 10
397.6530338236146
 20
296.6797947621492
 30
0.0
 10
397.6084528994435
 20
297.356534722783
 30
0.0
 10
397.787811752957
 20
298.016229389272
 30
0.0
 10
398.1818581792147
 20
298.5661722251923
 30
0.0
 10
398.5893700923012
 20
298.910508102365
 30
0.0
 10
398.8707800186288
 20
298.9825837101121
 30
0.0
 10
398.9300309979861
 20
298.9977592598964
 30
0.0
  0
SPLINE
  5
DB
330
1F
100
AcDbEntity
  8
0
  6
Continuous
 62
     7
370
    25
100
AcDbSpline
210
0.0
220
0.0
230
1.0
 70
    11
 71
     3
 72
    26
 73
    22
 74
     0
 42
0.00000001
 43
0.00000001
 40
0.0
 40
0.0
 40
0.0
 40
0.0
 40
0.0535972164200075
 40
0.1071921782484002
 40
0.1608597534174722
 40
0.2147094977664131
 40
0.2686478624799099
 40
0.3224381663529168
 40
0.3759329881741656
 40
0.4292427722145618
 40
0.4826449979174893
 40
0.5363313024995331
 40
0.5902427041024138
 40
0.6441475424480742
 40
0.6978798079301021
 40
0.7514722617449182
 40
0.8050492353698601
 40
0.8586625397260986
 40
0.9122900741654482
 40
0.9659177767677241
 40
1.0
 40
1.0
 40
1.0
 40
1.0
 10
390.6831446304657
 20
315.2602748258694
 30
0.0
 10
390.5146234584116
 20
315.2768369700285
 30
0.0
 10
390.1775882032243
 20
315.3099605616525
 30
0.0
 10
389.7292200285711
 20
315.5679028680228
 30
0.0
 10
389.3879018231023
 20
315.947789216862
 30
0.0
 10
389.191965035765
 20
316.423163899917
 30
0.0
 10
389.1644600927722
 20
316.9366252300682
 30
0.0
 10
389.3089168654262
 20
317.4300175999666
 30
0.0
 10
389.6076592556725
 20
317.8463719905246
 30
0.0
 10
390.0256938400261
 20
318.1400106352044
 30
0.0
 10
390.5169023484406
 20
318.2796889879201
 30
0.0
 10
391.0280899734168
 20
318.2495739288492
 30
0.0
 10
391.5021210258545
 20
318.0513140799526
 30
0.0
 10
391.8840495758606
 20
317.7064572819031
 30
0.0
 10
392.1296905202765
 20
317.2548308912526
 30
0.0
 10
392.2117712774113
 20
316.74809835305
 30
0.0
 10
392.121716482182
 20
316.2432535490369
 30
0.0
 10
391.8695592309248
 20
315.7958380963343
 30
0.0
 10
391.4838010555865
 20
315.45950751283
 30
0.0
 10
391.0648909827599
 20
315.2845666202918
 30
0.0
 10
390.7899722420702
 20
315.2670726233182
 30
0.0
 10
390.6831446304657
 20
315.2602748258693
 30
0.0
  0
SPLINE
  5
DC
330
1F
100
AcDbEntity
  8
0
  6
Continuous
 62
     7
370
    25
100
AcDbSpline
210
0.0
220
0.0
230
1.0
 70
    11
 71
     3
 72
    26
 73
    22
 74
     0
 42
0.00000001
 43
0.00000001
 40
0.0
 40
0.0
 40
0.0
 40
0.0
 40
0.056488554192173
 40
0.112899430186461
 40
0.1712256558510514
 40
0.2300375349559337
 40
0.286706489655527
 40
0.339536300840483
 40
0.389061510095207
 40
0.4374690463182136
 40
0.487168226751279
 40
0.5398630249433318
 40
0.5960305847835251
 40
0.6545948261961395
 40
0.713240873615233
 40
0.7696720731029095
 40
0.8229238449446323
 40
0.873564633915388
 40
0.923000999363408
 40
0.9728027922198379
 40
1.0
 40
1.0
 40
1.0
 40
1.0
 10
385.2103242531895
 20
320.1247034388805
 30
0.0
 10
385.093144487814
 20
320.1368600868706
 30
0.0
 10
384.8589460925909
 20
320.161156666075
 30
0.0
 10
384.5536962355818
 20
320.3452347321454
 30
0.0
 10
384.3236397139393
 20
320.6169052990245
 30
0.0
 10
384.2019373448415
 20
320.9594869590468
 30
0.0
 10
384.2084001179919
 20
321.3195650759812
 30
0.0
 10
384.3338097752389
 20
321.6436774284421
 30
0.0
 10
384.5478720055186
 20
321.8962850742495
 30
0.0
 10
384.8213317713235
 20
322.0637766129733
 30
0.0
 10
385.1333766744717
 20
322.1389338869189
 30
0.0
 10
385.4628152397067
 20
322.1115841189465
 30
0.0
 10
385.7782630731302
 20
321.9724929572153
 30
0.0
 10
386.0367856538022
 20
321.7253967546835
 30
0.0
 10
386.1949358251821
 20
321.3978432599629
 30
0.0
 10
386.2274034189131
 20
321.0389283219981
 30
0.0
 10
386.1373270352897
 20
320.7014114021388
 30
0.0
 10
385.9476578739357
 20
320.422935456085
 30
0.0
 10
385.6863423583344
 20
320.2265605813527
 30
0.0
 10
385.427664666447
 20
320.1357356466712
 30
0.0
 10
385.2670542673446
 20
320.1275830565951
 30
0.0
 10
385.2103242531895
 20
320.1247034388805
 30
0.0
  0
SPLINE
  5
DD
330
1F
100
AcDbEntity
  8
0
  6
Continuous
 62
     7
370
    25
100
AcDbSpline
210
0.0
220
0.0
230
1.0
 70
    11
 71
     3
 72
    26
 73
    22
 74
     0
 42
0.00000001
 43
0.00000001
 40
0.0
 40
0.0
 40
0.0
 40
0.0
 40
0.0564885541921725
 40
0.1128994301864603
 40
0.1712256558510507
 40
0.2300375349559329
 40
0.2867064896555273
 40
0.339536300840482
 40
0.389061510095207
 40
0.4374690463182133
 40
0.4871682267512781
 40
0.5398630249433308
 40
0.5960305847835246
 40
0.6545948261961402
 40
0.7132408736152333
 40
0.76967207310291
 40
0.8229238449446328
 40
0.8735646339153886
 40
0.9230009993634076
 40
0.9728027922198369
 40
1.0
 40
1.0
 40
1.0
 40
1.0
 10
403.1924483499539
 20
329.5374583924121
 30
0.0
 10
403.128892411378
 20
329.6366527681376
 30
0.0
 10
403.001867930883
 20
329.8349051160204
 30
0.0
 10
402.9554657853047
 20
330.1883298611897
 30
0.0
 10
403.0244284922554
 20
330.5375791204713
 30
0.0
 10
403.2163894333825
 20
330.8463260354506
 30
0.0
 10
403.5019393145007
 20
331.0657782697187
 30
0.0
 10
403.8335321978595
 20
331.1698097978932
 30
0.0
 10
404.1644944256063
 20
331.1599474980857
 30
0.0
 10
404.4659439588256
 20
331.0505773102831
 30
0.0
 10
404.7192610965678
 20
330.8534705748987
 30
0.0
 10
404.9032797726916
 20
330.5788528316448
 30
0.0
 10
404.9912124306751
 20
330.24550386353
 30
0.0
 10
404.9592110329368
 20
329.8893208086751
 30
0.0
 10
404.8017244175893
 20
329.5614477622111
 30
0.0
 10
404.5413566331426
 20
329.3122837717164
 30
0.0
 10
404.2213135727534
 20
329.1722699667729
 30
0.0
 10
403.8853355231871
 20
329.1469323759453
 30
0.0
 10
403.5688759047109
 20
329.228799341163
 30
0.0
 10
403.3365832085236
 20
329.3744132839642
 30
0.0
 10
403.2300703110257
 20
329.4949004936232
 30
0.0
 10
403.1924483499539
 20
329.5374583924121
 30
0.0
  0
SPLINE
  5
DE
330
1F
100
AcDbEntity
  8
0
  6
Continuous
 62
     7
370
    25
100
AcDbSpline
210
0.0
220
0.0
230
1.0
 70
    11
 71
     3
 72
    26
 73
    22
 74
     0
 42
0.00000001
 43
0.00000001
 40
0.0
 40
0.0
 40
0.0
 40
0.0
 40
0.0564885541921732
 40
0.1128994301864611
 40
0.1712256558510517
 40
0.2300375349559328
 40
0.2867064896555276
 40
0.3395363008404821
 40
0.3890615100952075
 40
0.437469046318214
 40
0.4871682267512796
 40
0.539863024943332
 40
0.596030584783525
 40
0.6545948261961392
 40
0.713240873615233
 40
0.7696720731029091
 40
0.8229238449446329
 40
0.8735646339153876
 40
0.9230009993634072
 40
0.9728027922198375
 40
0.9999999999999999
 40
0.9999999999999999
 40
0.9999999999999999
 40
0.9999999999999999
 10
426.9386659856684
 20
301.7214146472219
 30
0.0
 10
427.049515878105
 20
301.7613042805948
 30
0.0
 10
427.2710632317466
 20
301.8410286945499
 30
0.0
 10
427.6259523294396
 20
301.807623037081
 30
0.0
 10
427.9510995346632
 20
301.6626740978161
 30
0.0
 10
428.2093901919738
 20
301.4068233663853
 30
0.0
 10
428.3597994743149
 20
301.0796001008349
 30
0.0
 10
428.3874363567809
 20
300.7331717505572
 30
0.0
 10
428.3041753013978
 20
300.4127020050132
 30
0.0
 10
428.1304684208758
 20
300.1431475973002
 30
0.0
 10
427.8819351967929
 20
299.9400420239282
 30
0.0
 10
427.5732546860379
 20
299.8217452769222
 30
0.0
 10
427.2286966153459
 20
299.81019439798
 30
0.0
 10
426.8885647942344
 20
299.9206516398897
 30
0.0
 10
426.6039562783173
 20
300.1471483535052
 30
0.0
 10
426.4189766318406
 20
300.4564323778685
 30
0.0
 10
426.3536895460146
 20
300.7996072931847
 30
0.0
 10
426.4037493708675
 20
301.1327998159625
 30
0.0
 10
426.5539826502066
 20
301.423108017533
 30
0.0
 10
426.7476357351532
 20
301.6171745002927
 30
0.0
 10
426.8888034283402
 20
301.6942059706478
 30
0.0
 10
426.9386659856684
 20
301.7214146472219
 30
0.0
  0
SPLINE
  5
DF
330
1F
100
AcDbEntity
  8
0
  6
Continuous
 62
     7
370
    25
100
AcDbSpline
210
0.0
220
0.0
230
1.0
 70
    11
 71
     3
 72
    26
 73
    22
 74
     0
 42
0.00000001
 43
0.00000001
 40
0.0
 40
0.0
 40
0.0
 40
0.0
 40
0.0564885541921734
 40
0.112899430186461
 40
0.1712256558510512
 40
0.2300375349559328
 40
0.2867064896555273
 40
0.3395363008404823
 40
0.3890615100952075
 40
0.4374690463182133
 40
0.4871682267512789
 40
0.539863024943332
 40
0.5960305847835252
 40
0.6545948261961396
 40
0.7132408736152337
 40
0.7696720731029095
 40
0.8229238449446329
 40
0.8735646339153886
 40
0.9230009993634077
 40
0.9728027922198383
 40
1.0
 40
1.0
 40
1.0
 40
1.0
 10
394.5359980057827
 20
284.760216298569
 30
0.0
 10
394.5502211011707
 20
284.643269365897
 30
0.0
 10
394.5786477335699
 20
284.4095363159093
 30
0.0
 10
394.4671093722091
 20
284.0709784869389
 30
0.0
 10
394.2534425456991
 20
283.7862375743397
 30
0.0
 10
393.9465314479781
 20
283.5913549467832
 30
0.0
 10
393.5940431388955
 20
283.5175307658401
 30
0.0
 10
393.2501506857407
 20
283.5676743577711
 30
0.0
 10
392.9562431136059
 20
283.720159111745
 30
0.0
 10
392.7321004149634
 20
283.9494922966602
 30
0.0
 10
392.5893909675054
 20
284.2369895158016
 30
0.0
 10
392.5427480424763
 20
284.564254264311
 30
0.0
 10
392.6081581518778
 20
284.9027438571663
 30
0.0
 10
392.7915324506203
 20
285.2097688147572
 30
0.0
 10
393.0756817715152
 20
285.4368413407176
 30
0.0
 10
393.4183732433558
 20
285.5483609912943
 30
0.0
 10
393.7674717903716
 20
285.5356475909045
 30
0.0
 10
394.0811711219779
 20
285.4127005590207
 30
0.0
 10
394.3307706411944
 20
285.2016342895058
 30
0.0
 10
394.4768796067301
 20
284.9696526367178
 30
0.0
 10
394.5205669703631
 20
284.814883197604
 30
0.0
 10
394.5359980057827
 20
284.760216298569
 30
0.0
  0
SPLINE
  5
E0
330
1F
100
AcDbEntity
  8
0
  6
Continuous
 62
     7
370
    25
100
AcDbSpline
210
0.0
220
0.0
230
1.0
 70
    11
 71
     3
 72
    26
 73
    22
 74
     0
 42
0.00000001
 43
0.00000001
 40
0.0
 40
0.0
 40
0.0
 40
0.0
 40
0.0535972164200068
 40
0.1071921782484012
 40
0.1608597534174714
 40
0.2147094977664133
 40
0.2686478624799102
 40
0.3224381663529164
 40
0.3759329881741656
 40
0.4292427722145617
 40
0.4826449979174891
 40
0.5363313024995342
 40
0.5902427041024143
 40
0.6441475424480748
 40
0.6978798079301014
 40
0.7514722617449184
 40
0.8050492353698601
 40
0.8586625397260987
 40
0.9122900741654487
 40
0.9659177767677242
 40
1.0
 40
1.0
 40
1.0
 40
1.0
 10
402.8015326087199
 20
322.2257134914828
 30
0.0
 10
402.7094101822677
 20
322.3677949772371
 30
0.0
 10
402.5251692045356
 20
322.6519519720227
 30
0.0
 10
402.4472836359421
 20
323.1633247241931
 30
0.0
 10
402.5314823229259
 20
323.6670333071348
 30
0.0
 10
402.7809806273928
 20
324.1166141229953
 30
0.0
 10
403.1652718088781
 20
324.4582562563487
 30
0.0
 10
403.6410888214334
 20
324.6529405145786
 30
0.0
 10
404.1528706255369
 20
324.6789670252084
 30
0.0
 10
404.6430868625855
 20
324.5352151267898
 30
0.0
 10
405.0585552917406
 20
324.2382608789138
 30
0.0
 10
405.3537306614717
 20
323.8198218680462
 30
0.0
 10
405.4942783968543
 20
323.3255964736779
 30
0.0
 10
405.4627870511634
 20
322.8119780125443
 30
0.0
 10
405.2628459444019
 20
322.3383437399959
 30
0.0
 10
404.9178430078466
 20
321.9582278501238
 30
0.0
 10
404.4669911998747
 20
321.7138699373577
 30
0.0
 10
403.9599702385855
 20
321.6320554429691
 30
0.0
 10
403.456500111578
 20
321.7239546402
 30
0.0
 10
403.0585396559173
 20
321.942397861033
 30
0.0
 10
402.8734532671693
 20
322.1464306589179
 30
0.0
 10
402.8015326087199
 20
322.2257134914828
 30
0.0
  0
SPLINE
  5
E1
330
1F
100
AcDbEntity
  8
0
  6
Continuous
 62
     7
370
    25
100
AcDbSpline
210
0.0
220
0.0
230
1.0
 70
    11
 71
     3
 72
    26
 73
    22
 74
     0
 42
0.00000001
 43
0.00000001
 40
0.0
 40
0.0
 40
0.0
 40
0.0
 40
0.0535972164200074
 40
0.1071921782484003
 40
0.1608597534174717
 40
0.2147094977664131
 40
0.2686478624799091
 40
0.3224381663529162
 40
0.3759329881741652
 40
0.4292427722145616
 40
0.4826449979174894
 40
0.536331302499533
 40
0.5902427041024136
 40
0.644147542448074
 40
0.6978798079301021
 40
0.7514722617449184
 40
0.80504923536986
 40
0.8586625397260985
 40
0.9122900741654484
 40
0.9659177767677243
 40
1.0
 40
1.0
 40
1.0
 40
1.0
 10
419.8972287308368
 20
303.7295456188673
 30
0.0
 10
420.0562471054756
 20
303.7877422388455
 30
0.0
 10
420.3742771655718
 20
303.9041330307343
 30
0.0
 10
420.890159904657
 20
303.8662747030996
 30
0.0
 10
421.3625034913069
 20
303.672101348672
 30
0.0
 10
421.7452937817403
 20
303.3288173445711
 30
0.0
 10
421.9928574009085
 20
302.878138618743
 30
0.0
 10
422.0767812722931
 20
302.3709300091439
 30
0.0
 10
421.9882730789319
 20
301.8661881999237
 30
0.0
 10
421.7390419658258
 20
301.4202505141144
 30
0.0
 10
421.3570825580456
 20
301.0812772824804
 30
0.0
 10
420.8834519878516
 20
300.8866140150429
 30
0.0
 10
420.3703430426301
 20
300.8595656011644
 30
0.0
 10
419.8766095523137
 20
301.0045582527392
 30
0.0
 10
419.4593413616532
 20
301.3048799591947
 30
0.0
 10
419.165526146413
 20
301.7258166946532
 30
0.0
 10
419.0276187620807
 20
302.219739457471
 30
0.0
 10
419.0606783057217
 20
302.7322537823956
 30
0.0
 10
419.2623060410899
 20
303.2026513669672
 30
0.0
 10
419.5638269665783
 20
303.5420259336192
 30
0.0
 10
419.8039298323236
 20
303.6770702514315
 30
0.0
 10
419.8972287308368
 20
303.7295456188673
 30
0.0
  0
SPLINE
  5
E2
330
1F
100
AcDbEntity
  8
0
  6
Continuous
 62
     7
370
    25
100
AcDbSpline
210
0.0
220
0.0
230
1.0
 70
    11
 71
     3
 72
    26
 73
    22
 74
     0
 42
0.00000001
 43
0.00000001
 40
0.0
 40
0.0
 40
0.0
 40
0.0
 40
0.0535972164200071
 40
0.1071921782483998
 40
0.1608597534174715
 40
0.2147094977664129
 40
0.2686478624799093
 40
0.3224381663529163
 40
0.3759329881741654
 40
0.4292427722145616
 40
0.4826449979174892
 40
0.5363313024995329
 40
0.5902427041024133
 40
0.6441475424480738
 40
0.6978798079301014
 40
0.7514722617449181
 40
0.8050492353698597
 40
0.8586625397260982
 40
0.9122900741654482
 40
0.965917776767724
 40
1.0
 40
1.0
 40
1.0
 40
1.0
 10
398.0606481356965
 20
291.1782588408642
 30
0.0
 10
398.0820007276671
 20
291.0102774226485
 30
0.0
 10
398.1247050134016
 20
290.6743216524329
 30
0.0
 10
397.9730011641688
 20
290.1797974411091
 30
0.0
 10
397.6785898050857
 20
289.7625041305207
 30
0.0
 10
397.2587337947456
 20
289.4656990690699
 30
0.0
 10
396.7642664377584
 20
289.3246278376876
 30
0.0
 10
396.2510997887196
 20
289.3556726464948
 30
0.0
 10
395.7787078363152
 20
289.5542773734541
 30
0.0
 10
395.3994098793852
 20
289.8964902125379
 30
0.0
 10
395.1539293785355
 20
290.3443017405927
 30
0.0
 10
395.0695394424639
 20
290.8493740556145
 30
0.0
 10
395.1573466705055
 20
291.3556371266195
 30
0.0
 10
395.4085700909777
 20
291.8047277872626
 30
0.0
 10
395.7942130127314
 20
292.1447063265953
 30
0.0
 10
396.2699760214984
 20
292.337487745446
 30
0.0
 10
396.7822023893924
 20
292.3620293492431
 30
0.0
 10
397.2745104696273
 20
292.2157535111353
 30
0.0
 10
397.6882478126635
 20
291.914507694205
 30
0.0
 10
397.9520188324302
 20
291.5450285823071
 30
0.0
 10
398.0302493933157
 20
291.2808954089721
 30
0.0
 10
398.0606481356965
 20
291.1782588408642
 30
0.0
  0
LINE
  5
E3
330
1F
100
AcDbEntity
  8
0
  6
Continuous
 62
     7
370
    25
100
AcDbLine
 10
392.3258216556
 20
277.3631458111
 30
0.0
 11
391.793059542
 21
276.2568538828
 31
0.0
  0
LINE
  5
E4
330
1F
100
AcDbEntity
  8
0
  6
Continuous
 62
     7
370
    25
100
AcDbLine
 10
426.9640761852
 20
327.0527950168
 30
0.0
 11
427.924080342
 21
327.8183727851
 31
0.0
  0
LINE
  5
E5
330
1F
100
AcDbEntity
  8
0
  6
Continuous
 62
     7
370
    25
100
AcDbLine
 10
401.9742798324
 20
337.1609481943
 30
0.0
 11
401.9742798324
 21
338.3888395983
 31
0.0
  0
LINE
  5
E6
330
1F
100
AcDbEntity
  8
0
  6
Continuous
 62
     7
370
    25
100
AcDbLine
 10
378.4905242722
 20
323.925469087
 30
0.0
 11
377.5305201154
 21
324.6910468552
 31
0.0
  0
LINE
  5
E7
330
1F
100
AcDbEntity
  8
0
  6
Continuous
 62
     7
370
    25
100
AcDbLine
 10
434.642086978
 20
301.212655066
 30
0.0
 11
435.8391925809
 21
300.939423524
 31
0.0
  0
LINE
  5
E8
330
1F
100
AcDbEntity
  8
0
  6
Continuous
 62
     7
370
    25
100
AcDbLine
 10
419.2266134809
 20
279.0986807675
 30
0.0
 11
419.7593755945
 21
277.9923888393
 31
0.0
  0
LINE
  5
E9
330
1F
100
AcDbEntity
  8
0
  6
Continuous
 62
     7
370
    25
100
AcDbLine
 10
374.1965564227
 20
297.3129434173
 30
0.0
 11
372.9994508197
 21
297.0397118752
 31
0.0
  0
LINE
  5
EA
330
1F
100
AcDbEntity
  8
0
  6
Continuous
 62
     7
370
    25
100
AcDbLine
 10
416.1555001229
 20
276.2568538828
 30
0.0
 11
415.6227380093
 21
277.3631458111
 31
0.0
  0
LINE
  5
EB
330
1F
100
AcDbEntity
  8
0
  6
Continuous
 62
     7
370
    25
100
AcDbLine
 10
372.1093670839
 20
300.939423524
 30
0.0
 11
373.3064726869
 21
301.212655066
 31
0.0
  0
LINE
  5
EC
330
1F
100
AcDbEntity
  8
0
  6
Continuous
 62
     7
370
    25
100
AcDbLine
 10
405.9742798324
 20
338.3888395983
 30
0.0
 11
405.9742798324
 21
337.1609481943
 31
0.0
  0
LINE
  5
ED
330
1F
100
AcDbEntity
  8
0
  6
Continuous
 62
     7
370
    25
100
AcDbLine
 10
430.4180395494
 20
324.6910468552
 30
0.0
 11
429.4580353926
 21
323.925469087
 31
0.0
  0
LINE
  5
EE
330
1F
100
AcDbEntity
  8
0
  6
Continuous
 62
     7
370
    25
100
AcDbLine
 10
380.0244793229
 20
327.8183727851
 30
0.0
 11
380.9844834796
 21
327.0527950168
 31
0.0
  0
LINE
  5
EF
330
1F
100
AcDbEntity
  8
0
  6
Continuous
 62
     7
370
    25
100
AcDbLine
 10
388.1891840703
 20
277.9923888393
 30
0.0
 11
388.721946184
 21
279.0986807675
 31
0.0
  0
LINE
  5
F0
330
1F
100
AcDbEntity
  8
0
  6
Continuous
 62
     7
370
    25
100
AcDbLine
 10
434.9491088451
 20
297.0397118752
 30
0.0
 11
433.7520032421
 21
297.3129434173
 31
0.0
  0
LINE
  5
F1
330
1F
100
AcDbEntity
  8
0
  6
Continuous
 62
     7
370
    25
100
AcDbLine
 10
78.9742798324
 20
431.1609481943
 30
0.0
 11
728.9742798324
 21
431.1609481943
 31
0.0
  0
LINE
  5
F2
330
1F
100
AcDbEntity
  8
0
  6
Continuous
 62
     7
370
    25
100
AcDbLine
 10
728.9742798324
 20
431.1609481943
 30
0.0
 11
728.9742798324
 21
430.1189125684
 31
0.0
  0
LINE
  5
F3
330
1F
100
AcDbEntity
  8
0
  6
Continuous
 62
     7
370
    25
100
AcDbLine
 10
728.9742798324
 20
430.1189125684
 30
0.0
 11
78.9742798324
 21
430.1189125684
 31
0.0
  0
LINE
  5
F4
330
1F
100
AcDbEntity
  8
0
  6
Continuous
 62
     7
370
    25
100
AcDbLine
 10
78.9742798324
 20
431.1609481943
 30
0.0
 11
78.9742798324
 21
430.1189125684
 31
0.0
  0
ARC
  5
F5
330
1F
100
AcDbEntity
  8
0
  6
Continuous
 62
     7
370
    25
100
AcDbCircle
 10
78.9742798324
 20
391.1609481943
 30
0.0
 40
24.92550254794037
100
AcDbArc
 50
90.0
 51
180.0
  0
LINE
  5
F6
330
1F
100
AcDbEntity
  8
0
  6
Continuous
 62
     7
370
    25
100
AcDbLine
 10
54.0487772845
 20
391.1609481943
 30
0.0
 11
52.5508329823
 21
391.1609481943
 31
0.0
  0
ARC
  5
F7
330
1F
100
AcDbEntity
  8
0
  6
Continuous
 62
     7
370
    25
100
AcDbCircle
 10
78.9742798324
 20
391.1609481943
 30
0.0
 40
26.42344685007225
100
AcDbArc
 50
90.0
 51
180.0
  0
LINE
  5
F8
330
1F
100
AcDbEntity
  8
0
  6
Continuous
 62
     7
370
    25
100
AcDbLine
 10
78.9742798324
 20
417.5843950443
 30
0.0
 11
78.9742798324
 21
416.0864507422
 31
0.0
  0
ARC
  5
F9
330
1F
100
AcDbEntity
  8
0
  6
Continuous
 62
     7
370
    25
100
AcDbCircle
 10
728.9742798324
 20
391.1609481943
 30
0.0
 40
26.42344685007231
100
AcDbArc
 50
0.0
 51
90.0
  0
LINE
  5
FA
330
1F
100
AcDbEntity
  8
0
  6
Continuous
 62
     7
370
    25
100
AcDbLine
 10
78.9742798324
 20
417.5843950443
 30
0.0
 11
728.9742798324
 21
417.5843950443
 31
0.0
  0
LINE
  5
FB
330
1F
100
AcDbEntity
  8
0
  6
Continuous
 62
     7
370
    25
100
AcDbLine
 10
52.5508329823
 20
56.1609481943
 30
0.0
 11
52.5508329823
 21
391.1609481943
 31
0.0
  0
ARC
  5
FC
330
1F
100
AcDbEntity
  8
0
  6
Continuous
 62
     7
370
    25
100
AcDbCircle
 10
78.9742798324
 20
56.1609481943
 30
0.0
 40
26.42344685007237
100
AcDbArc
 50
180.0
 51
270.0
  0
LINE
  5
FD
330
1F
100
AcDbEntity
  8
0
  6
Continuous
 62
     7
370
    25
100
AcDbLine
 10
728.9742798324
 20
29.7375013442
 30
0.0
 11
78.9742798324
 21
29.7375013442
 31
0.0
  0
ARC
  5
FE
330
1F
100
AcDbEntity
  8
0
  6
Continuous
 62
     7
370
    25
100
AcDbCircle
 10
728.9742798324
 20
56.1609481943
 30
0.0
 40
26.42344685007231
100
AcDbArc
 50
270.0
 51
0.0
  0
LINE
  5
FF
330
1F
100
AcDbEntity
  8
0
  6
Continuous
 62
     7
370
    25
100
AcDbLine
 10
755.3977266825
 20
391.1609481943
 30
0.0
 11
755.3977266825
 21
56.1609481943
 31
0.0
  0
LINE
  5
100
330
1F
100
AcDbEntity
  8
0
  6
Continuous
 62
     7
370
    25
100
AcDbLine
 10
78.9742798324
 20
17.2029838201
 30
0.0
 11
728.9742798324
 21
17.2029838201
 31
0.0
  0
ARC
  5
101
330
1F
100
AcDbEntity
  8
0
  6
Continuous
 62
     7
370
    25
100
AcDbCircle
 10
78.9742798324
 20
56.1609481943
 30
0.0
 40
38.95796437412258
100
AcDbArc
 50
180.0
 51
270.0
  0
LINE
  5
102
330
1F
100
AcDbEntity
  8
0
  6
Continuous
 62
     7
370
    25
100
AcDbLine
 10
40.0163154583
 20
391.1609481943
 30
0.0
 11
40.0163154583
 21
56.1609481943
 31
0.0
  0
ARC
  5
103
330
1F
100
AcDbEntity
  8
0
  6
Continuous
 62
     7
370
    25
100
AcDbCircle
 10
78.9742798324
 20
391.1609481943
 30
0.0
 40
38.95796437412247
100
AcDbArc
 50
90.0
 51
180.0
  0
ARC
  5
104
330
1F
100
AcDbEntity
  8
0
  6
Continuous
 62
     7
370
    25
100
AcDbCircle
 10
728.9742798324
 20
391.1609481943
 30
0.0
 40
38.95796437412253
100
AcDbArc
 50
0.0
 51
90.0
  0
LINE
  5
105
330
1F
100
AcDbEntity
  8
0
  6
Continuous
 62
     7
370
    25
100
AcDbLine
 10
767.9322442065
 20
56.1609481943
 30
0.0
 11
767.9322442065
 21
391.1609481943
 31
0.0
  0
ARC
  5
106
330
1F
100
AcDbEntity
  8
0
  6
Continuous
 62
     7
370
    25
100
AcDbCircle
 10
728.9742798324
 20
56.1609481943
 30
0.0
 40
38.95796437412264
100
AcDbArc
 50
270.0
 51
0.0
  0
LINE
  5
107
330
1F
100
AcDbEntity
  8
0
  6
Continuous
 62
     7
370
    25
100
AcDbLine
 10
728.9742798324
 20
417.5843950443
 30
0.0
 11
728.9742798324
 21
416.0864507422
 31
0.0
  0
LINE
  5
108
330
1F
100
AcDbEntity
  8
0
  6
Continuous
 62
     7
370
    25
100
AcDbLine
 10
728.9742798324
 20
416.0864507422
 30
0.0
 11
78.9742798324
 21
416.0864507422
 31
0.0
  0
ARC
  5
109
330
1F
100
AcDbEntity
  8
0
  6
Continuous
 62
     7
370
    25
100
AcDbCircle
 10
78.9742798324
 20
56.1609481943
 30
0.0
 40
24.92550254794049
100
AcDbArc
 50
180.0
 51
270.0
  0
LINE
  5
10A
330
1F
100
AcDbEntity
  8
0
  6
Continuous
 62
     7
370
    25
100
AcDbLine
 10
78.9742798324
 20
31.2354456463
 30
0.0
 11
78.9742798324
 21
29.7375013442
 31
0.0
  0
LINE
  5
10B
330
1F
100
AcDbEntity
  8
0
  6
Continuous
 62
     7
370
    25
100
AcDbLine
 10
54.0487772845
 20
56.1609481943
 30
0.0
 11
52.5508329823
 21
56.1609481943
 31
0.0
  0
LINE
  5
10C
330
1F
100
AcDbEntity
  8
0
  6
Continuous
 62
     7
370
    25
100
AcDbLine
 10
755.3977266825
 20
391.1609481943
 30
0.0
 11
753.8997823804
 21
391.1609481943
 31
0.0
  0
ARC
  5
10D
330
1F
100
AcDbEntity
  8
0
  6
Continuous
 62
     7
370
    25
100
AcDbCircle
 10
728.9742798324
 20
391.1609481943
 30
0.0
 40
24.92550254794048
100
AcDbArc
 50
0.0
 51
90.0
  0
LINE
  5
10E
330
1F
100
AcDbEntity
  8
0
  6
Continuous
 62
     7
370
    25
100
AcDbLine
 10
78.9742798324
 20
31.2354456463
 30
0.0
 11
728.9742798324
 21
31.2354456463
 31
0.0
  0
LINE
  5
10F
330
1F
100
AcDbEntity
  8
0
  6
Continuous
 62
     7
370
    25
100
AcDbLine
 10
728.9742798324
 20
31.2354456463
 30
0.0
 11
728.9742798324
 21
29.7375013442
 31
0.0
  0
LINE
  5
110
330
1F
100
AcDbEntity
  8
0
  6
Continuous
 62
     7
370
    25
100
AcDbLine
 10
755.3977266825
 20
56.1609481943
 30
0.0
 11
753.8997823804
 21
56.1609481943
 31
0.0
  0
LINE
  5
111
330
1F
100
AcDbEntity
  8
0
  6
Continuous
 62
     7
370
    25
100
AcDbLine
 10
753.8997823804
 20
56.1609481943
 30
0.0
 11
753.8997823804
 21
391.1609481943
 31
0.0
  0
ARC
  5
112
330
1F
100
AcDbEntity
  8
0
  6
Continuous
 62
     7
370
    25
100
AcDbCircle
 10
728.9742798324
 20
56.1609481943
 30
0.0
 40
24.92550254794048
100
AcDbArc
 50
270.0
 51
0.0
  0
LINE
  5
113
330
1F
100
AcDbEntity
  8
0
  6
Continuous
 62
     7
370
    25
100
AcDbLine
 10
78.9742798324
 20
17.2029838201
 30
0.0
 11
78.9742798324
 21
16.1609481943
 31
0.0
  0
ARC
  5
114
330
1F
100
AcDbEntity
  8
0
  6
Continuous
 62
     7
370
    25
100
AcDbCircle
 10
78.9742798324
 20
56.1609481943
 30
0.0
 40
40.00000000000004
100
AcDbArc
 50
180.0
 51
270.0
  0
LINE
  5
115
330
1F
100
AcDbEntity
  8
0
  6
Continuous
 62
     7
370
    25
100
AcDbLine
 10
40.0163154583
 20
56.1609481943
 30
0.0
 11
38.9742798324
 21
56.1609481943
 31
0.0
  0
ARC
  5
116
330
1F
100
AcDbEntity
  8
0
  6
Continuous
 62
     7
370
    25
100
AcDbCircle
 10
78.9742798324
 20
391.1609481943
 30
0.0
 40
39.99999999999994
100
AcDbArc
 50
90.0
 51
180.0
  0
LINE
  5
117
330
1F
100
AcDbEntity
  8
0
  6
Continuous
 62
     7
370
    25
100
AcDbLine
 10
38.9742798324
 20
391.1609481943
 30
0.0
 11
40.0163154583
 21
391.1609481943
 31
0.0
  0
LINE
  5
118
330
1F
100
AcDbEntity
  8
0
  6
Continuous
 62
     7
370
    25
100
AcDbLine
 10
728.9742798324
 20
17.2029838201
 30
0.0
 11
728.9742798324
 21
16.1609481943
 31
0.0
  0
LINE
  5
119
330
1F
100
AcDbEntity
  8
0
  6
Continuous
 62
     7
370
    25
100
AcDbLine
 10
728.9742798324
 20
16.1609481943
 30
0.0
 11
78.9742798324
 21
16.1609481943
 31
0.0
  0
LINE
  5
11A
330
1F
100
AcDbEntity
  8
0
  6
Continuous
 62
     7
370
    25
100
AcDbLine
 10
768.9742798324
 20
391.1609481943
 30
0.0
 11
767.9322442065
 21
391.1609481943
 31
0.0
  0
LINE
  5
11B
330
1F
100
AcDbEntity
  8
0
  6
Continuous
 62
     7
370
    25
100
AcDbLine
 10
768.9742798324
 20
391.1609481943
 30
0.0
 11
768.9742798324
 21
56.1609481943
 31
0.0
  0
LINE
  5
11C
330
1F
100
AcDbEntity
  8
0
  6
Continuous
 62
     7
370
    25
100
AcDbLine
 10
767.9322442065
 20
56.1609481943
 30
0.0
 11
768.9742798324
 21
56.1609481943
 31
0.0
  0
ARC
  5
11D
330
1F
100
AcDbEntity
  8
0
  6
Continuous
 62
     7
370
    25
100
AcDbCircle
 10
728.9742798324
 20
56.1609481943
 30
0.0
 40
40.00000000000011
100
AcDbArc
 50
270.0
 51
0.0
  0
ARC
  5
11E
330
1F
100
AcDbEntity
  8
0
  6
Continuous
 62
     7
370
    25
100
AcDbCircle
 10
728.9742798324
 20
391.1609481943
 30
0.0
 40
40.00000000000011
100
AcDbArc
 50
0.0
 51
90.0
  0
LINE
  5
11F
330
1F
100
AcDbEntity
  8
0
  6
Continuous
 62
     7
370
    25
100
AcDbLine
 10
38.9742798324
 20
56.1609481943
 30
0.0
 11
38.9742798324
 21
391.1609481943
 31
0.0
  0
LINE
  5
120
330
1F
100
AcDbEntity
  8
0
  6
Continuous
 62
     7
370
    25
100
AcDbLine
 10
54.0487772845
 20
391.1609481943
 30
0.0
 11
54.0487772845
 21
56.1609481943
 31
0.0
  0
SPLINE
  5
121
330
1F
100
AcDbEntity
  8
0
  6
Continuous
 62
     7
370
    25
100
AcDbSpline
210
0.0
220
0.0
230
1.0
 70
     8
 71
     3
 72
    19
 73
    15
 74
     0
 42
0.00000001
 43
0.00000001
 40
0.0
 40
0.0
 40
0.0
 40
0.0
 40
0.0833990047370871
 40
0.1668019915658995
 40
0.2502006629755815
 40
0.3337799527584238
 40
0.417363206138469
 40
0.5009345119150097
 40
0.5840018761185213
 40
0.6670808683654397
 40
0.750155970676597
 40
0.8334357716092352
 40
0.9167198684243635
 40
1.0
 40
1.0
 40
1.0
 40
1.0
 10
78.97427983242223
 20
408.9602554120078
 30
0.0
 10
96.9962196482686
 20
408.8701362504449
 30
0.0
 10
133.0409597820457
 20
408.689893624357
 30
0.0
 10
187.1920318984181
 20
408.4693649162779
 30
0.0
 10
241.4325962968167
 20
408.2869387964241
 30
0.0
 10
295.7559895978677
 20
408.1436721016244
 30
0.0
 10
350.1557952834513
 20
408.0475283469452
 30
0.0
 10
404.4735623052647
 20
408.0121788465908
 30
0.0
 10
458.6814324798509
 20
408.0487999596226
 30
0.0
 10
512.7526186866023
 20
408.145018097489
 30
0.0
 10
566.8312977961549
 20
408.2879295880834
 30
0.0
 10
620.9109491019901
 20
408.4699624066843
 30
0.0
 10
674.9846973645654
 20
408.6902633217971
 30
0.0
 10
710.9780379631181
 20
408.8702594769378
 30
0.0
 10
728.9742798324221
 20
408.9602554120078
 30
0.0
  0
LINE
  5
122
330
1F
100
AcDbEntity
  8
0
  6
Continuous
 62
     7
370
    25
100
AcDbLine
 10
78.9742798324
 20
416.0864507422
 30
0.0
 11
78.9742798324
 21
408.960255412
 31
0.0
  0
LINE
  5
123
330
1F
100
AcDbEntity
  8
0
  6
Continuous
 62
     7
370
    25
100
AcDbLine
 10
728.9742798324
 20
416.0864507422
 30
0.0
 11
728.9742798324
 21
408.960255412
 31
0.0
  0
LINE
  5
124
330
1F
100
AcDbEntity
  8
0
  6
Continuous
 62
     7
370
    25
100
AcDbLine
 10
61.2027179976
 20
391.1410268816
 30
0.0
 11
61.1749726147
 21
391.1609481943
 31
0.0
  0
SPLINE
  5
125
330
1F
100
AcDbEntity
  8
0
  6
Continuous
 62
     7
370
    25
100
AcDbSpline
210
0.0
220
0.0
230
1.0
 70
     8
 71
     3
 72
    13
 73
     9
 74
     0
 42
0.00000001
 43
0.00000001
 40
0.0
 40
0.0
 40
0.0
 40
0.0
 40
0.1664531964948744
 40
0.332916796356564
 40
0.4993685470697714
 40
0.6662415529067768
 40
0.8331269769045216
 40
0.9999999999999999
 40
0.9999999999999999
 40
0.9999999999999999
 40
0.9999999999999999
 10
60.76432535147996
 20
56.16267688547524
 30
0.0
 10
60.83246329689457
 20
74.71707067580219
 30
0.0
 10
60.96874344636266
 20
111.8270179107535
 30
0.0
 10
61.11387794361484
 20
167.5615245061392
 30
0.0
 10
61.21436038544281
 20
223.3776123284779
 30
0.0
 10
61.26292698988506
 20
279.2661621590916
 30
0.0
 10
61.26483969637592
 20
335.2112543361794
 30
0.0
 10
61.2234247175551
 20
372.4982311696837
 30
0.0
 10
61.20271799753818
 20
391.1410268816376
 30
0.0
  0
LINE
  5
126
330
1F
100
AcDbEntity
  8
0
  6
Continuous
 62
     7
370
    25
100
AcDbLine
 10
60.75640481
 20
56.1609481943
 30
0.0
 11
60.7643253515
 21
56.1626768855
 31
0.0
  0
LINE
  5
127
330
1F
100
AcDbEntity
  8
0
  6
Continuous
 62
     7
370
    25
100
AcDbLine
 10
54.0487772845
 20
56.1609481943
 30
0.0
 11
60.75640481
 21
56.1609481943
 31
0.0
  0
LINE
  5
128
330
1F
100
AcDbEntity
  8
0
  6
Continuous
 62
     7
370
    25
100
AcDbLine
 10
54.0487772845
 20
391.1609481943
 30
0.0
 11
61.1749726147
 21
391.1609481943
 31
0.0
  0
SPLINE
  5
129
330
1F
100
AcDbEntity
  8
0
  6
Continuous
 62
     7
370
    25
100
AcDbSpline
210
0.0
220
0.0
230
1.0
 70
     8
 71
     3
 72
    15
 73
    11
 74
     0
 42
0.00000001
 43
0.00000001
 40
0.0
 40
0.0
 40
0.0
 40
0.0
 40
0.1277272428964332
 40
0.2500006214542265
 40
0.3758169636543247
 40
0.5000000007223258
 40
0.6241813269981236
 40
0.749999379711899
 40
0.8722718300606256
 40
1.0
 40
1.0
 40
1.0
 40
1.0
 10
78.97427983242223
 20
37.94307317187584
 30
0.0
 10
77.75774980851496
 20
38.01660481724292
 30
0.0
 10
75.37663474568413
 20
38.16052835791792
 30
0.0
 10
71.93773098647365
 20
39.2571211588138
 30
0.0
 10
68.79426393030164
 20
40.93261191822511
 30
0.0
 10
66.02583726458816
 20
43.21248266541408
 30
0.0
 10
63.74595297669411
 20
45.98091824975933
 30
0.0
 10
62.07046187297733
 20
49.12437596625813
 30
0.0
 10
60.97386191354498
 20
52.56329416344332
 30
0.0
 10
60.82993745723658
 20
54.94440929831876
 30
0.0
 10
60.75640481002726
 20
56.16094819427078
 30
0.0
  0
LINE
  5
12A
330
1F
100
AcDbEntity
  8
0
  6
Continuous
 62
     7
370
    25
100
AcDbLine
 10
78.9742798324
 20
31.2354456463
 30
0.0
 11
78.9742798324
 21
37.9430731719
 31
0.0
  0
SPLINE
  5
12B
330
1F
100
AcDbEntity
  8
0
  6
Continuous
 62
     7
370
    25
100
AcDbSpline
210
0.0
220
0.0
230
1.0
 70
     8
 71
     3
 72
    15
 73
    11
 74
     0
 42
0.00000001
 43
0.00000001
 40
0.0
 40
0.0
 40
0.0
 40
0.0
 40
0.1277272436232068
 40
0.2500006214539467
 40
0.3758169637005818
 40
0.5000000007219787
 40
0.6241813270098516
 40
0.749999379711621
 40
0.8722718307489025
 40
1.0
 40
1.0
 40
1.0
 40
1.0
 10
747.1921548548171
 20
56.16094819427081
 30
0.0
 10
747.1186232086718
 20
54.94441816341111
 30
0.0
 10
746.9746996672928
 20
52.56330310052368
 30
0.0
 10
745.8781068644538
 20
49.12439934179127
 30
0.0
 10
744.2026161082433
 20
45.98093229172751
 30
0.0
 10
741.922745360863
 20
43.21250562606762
 30
0.0
 10
739.1543097767957
 20
40.93262133850673
 30
0.0
 10
736.0108520545423
 20
39.25713023167366
 30
0.0
 10
732.5719338566118
 20
38.16053027399035
 30
0.0
 10
730.1908187217899
 20
38.01660581834851
 30
0.0
 10
728.9742798324221
 20
37.94307317187587
 30
0.0
  0
LINE
  5
12C
330
1F
100
AcDbEntity
  8
0
  6
Continuous
 62
     7
370
    25
100
AcDbLine
 10
753.8997823804
 20
56.1609481943
 30
0.0
 11
747.1921548548
 21
56.1609481943
 31
0.0
  0
LINE
  5
12D
330
1F
100
AcDbEntity
  8
0
  6
Continuous
 62
     7
370
    25
100
AcDbLine
 10
728.9742798324
 20
31.2354456463
 30
0.0
 11
728.9742798324
 21
37.9430731719
 31
0.0
  0
SPLINE
  5
12E
330
1F
100
AcDbEntity
  8
0
  6
Continuous
 62
     7
370
    25
100
AcDbSpline
210
0.0
220
0.0
230
1.0
 70
     8
 71
     3
 72
    15
 73
    11
 74
     0
 42
0.00000001
 43
0.00000001
 40
0.0
 40
0.0
 40
0.0
 40
0.0
 40
0.1277272317967743
 40
0.250000621458375
 40
0.37581694216213
 40
0.5000000007288463
 40
0.6241813067730381
 40
0.7499993797158869
 40
0.8722718203716047
 40
1.0
 40
1.0
 40
1.0
 40
1.0
 10
728.9742798324221
 20
408.9602554120078
 30
0.0
 10
730.1628591655071
 20
408.8884132168615
 30
0.0
 10
732.4892665239364
 20
408.7477964260577
 30
0.0
 10
735.8491590022762
 20
407.6763986612855
 30
0.0
 10
738.9204029206338
 20
406.039403424062
 30
0.0
 10
741.6252230406483
 20
403.8119143836105
 30
0.0
 10
743.8527256334233
 20
401.1070853372835
 30
0.0
 10
745.4897212235944
 20
398.0358507516026
 30
0.0
 10
746.5611261487115
 20
394.6759438205282
 30
0.0
 10
746.7017438542196
 20
392.3495363899489
 30
0.0
 10
746.7735870501591
 20
391.1609481942708
 30
0.0
  0
LINE
  5
12F
330
1F
100
AcDbEntity
  8
0
  6
Continuous
 62
     7
370
    25
100
AcDbLine
 10
753.8997823804
 20
391.1609481943
 30
0.0
 11
746.7735870502
 21
391.1609481943
 31
0.0
  0
SPLINE
  5
130
330
1F
100
AcDbEntity
  8
0
  6
Continuous
 62
     7
370
    25
100
AcDbSpline
210
0.0
220
0.0
230
1.0
 70
     8
 71
     3
 72
    15
 73
    11
 74
     0
 42
0.00000001
 43
0.00000001
 40
0.0
 40
0.0
 40
0.0
 40
0.0
 40
0.1277272324949038
 40
0.2500006214582937
 40
0.3758169427894291
 40
0.5000000007288549
 40
0.6241813061257149
 40
0.7499993797159688
 40
0.8722718196511802
 40
1.0
 40
1.0
 40
1.0
 40
1.0
 10
61.1749726146853
 20
391.1609481942708
 30
0.0
 10
61.2468148105646
 20
392.3495275338811
 30
0.0
 10
61.38743160203436
 20
394.6759348923659
 30
0.0
 10
62.4588293702506
 20
398.0358273754482
 30
0.0
 10
64.09582460597835
 20
401.107071287537
 30
0.0
 10
66.32331364378818
 20
403.8118914015283
 30
0.0
 10
69.02814268419338
 20
406.0393939918172
 30
0.0
 10
72.09937726340543
 20
407.6763895804456
 30
0.0
 10
75.45928419937381
 20
408.7477945091162
 30
0.0
 10
77.78569163001059
 20
408.8884122153117
 30
0.0
 10
78.97427983242223
 20
408.9602554120078
 30
0.0
  0
SPLINE
  5
131
330
1F
100
AcDbEntity
  8
0
  6
Continuous
 62
     7
370
    25
100
AcDbSpline
210
0.0
220
0.0
230
1.0
 70
     8
 71
     3
 72
    18
 73
    14
 74
     0
 42
0.00000001
 43
0.00000001
 40
0.0
 40
0.0
 40
0.0
 40
0.0
 40
0.1043473809118468
 40
0.2087035112791015
 40
0.3130489385998037
 40
0.3915992349711327
 40
0.4701600121770651
 40
0.5487204403907368
 40
0.6272702607996454
 40
0.7203943990175077
 40
0.8135190504140826
 40
0.9067593904458227
 40
1.0
 40
1.0
 40
1.0
 40
1.0
 10
728.9742798324221
 20
37.94307317187587
 30
0.0
 10
706.4227454275347
 20
38.05132188688798
 30
0.0
 10
661.3177856872647
 20
38.26782839349174
 30
0.0
 10
593.5293872177175
 20
38.50848186267844
 30
0.0
 10
531.262362292278
 20
38.66970537379685
 30
0.0
 10
474.5451780708518
 20
38.76104369924105
 30
0.0
 10
423.4027660716359
 20
38.79987160593002
 30
0.0
 10
372.2550236337498
 20
38.79495632673538
 30
0.0
 10
317.9559041571166
 20
38.7424650971335
 30
0.0
 10
260.5232575349543
 20
38.63334715573449
 30
0.0
 10
199.9566610852386
 20
38.4597413582441
 30
0.0
 10
139.4244140672652
 20
38.23487670554063
 30
0.0
 10
99.12434399270987
 20
38.04034111015208
 30
0.0
 10
78.97427983242217
 20
37.94307317187587
 30
0.0
  0
LINE
  5
132
330
1F
100
AcDbEntity
  8
0
  6
Continuous
 62
     7
370
    25
100
AcDbLine
 10
747.1842343134
 20
56.1626768855
 30
0.0
 11
747.1921548548
 21
56.1609481943
 31
0.0
  0
SPLINE
  5
133
330
1F
100
AcDbEntity
  8
0
  6
Continuous
 62
     7
370
    25
100
AcDbSpline
210
0.0
220
0.0
230
1.0
 70
     8
 71
     3
 72
    13
 73
     9
 74
     0
 42
0.00000001
 43
0.00000001
 40
0.0
 40
0.0
 40
0.0
 40
0.0
 40
0.1664467888479024
 40
0.3329058828164802
 40
0.4993526511719714
 40
0.6662306324225252
 40
0.8331205582564102
 40
0.9999999999999999
 40
0.9999999999999999
 40
0.9999999999999999
 40
0.9999999999999999
 10
746.7458416673605
 20
391.1410269213758
 30
0.0
 10
746.7251751621726
 20
372.5458568725024
 30
0.0
 10
746.6838406239577
 20
335.3541420662797
 30
0.0
 10
746.6855465019758
 20
279.5519729519594
 30
0.0
 10
746.7337534320426
 20
223.7109688280923
 30
0.0
 10
746.8340100184221
 20
167.8470517243763
 30
0.0
 10
746.9793266621166
 20
111.9696186162198
 30
0.0
 10
747.1159331932727
 20
74.7646012445349
 30
0.0
 10
747.1842343133643
 20
56.16267688547533
 30
0.0
  0
LINE
  5
134
330
1F
100
AcDbEntity
  8
0
  6
Continuous
 62
     7
370
    25
100
AcDbLine
 10
746.7735870502
 20
391.1609481943
 30
0.0
 11
746.7458416673
 21
391.1410269214
 31
0.0
  0
SPLINE
  5
135
330
1F
100
AcDbEntity
  8
0
  6
Continuous
 62
     7
370
    25
100
AcDbSpline
210
0.0
220
0.0
230
1.0
 70
     8
 71
     3
 72
    20
 73
    16
 74
     0
 42
0.00000001
 43
0.00000001
 40
0.0
 40
0.0
 40
0.0
 40
0.0
 40
0.1263148326563618
 40
0.249965385715188
 40
0.3328217891231573
 40
0.4159781643723459
 40
0.5003585492609535
 40
0.561154167719581
 40
0.6245766711335347
 40
0.6853490414336926
 40
0.7502224370437971
 40
0.8088154689957444
 40
0.8744804627436704
 40
0.9261301051301514
 40
1.0
 40
1.0
 40
1.0
 40
1.0
 10
78.9351177880624
 20
37.97835744364814
 30
0.0
 10
78.85054531907714
 20
38.17358939224599
 30
0.0
 10
78.68318421518933
 20
38.55993538431141
 30
0.0
 10
78.73612537394808
 20
39.98241234471184
 30
0.0
 10
78.92312359024689
 20
41.63798450949205
 30
0.0
 10
79.19162361300702
 20
43.37507819205058
 30
0.0
 10
79.52721933696638
 20
45.204046697047
 30
0.0
 10
79.90157782608259
 20
47.04601755863308
 30
0.0
 10
80.28147902760129
 20
48.7962245067195
 30
0.0
 10
80.71552752725142
 20
50.68889819396677
 30
0.0
 10
81.17898400667711
 20
52.62202080134393
 30
0.0
 10
81.69187835572778
 20
54.67961188946582
 30
0.0
 10
82.19885728628739
 20
56.65017171604197
 30
0.0
 10
82.77587584320013
 20
58.8320996411294
 30
0.0
 10
83.17323588868392
 20
60.28963905667673
 30
0.0
 10
83.40708749001219
 20
61.14742013003482
 30
0.0
  0
SPLINE
  5
136
330
1F
100
AcDbEntity
  8
0
  6
Continuous
 62
     7
370
    25
100
AcDbSpline
210
0.0
220
0.0
230
1.0
 70
     8
 71
     3
 72
    19
 73
    15
 74
     0
 42
0.00000001
 43
0.00000001
 40
0.0
 40
0.0
 40
0.0
 40
0.0
 40
0.0924299775613628
 40
0.1848597046437975
 40
0.2773943949273767
 40
0.3699286274130962
 40
0.4621526824191976
 40
0.5543765798656839
 40
0.6467312004070727
 40
0.7390862654768747
 40
0.8042965675410771
 40
0.8695069623910964
 40
0.9347534537280434
 40
1.0
 40
1.0
 40
1.0
 40
1.0
 10
83.40708749001213
 20
61.14742013003488
 30
0.0
 10
103.1114205086732
 20
61.22990895373822
 30
0.0
 10
142.5200331485983
 20
61.39488637760581
 30
0.0
 10
201.7555476616336
 20
61.57261586125798
 30
0.0
 10
261.0693028439582
 20
61.69826096100073
 30
0.0
 10
320.3882034922669
 20
61.77180932006582
 30
0.0
 10
379.6698178303116
 20
61.80346646071138
 30
0.0
 10
438.9220863276691
 20
61.79980080498312
 30
0.0
 10
498.1894268456663
 20
61.7621736936326
 30
0.0
 10
551.645861563503
 20
61.68803082269741
 30
0.0
 10
599.2617121738987
 20
61.58599166760887
 30
0.0
 10
641.0524646507852
 20
61.46869271501323
 30
0.0
 10
682.8190238277581
 20
61.32543238404248
 30
0.0
 10
710.6339854892897
 20
61.20675756469065
 30
0.0
 10
724.5414721748322
 20
61.14742013003488
 30
0.0
  0
SPLINE
  5
137
330
1F
100
AcDbEntity
  8
0
  6
Continuous
 62
     7
370
    25
100
AcDbSpline
210
0.0
220
0.0
230
1.0
 70
     8
 71
     3
 72
    17
 73
    13
 74
     0
 42
0.00000001
 43
0.00000001
 40
0.0
 40
0.0
 40
0.0
 40
0.0
 40
0.1263687940126822
 40
0.2500721702620144
 40
0.3750739980515893
 40
0.5003808054699258
 40
0.6245337532527392
 40
0.7501157389382066
 40
0.8087332588820556
 40
0.8744268472482001
 40
0.9260889723604053
 40
1.0
 40
1.0
 40
1.0
 40
1.0
 10
729.0134418767815
 20
37.97835744364805
 30
0.0
 10
729.0979558871758
 20
38.17381373123852
 30
0.0
 10
729.265201306917
 20
38.56060366945854
 30
0.0
 10
729.2064212403067
 20
40.15969445338152
 30
0.0
 10
728.9247245501971
 20
42.41886736275325
 30
0.0
 10
728.4072146604341
 20
45.33601234092238
 30
0.0
 10
727.6810928661655
 20
48.78311196388854
 30
0.0
 10
726.9339002657272
 20
51.96255154364743
 30
0.0
 10
726.2567166227714
 20
54.67952062777267
 30
0.0
 10
725.7497250859989
 20
56.65007645501036
 30
0.0
 10
725.1727139122769
 20
58.83198198728193
 30
0.0
 10
724.7753540065243
 20
60.28952547276925
 30
0.0
 10
724.5414721748322
 20
61.14742013003482
 30
0.0
  0
LINE
  5
138
330
1F
100
AcDbEntity
  8
0
  6
Continuous
 62
     7
370
    25
100
AcDbLine
 10
728.9742798324
 20
37.9430731719
 30
0.0
 11
729.0134418768
 21
37.9783574436
 31
0.0
  0
LINE
  5
139
330
1F
100
AcDbEntity
  8
0
  6
Continuous
 62
     7
370
    25
100
AcDbLine
 10
78.9742798324
 20
37.9430731719
 30
0.0
 11
78.9351177881
 21
37.9783574436
 31
0.0
  0
SPLINE
  5
13A
330
1F
100
AcDbEntity
  8
0
  6
Continuous
 62
     7
370
    25
100
AcDbSpline
210
0.0
220
0.0
230
1.0
 70
     8
 71
     3
 72
    14
 73
    10
 74
     0
 42
0.00000001
 43
0.00000001
 40
0.0
 40
0.0
 40
0.0
 40
0.0
 40
0.1333429958510228
 40
0.2878614294782696
 40
0.4423795928166679
 40
0.5970349204812166
 40
0.7516901009606711
 40
0.8758356570764589
 40
1.0
 40
1.0
 40
1.0
 40
1.0
 10
724.5414721748322
 20
61.1474201300348
 30
0.0
 10
724.497040360456
 20
75.49786047322598
 30
0.0
 10
724.401120769637
 20
106.4776524335695
 30
0.0
 10
724.2944630073107
 20
154.1365990423019
 30
0.0
 10
724.2150316329827
 20
204.1218346567175
 30
0.0
 10
724.1686609361007
 20
254.1462496881163
 30
0.0
 10
724.1542758546786
 20
300.9059201673742
 30
0.0
 10
724.1623250878077
 20
344.3774193362635
 30
0.0
 10
724.1838096131485
 20
371.158930500205
 30
0.0
 10
724.1945526885645
 20
384.5506992095289
 30
0.0
  0
SPLINE
  5
13B
330
1F
100
AcDbEntity
  8
0
  6
Continuous
 62
     7
370
    25
100
AcDbSpline
210
0.0
220
0.0
230
1.0
 70
     8
 71
     3
 72
    19
 73
    15
 74
     0
 42
0.00000001
 43
0.00000001
 40
0.0
 40
0.0
 40
0.0
 40
0.0
 40
0.0608187581073724
 40
0.1075115558343145
 40
0.152695659256031
 40
0.2035572799967382
 40
0.2498740451816093
 40
0.335471157726015
 40
0.4181052162446566
 40
0.4997344616354829
 40
0.625017513379897
 40
0.7499547807586456
 40
0.8736277213869287
 40
1.0
 40
1.0
 40
1.0
 40
1.0
 10
724.1945526885645
 20
384.5506992095289
 30
0.0
 10
724.8951557532511
 20
384.7619822074502
 30
0.0
 10
726.1336375613433
 20
385.1354749346075
 30
0.0
 10
727.8652094949085
 20
385.6593622027204
 30
0.0
 10
729.4602770270186
 20
386.1417257269393
 30
0.0
 10
731.0194744371535
 20
386.6126311135255
 30
0.0
 10
732.9706778495978
 20
387.2014202199053
 30
0.0
 10
735.1696953287142
 20
387.8619941945984
 30
0.0
 10
737.5559874002663
 20
388.5737126794274
 30
0.0
 10
740.0844793053891
 20
389.3200039630538
 30
0.0
 10
742.5948835822861
 20
390.0480278999768
 30
0.0
 10
744.7616351281999
 20
390.6556749208883
 30
0.0
 10
746.2640966019047
 20
391.0544995202109
 30
0.0
 10
746.5841084270642
 20
391.1119776213038
 30
0.0
 10
746.7458416673604
 20
391.1410269213764
 30
0.0
  0
SPLINE
  5
13C
330
1F
100
AcDbEntity
  8
0
  6
Continuous
 62
     7
370
    25
100
AcDbSpline
210
0.0
220
0.0
230
1.0
 70
     8
 71
     3
 72
    19
 73
    15
 74
     0
 42
0.00000001
 43
0.00000001
 40
0.0
 40
0.0
 40
0.0
 40
0.0
 40
0.0608830253724335
 40
0.1075558023868504
 40
0.1526870452757141
 40
0.203538636017545
 40
0.2498614929287376
 40
0.3354450567950535
 40
0.418077206342276
 40
0.499719027569675
 40
0.6249999406603536
 40
0.7499763870316162
 40
0.873655320206438
 40
1.0
 40
1.0
 40
1.0
 40
1.0
 10
724.541472174832
 20
61.14742013003482
 30
0.0
 10
725.2464753441257
 20
60.95281150135853
 30
0.0
 10
726.4919322033209
 20
60.60901637815886
 30
0.0
 10
728.2327208499886
 20
60.13573211229331
 30
0.0
 10
729.8354659366175
 20
59.705318110406
 30
0.0
 10
731.4024202517046
 20
59.2911288414864
 30
0.0
 10
733.3637259624039
 20
58.78102004700681
 30
0.0
 10
735.5737481639628
 20
58.22207073340466
 30
0.0
 10
737.9709616576364
 20
57.64098760692127
 30
0.0
 10
740.5096449370957
 20
57.05810815094656
 30
0.0
 10
743.0282125413661
 20
56.53214019848052
 30
0.0
 10
745.1993519938511
 20
56.16430535360276
 30
0.0
 10
746.7028847902805
 20
56.01109676572089
 30
0.0
 10
747.0226480359537
 20
56.111792307625
 30
0.0
 10
747.1842343133643
 20
56.16267688547538
 30
0.0
  0
SPLINE
  5
13D
330
1F
100
AcDbEntity
  8
0
  6
Continuous
 62
     7
370
    25
100
AcDbSpline
210
0.0
220
0.0
230
1.0
 70
     8
 71
     3
 72
    20
 73
    16
 74
     0
 42
0.00000001
 43
0.00000001
 40
0.0
 40
0.0
 40
0.0
 40
0.0
 40
0.1263440414768411
 40
0.249989347474167
 40
0.3328003665491682
 40
0.415946512714149
 40
0.5003448378561892
 40
0.561125630603768
 40
0.6245677982818267
 40
0.6853220451412638
 40
0.7502098749419069
 40
0.808798553766568
 40
0.8744828133305931
 40
0.9261874108508659
 40
1.0
 40
1.0
 40
1.0
 40
1.0
 10
61.20271799753824
 20
391.1410268816382
 30
0.0
 10
61.36423378881345
 20
391.1120441908163
 30
0.0
 10
61.68381535986101
 20
391.0546978855858
 30
0.0
 10
63.02038878729449
 20
390.6997918365329
 30
0.0
 10
64.60388134804396
 20
390.2588553671272
 30
0.0
 10
66.28107269636097
 20
389.7793412861434
 30
0.0
 10
68.0582496294575
 20
389.2620838013076
 30
0.0
 10
69.85562149296581
 20
388.7322953937287
 30
0.0
 10
71.5680679802943
 20
388.2235949612988
 30
0.0
 10
73.42483517304044
 20
387.6679070128843
 30
0.0
 10
75.32542325620045
 20
387.0967253740532
 30
0.0
 10
77.35305803241621
 20
386.4845777214644
 30
0.0
 10
79.29954203501815
 20
385.8967099017834
 30
0.0
 10
81.45802906827926
 20
385.2431368315954
 30
0.0
 10
82.90379745127136
 20
384.8071115468183
 30
0.0
 10
83.75400697627988
 20
384.5506992095289
 30
0.0
  0
SPLINE
  5
13E
330
1F
100
AcDbEntity
  8
0
  6
Continuous
 62
     7
370
    25
100
AcDbSpline
210
0.0
220
0.0
230
1.0
 70
     8
 71
     3
 72
    14
 73
    10
 74
     0
 42
0.00000001
 43
0.00000001
 40
0.0
 40
0.0
 40
0.0
 40
0.0
 40
0.1320691068925345
 40
0.2865896635658284
 40
0.4411102633281041
 40
0.5957735630973001
 40
0.7504371163129209
 40
0.8752102186461432
 40
1.0
 40
1.0
 40
1.0
 40
1.0
 10
83.75400697627988
 20
384.5506992095289
 30
0.0
 10
83.76526885218848
 20
370.306272436106
 30
0.0
 10
83.7897070974657
 20
339.3958985209923
 30
0.0
 10
83.79423273674131
 20
291.8079462082093
 30
0.0
 10
83.77125240906314
 20
241.7872025524111
 30
0.0
 10
83.71716659621175
 20
191.7655695337875
 30
0.0
 10
83.63495501064978
 20
144.9771370236934
 30
0.0
 10
83.53237131122698
 20
101.4346871281653
 30
0.0
 10
83.44885062439478
 20
74.5771074530605
 30
0.0
 10
83.40708749001224
 20
61.14742013003477
 30
0.0
  0
SPLINE
  5
13F
330
1F
100
AcDbEntity
  8
0
  6
Continuous
 62
     7
370
    25
100
AcDbSpline
210
0.0
220
0.0
230
1.0
 70
     8
 71
     3
 72
    17
 73
    13
 74
     0
 42
0.00000001
 43
0.00000001
 40
0.0
 40
0.0
 40
0.0
 40
0.0
 40
0.1263703456076441
 40
0.2500744030783018
 40
0.3750762373192369
 40
0.5003826001298671
 40
0.6245349202229985
 40
0.7501163091584782
 40
0.8087325686506652
 40
0.874427008063908
 40
0.9260964548009173
 40
1.0
 40
1.0
 40
1.0
 40
1.0
 10
60.76432535147996
 20
56.16267688547521
 30
0.0
 10
60.92591692247484
 20
56.11179365573562
 30
0.0
 10
61.24569064363322
 20
56.01110078160734
 30
0.0
 10
62.74914587584052
 20
56.16428961651471
 30
0.0
 10
64.9205819811971
 20
56.53220000853329
 30
0.0
 10
67.76043249011437
 20
57.12521255826061
 30
0.0
 10
71.14284990164688
 20
57.91404591486529
 30
0.0
 10
74.28095170522802
 20
58.70085067600253
 30
0.0
 10
76.9721266226795
 20
59.40241885967362
 30
0.0
 10
78.92841148243102
 20
59.9227891075951
 30
0.0
 10
81.09837106655532
 20
60.51068315433877
 30
0.0
 10
82.55173712648956
 20
60.91151709833445
 30
0.0
 10
83.40708749001224
 20
61.14742013003485
 30
0.0
  0
LINE
  5
140
330
1F
100
AcDbEntity
  8
0
  6
Continuous
 62
     7
370
    25
100
AcDbLine
 10
78.8454245929
 20
408.7971797259
 30
0.0
 11
78.9742798324
 21
408.960255412
 31
0.0
  0
LINE
  5
141
330
1F
100
AcDbEntity
  8
0
  6
Continuous
 62
     7
370
    25
100
AcDbLine
 10
729.1031351115
 20
408.7971797262
 30
0.0
 11
728.9742798324
 21
408.960255412
 31
0.0
  0
SPLINE
  5
142
330
1F
100
AcDbEntity
  8
0
  6
Continuous
 62
     7
370
    25
100
AcDbSpline
210
0.0
220
0.0
230
1.0
 70
     8
 71
     3
 72
    19
 73
    15
 74
     0
 42
0.00000001
 43
0.00000001
 40
0.0
 40
0.0
 40
0.0
 40
0.0
 40
0.0608669685742789
 40
0.1075439925736374
 40
0.1526940158543041
 40
0.2035550241754301
 40
0.2498760099386579
 40
0.335472333728745
 40
0.41810824261636
 40
0.4997412004001111
 40
0.6250261268969616
 40
0.7499635390181666
 40
0.8736339069538236
 40
1.0
 40
1.0
 40
1.0
 40
1.0
 10
724.1945526885645
 20
384.5506992095289
 30
0.0
 10
724.4009150060332
 20
385.2571639424325
 30
0.0
 10
724.7655302983203
 20
386.505394957851
 30
0.0
 10
725.2641765311876
 20
388.2627541809742
 30
0.0
 10
725.7158490571431
 20
389.8883355544174
 30
0.0
 10
726.1482503309919
 20
391.4861969661956
 30
0.0
 10
726.6778593821191
 20
393.497409704189
 30
0.0
 10
727.2533391561586
 20
395.7825618398835
 30
0.0
 10
727.8439019459599
 20
398.2912617470957
 30
0.0
 10
728.4263354228266
 20
400.9851249176758
 30
0.0
 10
728.934908602221
 20
403.7167235364883
 30
0.0
 10
729.25930146606
 20
406.1685823733013
 30
0.0
 10
729.3472903577704
 20
407.9835619581612
 30
0.0
 10
729.1851030584002
 20
408.5240314770963
 30
0.0
 10
729.1031351114749
 20
408.7971797261563
 30
0.0
  0
SPLINE
  5
143
330
1F
100
AcDbEntity
  8
0
  6
Continuous
 62
     7
370
    25
100
AcDbSpline
210
0.0
220
0.0
230
1.0
 70
     8
 71
     3
 72
    19
 73
    15
 74
     0
 42
0.00000001
 43
0.00000001
 40
0.0
 40
0.0
 40
0.0
 40
0.0
 40
0.0665773034643642
 40
0.1705291449906952
 40
0.2744881797975692
 40
0.378436995685329
 40
0.4387347540871293
 40
0.4990315295656088
 40
0.5824994668260982
 40
0.6659860049561348
 40
0.7494909256563845
 40
0.833006095408166
 40
0.916516288503938
 40
1.0
 40
1.0
 40
1.0
 40
1.0
 10
724.1945526885645
 20
384.5506992095289
 30
0.0
 10
710.0185743912383
 20
384.4853466087781
 30
0.0
 10
673.7086409355582
 20
384.3179543812611
 30
0.0
 10
615.1767192750552
 20
384.1049140908481
 30
0.0
 10
548.6006563213708
 20
383.9459421159132
 30
0.0
 10
491.2860954043025
 20
383.9006717218425
 30
0.0
 10
443.2776228543412
 20
383.9553771259479
 30
0.0
 10
399.6346205164532
 20
383.9884144371077
 30
0.0
 10
351.0315075107341
 20
383.9813099873552
 30
0.0
 10
297.4873907578963
 20
384.0108484763959
 30
0.0
 10
243.9712237507391
 20
384.0665343896966
 30
0.0
 10
190.5007351602353
 20
384.1674146157246
 30
0.0
 10
137.0868090211153
 20
384.3162199053408
 30
0.0
 10
101.5297281314398
 20
384.4725477048621
 30
0.0
 10
83.75400697627977
 20
384.5506992095289
 30
0.0
  0
SPLINE
  5
144
330
1F
100
AcDbEntity
  8
0
  6
Continuous
 62
     7
370
    25
100
AcDbSpline
210
0.0
220
0.0
230
1.0
 70
     8
 71
     3
 72
    19
 73
    15
 74
     0
 42
0.00000001
 43
0.00000001
 40
0.0
 40
0.0
 40
0.0
 40
0.0
 40
0.0608446692434347
 40
0.107529128339547
 40
0.1526948063361093
 40
0.2035562060468125
 40
0.2498760161597095
 40
0.3354734726385531
 40
0.418109389472517
 40
0.4997412045824036
 40
0.6250261300895257
 40
0.7499635408780391
 40
0.8736339075657868
 40
1.0
 40
1.0
 40
1.0
 40
1.0
 10
83.75400697627988
 20
384.5506992095289
 30
0.0
 10
83.54771833291846
 20
385.2569046341618
 30
0.0
 10
83.18315002672483
 20
386.5049622649069
 30
0.0
 10
82.68449900726526
 20
388.262338195859
 30
0.0
 10
82.2327499740767
 20
389.8881910215344
 30
0.0
 10
81.8003034472115
 20
391.4862186561687
 30
0.0
 10
81.27069417508015
 20
393.4974347584584
 30
0.0
 10
80.6952142528869
 20
395.7825857932515
 30
0.0
 10
80.10465354820661
 20
398.2912835900657
 30
0.0
 10
79.52222254547686
 20
400.9851342886722
 30
0.0
 10
79.01365134614512
 20
403.7167235775843
 30
0.0
 10
78.68925837729091
 20
406.1685823748145
 30
0.0
 10
78.60126944152806
 20
407.9835619591325
 30
0.0
 10
78.76345667772961
 20
408.5240314768128
 30
0.0
 10
78.84542459294269
 20
408.7971797259477
 30
0.0
  0
SPLINE
  5
145
330
1F
100
AcDbEntity
  8
0
  6
Continuous
 62
     7
370
    25
100
AcDbSpline
210
0.0
220
0.0
230
1.0
 70
     8
 71
     3
 72
    15
 73
    11
 74
     0
 42
0.00000001
 43
0.00000001
 40
0.0
 40
0.0
 40
0.0
 40
0.0
 40
0.1250376113360681
 40
0.250043408115028
 40
0.3750272900897926
 40
0.4999999995596724
 40
0.6249727090532627
 40
0.7499565910939016
 40
0.8749623912712117
 40
1.0
 40
1.0
 40
1.0
 40
1.0
 10
60.76432535147996
 20
56.16267688547508
 30
0.0
 10
60.83607037066763
 20
54.97658165857378
 30
0.0
 10
60.97954215424761
 20
52.60469299472015
 30
0.0
 10
62.06623316222537
 20
49.18255008524031
 30
0.0
 10
63.74804062278189
 20
46.02666070270925
 30
0.0
 10
66.02425958017332
 20
43.25865799944342
 30
0.0
 10
68.79125767380334
 20
40.97968928896387
 30
0.0
 10
71.9479683726698
 20
39.293458548678
 30
0.0
 10
75.3725887746467
 20
38.20093167469562
 30
0.0
 10
77.74750741078101
 20
38.05255514576136
 30
0.0
 10
78.9351177880624
 20
37.97835744364808
 30
0.0
  0
SPLINE
  5
146
330
1F
100
AcDbEntity
  8
0
  6
Continuous
 62
     7
370
    25
100
AcDbSpline
210
0.0
220
0.0
230
1.0
 70
     8
 71
     3
 72
    15
 73
    11
 74
     0
 42
0.00000001
 43
0.00000001
 40
0.0
 40
0.0
 40
0.0
 40
0.0
 40
0.1250376097604498
 40
0.250043408112723
 40
0.3750272901014144
 40
0.4999999995782849
 40
0.6249727090648806
 40
0.7499565910915961
 40
0.8749623896955917
 40
1.0
 40
1.0
 40
1.0
 40
1.0
 10
729.0134418767817
 20
37.97835744364819
 30
0.0
 10
730.2010522639167
 20
38.05255514684097
 30
0.0
 10
732.5759708926254
 20
38.20093167623887
 30
0.0
 10
736.0005912859111
 20
39.29345854794802
 30
0.0
 10
739.157301971072
 20
40.97968927563478
 30
0.0
 10
741.9243000673383
 20
43.25865798209843
 30
0.0
 10
744.2005190287573
 20
46.02666068273986
 30
0.0
 10
745.8823265019015
 20
49.18255007898451
 30
0.0
 10
746.9690175121364
 20
52.60469299714812
 30
0.0
 10
747.1124892952363
 20
54.97658166841604
 30
0.0
 10
747.1842343133642
 20
56.16267688547527
 30
0.0
  0
SPLINE
  5
147
330
1F
100
AcDbEntity
  8
0
  6
Continuous
 62
     7
370
    25
100
AcDbSpline
210
0.0
220
0.0
230
1.0
 70
     8
 71
     3
 72
    15
 73
    11
 74
     0
 42
0.00000001
 43
0.00000001
 40
0.0
 40
0.0
 40
0.0
 40
0.0
 40
0.1251205002699858
 40
0.2501389713740367
 40
0.3750873298304121
 40
0.4999999995515604
 40
0.6249126693698837
 40
0.7498610278758799
 40
0.8748795058399488
 40
1.0
 40
1.0
 40
1.0
 40
1.0
 10
746.7458416673524
 20
391.1410269213819
 30
0.0
 10
746.6733605819602
 20
392.2878058405907
 30
0.0
 10
746.5284575156768
 20
394.5804285413101
 30
0.0
 10
745.4687647053312
 20
397.8886068456579
 30
0.0
 10
743.8348713584868
 20
400.940729283722
 30
0.0
 10
741.6273379327419
 20
403.6212282277546
 30
0.0
 10
738.9454531830794
 20
405.833873896714
 30
0.0
 10
735.8853507544889
 20
407.479324705403
 30
0.0
 10
732.56334669061
 20
408.5561827264372
 30
0.0
 10
730.2568525298984
 20
408.716825554163
 30
0.0
 10
729.1031351114774
 20
408.7971797261563
 30
0.0
  0
SPLINE
  5
148
330
1F
100
AcDbEntity
  8
0
  6
Continuous
 62
     7
370
    25
100
AcDbSpline
210
0.0
220
0.0
230
1.0
 70
     8
 71
     3
 72
    15
 73
    11
 74
     0
 42
0.00000001
 43
0.00000001
 40
0.0
 40
0.0
 40
0.0
 40
0.0
 40
0.1251204992662374
 40
0.2501389721454213
 40
0.3750873306520205
 40
0.5000000003893134
 40
0.6249126701915011
 40
0.7498610286472767
 40
0.8748795048362169
 40
0.9999999999999999
 40
0.9999999999999999
 40
0.9999999999999999
 40
0.9999999999999999
 10
61.2027179975545
 20
391.1410268816479
 30
0.0
 10
61.2751990820875
 20
392.2878057941726
 30
0.0
 10
61.42010214826282
 20
394.5804285069912
 30
0.0
 10
62.47979496312245
 20
397.8886068268973
 30
0.0
 10
64.11368832549658
 20
400.9407292847192
 30
0.0
 10
66.32122175996929
 20
403.6212282323152
 30
0.0
 10
69.00310651812086
 20
405.8338739024871
 30
0.0
 10
72.06320894064366
 20
407.4793247029725
 30
0.0
 10
75.38521300377305
 20
408.5561827242298
 30
0.0
 10
77.69170716263424
 20
408.716825552693
 30
0.0
 10
78.84542459294275
 20
408.7971797259478
 30
0.0
  0
CIRCLE
  5
149
330
1F
100
AcDbEntity
  8
0
  6
Continuous
 62
     7
370
    25
100
AcDbCircle
 10
403.9742798324
 20
306.1609481943
 30
0.0
 40
70.0
  0
CIRCLE
  5
14A
330
1F
100
AcDbEntity
  8
0
  6
Continuous
 62
     7
370
    25
100
AcDbCircle
 10
403.9742798324
 20
306.1609481943
 30
0.0
 40
58.9476507549463
  0
CIRCLE
  5
14B
330
1F
100
AcDbEntity
  8
0
  6
Continuous
 62
     7
370
    25
100
AcDbCircle
 10
403.9742798324
 20
306.1609481943
 30
0.0
 40
57.5
  0
LWPOLYLINE
  5
14C
330
1F
100
AcDbEntity
  8
0
  6
Continuous
 62
     7
370
    25
100
AcDbPolyline
 90
        3
 70
   128
 43
0.0
 10
359.7008627839
 20
298.1070955233
 10
360.5508586789
 20
294.3538954154
 10
360.5928535341
 20
294.2005195932
  0
LWPOLYLINE
  5
14D
330
1F
100
AcDbEntity
  8
0
  6
Continuous
 62
     7
370
    25
100
AcDbPolyline
 90
        3
 70
   128
 43
0.0
 10
382.6669705631
 20
266.5251238468
 10
385.6105172815
 20
265.0784430982
 10
386.2755521694
 20
264.7875867269
  0
LWPOLYLINE
  5
14E
330
1F
100
AcDbEntity
  8
0
  6
Continuous
 62
     7
370
    25
100
AcDbPolyline
 90
        3
 70
   128
 43
0.0
 10
421.6769585929
 20
264.7892771535
 10
424.1372851119
 20
265.9309442407
 10
425.2844415641
 20
266.5266573974
  0
LWPOLYLINE
  5
14F
330
1F
100
AcDbEntity
  8
0
  6
Continuous
 62
     7
370
    25
100
AcDbPolyline
 90
        3
 70
   128
 43
0.0
 10
447.3569354321
 20
294.2049792617
 10
447.8774647523
 20
296.2862150894
 10
448.2479559897
 20
298.1085200189
  0
LWPOLYLINE
  5
150
330
1F
100
AcDbEntity
  8
0
  6
Continuous
 62
     7
370
    25
100
AcDbPolyline
 90
        3
 70
   128
 43
0.0
 10
440.3716970703
 20
332.6227700971
 10
439.4211386317
 20
333.8831450997
 10
437.8749203052
 20
335.7539638489
  0
LWPOLYLINE
  5
151
330
1F
100
AcDbEntity
  8
0
  6
Continuous
 62
     7
370
    25
100
AcDbPolyline
 90
        3
 70
   128
 43
0.0
 10
405.9811083816
 20
351.1161774693
 10
404.9697737543
 20
351.1499356451
 10
401.9745390906
 20
351.1164933135
  0
LWPOLYLINE
  5
152
330
1F
100
AcDbEntity
  8
0
  6
Continuous
 62
     7
370
    25
100
AcDbPolyline
 90
        3
 70
   128
 43
0.0
 10
370.0792816593
 20
335.7604262107
 10
369.7883610262
 20
335.4239445441
 10
367.5778230301
 20
332.624091096
  0
LINE
  5
153
330
1F
100
AcDbEntity
  8
0
  6
Continuous
 62
     7
370
    25
100
AcDbLine
 10
385.8742798324
 20
413.0495276728
 30
0.0
 11
385.8742798324
 21
413.8801329277
 31
0.0
  0
LINE
  5
154
330
1F
100
AcDbEntity
  8
0
  6
Continuous
 62
     7
370
    25
100
AcDbLine
 10
422.0742798324
 20
413.0495276728
 30
0.0
 11
422.0742798324
 21
413.8801329277
 31
0.0
  0
ARC
  5
155
330
1F
100
AcDbEntity
  8
0
  6
Continuous
 62
     7
370
    25
100
AcDbCircle
 10
385.3736626431
 20
414.0228423846
 30
0.0
 40
0.9994828805509537
100
AcDbArc
 50
188.2089355861
 51
270.0353806424
  0
ARC
  5
156
330
1F
100
AcDbEntity
  8
0
  6
Continuous
 62
     7
370
    25
100
AcDbCircle
 10
422.5748970218
 20
414.0228423846
 30
0.0
 40
0.9994828805510263
100
AcDbArc
 50
269.9646193576
 51
351.7910644139
  0
ARC
  5
157
330
1F
100
AcDbEntity
  8
0
  6
Continuous
 62
     7
370
    25
100
AcDbCircle
 10
385.3737879982
 20
413.3951167895
 30
0.0
 40
0.9997886907828971
100
AcDbArc
 50
202.5330836883
 51
270.0281859832
  0
ARC
  5
158
330
1F
100
AcDbEntity
  8
0
  6
Continuous
 62
     7
370
    25
100
AcDbCircle
 10
422.5746359978
 20
413.3953203414
 30
0.0
 40
0.9999921850558984
100
AcDbArc
 50
269.9795930665
 51
337.436386386
  0
LINE
  5
159
330
1F
100
AcDbEntity
  8
0
  6
Continuous
 62
     7
370
    25
100
AcDbLine
 10
385.8742798324
 20
412.3677897764
 30
0.0
 11
385.8742798324
 21
412.3691602416
 31
0.0
  0
LINE
  5
15A
330
1F
100
AcDbEntity
  8
0
  6
Continuous
 62
     7
370
    25
100
AcDbLine
 10
422.0742798324
 20
412.3677897764
 30
0.0
 11
422.0742798324
 21
412.3691602416
 31
0.0
  0
LINE
  5
15B
330
1F
100
AcDbEntity
  8
0
  6
Continuous
 62
     7
370
    25
100
AcDbLine
 10
424.6674090698
 20
412.6437230091
 30
0.0
 11
422.910490778
 21
412.6437230091
 31
0.0
  0
LINE
  5
15C
330
1F
100
AcDbEntity
  8
0
  6
Continuous
 62
     7
370
    25
100
AcDbLine
 10
385.0380688868
 20
412.6437230091
 30
0.0
 11
383.281150595
 21
412.6437230091
 31
0.0
  0
LINE
  5
15D
330
1F
100
AcDbEntity
  8
0
  6
Continuous
 62
     7
370
    25
100
AcDbLine
 10
424.6674090698
 20
413.8801329277
 30
0.0
 11
424.6674090698
 21
413.8820515791
 31
0.0
  0
LWPOLYLINE
  5
15E
330
1F
100
AcDbEntity
  8
0
  6
Continuous
 62
     7
370
    25
100
AcDbPolyline
 90
        3
 70
   128
 43
0.0
 10
426.9934915157
 20
413.8317378812
 10
426.8153246241
 20
413.8452425478
 10
426.7935641265
 20
413.8500828562
  0
LINE
  5
15F
330
1F
100
AcDbEntity
  8
0
  6
Continuous
 62
     7
370
    25
100
AcDbLine
 10
383.281150595
 20
413.8801329277
 30
0.0
 11
383.281150595
 21
413.8820515791
 31
0.0
  0
LWPOLYLINE
  5
160
330
1F
100
AcDbEntity
  8
0
  6
Continuous
 62
     7
370
    25
100
AcDbPolyline
 90
        3
 70
   128
 43
0.0
 10
380.9550681492
 20
413.8317378812
 10
381.1332350408
 20
413.8452425478
 10
381.1549955383
 20
413.8500828562
  0
LWPOLYLINE
  5
161
330
1F
100
AcDbEntity
  8
0
  6
Continuous
 62
     7
370
    25
100
AcDbPolyline
 90
        3
 70
   128
 43
0.0
 10
379.9937080913
 20
413.7100001321
 10
380.2518403987
 20
413.7339702484
 10
380.389608298
 20
413.7670655246
  0
LWPOLYLINE
  5
162
330
1F
100
AcDbEntity
  8
0
  6
Continuous
 62
     7
370
    25
100
AcDbPolyline
 90
        3
 70
   128
 43
0.0
 10
427.5179943847
 20
413.7798081706
 10
427.6967192662
 20
413.7339702484
 10
427.9548515735
 20
413.7100001321
  0
ARC
  5
163
330
1F
100
AcDbEntity
  8
0
  6
Continuous
 62
     7
370
    25
100
AcDbCircle
 10
379.9944352088
 20
414.215330745
 30
0.0
 40
1.399556477686447
100
AcDbArc
 50
269.9702328807
 51
344.4939258484
  0
ARC
  5
164
330
1F
100
AcDbEntity
  8
0
  6
Continuous
 62
     7
370
    25
100
AcDbCircle
 10
427.9543237159
 20
414.2155962601
 30
0.0
 40
1.399821903443243
100
AcDbArc
 50
195.6820979174
 51
270.0216056174
  0
ARC
  5
165
330
1F
100
AcDbEntity
  8
0
  6
Continuous
 62
     7
370
    25
100
AcDbCircle
 10
380.6831465723
 20
413.9079890132
 30
0.0
 40
1.244034382824878
100
AcDbArc
 50
282.6256688066
 51
358.5135793326
  0
ARC
  5
166
330
1F
100
AcDbEntity
  8
0
  6
Continuous
 62
     7
370
    25
100
AcDbCircle
 10
427.2654130925
 20
413.9079890132
 30
0.0
 40
1.244034382824763
100
AcDbArc
 50
181.4864206674
 51
257.3743311934
  0
LINE
  5
167
330
1F
100
AcDbEntity
  8
0
  6
Continuous
 62
     7
370
    25
100
AcDbLine
 10
383.281150595
 20
412.6437230091
 30
0.0
 11
383.281150595
 21
413.8801329277
 31
0.0
  0
LINE
  5
168
330
1F
100
AcDbEntity
  8
0
  6
Continuous
 62
     7
370
    25
100
AcDbLine
 10
424.6674090698
 20
412.6437230091
 30
0.0
 11
424.6674090698
 21
413.8801329277
 31
0.0
  0
ARC
  5
169
330
1F
100
AcDbEntity
  8
0
  6
HIDDEN
 62
     7
370
    18
100
AcDbCircle
 10
728.9742798324
 20
391.1609481943
 30
0.0
 40
40.00000000000011
100
AcDbArc
 50
0.0
 51
90.0
  0
LINE
  5
16A
330
1F
100
AcDbEntity
  8
0
  6
HIDDEN
 62
     7
370
    18
100
AcDbLine
 10
78.9742798324
 20
16.1609481943
 30
0.0
 11
728.9742798324
 21
16.1609481943
 31
0.0
  0
LINE
  5
16B
330
1F
100
AcDbEntity
  8
0
  6
HIDDEN
 62
     7
370
    18
100
AcDbLine
 10
728.9742798324
 20
431.1609481943
 30
0.0
 11
78.9742798324
 21
431.1609481943
 31
0.0
  0
LINE
  5
16C
330
1F
100
AcDbEntity
  8
0
  6
HIDDEN
 62
     7
370
    18
100
AcDbLine
 10
768.9742798324
 20
56.1609481943
 30
0.0
 11
768.9742798324
 21
391.1609481943
 31
0.0
  0
LINE
  5
16D
330
1F
100
AcDbEntity
  8
0
  6
HIDDEN
 62
     7
370
    18
100
AcDbLine
 10
38.9742798324
 20
391.1609481943
 30
0.0
 11
38.9742798324
 21
56.1609481943
 31
0.0
  0
ARC
  5
16E
330
1F
100
AcDbEntity
  8
0
  6
HIDDEN
 62
     7
370
    18
100
AcDbCircle
 10
78.9742798324
 20
56.1609481943
 30
0.0
 40
40.00000000000004
100
AcDbArc
 50
180.0
 51
270.0
  0
ARC
  5
16F
330
1F
100
AcDbEntity
  8
0
  6
HIDDEN
 62
     7
370
    18
100
AcDbCircle
 10
728.9742798324
 20
56.1609481943
 30
0.0
 40
40.00000000000011
100
AcDbArc
 50
270.0
 51
0.0
  0
ARC
  5
170
330
1F
100
AcDbEntity
  8
0
  6
HIDDEN
 62
     7
370
    18
100
AcDbCircle
 10
78.9742798324
 20
391.1609481943
 30
0.0
 40
39.99999999999994
100
AcDbArc
 50
90.0
 51
180.0
  0
LINE
  5
171
330
1F
100
AcDbEntity
  8
0
  6
HIDDEN
 62
     7
370
    18
100
AcDbLine
 10
53.2498736567
 20
391.1609481943
 30
0.0
 11
52.5508329823
 21
391.1609481943
 31
0.0
  0
ARC
  5
172
330
1F
100
AcDbEntity
  8
0
  6
HIDDEN
 62
     7
370
    18
100
AcDbCircle
 10
78.9742798324
 20
391.1609481943
 30
0.0
 40
25.72440617574412
100
AcDbArc
 50
90.0
 51
180.0
  0
LINE
  5
173
330
1F
100
AcDbEntity
  8
0
  6
HIDDEN
 62
     7
370
    18
100
AcDbLine
 10
78.9742798324
 20
417.5843950443
 30
0.0
 11
78.9742798324
 21
416.88535437
 31
0.0
  0
ARC
  5
174
330
1F
100
AcDbEntity
  8
0
  6
HIDDEN
 62
     7
370
    18
100
AcDbCircle
 10
78.9742798324
 20
391.1609481943
 30
0.0
 40
26.42344685007225
100
AcDbArc
 50
90.0
 51
180.0
  0
LINE
  5
175
330
1F
100
AcDbEntity
  8
0
  6
HIDDEN
 62
     7
370
    18
100
AcDbLine
 10
78.9742798324
 20
417.5843950443
 30
0.0
 11
728.9742798324
 21
417.5843950443
 31
0.0
  0
LINE
  5
176
330
1F
100
AcDbEntity
  8
0
  6
HIDDEN
 62
     7
370
    18
100
AcDbLine
 10
755.3977266825
 20
391.1609481943
 30
0.0
 11
755.3977266825
 21
56.1609481943
 31
0.0
  0
LINE
  5
177
330
1F
100
AcDbEntity
  8
0
  6
HIDDEN
 62
     7
370
    18
100
AcDbLine
 10
52.5508329823
 20
56.1609481943
 30
0.0
 11
52.5508329823
 21
391.1609481943
 31
0.0
  0
LINE
  5
178
330
1F
100
AcDbEntity
  8
0
  6
HIDDEN
 62
     7
370
    18
100
AcDbLine
 10
728.9742798324
 20
29.7375013442
 30
0.0
 11
78.9742798324
 21
29.7375013442
 31
0.0
  0
ARC
  5
179
330
1F
100
AcDbEntity
  8
0
  6
HIDDEN
 62
     7
370
    18
100
AcDbCircle
 10
78.9742798324
 20
56.1609481943
 30
0.0
 40
25.72440617574412
100
AcDbArc
 50
180.0
 51
270.0
  0
LINE
  5
17A
330
1F
100
AcDbEntity
  8
0
  6
HIDDEN
 62
     7
370
    18
100
AcDbLine
 10
78.9742798324
 20
30.4365420185
 30
0.0
 11
78.9742798324
 21
29.7375013442
 31
0.0
  0
LINE
  5
17B
330
1F
100
AcDbEntity
  8
0
  6
HIDDEN
 62
     7
370
    18
100
AcDbLine
 10
53.2498736567
 20
56.1609481943
 30
0.0
 11
52.5508329823
 21
56.1609481943
 31
0.0
  0
ARC
  5
17C
330
1F
100
AcDbEntity
  8
0
  6
HIDDEN
 62
     7
370
    18
100
AcDbCircle
 10
78.9742798324
 20
56.1609481943
 30
0.0
 40
26.42344685007237
100
AcDbArc
 50
180.0
 51
270.0
  0
ARC
  5
17D
330
1F
100
AcDbEntity
  8
0
  6
HIDDEN
 62
     7
370
    18
100
AcDbCircle
 10
728.9742798324
 20
56.1609481943
 30
0.0
 40
25.72440617574421
100
AcDbArc
 50
270.0
 51
0.0
  0
LINE
  5
17E
330
1F
100
AcDbEntity
  8
0
  6
HIDDEN
 62
     7
370
    18
100
AcDbLine
 10
728.9742798324
 20
30.4365420185
 30
0.0
 11
728.9742798324
 21
29.7375013442
 31
0.0
  0
LINE
  5
17F
330
1F
100
AcDbEntity
  8
0
  6
HIDDEN
 62
     7
370
    18
100
AcDbLine
 10
755.3977266825
 20
56.1609481943
 30
0.0
 11
754.6986860082
 21
56.1609481943
 31
0.0
  0
ARC
  5
180
330
1F
100
AcDbEntity
  8
0
  6
HIDDEN
 62
     7
370
    18
100
AcDbCircle
 10
728.9742798324
 20
56.1609481943
 30
0.0
 40
26.42344685007242
100
AcDbArc
 50
270.0
 51
0.0
  0
ARC
  5
181
330
1F
100
AcDbEntity
  8
0
  6
HIDDEN
 62
     7
370
    18
100
AcDbCircle
 10
728.9742798324
 20
391.1609481943
 30
0.0
 40
25.72440617574409
100
AcDbArc
 50
0.0
 51
90.0
  0
LINE
  5
182
330
1F
100
AcDbEntity
  8
0
  6
HIDDEN
 62
     7
370
    18
100
AcDbLine
 10
755.3977266825
 20
391.1609481943
 30
0.0
 11
754.6986860082
 21
391.1609481943
 31
0.0
  0
LINE
  5
183
330
1F
100
AcDbEntity
  8
0
  6
HIDDEN
 62
     7
370
    18
100
AcDbLine
 10
728.9742798324
 20
417.5843950443
 30
0.0
 11
728.9742798324
 21
416.88535437
 31
0.0
  0
ARC
  5
184
330
1F
100
AcDbEntity
  8
0
  6
HIDDEN
 62
     7
370
    18
100
AcDbCircle
 10
728.9742798324
 20
391.1609481943
 30
0.0
 40
26.42344685007242
100
AcDbArc
 50
0.0
 51
90.0
  0
LINE
  5
185
330
1F
100
AcDbEntity
  8
0
  6
HIDDEN
 62
     7
370
    18
100
AcDbLine
 10
379.7242798324
 20
414.4377605336
 30
0.0
 11
379.7242798324
 21
413.2863694963
 31
0.0
  0
ARC
  5
186
330
1F
100
AcDbEntity
  8
0
  6
HIDDEN
 62
     7
370
    18
100
AcDbCircle
 10
380.4749645955
 20
418.0501161596
 30
0.0
 40
4.822531481002442
100
AcDbArc
 50
261.0448095014
 51
272.9633983003
  0
LINE
  5
187
330
1F
100
AcDbEntity
  8
0
  6
HIDDEN
 62
     7
370
    18
100
AcDbLine
 10
380.7242798324
 20
413.2340335401
 30
0.0
 11
427.2242798324
 21
413.2340335401
 31
0.0
  0
ARC
  5
188
330
1F
100
AcDbEntity
  8
0
  6
HIDDEN
 62
     7
370
    18
100
AcDbCircle
 10
427.4735950693
 20
418.0501161596
 30
0.0
 40
4.822531481002507
100
AcDbArc
 50
267.0366016998
 51
278.9551904986
  0
LINE
  5
189
330
1F
100
AcDbEntity
  8
0
  6
HIDDEN
 62
     7
370
    18
100
AcDbLine
 10
428.2242798324
 20
413.2863694963
 30
0.0
 11
428.2242798324
 21
414.4377605336
 31
0.0
  0
ARC
  5
18A
330
1F
100
AcDbEntity
  8
0
  6
HIDDEN
 62
     7
370
    18
100
AcDbCircle
 10
427.4735950693
 20
409.6740138704
 30
0.0
 40
4.82253148101239
100
AcDbArc
 50
81.0448095014
 51
92.9633983002
  0
LINE
  5
18B
330
1F
100
AcDbEntity
  8
0
  6
HIDDEN
 62
     7
370
    18
100
AcDbLine
 10
427.2242798324
 20
414.4900964899
 30
0.0
 11
380.7242798324
 21
414.4900964899
 31
0.0
  0
ARC
  5
18C
330
1F
100
AcDbEntity
  8
0
  6
HIDDEN
 62
     7
370
    18
100
AcDbCircle
 10
380.4749645955
 20
409.6740138704
 30
0.0
 40
4.822531481006733
100
AcDbArc
 50
87.0366016998
 51
98.9551904986
  0
LINE
  5
18D
330
1F
100
AcDbEntity
  8
0
  6
HIDDEN
 62
     7
370
    18
100
AcDbLine
 10
53.2498736567
 20
56.1609481943
 30
0.0
 11
59.9575011822
 21
56.1609481943
 31
0.0
  0
LINE
  5
18E
330
1F
100
AcDbEntity
  8
0
  6
HIDDEN
 62
     7
370
    18
100
AcDbLine
 10
53.2498736567
 20
391.1609481943
 30
0.0
 11
53.2498736567
 21
56.1609481943
 31
0.0
  0
LINE
  5
18F
330
1F
100
AcDbEntity
  8
0
  6
HIDDEN
 62
     7
370
    18
100
AcDbLine
 10
78.9742798324
 20
30.4365420185
 30
0.0
 11
78.9742798324
 21
37.1441695441
 31
0.0
  0
LINE
  5
190
330
1F
100
AcDbEntity
  8
0
  6
HIDDEN
 62
     7
370
    18
100
AcDbLine
 10
78.9742798324
 20
30.4365420185
 30
0.0
 11
728.9742798324
 21
30.4365420185
 31
0.0
  0
LINE
  5
191
330
1F
100
AcDbEntity
  8
0
  6
HIDDEN
 62
     7
370
    18
100
AcDbLine
 10
728.9742798324
 20
30.4365420185
 30
0.0
 11
728.9742798324
 21
37.1441695441
 31
0.0
  0
LINE
  5
192
330
1F
100
AcDbEntity
  8
0
  6
HIDDEN
 62
     7
370
    18
100
AcDbLine
 10
728.9742798324
 20
416.88535437
 30
0.0
 11
728.9742798324
 21
409.7591590398
 31
0.0
  0
LINE
  5
193
330
1F
100
AcDbEntity
  8
0
  6
HIDDEN
 62
     7
370
    18
100
AcDbLine
 10
728.9742798324
 20
416.88535437
 30
0.0
 11
78.9742798324
 21
416.88535437
 31
0.0
  0
LINE
  5
194
330
1F
100
AcDbEntity
  8
0
  6
HIDDEN
 62
     7
370
    18
100
AcDbLine
 10
78.9742798324
 20
416.88535437
 30
0.0
 11
78.9742798324
 21
409.7591590398
 31
0.0
  0
LINE
  5
195
330
1F
100
AcDbEntity
  8
0
  6
HIDDEN
 62
     7
370
    18
100
AcDbLine
 10
53.2498736567
 20
391.1609481943
 30
0.0
 11
60.3760689869
 21
391.1609481943
 31
0.0
  0
LINE
  5
196
330
1F
100
AcDbEntity
  8
0
  6
HIDDEN
 62
     7
370
    18
100
AcDbLine
 10
754.6986860082
 20
391.1609481943
 30
0.0
 11
747.572490678
 21
391.1609481943
 31
0.0
  0
LINE
  5
197
330
1F
100
AcDbEntity
  8
0
  6
HIDDEN
 62
     7
370
    18
100
AcDbLine
 10
754.6986860082
 20
56.1609481943
 30
0.0
 11
747.9910584826
 21
56.1609481943
 31
0.0
  0
LINE
  5
198
330
1F
100
AcDbEntity
  8
0
  6
HIDDEN
 62
     7
370
    18
100
AcDbLine
 10
754.6986860082
 20
56.1609481943
 30
0.0
 11
754.6986860082
 21
391.1609481943
 31
0.0
  0
LINE
  5
199
330
1F
100
AcDbEntity
  8
0
  6
HIDDEN
 62
     7
370
    18
100
AcDbLine
 10
428.2242798324
 20
414.4377605336
 30
0.0
 11
428.2242798324
 21
415.2366641614
 31
0.0
  0
LINE
  5
19A
330
1F
100
AcDbEntity
  8
0
  6
HIDDEN
 62
     7
370
    18
100
AcDbLine
 10
427.2242798324
 20
414.4900964899
 30
0.0
 11
427.2242798324
 21
415.2890001177
 31
0.0
  0
ARC
  5
19B
330
1F
100
AcDbEntity
  8
0
  6
HIDDEN
 62
     7
370
    18
100
AcDbCircle
 10
427.4735950693
 20
410.4729174982
 30
0.0
 40
4.822531481013525
100
AcDbArc
 50
81.0448095014
 51
92.9633983002
  0
LINE
  5
19C
330
1F
100
AcDbEntity
  8
0
  6
HIDDEN
 62
     7
370
    18
100
AcDbLine
 10
427.2242798324
 20
415.2890001177
 30
0.0
 11
380.7242798324
 21
415.2890001177
 31
0.0
  0
LINE
  5
19D
330
1F
100
AcDbEntity
  8
0
  6
HIDDEN
 62
     7
370
    18
100
AcDbLine
 10
379.7242798324
 20
414.4377605336
 30
0.0
 11
379.7242798324
 21
415.2366641614
 31
0.0
  0
LINE
  5
19E
330
1F
100
AcDbEntity
  8
0
  6
HIDDEN
 62
     7
370
    18
100
AcDbLine
 10
380.7242798324
 20
414.4900964899
 30
0.0
 11
380.7242798324
 21
415.2890001177
 31
0.0
  0
ARC
  5
19F
330
1F
100
AcDbEntity
  8
0
  6
HIDDEN
 62
     7
370
    18
100
AcDbCircle
 10
380.4749645955
 20
410.4729174982
 30
0.0
 40
4.822531481005882
100
AcDbArc
 50
87.0366016998
 51
98.9551904986
  0
LINE
  5
1A0
330
1F
100
AcDbEntity
  8
0
  6
HIDDEN
 62
     7
370
    18
100
AcDbLine
 10
428.2242798324
 20
414.0852731241
 30
0.0
 11
428.2242798324
 21
415.2366641614
 31
0.0
  0
LINE
  5
1A1
330
1F
100
AcDbEntity
  8
0
  6
HIDDEN
 62
     7
370
    18
100
AcDbLine
 10
379.7242798324
 20
415.2366641614
 30
0.0
 11
379.7242798324
 21
414.0852731241
 31
0.0
  0
LINE
  5
1A2
330
1F
100
AcDbEntity
  8
0
  6
HIDDEN
 62
     7
370
    18
100
AcDbLine
 10
427.2242798324
 20
413.2340335401
 30
0.0
 11
427.2242798324
 21
414.0329371679
 31
0.0
  0
LINE
  5
1A3
330
1F
100
AcDbEntity
  8
0
  6
HIDDEN
 62
     7
370
    18
100
AcDbLine
 10
428.2242798324
 20
413.2863694963
 30
0.0
 11
428.2242798324
 21
414.0852731241
 31
0.0
  0
ARC
  5
1A4
330
1F
100
AcDbEntity
  8
0
  6
HIDDEN
 62
     7
370
    18
100
AcDbCircle
 10
427.4735950693
 20
418.8490197874
 30
0.0
 40
4.822531481002451
100
AcDbArc
 50
267.0366016998
 51
278.9551904986
  0
LINE
  5
1A5
330
1F
100
AcDbEntity
  8
0
  6
HIDDEN
 62
     7
370
    18
100
AcDbLine
 10
380.7242798324
 20
413.2340335401
 30
0.0
 11
380.7242798324
 21
414.0329371679
 31
0.0
  0
LINE
  5
1A6
330
1F
100
AcDbEntity
  8
0
  6
HIDDEN
 62
     7
370
    18
100
AcDbLine
 10
379.7242798324
 20
413.2863694963
 30
0.0
 11
379.7242798324
 21
414.0852731241
 31
0.0
  0
ARC
  5
1A7
330
1F
100
AcDbEntity
  8
0
  6
HIDDEN
 62
     7
370
    18
100
AcDbCircle
 10
380.4749645955
 20
418.8490197874
 30
0.0
 40
4.822531481002442
100
AcDbArc
 50
261.0448095014
 51
272.9633983003
  0
LINE
  5
1A8
330
1F
100
AcDbEntity
  8
0
  6
HIDDEN
 62
     7
370
    18
100
AcDbLine
 10
380.7242798324
 20
414.0329371679
 30
0.0
 11
427.2242798324
 21
414.0329371679
 31
0.0
  0
SPLINE
  5
1A9
330
1F
100
AcDbEntity
  8
0
  6
HIDDEN
 62
     7
370
    18
100
AcDbSpline
210
0.0
220
0.0
230
1.0
 70
     8
 71
     3
 72
    18
 73
    14
 74
     0
 42
0.00000001
 43
0.00000001
 40
0.0
 40
0.0
 40
0.0
 40
0.0
 40
0.1043473809118468
 40
0.2087035112791014
 40
0.3130489385998035
 40
0.3915992349711326
 40
0.4701600121770649
 40
0.5487204403907365
 40
0.6272702607996452
 40
0.7203943990175075
 40
0.8135190504140822
 40
0.9067593904458224
 40
1.0
 40
1.0
 40
1.0
 40
1.0
 10
728.9742798324216
 20
37.14416954407218
 30
0.0
 10
706.4227454275342
 20
37.25241825908427
 30
0.0
 10
661.3177856872643
 20
37.468924765688
 30
0.0
 10
593.5293872177172
 20
37.70957823487478
 30
0.0
 10
531.2623622922778
 20
37.87080174599319
 30
0.0
 10
474.5451780708516
 20
37.96214007143736
 30
0.0
 10
423.4027660716358
 20
38.00096797812633
 30
0.0
 10
372.2550236337498
 20
37.99605269893178
 30
0.0
 10
317.9559041571166
 20
37.94356146932976
 30
0.0
 10
260.5232575349543
 20
37.83444352793086
 30
0.0
 10
199.9566610852385
 20
37.66083773044052
 30
0.0
 10
139.4244140672654
 20
37.43597307773697
 30
0.0
 10
99.12434399270992
 20
37.2414374823484
 30
0.0
 10
78.97427983242223
 20
37.14416954407218
 30
0.0
  0
SPLINE
  5
1AA
330
1F
100
AcDbEntity
  8
0
  6
HIDDEN
 62
     7
370
    18
100
AcDbSpline
210
0.0
220
0.0
230
1.0
 70
     8
 71
     3
 72
    13
 73
     9
 74
     0
 42
0.00000001
 43
0.00000001
 40
0.0
 40
0.0
 40
0.0
 40
0.0
 40
0.1664467888479024
 40
0.3329058828164801
 40
0.4993526511719714
 40
0.6662306324225252
 40
0.8331205582564102
 40
1.0
 40
1.0
 40
1.0
 40
1.0
 10
747.5447452951643
 20
391.1410269213778
 30
0.0
 10
747.5240787899762
 20
372.5458568725043
 30
0.0
 10
747.4827442517613
 20
335.3541420662813
 30
0.0
 10
747.4844501297792
 20
279.5519729519608
 30
0.0
 10
747.5326570598464
 20
223.7109688280934
 30
0.0
 10
747.6329136462258
 20
167.847051724377
 30
0.0
 10
747.7782302899204
 20
111.9696186162201
 30
0.0
 10
747.9148368210763
 20
74.76460124453499
 30
0.0
 10
747.983137941168
 20
56.16267688547536
 30
0.0
  0
SPLINE
  5
1AB
330
1F
100
AcDbEntity
  8
0
  6
HIDDEN
 62
     7
370
    18
100
AcDbSpline
210
0.0
220
0.0
230
1.0
 70
     8
 71
     3
 72
    13
 73
     9
 74
     0
 42
0.00000001
 43
0.00000001
 40
0.0
 40
0.0
 40
0.0
 40
0.0
 40
0.1664531964948745
 40
0.3329167963565641
 40
0.4993685470697714
 40
0.6662415529067768
 40
0.8331269769045215
 40
0.9999999999999999
 40
0.9999999999999999
 40
0.9999999999999999
 40
0.9999999999999999
 10
59.96542172367631
 20
56.16267688547519
 30
0.0
 10
60.03355966909085
 20
74.71707067580213
 30
0.0
 10
60.16983981855878
 20
111.8270179107534
 30
0.0
 10
60.31497431581123
 20
167.5615245061392
 30
0.0
 10
60.41545675763926
 20
223.3776123284779
 30
0.0
 10
60.46402336208118
 20
279.2661621590915
 30
0.0
 10
60.46593606857231
 20
335.2112543361793
 30
0.0
 10
60.42452108975161
 20
372.4982311696837
 30
0.0
 10
60.40381436973458
 20
391.1410268816376
 30
0.0
  0
SPLINE
  5
1AC
330
1F
100
AcDbEntity
  8
0
  6
HIDDEN
 62
     7
370
    18
100
AcDbSpline
210
0.0
220
0.0
230
1.0
 70
     8
 71
     3
 72
    19
 73
    15
 74
     0
 42
0.00000001
 43
0.00000001
 40
0.0
 40
0.0
 40
0.0
 40
0.0
 40
0.0833990047370871
 40
0.1668019915658995
 40
0.2502006629755815
 40
0.3337799527584239
 40
0.417363206138469
 40
0.5009345119150097
 40
0.5840018761185213
 40
0.6670808683654397
 40
0.750155970676597
 40
0.8334357716092352
 40
0.9167198684243635
 40
1.0
 40
1.0
 40
1.0
 40
1.0
 10
78.97427983242223
 20
409.7591590398114
 30
0.0
 10
96.9962196482686
 20
409.6690398782486
 30
0.0
 10
133.0409597820458
 20
409.4887972521606
 30
0.0
 10
187.1920318984181
 20
409.2682685440817
 30
0.0
 10
241.4325962968167
 20
409.0858424242277
 30
0.0
 10
295.7559895978677
 20
408.942575729428
 30
0.0
 10
350.1557952834513
 20
408.8464319747489
 30
0.0
 10
404.4735623052647
 20
408.8110824743945
 30
0.0
 10
458.6814324798509
 20
408.8477035874262
 30
0.0
 10
512.7526186866023
 20
408.9439217252926
 30
0.0
 10
566.8312977961549
 20
409.0868332158871
 30
0.0
 10
620.9109491019901
 20
409.268866034488
 30
0.0
 10
674.9846973645654
 20
409.4891669496008
 30
0.0
 10
710.9780379631181
 20
409.6691631047414
 30
0.0
 10
728.9742798324221
 20
409.7591590398114
 30
0.0
  0
SPLINE
  5
1AD
330
1F
100
AcDbEntity
  8
0
  6
HIDDEN
 62
     7
370
    18
100
AcDbSpline
210
0.0
220
0.0
230
1.0
 70
     8
 71
     3
 72
    17
 73
    13
 74
     0
 42
0.00000001
 43
0.00000001
 40
0.0
 40
0.0
 40
0.0
 40
0.0
 40
0.1265180989635812
 40
0.2503377698587919
 40
0.3754127934808756
 40
0.5007400283776562
 40
0.6248601516843449
 40
0.7503615931620184
 40
0.8089277452365983
 40
0.8745590881460298
 40
0.9261751566332426
 40
1.0
 40
1.0
 40
1.0
 40
1.0
 10
59.96542172367631
 20
56.16267688547519
 30
0.0
 10
60.13215486801104
 20
56.10814157852634
 30
0.0
 10
60.46206500621432
 20
56.0002341152307
 30
0.0
 10
62.01334144940574
 20
56.14298479725532
 30
0.0
 10
64.25396698101382
 20
56.50128490139081
 30
0.0
 10
67.1844369766404
 20
57.08581110412031
 30
0.0
 10
70.67494725805435
 20
57.86755336776447
 30
0.0
 10
73.91371845897571
 20
58.64990401309986
 30
0.0
 10
76.6911522832075
 20
59.34868315039071
 30
0.0
 10
78.71000241154319
 20
59.86746181758215
 30
0.0
 10
80.94936608566967
 20
60.45401465037717
 30
0.0
 10
82.44921780076892
 20
60.85435516603843
 30
0.0
 10
83.33191481168872
 20
61.08996470861305
 30
0.0
  0
SPLINE
  5
1AE
330
1F
100
AcDbEntity
  8
0
  6
HIDDEN
 62
     7
370
    18
100
AcDbSpline
210
0.0
220
0.0
230
1.0
 70
     8
 71
     3
 72
    20
 73
    16
 74
     0
 42
0.00000001
 43
0.00000001
 40
0.0
 40
0.0
 40
0.0
 40
0.0
 40
0.126462468648449
 40
0.2502285383220851
 40
0.3331388415195642
 40
0.4163270348723496
 40
0.5007154690649239
 40
0.5615017067791785
 40
0.6249014997906356
 40
0.6856405922892583
 40
0.7504675956384597
 40
0.8090105419090875
 40
0.8746124721086127
 40
0.9262087618954289
 40
1.0
 40
1.0
 40
1.0
 40
1.0
 10
78.93339760869839
 20
37.18058054257126
 30
0.0
 10
78.84410307544142
 20
37.38202685542777
 30
0.0
 10
78.66741792311255
 20
37.78062429667003
 30
0.0
 10
78.70844000782468
 20
39.24842300309169
 30
0.0
 10
78.88579127752016
 20
40.95692073502946
 30
0.0
 10
79.14653859787995
 20
42.74945529795315
 30
0.0
 10
79.47573023373167
 20
44.63690170385015
 30
0.0
 10
79.84483100973088
 20
46.53779192625255
 30
0.0
 10
80.22052792406647
 20
48.34392375065092
 30
0.0
 10
80.65079013983501
 20
50.29708590492357
 30
0.0
 10
81.11108066823914
 20
52.29200062495048
 30
0.0
 10
81.62126897362842
 20
54.41537201947355
 30
0.0
 10
82.12626234399212
 20
56.44893304142179
 30
0.0
 10
82.70162811508425
 20
58.70062504616974
 30
0.0
 10
83.09840781373784
 20
60.20476828186322
 30
0.0
 10
83.33191481168883
 20
61.08996470861292
 30
0.0
  0
SPLINE
  5
1AF
330
1F
100
AcDbEntity
  8
0
  6
HIDDEN
 62
     7
370
    18
100
AcDbSpline
210
0.0
220
0.0
230
1.0
 70
     8
 71
     3
 72
    19
 73
    15
 74
     0
 42
0.00000001
 43
0.00000001
 40
0.0
 40
0.0
 40
0.0
 40
0.0
 40
0.0608180752857343
 40
0.1074420820842668
 40
0.1525282006559537
 40
0.2033324558656822
 40
0.2496162629275809
 40
0.3351408161791147
 40
0.4177354931063501
 40
0.4993618509083898
 40
0.6246635870470552
 40
0.7497131632258124
 40
0.8735076420839345
 40
1.0
 40
1.0
 40
1.0
 40
1.0
 10
724.6166448531554
 20
61.08996470861269
 30
0.0
 10
725.3441863310904
 20
60.89559002661576
 30
0.0
 10
726.6294715168636
 20
60.55220493196909
 30
0.0
 10
728.4259204376365
 20
60.07990577824976
 30
0.0
 10
730.0799170170799
 20
59.65063477294108
 30
0.0
 10
731.6969717858816
 20
59.23784520885034
 30
0.0
 10
733.7210693343811
 20
58.72983337771922
 30
0.0
 10
736.001867572078
 20
58.17385247431839
 30
0.0
 10
738.4757054176008
 20
57.59698200885197
 30
0.0
 10
741.0957124459073
 20
57.01970585141316
 30
0.0
 10
743.6948356590644
 20
56.50122536904864
 30
0.0
 10
745.9351542486734
 20
56.14300047003287
 30
0.0
 10
747.486510988703
 20
56.00023011407801
 30
0.0
 10
747.8164102791653
 20
56.10814023525826
 30
0.0
 10
747.983137941168
 20
56.16267688547541
 30
0.0
  0
SPLINE
  5
1B0
330
1F
100
AcDbEntity
  8
0
  6
HIDDEN
 62
     7
370
    18
100
AcDbSpline
210
0.0
220
0.0
230
1.0
 70
     8
 71
     3
 72
    17
 73
    13
 74
     0
 42
0.00000001
 43
0.00000001
 40
0.0
 40
0.0
 40
0.0
 40
0.0
 40
0.1265165149845684
 40
0.2503354786400629
 40
0.3754104773338721
 40
0.5007381487658875
 40
0.6248589039476529
 40
0.7503609590505204
 40
0.8089283825837331
 40
0.8745588913011804
 40
0.9261676594788322
 40
1.0
 40
1.0
 40
1.0
 40
1.0
 10
729.0151620561455
 20
37.1805805425712
 30
0.0
 10
729.1043984188643
 20
37.38225823564751
 30
0.0
 10
729.2809684704184
 20
37.7813135039137
 30
0.0
 10
729.2356128859385
 20
39.43126411153519
 30
0.0
 10
728.9662419234921
 20
41.76240784613275
 30
0.0
 10
728.4595841505039
 20
44.77261660070606
 30
0.0
 10
727.7425033636158
 20
48.32984608418525
 30
0.0
 10
727.0009844364414
 20
51.61125104892444
 30
0.0
 10
726.3273257706711
 20
54.41527769046883
 30
0.0
 10
725.822319965787
 20
56.44883475942888
 30
0.0
 10
725.2469615493842
 20
58.70050364617369
 30
0.0
 10
724.8501820209733
 20
60.20465106791145
 30
0.0
 10
724.6166448531554
 20
61.08996470861289
 30
0.0
  0
SPLINE
  5
1B1
330
1F
100
AcDbEntity
  8
0
  6
HIDDEN
 62
     7
370
    18
100
AcDbSpline
210
0.0
220
0.0
230
1.0
 70
     8
 71
     3
 72
    15
 73
    11
 74
     0
 42
0.00000001
 43
0.00000001
 40
0.0
 40
0.0
 40
0.0
 40
0.0
 40
0.1250281940178433
 40
0.2500321928452942
 40
0.3750201111317801
 40
0.5000000201302671
 40
0.6249799258188026
 40
0.7499678222409556
 40
0.8749717744069557
 40
1.0
 40
1.0
 40
1.0
 40
1.0
 10
729.0151620561459
 20
37.1805805425714
 30
0.0
 10
730.2547596291738
 20
37.25805172570498
 30
0.0
 10
732.7337148909418
 20
37.41297909991339
 30
0.0
 10
736.3084864349074
 20
38.55342557565264
 30
0.0
 10
739.6037734839372
 20
40.31364103253748
 30
0.0
 10
742.4923417685529
 20
42.69262504515387
 30
0.0
 10
744.8686065821543
 20
45.58207851120688
 30
0.0
 10
746.6243029665492
 20
48.87638672644987
 30
0.0
 10
747.7587143393107
 20
52.44848446398803
 30
0.0
 10
747.9083252324132
 20
54.92453261906016
 30
0.0
 10
747.9831379411678
 20
56.16267688547513
 30
0.0
  0
LINE
  5
1B2
330
1F
100
AcDbEntity
  8
0
  6
HIDDEN
 62
     7
370
    18
100
AcDbLine
 10
728.9742798324
 20
37.1441695441
 30
0.0
 11
729.0151620561
 21
37.1805805426
 31
0.0
  0
LINE
  5
1B3
330
1F
100
AcDbEntity
  8
0
  6
HIDDEN
 62
     7
370
    18
100
AcDbLine
 10
747.9831379412
 20
56.1626768855
 30
0.0
 11
747.9910584826
 21
56.1609481943
 31
0.0
  0
SPLINE
  5
1B4
330
1F
100
AcDbEntity
  8
0
  6
HIDDEN
 62
     7
370
    18
100
AcDbSpline
210
0.0
220
0.0
230
1.0
 70
     8
 71
     3
 72
    15
 73
    11
 74
     0
 42
0.00000001
 43
0.00000001
 40
0.0
 40
0.0
 40
0.0
 40
0.0
 40
0.1277182841907618
 40
0.2499901528610234
 40
0.3758103316526775
 40
0.5000000007252856
 40
0.6241879589858743
 40
0.7500098483107004
 40
0.8722807902562897
 40
1.0
 40
1.0
 40
1.0
 40
1.0
 10
747.9910584826207
 20
56.16094819427081
 30
0.0
 10
747.9144346336577
 20
54.89103680449975
 30
0.0
 10
747.7644544813527
 20
52.40536809652799
 30
0.0
 10
746.61999853668
 20
48.81550173462148
 30
0.0
 10
744.8711240960034
 20
45.53399777367695
 30
0.0
 10
742.4912279399701
 20
42.64402405467485
 30
0.0
 10
739.6012449116392
 20
40.264113763822
 30
0.0
 10
736.3197506874363
 20
38.51523895604378
 30
0.0
 10
732.7298692541308
 20
37.37077554241225
 30
0.0
 10
730.2442004699268
 20
37.22079443608276
 30
0.0
 10
728.9742798324221
 20
37.14416954407221
 30
0.0
  0
SPLINE
  5
1B5
330
1F
100
AcDbEntity
  8
0
  6
HIDDEN
 62
     7
370
    18
100
AcDbSpline
210
0.0
220
0.0
230
1.0
 70
     8
 71
     3
 72
    15
 73
    11
 74
     0
 42
0.00000001
 43
0.00000001
 40
0.0
 40
0.0
 40
0.0
 40
0.0
 40
0.1250282266246822
 40
0.2500321769656672
 40
0.3750200733358317
 40
0.4999999790076428
 40
0.6249798880228584
 40
0.7499678063613202
 40
0.8749718070137753
 40
1.0
 40
1.0
 40
1.0
 40
1.0
 10
59.96542172367641
 20
56.16267688547491
 30
0.0
 10
60.04023443350404
 20
54.92453260873572
 30
0.0
 10
60.18984532704297
 20
52.44848446130435
 30
0.0
 10
61.32425669757608
 20
48.87638673302694
 30
0.0
 10
63.07995306877456
 20
45.58207853201365
 30
0.0
 10
65.45621787820166
 20
42.69262506326665
 30
0.0
 10
68.34478616006434
 20
40.31364104645615
 30
0.0
 10
71.64007322340149
 20
38.55342557641981
 30
0.0
 10
75.21484477641633
 20
37.41297909827407
 30
0.0
 10
77.693800045949
 20
37.25805172456836
 30
0.0
 10
78.93339760869827
 20
37.1805805425712
 30
0.0
  0
LINE
  5
1B6
330
1F
100
AcDbEntity
  8
0
  6
HIDDEN
 62
     7
370
    18
100
AcDbLine
 10
78.9742798324
 20
37.1441695441
 30
0.0
 11
78.9333976087
 21
37.1805805426
 31
0.0
  0
LINE
  5
1B7
330
1F
100
AcDbEntity
  8
0
  6
HIDDEN
 62
     7
370
    18
100
AcDbLine
 10
59.9575011822
 20
56.1609481943
 30
0.0
 11
59.9654217237
 21
56.1626768855
 31
0.0
  0
SPLINE
  5
1B8
330
1F
100
AcDbEntity
  8
0
  6
HIDDEN
 62
     7
370
    18
100
AcDbSpline
210
0.0
220
0.0
230
1.0
 70
     8
 71
     3
 72
    15
 73
    11
 74
     0
 42
0.00000001
 43
0.00000001
 40
0.0
 40
0.0
 40
0.0
 40
0.0
 40
0.127718283464048
 40
0.2499901528613081
 40
0.3758103316063959
 40
0.5000000007256236
 40
0.6241879589741223
 40
0.7500098483109837
 40
0.8722807895680691
 40
1.0
 40
1.0
 40
1.0
 40
1.0
 10
78.97427983242223
 20
37.14416954407218
 30
0.0
 10
77.70436844990903
 20
37.22079339222387
 30
0.0
 10
75.21869974199736
 20
37.37077354379439
 30
0.0
 10
71.62883337959053
 20
38.51522948643787
 30
0.0
 10
68.34732941226784
 20
40.26410393045393
 30
0.0
 10
65.45735569321226
 20
42.64400008628863
 30
0.0
 10
63.07744540201188
 20
45.53398311491122
 30
0.0
 10
61.32857059748503
 20
48.8154773331054
 30
0.0
 10
60.18410718202733
 20
52.40535876563218
 30
0.0
 10
60.03412607500241
 20
54.89102754989278
 30
0.0
 10
59.9575011822236
 20
56.16094819427078
 30
0.0
  0
LINE
  5
1B9
330
1F
100
AcDbEntity
  8
0
  6
HIDDEN
 62
     7
370
    18
100
AcDbLine
 10
78.8396105331
 20
409.5908737409
 30
0.0
 11
78.9742798324
 21
409.7591590398
 31
0.0
  0
SPLINE
  5
1BA
330
1F
100
AcDbEntity
  8
0
  6
HIDDEN
 62
     7
370
    18
100
AcDbSpline
210
0.0
220
0.0
230
1.0
 70
     8
 71
     3
 72
    15
 73
    11
 74
     0
 42
0.00000001
 43
0.00000001
 40
0.0
 40
0.0
 40
0.0
 40
0.0
 40
0.1277180745356168
 40
0.2499899209359619
 40
0.3758101638219189
 40
0.500000000732317
 40
0.6241880850179633
 40
0.7500100802447418
 40
0.8722809776889016
 40
1.0
 40
1.0
 40
1.0
 40
1.0
 10
60.37606898688163
 20
391.1609481942708
 30
0.0
 10
60.45100338340459
 20
392.4029088827711
 30
0.0
 10
60.59767678049638
 20
394.8338698524902
 30
0.0
 10
61.71693768139613
 20
398.3447249454803
 30
0.0
 10
63.42731660430173
 20
401.5540057854652
 30
0.0
 10
65.75483105177577
 20
404.3803729611797
 30
0.0
 10
68.5812075543763
 20
406.7079015703082
 30
0.0
 10
71.79047864271033
 20
408.4182808630836
 30
0.0
 10
75.30134883626916
 20
409.5375492461915
 30
0.0
 10
77.73230988254903
 20
409.6842235987258
 30
0.0
 10
78.97427983242223
 20
409.7591590398114
 30
0.0
  0
LINE
  5
1BB
330
1F
100
AcDbEntity
  8
0
  6
HIDDEN
 62
     7
370
    18
100
AcDbLine
 10
60.4038143698
 20
391.1410268816
 30
0.0
 11
60.3760689869
 21
391.1609481943
 31
0.0
  0
LINE
  5
1BC
330
1F
100
AcDbEntity
  8
0
  6
HIDDEN
 62
     7
370
    18
100
AcDbLine
 10
729.1089491713
 20
409.5908737411
 30
0.0
 11
728.9742798324
 21
409.7591590398
 31
0.0
  0
LINE
  5
1BD
330
1F
100
AcDbEntity
  8
0
  6
HIDDEN
 62
     7
370
    18
100
AcDbLine
 10
747.572490678
 20
391.1609481943
 30
0.0
 11
747.5447452951
 21
391.1410269214
 31
0.0
  0
SPLINE
  5
1BE
330
1F
100
AcDbEntity
  8
0
  6
HIDDEN
 62
     7
370
    18
100
AcDbSpline
210
0.0
220
0.0
230
1.0
 70
     8
 71
     3
 72
    15
 73
    11
 74
     0
 42
0.00000001
 43
0.00000001
 40
0.0
 40
0.0
 40
0.0
 40
0.0
 40
0.127718073837545
 40
0.2499899209360494
 40
0.3758101631945824
 40
0.5000000007323088
 40
0.6241880856653252
 40
0.7500100802446533
 40
0.8722809784092675
 40
1.0
 40
1.0
 40
1.0
 40
1.0
 10
728.9742798324221
 20
409.7591590398114
 30
0.0
 10
730.2162405141037
 20
409.6842246440535
 30
0.0
 10
732.6472014837642
 20
409.5375512476576
 30
0.0
 10
736.1580565717998
 20
408.4182903503567
 30
0.0
 10
739.3673374183356
 20
406.7079114258894
 30
0.0
 10
742.193704600343
 20
404.3803969756545
 30
0.0
 10
744.5212332120701
 20
401.5540204668671
 30
0.0
 10
746.231612506456
 20
398.3447493717728
 30
0.0
 10
747.3508808858503
 20
394.8338791833266
 30
0.0
 10
747.4975552376667
 20
392.4029181371075
 30
0.0
 10
747.5724906779627
 20
391.1609481942708
 30
0.0
  0
SPLINE
  5
1BF
330
1F
100
AcDbEntity
  8
0
  6
HIDDEN
 62
     7
370
    18
100
AcDbSpline
210
0.0
220
0.0
230
1.0
 70
     8
 71
     3
 72
    15
 73
    11
 74
     0
 42
0.00000001
 43
0.00000001
 40
0.0
 40
0.0
 40
0.0
 40
0.0
 40
0.1251111767192463
 40
0.2501278029766589
 40
0.3750801300819188
 40
0.4999999410193077
 40
0.6249197737553951
 40
0.7498721647364723
 40
0.8748888729543397
 40
1.0
 40
1.0
 40
1.0
 40
1.0
 10
747.544745295148
 20
391.1410269213863
 30
0.0
 10
747.4690913134716
 20
392.339465416112
 30
0.0
 10
747.3178405242187
 20
394.7354367077982
 30
0.0
 10
746.2105051204451
 20
398.1921910516013
 30
0.0
 10
744.5030765856822
 20
401.3814454345026
 30
0.0
 10
742.1961273856213
 20
404.1823668366819
 30
0.0
 10
739.3934953281864
 20
406.4944160035961
 30
0.0
 10
736.1957226902773
 20
408.2137559461275
 30
0.0
 10
732.7244569591313
 20
409.3389707890554
 30
0.0
 10
730.3144216824375
 20
409.5068849622008
 30
0.0
 10
729.1089491712742
 20
409.5908737410867
 30
0.0
  0
SPLINE
  5
1C0
330
1F
100
AcDbEntity
  8
0
  6
HIDDEN
 62
     7
370
    18
100
AcDbSpline
210
0.0
220
0.0
230
1.0
 70
     8
 71
     3
 72
    19
 73
    15
 74
     0
 42
0.00000001
 43
0.00000001
 40
0.0
 40
0.0
 40
0.0
 40
0.0
 40
0.0607958101258973
 40
0.1074193650280332
 40
0.152519868329891
 40
0.203328890102749
 40
0.2496069398334972
 40
0.335138187073233
 40
0.4177325154632532
 40
0.4993479741245409
 40
0.624655026637008
 40
0.7496724474692775
 40
0.8734702244688046
 40
1.0
 40
1.0
 40
1.0
 40
1.0
 10
724.2721171182511
 20
384.5696869403073
 30
0.0
 10
724.4783042103086
 20
385.2987269455576
 30
0.0
 10
724.8426136332757
 20
386.5868587145369
 30
0.0
 10
725.3402875799816
 20
388.4003851150346
 30
0.0
 10
725.7907526831467
 20
390.0779278008387
 30
0.0
 10
726.2216010908171
 20
391.7268578099996
 30
0.0
 10
726.7488073099879
 20
393.8024427557385
 30
0.0
 10
727.3207795637645
 20
396.1607633354583
 30
0.0
 10
727.9062344829971
 20
398.7496255072014
 30
0.0
 10
728.4817408926968
 20
401.5297779918606
 30
0.0
 10
728.9808956812418
 20
404.3487476504563
 30
0.0
 10
729.2929969557321
 20
406.8787109376315
 30
0.0
 10
729.3674490337298
 20
408.7514166851585
 30
0.0
 10
729.1957404504553
 20
409.3090261957546
 30
0.0
 10
729.1089491712739
 20
409.5908737410868
 30
0.0
  0
SPLINE
  5
1C1
330
1F
100
AcDbEntity
  8
0
  6
HIDDEN
 62
     7
370
    18
100
AcDbSpline
210
0.0
220
0.0
230
1.0
 70
     8
 71
     3
 72
    19
 73
    15
 74
     0
 42
0.00000001
 43
0.00000001
 40
0.0
 40
0.0
 40
0.0
 40
0.0
 40
0.0607475748692037
 40
0.1073868304101334
 40
0.1525213256035398
 40
0.2033309072804745
 40
0.249604698781739
 40
0.3351366742433864
 40
0.4177291192909492
 40
0.4993408563959901
 40
0.6246460649782057
 40
0.7496634209237704
 40
0.8734638883147485
 40
0.9999999999999999
 40
0.9999999999999999
 40
0.9999999999999999
 40
0.9999999999999999
 10
724.2721171182511
 20
384.5696869403072
 30
0.0
 10
724.9951339825011
 20
384.7809283205419
 30
0.0
 10
726.2732506736127
 20
385.1543513308219
 30
0.0
 10
728.0602291894083
 20
385.678000964628
 30
0.0
 10
729.706341259358
 20
386.1600657802185
 30
0.0
 10
731.3154283914533
 20
386.6305801494017
 30
0.0
 10
733.3291544339634
 20
387.2187784083814
 30
0.0
 10
735.5986597388821
 20
387.8784786622273
 30
0.0
 10
738.0612845735548
 20
388.5888619269738
 30
0.0
 10
740.6708533930208
 20
389.3333705679872
 30
0.0
 10
743.2616221640029
 20
390.0589041944941
 30
0.0
 10
745.4974460840631
 20
390.6632086969984
 30
0.0
 10
747.0477093849881
 20
391.0583466016434
 30
0.0
 10
747.3778640299961
 20
391.1132667614381
 30
0.0
 10
747.5447452951643
 20
391.1410269213764
 30
0.0
  0
SPLINE
  5
1C2
330
1F
100
AcDbEntity
  8
0
  6
HIDDEN
 62
     7
370
    18
100
AcDbSpline
210
0.0
220
0.0
230
1.0
 70
     8
 71
     3
 72
    15
 73
    11
 74
     0
 42
0.00000001
 43
0.00000001
 40
0.0
 40
0.0
 40
0.0
 40
0.0
 40
0.1251111757151389
 40
0.2501278037479903
 40
0.3750801309039258
 40
0.4999999418577091
 40
0.6249197745776627
 40
0.7498721655083315
 40
0.8748888719508772
 40
1.0
 40
1.0
 40
1.0
 40
1.0
 10
60.40381436974273
 20
391.1410268816434
 30
0.0
 10
60.47946835071766
 20
392.3394653687382
 30
0.0
 10
60.6307191402487
 20
394.7354366717864
 30
0.0
 10
61.73805454865489
 20
398.192191031439
 30
0.0
 10
63.4454830995711
 20
401.3814454345277
 30
0.0
 10
65.75243230846722
 20
404.1823668403806
 30
0.0
 10
68.5550643744267
 20
406.4944160085564
 30
0.0
 10
71.75283700553825
 20
408.213755942719
 30
0.0
 10
75.22410273538965
 20
409.3389707862032
 30
0.0
 10
77.63413800975788
 20
409.5068849604889
 30
0.0
 10
78.83961053314653
 20
409.5908737408779
 30
0.0
  0
SPLINE
  5
1C3
330
1F
100
AcDbEntity
  8
0
  6
HIDDEN
 62
     7
370
    18
100
AcDbSpline
210
0.0
220
0.0
230
1.0
 70
     8
 71
     3
 72
    19
 73
    15
 74
     0
 42
0.00000001
 43
0.00000001
 40
0.0
 40
0.0
 40
0.0
 40
0.0
 40
0.06077353541063
 40
0.1074045172227122
 40
0.1525206580706513
 40
0.2033300708436766
 40
0.2496069461249774
 40
0.3351393252489477
 40
0.417733662058507
 40
0.4993479783861605
 40
0.6246550298957896
 40
0.7496724493738386
 40
0.8734702251014694
 40
1.0
 40
1.0
 40
1.0
 40
1.0
 10
83.67644254659318
 20
384.5696869403073
 30
0.0
 10
83.47032904469381
 20
385.2984593575521
 30
0.0
 10
83.10606652458513
 20
386.5864122322785
 30
0.0
 10
82.60838766432721
 20
388.3999558382085
 30
0.0
 10
82.15784620052635
 20
390.0777786611802
 30
0.0
 10
81.72695271128121
 20
391.7268801954968
 30
0.0
 10
81.19974628264754
 20
393.8024686073592
 30
0.0
 10
80.62777388240089
 20
396.1607880656314
 30
0.0
 10
80.04232106689469
 20
398.7496480377756
 30
0.0
 10
79.46681710836673
 20
401.5297876592549
 30
0.0
 10
78.9676642675326
 20
404.3487476921612
 30
0.0
 10
78.6555628875999
 20
406.8787109393751
 30
0.0
 10
78.58111076559653
 20
408.7514166861617
 30
0.0
 10
78.75281928567951
 20
409.3090261954645
 30
0.0
 10
78.8396105331467
 20
409.590873740878
 30
0.0
  0
SPLINE
  5
1C4
330
1F
100
AcDbEntity
  8
0
  6
HIDDEN
 62
     7
370
    18
100
AcDbSpline
210
0.0
220
0.0
230
1.0
 70
     8
 71
     3
 72
    20
 73
    16
 74
     0
 42
0.00000001
 43
0.00000001
 40
0.0
 40
0.0
 40
0.0
 40
0.0
 40
0.1265078619302404
 40
0.250280689661406
 40
0.3331508343175951
 40
0.4163315960210396
 40
0.5007382577157969
 40
0.5615083537445651
 40
0.6249251835948215
 40
0.6856425842205264
 40
0.7504792157457706
 40
0.8090127694808407
 40
0.874627703459871
 40
0.9262736659337554
 40
1.0
 40
1.0
 40
1.0
 40
1.0
 10
60.40381436973458
 20
391.1410268816382
 30
0.0
 10
60.57047138668187
 20
391.1133332218458
 30
0.0
 10
60.9001823825206
 20
391.058544624787
 30
0.0
 10
62.27936276138441
 20
390.7068912084169
 30
0.0
 10
63.91353216499019
 20
390.2685268442495
 30
0.0
 10
65.64430127000476
 20
389.7910783353212
 30
0.0
 10
67.47836337395213
 20
389.275478784188
 30
0.0
 10
69.33329477277978
 20
388.7470211338484
 30
0.0
 10
71.10051733217676
 20
388.2393792234167
 30
0.0
 10
73.01668922573695
 20
387.6846221374503
 30
0.0
 10
74.9780953730344
 20
387.1141953243681
 30
0.0
 10
77.07062381335788
 20
386.5026676999915
 30
0.0
 10
79.07940739014235
 20
385.9152301485025
 30
0.0
 10
81.30698467374242
 20
385.2619868850012
 30
0.0
 10
82.79903097345654
 20
384.8260459963244
 30
0.0
 10
83.67644254659318
 20
384.5696869403072
 30
0.0
  0
SPLINE
  5
1C5
330
1F
100
AcDbEntity
  8
0
  6
HIDDEN
 62
     7
370
    18
100
AcDbSpline
210
0.0
220
0.0
230
1.0
 70
     8
 71
     3
 72
    20
 73
    16
 74
     0
 42
0.00000001
 43
0.00000001
 40
0.0
 40
0.0
 40
0.0
 40
0.0
 40
0.080405001731434
 40
0.1608463940677719
 40
0.2412958193563471
 40
0.3217429985452782
 40
0.4021813276970433
 40
0.4506071840282727
 40
0.4990326142608648
 40
0.582500376193979
 40
0.6659867414887739
 40
0.749491484900585
 40
0.8330064703921034
 40
0.9165164745615954
 40
1.0
 40
1.0
 40
1.0
 40
1.0
 10
724.2721171182509
 20
384.5696869403073
 30
0.0
 10
707.1466796061331
 20
384.4914045873299
 30
0.0
 10
672.8880537577337
 20
384.3348044514625
 30
0.0
 10
621.4213422550174
 20
384.1515185929343
 30
0.0
 10
569.9013719420776
 20
384.0149864201667
 30
0.0
 10
518.3376116951091
 20
383.941539520431
 30
0.0
 10
473.5868085863623
 20
383.940355472684
 30
0.0
 10
435.6684272540252
 20
383.9918814199253
 30
0.0
 10
397.0941435224348
 20
384.0172545450413
 30
0.0
 10
351.0187418306108
 20
384.0104621621953
 30
0.0
 10
297.461666143078
 20
384.0379407861026
 30
0.0
 10
243.9325133058817
 20
384.091182600136
 30
0.0
 10
190.4490558903358
 20
384.1894979436539
 30
0.0
 10
137.022171713968
 20
384.3360826140088
 30
0.0
 10
101.4564724864677
 20
384.491827063228
 30
0.0
 10
83.67644254659345
 20
384.5696869403073
 30
0.0
  0
SPLINE
  5
1C6
330
1F
100
AcDbEntity
  8
0
  6
HIDDEN
 62
     7
370
    18
100
AcDbSpline
210
0.0
220
0.0
230
1.0
 70
     8
 71
     3
 72
    13
 73
     9
 74
     0
 42
0.00000001
 43
0.00000001
 40
0.0
 40
0.0
 40
0.0
 40
0.0
 40
0.1594094839133727
 40
0.3188389409559185
 40
0.4782684811653945
 40
0.6378537866891973
 40
0.7974393902382643
 40
1.0
 40
1.0
 40
1.0
 40
1.0
 10
83.67644254659318
 20
384.5696869403073
 30
0.0
 10
83.689381526528
 20
367.372049188896
 30
0.0
 10
83.71526110758049
 20
332.9746189169099
 30
0.0
 10
83.71410241805727
 20
281.3655133735425
 30
0.0
 10
83.68403631800602
 20
229.7447612874071
 30
0.0
 10
83.61948228334847
 20
178.1268867942605
 30
0.0
 10
83.51361929712498
 20
121.8863018434824
 30
0.0
 10
83.39709229824032
 20
82.89764015746651
 30
0.0
 10
83.33191481168872
 20
61.08996470861264
 30
0.0
  0
SPLINE
  5
1C7
330
1F
100
AcDbEntity
  8
0
  6
HIDDEN
 62
     7
370
    18
100
AcDbSpline
210
0.0
220
0.0
230
1.0
 70
     8
 71
     3
 72
    13
 73
     9
 74
     0
 42
0.00000001
 43
0.00000001
 40
0.0
 40
0.0
 40
0.0
 40
0.0
 40
0.1594088255218999
 40
0.3188362447535017
 40
0.4782633603390516
 40
0.6378424130333816
 40
0.7974213379319381
 40
1.0
 40
1.0
 40
1.0
 40
1.0
 10
724.6166448531555
 20
61.08996470861266
 30
0.0
 10
724.5643925833691
 20
78.25049053061842
 30
0.0
 10
724.4598819490049
 20
112.5735438068132
 30
0.0
 10
724.3524508077554
 20
164.1179155392892
 30
0.0
 10
724.27845596386
 20
215.7106143203328
 30
0.0
 10
724.2396733847778
 20
267.3426011419447
 30
0.0
 10
724.229051378701
 20
323.6418613659702
 30
0.0
 10
724.2566688449839
 20
362.714037672772
 30
0.0
 10
724.2721171182511
 20
384.5696869403072
 30
0.0
  0
SPLINE
  5
1C8
330
1F
100
AcDbEntity
  8
0
  6
HIDDEN
 62
     7
370
    18
100
AcDbSpline
210
0.0
220
0.0
230
1.0
 70
     8
 71
     3
 72
    19
 73
    15
 74
     0
 42
0.00000001
 43
0.00000001
 40
0.0
 40
0.0
 40
0.0
 40
0.0
 40
0.0924294005212661
 40
0.1848585506429481
 40
0.2773926657143927
 40
0.3699263234409466
 40
0.4676409911097726
 40
0.5653554898902786
 40
0.6632246619481447
 40
0.7610944075958856
 40
0.8208070371592515
 40
0.8805197282554069
 40
0.9402598453113593
 40
1.0
 40
1.0
 40
1.0
 40
1.0
 10
83.3319148116885
 20
61.08996470861289
 30
0.0
 10
103.0407345496994
 20
61.17212757052631
 30
0.0
 10
142.4583206327504
 20
61.33645307176658
 30
0.0
 10
201.7073198335111
 20
61.51298801927224
 30
0.0
 10
261.0345914106089
 20
61.63733608231023
 30
0.0
 10
321.5419038784937
 20
61.71107097799372
 30
0.0
 10
383.1891611542145
 20
61.7421696323254
 30
0.0
 10
445.9873784189626
 20
61.73524392948013
 30
0.0
 10
508.8013397683112
 20
61.69015321502513
 30
0.0
 10
563.445693556184
 20
61.60614077807672
 30
0.0
 10
609.8914498532918
 20
61.49869557579674
 30
0.0
 10
648.1602139336021
 20
61.38672232669926
 30
0.0
 10
686.4073875297044
 20
61.25294732386929
 30
0.0
 10
711.8802230709467
 20
61.14429225843937
 30
0.0
 10
724.6166448531559
 20
61.08996470861286
 30
0.0
  0
CIRCLE
  5
1C9
330
1F
100
AcDbEntity
  8
0
  6
HIDDEN
 62
     7
370
    18
100
AcDbCircle
 10
403.9742798324
 20
306.1609481943
 30
0.0
 40
70.027919597362
  0
CIRCLE
  5
1CA
330
1F
100
AcDbEntity
  8
0
  6
HIDDEN
 62
     7
370
    18
100
AcDbCircle
 10
403.9742798324
 20
306.1609481943
 30
0.0
 40
58.29999999999998
  0
CIRCLE
  5
1CB
330
1F
100
AcDbEntity
  8
0
  6
HIDDEN
 62
     7
370
    18
100
AcDbCircle
 10
403.9742798324
 20
306.1609481943
 30
0.0
 40
58.97557035230821
  0
CIRCLE
  5
1CC
330
1F
100
AcDbEntity
  8
0
  6
HIDDEN
 62
     7
370
    18
100
AcDbCircle
 10
403.9742798324
 20
306.1609481943
 30
0.0
 40
56.58715574274763
  0
CIRCLE
  5
1CD
330
1F
100
AcDbEntity
  8
0
  6
HIDDEN
 62
     7
370
    18
100
AcDbCircle
 10
403.9742798324
 20
306.1609481943
 30
0.0
 40
57.49999999999997
  0
CIRCLE
  5
1CE
330
1F
100
AcDbEntity
  8
0
  6
HIDDEN
 62
     7
370
    18
100
AcDbCircle
 10
403.9742798324
 20
306.1609481943
 30
0.0
 40
56.65688033694576
  0
CIRCLE
  5
1CF
330
1F
100
AcDbEntity
  8
0
  6
HIDDEN
 62
     7
370
    18
100
AcDbCircle
 10
403.9742798324
 20
306.1609481943
 30
0.0
 40
58.29999999999998
  0
ARC
  5
1D0
330
1F
100
AcDbEntity
  8
0
  6
HIDDEN
 62
     7
370
    18
100
AcDbCircle
 10
403.9742798324
 20
306.1609481943
 30
0.0
 40
44.99999999999996
100
AcDbArc
 50
180.0
 51
190.3100332571
  0
ARC
  5
1D1
330
1F
100
AcDbEntity
  8
0
  6
HIDDEN
 62
     7
370
    18
100
AcDbCircle
 10
403.9742798324
 20
306.1609481943
 30
0.0
 40
45.00000000000001
100
AcDbArc
 50
195.4137396658
 51
241.738545679
  0
ARC
  5
1D2
330
1F
100
AcDbEntity
  8
0
  6
HIDDEN
 62
     7
370
    18
100
AcDbCircle
 10
403.9742798324
 20
306.1609481943
 30
0.0
 40
45.00000000000002
100
AcDbArc
 50
246.8396932048
 51
293.1657785727
  0
ARC
  5
1D3
330
1F
100
AcDbEntity
  8
0
  6
HIDDEN
 62
     7
370
    18
100
AcDbCircle
 10
403.9742798324
 20
306.1609481943
 30
0.0
 40
45.00000000000001
100
AcDbArc
 50
298.2655777931
 51
344.5921503334
  0
ARC
  5
1D4
330
1F
100
AcDbEntity
  8
0
  6
HIDDEN
 62
     7
370
    18
100
AcDbCircle
 10
403.9742798324
 20
306.1609481943
 30
0.0
 40
45.00000000000001
100
AcDbArc
 50
349.6918102271
 51
36.0180781525
  0
ARC
  5
1D5
330
1F
100
AcDbEntity
  8
0
  6
HIDDEN
 62
     7
370
    18
100
AcDbCircle
 10
403.9742798324
 20
306.1609481943
 30
0.0
 40
45.00000000000004
100
AcDbArc
 50
41.1188075331
 51
87.4439788094
  0
ARC
  5
1D6
330
1F
100
AcDbEntity
  8
0
  6
HIDDEN
 62
     7
370
    18
100
AcDbCircle
 10
403.9742798324
 20
306.1609481943
 30
0.0
 40
45.00000000000001
100
AcDbArc
 50
92.5469877584
 51
138.8702694617
  0
ARC
  5
1D7
330
1F
100
AcDbEntity
  8
0
  6
HIDDEN
 62
     7
370
    18
100
AcDbCircle
 10
403.9742798324
 20
306.1609481943
 30
0.0
 40
44.99999999999999
100
AcDbArc
 50
143.9798423411
 51
180.0
  0
CIRCLE
  5
1D8
330
1F
100
AcDbEntity
  8
0
  6
HIDDEN
 62
     7
370
    18
100
AcDbCircle
 10
403.9742798324
 20
306.1609481943
 30
0.0
 40
45.00000000000006
  0
CIRCLE
  5
1D9
330
1F
100
AcDbEntity
  8
0
  6
HIDDEN
 62
     7
370
    18
100
AcDbCircle
 10
403.9742798324
 20
306.1609481943
 30
0.0
 40
45.03492875432676
  0
ENDSEC
  0
SECTION
  2
OBJECTS
  0
DICTIONARY
  5
C
330
0
100
AcDbDictionary
281
     1
  3
ACAD_DETAILVIEWSTYLE
350
1E1
  3
ACAD_GROUP
350
D
  3
ACAD_LAYOUT
350
1A
  3
ACAD_MATERIAL
350
43
  3
ACAD_MLEADERSTYLE
350
5B
  3
ACAD_MLINESTYLE
350
17
  3
ACAD_PLOTSETTINGS
350
19
  3
ACAD_PLOTSTYLENAME
350
E
  3
ACAD_SCALELIST
350
47
  3
ACAD_SECTIONVIEWSTYLE
350
1E2
  3
ACAD_TABLESTYLE
350
59
  3
ACAD_VISUALSTYLE
350
2A
  3
ACDB_RECOMPOSE_DATA
350
1DE
  3
AcDbVariableDictionary
350
1DA
  0
SUN
  5
5D
330
29
100
AcDbSun
 90
        1
290
     0
 63
     7
421
 16777215
 40
1.0
291
     1
 91
  2455826
 92
 54000000
292
     0
 70
     2
 71
   256
280
     1
  0
DICTIONARY
  5
1E1
102
{ACAD_REACTORS
330
C
102
}
330
C
100
AcDbDictionary
281
     1
  0
DICTIONARY
  5
D
102
{ACAD_REACTORS
330
C
102
}
330
C
100
AcDbDictionary
281
     1
  0
DICTIONARY
  5
1A
102
{ACAD_REACTORS
330
C
102
}
330
C
100
AcDbDictionary
281
     1
  3
Layout1
350
1E
  3
Layout2
350
26
  3
Model
350
22
  0
DICTIONARY
  5
43
102
{ACAD_REACTORS
330
C
102
}
330
C
100
AcDbDictionary
281
     1
  3
ByBlock
350
45
  3
ByLayer
350
44
  3
Global
350
46
  0
DICTIONARY
  5
5B
102
{ACAD_REACTORS
330
C
102
}
330
C
100
AcDbDictionary
281
     1
  3
Standard
350
5C
  0
DICTIONARY
  5
17
102
{ACAD_REACTORS
330
C
102
}
330
C
100
AcDbDictionary
281
     1
  3
Standard
350
18
  0
DICTIONARY
  5
19
102
{ACAD_REACTORS
330
C
102
}
330
C
100
AcDbDictionary
281
     1
  0
ACDBDICTIONARYWDFLT
  5
E
102
{ACAD_REACTORS
330
C
102
}
330
C
100
AcDbDictionary
281
     1
  3
Normal
350
F
100
AcDbDictionaryWithDefault
340
F
  0
DICTIONARY
  5
47
102
{ACAD_REACTORS
330
C
102
}
330
C
100
AcDbDictionary
281
     1
  3
A0
350
48
  3
A1
350
49
  3
A2
350
4A
  3
A3
350
4B
  3
A4
350
4C
  3
A5
350
4D
  3
A6
350
4E
  3
A7
350
4F
  3
A8
350
50
  3
A9
350
51
  3
B0
350
52
  3
B1
350
53
  3
B2
350
54
  3
B3
350
55
  3
B4
350
56
  3
B5
350
57
  3
B6
350
58
  0
DICTIONARY
  5
1E2
102
{ACAD_REACTORS
330
C
102
}
330
C
100
AcDbDictionary
281
     1
  0
DICTIONARY
  5
59
102
{ACAD_REACTORS
330
C
102
}
330
C
100
AcDbDictionary
281
     1
  3
Standard
350
5A
  0
DICTIONARY
  5
2A
102
{ACAD_REACTORS
330
C
102
}
330
C
100
AcDbDictionary
281
     1
  3
2dWireframe
350
2F
  3
Basic
350
32
  3
Brighten
350
36
  3
ColorChange
350
3A
  3
Conceptual
350
34
  3
Dim
350
35
  3
EdgeColorOff
350
3D
  3
Facepattern
350
39
  3
Flat
350
2B
  3
FlatWithEdges
350
2C
  3
Gouraud
350
2D
  3
GouraudWithEdges
350
2E
  3
Hidden
350
31
  3
JitterOff
350
3B
  3
Linepattern
350
38
  3
OverhangOff
350
3C
  3
Realistic
350
33
  3
Shaded
350
42
  3
Shaded with edges
350
41
  3
Shades of Gray
350
3E
  3
Sketchy
350
3F
  3
Thicken
350
37
  3
Wireframe
350
30
  3
X-Ray
350
40
  0
XRECORD
  5
1DE
102
{ACAD_REACTORS
330
C
102
}
330
C
100
AcDbXrecord
280
     1
 90
        1
330
5A
  0
DICTIONARY
  5
1DA
102
{ACAD_REACTORS
330
C
102
}
330
C
100
AcDbDictionary
281
     1
  3
CANNOSCALE
350
1DB
  3
CENTEREXE
350
1E3
  3
CENTERLTYPEFILE
350
1E4
  3
CMLEADERSTYLE
350
1E0
  3
CTABLESTYLE
350
1DF
  0
LAYOUT
  5
1E
102
{ACAD_REACTORS
330
1A
102
}
330
1A
100
AcDbPlotSettings
  1

  2
none_device
  4

  6

 40
0.0
 41
0.0
 42
0.0
 43
0.0
 44
0.0
 45
0.0
 46
0.0
 47
0.0
 48
0.0
 49
0.0
140
0.0
141
0.0
142
1.0
143
1.0
 70
   688
 72
     1
 73
     0
 74
     5
  7

 75
    16
 76
     0
 77
     2
 78
   300
147
1.0
148
0.0
149
0.0
100
AcDbLayout
  1
Layout1
 70
     1
 71
     1
 10
0.0
 20
0.0
 11
420.0
 21
297.0
 12
0.0
 22
0.0
 32
0.0
 14
1.0000000000E+20
 24
1.0000000000E+20
 34
1.0000000000E+20
 15
-1.0000000000E+20
 25
-1.0000000000E+20
 35
-1.0000000000E+20
146
0.0
 13
0.0
 23
0.0
 33
0.0
 16
1.0
 26
0.0
 36
0.0
 17
0.0
 27
1.0
 37
0.0
 76
     0
330
1B
  0
LAYOUT
  5
26
102
{ACAD_REACTORS
330
1A
102
}
330
1A
100
AcDbPlotSettings
  1

  2
none_device
  4

  6

 40
0.0
 41
0.0
 42
0.0
 43
0.0
 44
0.0
 45
0.0
 46
0.0
 47
0.0
 48
0.0
 49
0.0
140
0.0
141
0.0
142
1.0
143
1.0
 70
   688
 72
     1
 73
     0
 74
     5
  7

 75
    16
 76
     0
 77
     2
 78
   300
147
1.0
148
0.0
149
0.0
100
AcDbLayout
  1
Layout2
 70
     1
 71
     2
 10
0.0
 20
0.0
 11
0.0
 21
0.0
 12
0.0
 22
0.0
 32
0.0
 14
0.0
 24
0.0
 34
0.0
 15
0.0
 25
0.0
 35
0.0
146
0.0
 13
0.0
 23
0.0
 33
0.0
 16
1.0
 26
0.0
 36
0.0
 17
0.0
 27
1.0
 37
0.0
 76
     0
330
23
  0
LAYOUT
  5
22
102
{ACAD_REACTORS
330
1A
102
}
330
1A
100
AcDbPlotSettings
  1

  2
none_device
  4
Letter_(8.50_x_11.00_Inches)
  6

 40
6.35
 41
6.35
 42
6.35000508
 43
6.35000508
 44
215.9
 45
279.4
 46
0.0
 47
0.0
 48
0.0
 49
0.0
140
0.0
141
0.0
142
1.0
143
1.0
 70
  1712
 72
     1
 73
     0
 74
     0
  7

 75
     0
 76
     0
 77
     2
 78
   300
147
1.0
148
0.0
149
0.0
100
AcDbLayout
  1
Model
 70
     1
 71
     0
 10
0.0
 20
0.0
 11
800.0
 21
450.0
 12
0.0
 22
0.0
 32
0.0
 14
0.0
 24
0.0
 34
0.0
 15
800.0
 25
450.0
 35
0.0
146
0.0
 13
0.0
 23
0.0
 33
0.0
 16
1.0
 26
0.0
 36
0.0
 17
0.0
 27
1.0
 37
0.0
 76
     0
330
1F
331
29
  0
MATERIAL
  5
45
102
{ACAD_REACTORS
330
43
102
}
330
43
100
AcDbMaterial
  1
ByBlock
 72
     1
 94
      127
  0
MATERIAL
  5
44
102
{ACAD_REACTORS
330
43
102
}
330
43
100
AcDbMaterial
  1
ByLayer
 72
     1
 94
      127
  0
MATERIAL
  5
46
102
{ACAD_REACTORS
330
43
102
}
330
43
100
AcDbMaterial
  1
Global
 72
     1
 94
      127
  0
MLEADERSTYLE
  5
5C
102
{ACAD_REACTORS
330
5B
102
}
330
5B
100
AcDbMLeaderStyle
179
     2
170
     2
171
     1
172
     0
 90
        2
 40
0.0
 41
0.0
173
     1
 91
-1056964608
340
14
 92
       -2
290
     1
 42
2.0
291
     1
 43
8.0
  3
Standard
341
0
 44
4.0
300

342
11
174
     1
178
     6
175
     1
176
     0
 93
-1056964608
 45
4.0
292
     0
297
     0
 46
4.0
343
0
 94
-1056964608
 47
1.0
 49
1.0
140
1.0
293
     1
141
0.0
294
     1
177
     0
142
1.0
295
     0
296
     0
143
3.75
271
     0
272
     9
273
     9
298
     0
  0
MLINESTYLE
  5
18
102
{ACAD_REACTORS
330
17
102
}
330
17
100
AcDbMlineStyle
  2
Standard
 70
     0
  3

 62
   256
 51
90.0
 52
90.0
 71
     2
 49
0.5
 62
   256
  6
BYLAYER
 49
-0.5
 62
   256
  6
BYLAYER
  0
ACDBPLACEHOLDER
  5
F
102
{ACAD_REACTORS
330
E
102
}
330
E
  0
SCALE
  5
48
102
{ACAD_REACTORS
330
47
102
}
330
47
100
AcDbScale
 70
     0
300
1:1
140
1.0
141
1.0
290
     1
  0
SCALE
  5
49
102
{ACAD_REACTORS
330
47
102
}
330
47
100
AcDbScale
 70
     0
300
1:2
140
1.0
141
2.0
290
     0
  0
SCALE
  5
4A
102
{ACAD_REACTORS
330
47
102
}
330
47
100
AcDbScale
 70
     0
300
1:4
140
1.0
141
4.0
290
     0
  0
SCALE
  5
4B
102
{ACAD_REACTORS
330
47
102
}
330
47
100
AcDbScale
 70
     0
300
1:5
140
1.0
141
5.0
290
     0
  0
SCALE
  5
4C
102
{ACAD_REACTORS
330
47
102
}
330
47
100
AcDbScale
 70
     0
300
1:8
140
1.0
141
8.0
290
     0
  0
SCALE
  5
4D
102
{ACAD_REACTORS
330
47
102
}
330
47
100
AcDbScale
 70
     0
300
1:10
140
1.0
141
10.0
290
     0
  0
SCALE
  5
4E
102
{ACAD_REACTORS
330
47
102
}
330
47
100
AcDbScale
 70
     0
300
1:16
140
1.0
141
16.0
290
     0
  0
SCALE
  5
4F
102
{ACAD_REACTORS
330
47
102
}
330
47
100
AcDbScale
 70
     0
300
1:20
140
1.0
141
20.0
290
     0
  0
SCALE
  5
50
102
{ACAD_REACTORS
330
47
102
}
330
47
100
AcDbScale
 70
     0
300
1:30
140
1.0
141
30.0
290
     0
  0
SCALE
  5
51
102
{ACAD_REACTORS
330
47
102
}
330
47
100
AcDbScale
 70
     0
300
1:40
140
1.0
141
40.0
290
     0
  0
SCALE
  5
52
102
{ACAD_REACTORS
330
47
102
}
330
47
100
AcDbScale
 70
     0
300
1:50
140
1.0
141
50.0
290
     0
  0
SCALE
  5
53
102
{ACAD_REACTORS
330
47
102
}
330
47
100
AcDbScale
 70
     0
300
1:100
140
1.0
141
100.0
290
     0
  0
SCALE
  5
54
102
{ACAD_REACTORS
330
47
102
}
330
47
100
AcDbScale
 70
     0
300
2:1
140
2.0
141
1.0
290
     0
  0
SCALE
  5
55
102
{ACAD_REACTORS
330
47
102
}
330
47
100
AcDbScale
 70
     0
300
4:1
140
4.0
141
1.0
290
     0
  0
SCALE
  5
56
102
{ACAD_REACTORS
330
47
102
}
330
47
100
AcDbScale
 70
     0
300
8:1
140
8.0
141
1.0
290
     0
  0
SCALE
  5
57
102
{ACAD_REACTORS
330
47
102
}
330
47
100
AcDbScale
 70
     0
300
10:1
140
10.0
141
1.0
290
     0
  0
SCALE
  5
58
102
{ACAD_REACTORS
330
47
102
}
330
47
100
AcDbScale
 70
     0
300
100:1
140
100.0
141
1.0
290
     0
  0
TABLESTYLE
  5
5A
102
{ACAD_REACTORS
330
59
102
}
102
{ACAD_XDICTIONARY
360
1DC
102
}
330
59
100
AcDbTableStyle
  3
Standard
 70
     0
 71
     0
 40
0.06
 41
0.06
280
     0
281
     0
  7
Standard
140
4.5
170
     2
 62
     0
 63
   257
283
     0
 90
        4
 91
        0
  1

274
    -2
284
     1
 64
     0
275
    -2
285
     1
 65
     0
276
    -2
286
     1
 66
     0
277
    -2
287
     1
 67
     0
278
    -2
288
     1
 68
     0
279
    -2
289
     1
 69
     0
  7
Standard
140
6.0
170
     5
 62
     0
 63
   257
283
     0
 90
        4
 91
        0
  1

274
    -2
284
     1
 64
     0
275
    -2
285
     1
 65
     0
276
    -2
286
     1
 66
     0
277
    -2
287
     1
 67
     0
278
    -2
288
     1
 68
     0
279
    -2
289
     1
 69
     0
  7
Standard
140
4.5
170
     5
 62
     0
 63
   257
283
     0
 90
        4
 91
        0
  1

274
    -2
284
     1
 64
     0
275
    -2
285
     1
 65
     0
276
    -2
286
     1
 66
     0
277
    -2
287
     1
 67
     0
278
    -2
288
     1
 68
     0
279
    -2
289
     1
 69
     0
  0
VISUALSTYLE
  5
2F
102
{ACAD_REACTORS
330
2A
102
}
330
2A
100
AcDbVisualStyle
  2
2dWireframe
 70
     4
177
     3
291
     0
 70
    58
 90
        0
176
     1
 90
        2
176
     1
 90
        0
176
     1
 90
        0
176
     1
 40
0.6
176
     1
 40
30.0
176
     1
 62
     7
420
 16777215
176
     1
 90
        1
176
     1
 90
        4
176
     1
 62
     7
176
     1
 62
   257
176
     1
 90
        1
176
     1
 90
        1
176
     1
 40
1.0
176
     1
 90
        0
176
     1
 62
   257
176
     1
 40
1.0
176
     1
 90
        1
176
     1
 90
        6
176
     1
 90
        2
176
     1
 62
     7
176
     1
 90
        5
176
     1
 90
        0
176
     1
 90
        0
176
     1
290
     0
176
     1
 90
        1
176
     1
 40
0.0
176
     1
 90
        0
176
     1
290
     1
176
     1
290
     1
176
     1
290
     0
176
     1
290
     0
176
     1
290
     0
176
     1
290
     0
176
     1
290
     0
176
     1
290
     0
176
     1
290
     0
176
     1
 90
       50
176
     1
 40
0.0
176
     1
 40
1.0
176
     1
 90
        0
176
     1
 62
    18
420
        0
176
     1
 90
       50
176
     1
 90
        3
176
     1
 62
     5
420
      255
176
     1
290
     0
176
     1
 90
       50
176
     1
 90
       50
176
     1
 90
       50
176
     1
290
     0
176
     1
 90
       50
176
     1
 62
   256
176
     0
 40
1.0
176
     0
 90
        2
176
     1
  1
strokes_ogs.tif
176
     1
290
     0
176
     1
 40
1.0
176
     1
 40
1.0
176
     1
  0
VISUALSTYLE
  5
32
102
{ACAD_REACTORS
330
2A
102
}
330
2A
100
AcDbVisualStyle
  2
Basic
 70
     7
177
     3
291
     1
 70
    58
 90
        1
176
     1
 90
        0
176
     1
 90
        1
176
     1
 90
        0
176
     1
 40
0.6
176
     1
 40
30.0
176
     1
 62
     7
420
 16777215
176
     1
 90
        0
176
     1
 90
        4
176
     1
 62
     7
176
     1
 62
   257
176
     1
 90
        1
176
     1
 90
        1
176
     1
 40
1.0
176
     1
 90
        8
176
     1
 62
     7
176
     1
 40
1.0
176
     1
 90
        1
176
     1
 90
        6
176
     1
 90
        2
176
     1
 62
     7
176
     1
 90
        5
176
     1
 90
        0
176
     1
 90
        0
176
     1
290
     0
176
     1
 90
        1
176
     1
 40
0.0
176
     1
 90
        0
176
     1
290
     0
176
     1
290
     1
176
     1
290
     1
176
     1
290
     0
176
     1
290
     0
176
     1
290
     0
176
     1
290
     0
176
     1
290
     0
176
     1
290
     0
176
     1
 90
       50
176
     1
 40
0.0
176
     1
 40
1.0
176
     1
 90
        0
176
     1
 62
    18
420
        0
176
     1
 90
       50
176
     1
 90
        3
176
     1
 62
     5
420
      255
176
     1
290
     0
176
     1
 90
       50
176
     1
 90
       50
176
     1
 90
       50
176
     1
290
     0
176
     1
 90
       50
176
     1
 62
   256
176
     0
 40
1.0
176
     0
 90
        2
176
     1
  1
strokes_ogs.tif
176
     1
290
     0
176
     1
 40
1.0
176
     1
 40
1.0
176
     1
  0
VISUALSTYLE
  5
36
102
{ACAD_REACTORS
330
2A
102
}
330
2A
100
AcDbVisualStyle
  2
Brighten
 70
    12
177
     3
291
     1
 70
    58
 90
        2
176
     1
 90
        2
176
     1
 90
        0
176
     1
 90
        0
176
     1
 40
0.6
176
     1
 40
30.0
176
     1
 62
     7
420
 16777215
176
     1
 90
        1
176
     1
 90
        4
176
     1
 62
     7
176
     1
 62
   257
176
     1
 90
        1
176
     1
 90
        1
176
     1
 40
1.0
176
     1
 90
        8
176
     1
 62
     7
176
     1
 40
1.0
176
     1
 90
        1
176
     1
 90
        6
176
     1
 90
        2
176
     1
 62
     7
176
     1
 90
        5
176
     1
 90
        0
176
     1
 90
        0
176
     1
290
     0
176
     1
 90
        1
176
     1
 40
50.0
176
     1
 90
        0
176
     1
290
     0
176
     1
290
     1
176
     1
290
     1
176
     1
290
     0
176
     1
290
     0
176
     1
290
     0
176
     1
290
     0
176
     1
290
     0
176
     1
290
     0
176
     1
 90
       50
176
     1
 40
0.0
176
     1
 40
1.0
176
     1
 90
        0
176
     1
 62
    18
420
        0
176
     1
 90
       50
176
     1
 90
        3
176
     1
 62
     5
420
      255
176
     1
290
     0
176
     1
 90
       50
176
     1
 90
       50
176
     1
 90
       50
176
     1
290
     0
176
     1
 90
       50
176
     1
 62
   256
176
     0
 40
1.0
176
     0
 90
        2
176
     1
  1
strokes_ogs.tif
176
     1
290
     0
176
     1
 40
1.0
176
     1
 40
1.0
176
     1
  0
VISUALSTYLE
  5
3A
102
{ACAD_REACTORS
330
2A
102
}
330
2A
100
AcDbVisualStyle
  2
ColorChange
 70
    16
177
     3
291
     1
 70
    58
 90
        2
176
     1
 90
        2
176
     1
 90
        3
176
     1
 90
        0
176
     1
 40
0.6
176
     1
 40
30.0
176
     1
 62
     8
420
  8421504
176
     1
 90
        1
176
     1
 90
        4
176
     1
 62
     7
176
     1
 62
   257
176
     1
 90
        1
176
     1
 90
        1
176
     1
 40
1.0
176
     1
 90
        8
176
     1
 62
     8
420
  8421504
176
     1
 40
1.0
176
     1
 90
        1
176
     1
 90
        6
176
     1
 90
        2
176
     1
 62
     7
176
     1
 90
        5
176
     1
 90
        0
176
     1
 90
        0
176
     1
290
     0
176
     1
 90
        1
176
     1
 40
0.0
176
     1
 90
        0
176
     1
290
     0
176
     1
290
     1
176
     1
290
     1
176
     1
290
     0
176
     1
290
     0
176
     1
290
     0
176
     1
290
     0
176
     1
290
     0
176
     1
290
     0
176
     1
 90
       50
176
     1
 40
0.0
176
     1
 40
1.0
176
     1
 90
        0
176
     1
 62
    18
420
        0
176
     1
 90
       50
176
     1
 90
        3
176
     1
 62
     5
420
      255
176
     1
290
     0
176
     1
 90
       50
176
     1
 90
       50
176
     1
 90
       50
176
     1
290
     0
176
     1
 90
       50
176
     1
 62
   256
176
     0
 40
1.0
176
     0
 90
        2
176
     1
  1
strokes_ogs.tif
176
     1
290
     0
176
     1
 40
1.0
176
     1
 40
1.0
176
     1
  0
VISUALSTYLE
  5
34
102
{ACAD_REACTORS
330
2A
102
}
330
2A
100
AcDbVisualStyle
  2
Conceptual
 70
     9
177
     3
291
     0
 70
    58
 90
        3
176
     1
 90
        2
176
     1
 90
        0
176
     1
 90
        0
176
     1
 40
0.6
176
     1
 40
30.0
176
     1
 62
     7
420
 16777215
176
     1
 90
        2
176
     1
 90
        2
176
     1
 62
     7
176
     1
 62
   257
176
     1
 90
        1
176
     1
 90
        1
176
     1
 40
179.0
176
     1
 90
        8
176
     1
 62
     7
176
     1
 40
1.0
176
     1
 90
        1
176
     1
 90
        6
176
     1
 90
        2
176
     1
 62
     7
176
     1
 90
        3
176
     1
 90
        0
176
     1
 90
        0
176
     1
290
     0
176
     1
 90
        1
176
     1
 40
0.0
176
     1
 90
        0
176
     1
290
     0
176
     1
290
     1
176
     1
290
     1
176
     1
290
     0
176
     1
290
     0
176
     1
290
     0
176
     1
290
     0
176
     1
290
     0
176
     1
290
     0
176
     1
 90
       50
176
     1
 40
0.0
176
     1
 40
1.0
176
     1
 90
        0
176
     1
 62
    18
420
        0
176
     1
 90
       50
176
     1
 90
        3
176
     1
 62
     5
420
      255
176
     1
290
     0
176
     1
 90
       50
176
     1
 90
       50
176
     1
 90
       50
176
     1
290
     0
176
     1
 90
       50
176
     1
 62
   256
176
     0
 40
1.0
176
     0
 90
        2
176
     1
  1
strokes_ogs.tif
176
     1
290
     0
176
     1
 40
1.0
176
     1
 40
1.0
176
     1
  0
VISUALSTYLE
  5
35
102
{ACAD_REACTORS
330
2A
102
}
330
2A
100
AcDbVisualStyle
  2
Dim
 70
    11
177
     3
291
     1
 70
    58
 90
        2
176
     1
 90
        2
176
     1
 90
        0
176
     1
 90
        0
176
     1
 40
0.6
176
     1
 40
30.0
176
     1
 62
     7
420
 16777215
176
     1
 90
        1
176
     1
 90
        4
176
     1
 62
     7
176
     1
 62
   257
176
     1
 90
        1
176
     1
 90
        1
176
     1
 40
1.0
176
     1
 90
        8
176
     1
 62
     7
176
     1
 40
1.0
176
     1
 90
        1
176
     1
 90
        6
176
     1
 90
        2
176
     1
 62
     7
176
     1
 90
        5
176
     1
 90
        0
176
     1
 90
        0
176
     1
290
     0
176
     1
 90
        1
176
     1
 40
-50.0
176
     1
 90
        0
176
     1
290
     0
176
     1
290
     1
176
     1
290
     1
176
     1
290
     0
176
     1
290
     0
176
     1
290
     0
176
     1
290
     0
176
     1
290
     0
176
     1
290
     0
176
     1
 90
       50
176
     1
 40
0.0
176
     1
 40
1.0
176
     1
 90
        0
176
     1
 62
    18
420
        0
176
     1
 90
       50
176
     1
 90
        3
176
     1
 62
     5
420
      255
176
     1
290
     0
176
     1
 90
       50
176
     1
 90
       50
176
     1
 90
       50
176
     1
290
     0
176
     1
 90
       50
176
     1
 62
   256
176
     0
 40
1.0
176
     0
 90
        2
176
     1
  1
strokes_ogs.tif
176
     1
290
     0
176
     1
 40
1.0
176
     1
 40
1.0
176
     1
  0
VISUALSTYLE
  5
3D
102
{ACAD_REACTORS
330
2A
102
}
330
2A
100
AcDbVisualStyle
  2
EdgeColorOff
 70
    22
177
     3
291
     1
 70
    58
 90
        2
176
     0
 90
        2
176
     0
 90
        0
176
     0
 90
        0
176
     0
 40
0.6
176
     0
 40
30.0
176
     0
 62
     7
420
 16777215
176
     0
 90
        1
176
     0
 90
        4
176
     0
 62
     7
176
     0
 62
   257
176
     0
 90
        1
176
     0
 90
        1
176
     0
 40
1.0
176
     0
 90
        8
176
     2
 62
     7
176
     0
 40
1.0
176
     0
 90
        1
176
     0
 90
        6
176
     0
 90
        2
176
     0
 62
     7
176
     0
 90
        5
176
     0
 90
        0
176
     0
 90
        0
176
     0
290
     0
176
     0
 90
        1
176
     0
 40
0.0
176
     0
 90
        0
176
     0
290
     0
176
     0
290
     1
176
     0
290
     1
176
     0
290
     0
176
     0
290
     0
176
     0
290
     0
176
     0
290
     0
176
     0
290
     0
176
     0
290
     0
176
     0
 90
       50
176
     0
 40
0.0
176
     0
 40
1.0
176
     0
 90
        0
176
     0
 62
    18
420
        0
176
     0
 90
       50
176
     0
 90
        3
176
     0
 62
     5
420
      255
176
     0
290
     0
176
     0
 90
       50
176
     0
 90
       50
176
     0
 90
       50
176
     0
290
     0
176
     0
 90
       50
176
     0
 62
   256
176
     0
 40
1.0
176
     0
 90
        2
176
     0
  1
strokes_ogs.tif
176
     0
290
     0
176
     0
 40
1.0
176
     0
 40
1.0
176
     0
  0
VISUALSTYLE
  5
39
102
{ACAD_REACTORS
330
2A
102
}
330
2A
100
AcDbVisualStyle
  2
Facepattern
 70
    15
177
     3
291
     1
 70
    58
 90
        2
176
     1
 90
        2
176
     1
 90
        0
176
     1
 90
        0
176
     1
 40
0.6
176
     1
 40
30.0
176
     1
 62
     7
420
 16777215
176
     1
 90
        1
176
     1
 90
        4
176
     1
 62
     7
176
     1
 62
   257
176
     1
 90
        1
176
     1
 90
        1
176
     1
 40
1.0
176
     1
 90
        8
176
     1
 62
     7
176
     1
 40
1.0
176
     1
 90
        1
176
     1
 90
        6
176
     1
 90
        2
176
     1
 62
     7
176
     1
 90
        5
176
     1
 90
        0
176
     1
 90
        0
176
     1
290
     0
176
     1
 90
        1
176
     1
 40
0.0
176
     1
 90
        0
176
     1
290
     0
176
     1
290
     1
176
     1
290
     1
176
     1
290
     0
176
     1
290
     0
176
     1
290
     0
176
     1
290
     0
176
     1
290
     0
176
     1
290
     0
176
     1
 90
       50
176
     1
 40
0.0
176
     1
 40
1.0
176
     1
 90
        0
176
     1
 62
    18
420
        0
176
     1
 90
       50
176
     1
 90
        3
176
     1
 62
     5
420
      255
176
     1
290
     0
176
     1
 90
       50
176
     1
 90
       50
176
     1
 90
       50
176
     1
290
     0
176
     1
 90
       50
176
     1
 62
   256
176
     0
 40
1.0
176
     0
 90
        2
176
     1
  1
strokes_ogs.tif
176
     1
290
     0
176
     1
 40
1.0
176
     1
 40
1.0
176
     1
  0
VISUALSTYLE
  5
2B
102
{ACAD_REACTORS
330
2A
102
}
330
2A
100
AcDbVisualStyle
  2
Flat
 70
     0
177
     3
291
     1
 70
    58
 90
        2
176
     1
 90
        1
176
     1
 90
        1
176
     1
 90
        2
176
     1
 40
0.6
176
     1
 40
30.0
176
     1
 62
     7
420
 16777215
176
     1
 90
        0
176
     1
 90
        0
176
     1
 62
     7
176
     1
 62
   257
176
     1
 90
        1
176
     1
 90
        1
176
     1
 40
1.0
176
     1
 90
        8
176
     1
 62
     7
176
     1
 40
1.0
176
     1
 90
        1
176
     1
 90
        6
176
     1
 90
        2
176
     1
 62
     7
176
     1
 90
        5
176
     1
 90
        0
176
     1
 90
        0
176
     1
290
     0
176
     1
 90
       13
176
     1
 40
0.0
176
     1
 90
        0
176
     1
290
     0
176
     1
290
     1
176
     1
290
     1
176
     1
290
     0
176
     1
290
     0
176
     1
290
     0
176
     1
290
     0
176
     1
290
     0
176
     1
290
     0
176
     1
 90
       50
176
     1
 40
0.0
176
     1
 40
1.0
176
     1
 90
        0
176
     1
 62
    18
420
        0
176
     1
 90
       50
176
     1
 90
        3
176
     1
 62
     5
420
      255
176
     1
290
     0
176
     1
 90
       50
176
     1
 90
       50
176
     1
 90
       50
176
     1
290
     0
176
     1
 90
       50
176
     1
 62
   256
176
     0
 40
1.0
176
     0
 90
        2
176
     1
  1
strokes_ogs.tif
176
     1
290
     0
176
     1
 40
1.0
176
     1
 40
1.0
176
     1
  0
VISUALSTYLE
  5
2C
102
{ACAD_REACTORS
330
2A
102
}
330
2A
100
AcDbVisualStyle
  2
FlatWithEdges
 70
     1
177
     3
291
     1
 70
    58
 90
        2
176
     1
 90
        1
176
     1
 90
        1
176
     1
 90
        2
176
     1
 40
0.6
176
     1
 40
30.0
176
     1
 62
     7
420
 16777215
176
     1
 90
        1
176
     1
 90
        0
176
     1
 62
     7
176
     1
 62
   257
176
     1
 90
        1
176
     1
 90
        1
176
     1
 40
1.0
176
     1
 90
        0
176
     1
 62
   257
176
     1
 40
1.0
176
     1
 90
        1
176
     1
 90
        6
176
     1
 90
        2
176
     1
 62
     7
176
     1
 90
        5
176
     1
 90
        0
176
     1
 90
        0
176
     1
290
     0
176
     1
 90
       13
176
     1
 40
0.0
176
     1
 90
        0
176
     1
290
     0
176
     1
290
     1
176
     1
290
     1
176
     1
290
     0
176
     1
290
     0
176
     1
290
     0
176
     1
290
     0
176
     1
290
     0
176
     1
290
     0
176
     1
 90
       50
176
     1
 40
0.0
176
     1
 40
1.0
176
     1
 90
        0
176
     1
 62
    18
420
        0
176
     1
 90
       50
176
     1
 90
        3
176
     1
 62
     5
420
      255
176
     1
290
     0
176
     1
 90
       50
176
     1
 90
       50
176
     1
 90
       50
176
     1
290
     0
176
     1
 90
       50
176
     1
 62
   256
176
     0
 40
1.0
176
     0
 90
        2
176
     1
  1
strokes_ogs.tif
176
     1
290
     0
176
     1
 40
1.0
176
     1
 40
1.0
176
     1
  0
VISUALSTYLE
  5
2D
102
{ACAD_REACTORS
330
2A
102
}
330
2A
100
AcDbVisualStyle
  2
Gouraud
 70
     2
177
     3
291
     1
 70
    58
 90
        2
176
     1
 90
        2
176
     1
 90
        1
176
     1
 90
        2
176
     1
 40
0.6
176
     1
 40
30.0
176
     1
 62
     7
420
 16777215
176
     1
 90
        0
176
     1
 90
        0
176
     1
 62
     7
176
     1
 62
   257
176
     1
 90
        1
176
     1
 90
        1
176
     1
 40
1.0
176
     1
 90
        0
176
     1
 62
     7
176
     1
 40
1.0
176
     1
 90
        1
176
     1
 90
        6
176
     1
 90
        2
176
     1
 62
     7
176
     1
 90
        5
176
     1
 90
        0
176
     1
 90
        0
176
     1
290
     0
176
     1
 90
       13
176
     1
 40
0.0
176
     1
 90
        0
176
     1
290
     0
176
     1
290
     1
176
     1
290
     1
176
     1
290
     0
176
     1
290
     0
176
     1
290
     0
176
     1
290
     0
176
     1
290
     0
176
     1
290
     0
176
     1
 90
       50
176
     1
 40
0.0
176
     1
 40
1.0
176
     1
 90
        0
176
     1
 62
    18
420
        0
176
     1
 90
       50
176
     1
 90
        3
176
     1
 62
     5
420
      255
176
     1
290
     0
176
     1
 90
       50
176
     1
 90
       50
176
     1
 90
       50
176
     1
290
     0
176
     1
 90
       50
176
     1
 62
   256
176
     0
 40
1.0
176
     0
 90
        2
176
     1
  1
strokes_ogs.tif
176
     1
290
     0
176
     1
 40
1.0
176
     1
 40
1.0
176
     1
  0
VISUALSTYLE
  5
2E
102
{ACAD_REACTORS
330
2A
102
}
330
2A
100
AcDbVisualStyle
  2
GouraudWithEdges
 70
     3
177
     3
291
     1
 70
    58
 90
        2
176
     1
 90
        2
176
     1
 90
        1
176
     1
 90
        2
176
     1
 40
0.6
176
     1
 40
30.0
176
     1
 62
     7
420
 16777215
176
     1
 90
        1
176
     1
 90
        0
176
     1
 62
     7
176
     1
 62
   257
176
     1
 90
        1
176
     1
 90
        1
176
     1
 40
1.0
176
     1
 90
        0
176
     1
 62
   257
176
     1
 40
1.0
176
     1
 90
        1
176
     1
 90
        6
176
     1
 90
        2
176
     1
 62
     7
176
     1
 90
        5
176
     1
 90
        0
176
     1
 90
        0
176
     1
290
     0
176
     1
 90
       13
176
     1
 40
0.0
176
     1
 90
        0
176
     1
290
     0
176
     1
290
     1
176
     1
290
     1
176
     1
290
     0
176
     1
290
     0
176
     1
290
     0
176
     1
290
     0
176
     1
290
     0
176
     1
290
     0
176
     1
 90
       50
176
     1
 40
0.0
176
     1
 40
1.0
176
     1
 90
        0
176
     1
 62
    18
420
        0
176
     1
 90
       50
176
     1
 90
        3
176
     1
 62
     5
420
      255
176
     1
290
     0
176
     1
 90
       50
176
     1
 90
       50
176
     1
 90
       50
176
     1
290
     0
176
     1
 90
       50
176
     1
 62
   256
176
     0
 40
1.0
176
     0
 90
        2
176
     1
  1
strokes_ogs.tif
176
     1
290
     0
176
     1
 40
1.0
176
     1
 40
1.0
176
     1
  0
VISUALSTYLE
  5
31
102
{ACAD_REACTORS
330
2A
102
}
330
2A
100
AcDbVisualStyle
  2
Hidden
 70
     6
177
     3
291
     0
 70
    58
 90
        1
176
     1
 90
        2
176
     1
 90
        2
176
     1
 90
        0
176
     1
 40
0.6
176
     1
 40
30.0
176
     1
 62
     7
420
 16777215
176
     1
 90
        2
176
     1
 90
        2
176
     1
 62
     7
176
     1
 62
   257
176
     1
 90
        2
176
     1
 90
        1
176
     1
 40
40.0
176
     1
 90
        0
176
     1
 62
   257
176
     1
 40
1.0
176
     1
 90
        1
176
     1
 90
        6
176
     1
 90
        2
176
     1
 62
     7
176
     1
 90
        3
176
     1
 90
        0
176
     1
 90
        0
176
     1
290
     0
176
     1
 90
        1
176
     1
 40
0.0
176
     1
 90
        0
176
     1
290
     0
176
     1
290
     1
176
     1
290
     1
176
     1
290
     0
176
     1
290
     0
176
     1
290
     0
176
     1
290
     0
176
     1
290
     0
176
     1
290
     0
176
     1
 90
       50
176
     1
 40
0.0
176
     1
 40
1.0
176
     1
 90
        0
176
     1
 62
    18
420
        0
176
     1
 90
       50
176
     1
 90
        3
176
     1
 62
     5
420
      255
176
     1
290
     0
176
     1
 90
       50
176
     1
 90
       50
176
     1
 90
       50
176
     1
290
     0
176
     1
 90
       50
176
     1
 62
   256
176
     0
 40
1.0
176
     0
 90
        2
176
     1
  1
strokes_ogs.tif
176
     1
290
     0
176
     1
 40
1.0
176
     1
 40
1.0
176
     1
  0
VISUALSTYLE
  5
3B
102
{ACAD_REACTORS
330
2A
102
}
330
2A
100
AcDbVisualStyle
  2
JitterOff
 70
    20
177
     3
291
     1
 70
    58
 90
        2
176
     0
 90
        2
176
     0
 90
        0
176
     0
 90
        0
176
     0
 40
0.6
176
     0
 40
30.0
176
     0
 62
     7
420
 16777215
176
     0
 90
        1
176
     0
 90
        4
176
     0
 62
     7
176
     0
 62
   257
176
     0
 90
        1
176
     0
 90
        1
176
     0
 40
1.0
176
     0
 90
       10
176
     2
 62
     7
176
     0
 40
1.0
176
     0
 90
        1
176
     0
 90
        6
176
     0
 90
        2
176
     0
 62
     7
176
     0
 90
        5
176
     0
 90
        0
176
     0
 90
        0
176
     0
290
     0
176
     0
 90
        1
176
     0
 40
0.0
176
     0
 90
        0
176
     0
290
     0
176
     0
290
     1
176
     0
290
     1
176
     0
290
     0
176
     0
290
     0
176
     0
290
     0
176
     0
290
     0
176
     0
290
     0
176
     0
290
     0
176
     0
 90
       50
176
     0
 40
0.0
176
     0
 40
1.0
176
     0
 90
        0
176
     0
 62
    18
420
        0
176
     0
 90
       50
176
     0
 90
        3
176
     0
 62
     5
420
      255
176
     0
290
     0
176
     0
 90
       50
176
     0
 90
       50
176
     0
 90
       50
176
     0
290
     0
176
     0
 90
       50
176
     0
 62
   256
176
     0
 40
1.0
176
     0
 90
        2
176
     0
  1
strokes_ogs.tif
176
     0
290
     0
176
     0
 40
1.0
176
     0
 40
1.0
176
     0
  0
VISUALSTYLE
  5
38
102
{ACAD_REACTORS
330
2A
102
}
330
2A
100
AcDbVisualStyle
  2
Linepattern
 70
    14
177
     3
291
     1
 70
    58
 90
        2
176
     1
 90
        2
176
     1
 90
        0
176
     1
 90
        0
176
     1
 40
0.6
176
     1
 40
30.0
176
     1
 62
     7
420
 16777215
176
     1
 90
        1
176
     1
 90
        4
176
     1
 62
     7
176
     1
 62
   257
176
     1
 90
        7
176
     1
 90
        7
176
     1
 40
1.0
176
     1
 90
        8
176
     1
 62
     7
176
     1
 40
1.0
176
     1
 90
        1
176
     1
 90
        6
176
     1
 90
        2
176
     1
 62
     7
176
     1
 90
        5
176
     1
 90
        0
176
     1
 90
        0
176
     1
290
     0
176
     1
 90
        1
176
     1
 40
0.0
176
     1
 90
        0
176
     1
290
     0
176
     1
290
     1
176
     1
290
     1
176
     1
290
     0
176
     1
290
     0
176
     1
290
     0
176
     1
290
     0
176
     1
290
     0
176
     1
290
     0
176
     1
 90
       50
176
     1
 40
0.0
176
     1
 40
1.0
176
     1
 90
        0
176
     1
 62
    18
420
        0
176
     1
 90
       50
176
     1
 90
        3
176
     1
 62
     5
420
      255
176
     1
290
     0
176
     1
 90
       50
176
     1
 90
       50
176
     1
 90
       50
176
     1
290
     0
176
     1
 90
       50
176
     1
 62
   256
176
     0
 40
1.0
176
     0
 90
        2
176
     1
  1
strokes_ogs.tif
176
     1
290
     0
176
     1
 40
1.0
176
     1
 40
1.0
176
     1
  0
VISUALSTYLE
  5
3C
102
{ACAD_REACTORS
330
2A
102
}
330
2A
100
AcDbVisualStyle
  2
OverhangOff
 70
    21
177
     3
291
     1
 70
    58
 90
        2
176
     0
 90
        2
176
     0
 90
        0
176
     0
 90
        0
176
     0
 40
0.6
176
     0
 40
30.0
176
     0
 62
     7
420
 16777215
176
     0
 90
        1
176
     0
 90
        4
176
     0
 62
     7
176
     0
 62
   257
176
     0
 90
        1
176
     0
 90
        1
176
     0
 40
1.0
176
     0
 90
        9
176
     2
 62
     7
176
     0
 40
1.0
176
     0
 90
        1
176
     0
 90
        6
176
     0
 90
        2
176
     0
 62
     7
176
     0
 90
        5
176
     0
 90
        0
176
     0
 90
        0
176
     0
290
     0
176
     0
 90
        1
176
     0
 40
0.0
176
     0
 90
        0
176
     0
290
     0
176
     0
290
     1
176
     0
290
     1
176
     0
290
     0
176
     0
290
     0
176
     0
290
     0
176
     0
290
     0
176
     0
290
     0
176
     0
290
     0
176
     0
 90
       50
176
     0
 40
0.0
176
     0
 40
1.0
176
     0
 90
        0
176
     0
 62
    18
420
        0
176
     0
 90
       50
176
     0
 90
        3
176
     0
 62
     5
420
      255
176
     0
290
     0
176
     0
 90
       50
176
     0
 90
       50
176
     0
 90
       50
176
     0
290
     0
176
     0
 90
       50
176
     0
 62
   256
176
     0
 40
1.0
176
     0
 90
        2
176
     0
  1
strokes_ogs.tif
176
     0
290
     0
176
     0
 40
1.0
176
     0
 40
1.0
176
     0
  0
VISUALSTYLE
  5
33
102
{ACAD_REACTORS
330
2A
102
}
330
2A
100
AcDbVisualStyle
  2
Realistic
 70
     8
177
     3
291
     0
 70
    58
 90
        2
176
     1
 90
        3
176
     1
 90
        0
176
     1
 90
        2
176
     1
 40
0.6
176
     1
 40
30.0
176
     1
 62
     7
420
 16777215
176
     1
 90
        0
176
     1
 90
        0
176
     1
 62
     7
176
     1
 62
   257
176
     1
 90
        1
176
     1
 90
        1
176
     1
 40
1.0
176
     1
 90
        8
176
     1
 62
   257
176
     1
 40
1.0
176
     1
 90
        1
176
     1
 90
        6
176
     1
 90
        2
176
     1
 62
     7
176
     1
 90
        3
176
     1
 90
        0
176
     1
 90
        0
176
     1
290
     0
176
     1
 90
       13
176
     1
 40
0.0
176
     1
 90
        0
176
     1
290
     0
176
     1
290
     1
176
     1
290
     1
176
     1
290
     0
176
     1
290
     0
176
     1
290
     0
176
     1
290
     0
176
     1
290
     0
176
     1
290
     0
176
     1
 90
       50
176
     1
 40
0.0
176
     1
 40
1.0
176
     1
 90
        0
176
     1
 62
    18
420
        0
176
     1
 90
       50
176
     1
 90
        3
176
     1
 62
     5
420
      255
176
     1
290
     0
176
     1
 90
       50
176
     1
 90
       50
176
     1
 90
       50
176
     1
290
     0
176
     1
 90
       50
176
     1
 62
   256
176
     0
 40
1.0
176
     0
 90
        2
176
     1
  1
strokes_ogs.tif
176
     1
290
     0
176
     1
 40
1.0
176
     1
 40
1.0
176
     1
  0
VISUALSTYLE
  5
42
102
{ACAD_REACTORS
330
2A
102
}
330
2A
100
AcDbVisualStyle
  2
Shaded
 70
    27
177
     3
291
     0
 70
    58
 90
        2
176
     1
 90
        2
176
     1
 90
        1
176
     1
 90
        2
176
     1
 40
0.6
176
     1
 40
30.0
176
     1
 62
     7
420
 16777215
176
     1
 90
        0
176
     1
 90
        4
176
     1
 62
     7
176
     1
 62
   257
176
     1
 90
        1
176
     1
 90
        1
176
     1
 40
1.0
176
     1
 90
        8
176
     1
 62
   257
176
     1
 40
1.0
176
     1
 90
        1
176
     1
 90
        6
176
     1
 90
        2
176
     1
 62
     8
420
  7895160
176
     1
 90
        3
176
     1
 90
        0
176
     1
 90
        0
176
     1
290
     0
176
     1
 90
        5
176
     1
 40
0.0
176
     1
 90
        0
176
     1
290
     0
176
     1
290
     1
176
     1
290
     1
176
     1
290
     0
176
     1
290
     0
176
     1
290
     0
176
     1
290
     0
176
     1
290
     0
176
     1
290
     0
176
     1
 90
       50
176
     1
 40
0.0
176
     1
 40
1.0
176
     1
 90
        0
176
     1
 62
    18
420
        0
176
     1
 90
       50
176
     1
 90
        3
176
     1
 62
     5
420
      255
176
     1
290
     0
176
     1
 90
       50
176
     1
 90
       50
176
     1
 90
       50
176
     1
290
     0
176
     1
 90
       50
176
     1
 62
   256
176
     0
 40
1.0
176
     0
 90
        2
176
     1
  1
strokes_ogs.tif
176
     1
290
     0
176
     1
 40
1.0
176
     1
 40
1.0
176
     1
  0
VISUALSTYLE
  5
41
102
{ACAD_REACTORS
330
2A
102
}
330
2A
100
AcDbVisualStyle
  2
Shaded with edges
 70
    26
177
     3
291
     0
 70
    58
 90
        2
176
     1
 90
        2
176
     1
 90
        1
176
     1
 90
        2
176
     1
 40
0.6
176
     1
 40
30.0
176
     1
 62
     7
420
 16777215
176
     1
 90
        1
176
     1
 90
       10
176
     1
 62
     7
176
     1
 62
   257
176
     1
 90
        2
176
     1
 90
        1
176
     1
 40
1.0
176
     1
 90
        8
176
     1
 62
   257
176
     1
 40
1.0
176
     1
 90
        1
176
     1
 90
        6
176
     1
 90
        2
176
     1
 62
     7
176
     1
 90
        3
176
     1
 90
        0
176
     1
 90
        0
176
     1
290
     0
176
     1
 90
        5
176
     1
 40
0.0
176
     1
 90
        0
176
     1
290
     0
176
     1
290
     1
176
     1
290
     1
176
     1
290
     0
176
     1
290
     0
176
     1
290
     0
176
     1
290
     0
176
     1
290
     0
176
     1
290
     0
176
     1
 90
       50
176
     1
 40
0.0
176
     1
 40
1.0
176
     1
 90
        0
176
     1
 62
    18
420
        0
176
     1
 90
       50
176
     1
 90
        3
176
     1
 62
     5
420
      255
176
     1
290
     0
176
     1
 90
       50
176
     1
 90
       50
176
     1
 90
       50
176
     1
290
     0
176
     1
 90
       50
176
     1
 62
   256
176
     0
 40
1.0
176
     0
 90
        2
176
     1
  1
strokes_ogs.tif
176
     1
290
     0
176
     1
 40
1.0
176
     1
 40
1.0
176
     1
  0
VISUALSTYLE
  5
3E
102
{ACAD_REACTORS
330
2A
102
}
330
2A
100
AcDbVisualStyle
  2
Shades of Gray
 70
    23
177
     3
291
     0
 70
    58
 90
        2
176
     1
 90
        2
176
     1
 90
        3
176
     1
 90
        0
176
     1
 40
0.6
176
     1
 40
30.0
176
     1
 62
     7
420
 16777215
176
     1
 90
        2
176
     1
 90
        2
176
     1
 62
     7
176
     1
 62
     7
176
     1
 90
        1
176
     1
 90
        1
176
     1
 40
40.0
176
     1
 90
        8
176
     1
 62
     7
176
     1
 40
1.0
176
     1
 90
        1
176
     1
 90
        6
176
     1
 90
        2
176
     1
 62
     7
176
     1
 90
        3
176
     1
 90
        0
176
     1
 90
        0
176
     1
290
     0
176
     1
 90
        1
176
     1
 40
0.0
176
     1
 90
        0
176
     1
290
     0
176
     1
290
     1
176
     1
290
     1
176
     1
290
     0
176
     1
290
     0
176
     1
290
     0
176
     1
290
     0
176
     1
290
     0
176
     1
290
     0
176
     1
 90
       50
176
     1
 40
0.0
176
     1
 40
1.0
176
     1
 90
        0
176
     1
 62
    18
420
        0
176
     1
 90
       50
176
     1
 90
        3
176
     1
 62
     5
420
      255
176
     1
290
     0
176
     1
 90
       50
176
     1
 90
       50
176
     1
 90
       50
176
     1
290
     0
176
     1
 90
       50
176
     1
 62
   256
176
     0
 40
1.0
176
     0
 90
        2
176
     1
  1
strokes_ogs.tif
176
     1
290
     0
176
     1
 40
1.0
176
     1
 40
1.0
176
     1
  0
VISUALSTYLE
  5
3F
102
{ACAD_REACTORS
330
2A
102
}
330
2A
100
AcDbVisualStyle
  2
Sketchy
 70
    24
177
     3
291
     0
 70
    58
 90
        1
176
     1
 90
        2
176
     1
 90
        2
176
     1
 90
        0
176
     1
 40
0.6
176
     1
 40
30.0
176
     1
 62
     7
420
 16777215
176
     1
 90
        2
176
     1
 90
        2
176
     1
 62
     7
176
     1
 62
     7
176
     1
 90
        1
176
     1
 90
        1
176
     1
 40
40.0
176
     1
 90
       11
176
     1
 62
     7
176
     1
 40
1.0
176
     1
 90
        1
176
     1
 90
        6
176
     1
 90
        2
176
     1
 62
     7
176
     1
 90
        6
176
     1
 90
        0
176
     1
 90
        0
176
     1
290
     0
176
     1
 90
        1
176
     1
 40
0.0
176
     1
 90
        0
176
     1
290
     0
176
     1
290
     1
176
     1
290
     1
176
     1
290
     0
176
     1
290
     0
176
     1
290
     0
176
     1
290
     0
176
     1
290
     0
176
     1
290
     0
176
     1
 90
       50
176
     1
 40
0.0
176
     1
 40
1.0
176
     1
 90
        0
176
     1
 62
    18
420
        0
176
     1
 90
       50
176
     1
 90
        3
176
     1
 62
     5
420
      255
176
     1
290
     0
176
     1
 90
       50
176
     1
 90
       50
176
     1
 90
       50
176
     1
290
     0
176
     1
 90
       50
176
     1
 62
   256
176
     0
 40
1.0
176
     0
 90
        2
176
     1
  1
strokes_ogs.tif
176
     1
290
     0
176
     1
 40
1.0
176
     1
 40
1.0
176
     1
  0
VISUALSTYLE
  5
37
102
{ACAD_REACTORS
330
2A
102
}
330
2A
100
AcDbVisualStyle
  2
Thicken
 70
    13
177
     3
291
     1
 70
    58
 90
        2
176
     1
 90
        2
176
     1
 90
        0
176
     1
 90
        0
176
     1
 40
0.6
176
     1
 40
30.0
176
     1
 62
     7
420
 16777215
176
     1
 90
        1
176
     1
 90
        4
176
     1
 62
     7
176
     1
 62
   257
176
     1
 90
        1
176
     1
 90
        1
176
     1
 40
1.0
176
     1
 90
       12
176
     1
 62
     7
176
     1
 40
1.0
176
     1
 90
        1
176
     1
 90
        6
176
     1
 90
        2
176
     1
 62
     7
176
     1
 90
        5
176
     1
 90
        0
176
     1
 90
        0
176
     1
290
     0
176
     1
 90
        1
176
     1
 40
0.0
176
     1
 90
        0
176
     1
290
     0
176
     1
290
     1
176
     1
290
     1
176
     1
290
     0
176
     1
290
     0
176
     1
290
     0
176
     1
290
     0
176
     1
290
     0
176
     1
290
     0
176
     1
 90
       50
176
     1
 40
0.0
176
     1
 40
1.0
176
     1
 90
        0
176
     1
 62
    18
420
        0
176
     1
 90
       50
176
     1
 90
        3
176
     1
 62
     5
420
      255
176
     1
290
     0
176
     1
 90
       50
176
     1
 90
       50
176
     1
 90
       50
176
     1
290
     0
176
     1
 90
       50
176
     1
 62
   256
176
     0
 40
1.0
176
     0
 90
        2
176
     1
  1
strokes_ogs.tif
176
     1
290
     0
176
     1
 40
1.0
176
     1
 40
1.0
176
     1
  0
VISUALSTYLE
  5
30
102
{ACAD_REACTORS
330
2A
102
}
330
2A
100
AcDbVisualStyle
  2
Wireframe
 70
     5
177
     3
291
     0
 70
    58
 90
        0
176
     1
 90
        2
176
     1
 90
        0
176
     1
 90
        0
176
     1
 40
0.6
176
     1
 40
30.0
176
     1
 62
     7
420
 16777215
176
     1
 90
        1
176
     1
 90
        4
176
     1
 62
     7
176
     1
 62
   257
176
     1
 90
        1
176
     1
 90
        1
176
     1
 40
1.0
176
     1
 90
        0
176
     1
 62
   257
176
     1
 40
1.0
176
     1
 90
        1
176
     1
 90
        6
176
     1
 90
        2
176
     1
 62
     7
176
     1
 90
        3
176
     1
 90
        0
176
     1
 90
        0
176
     1
290
     0
176
     1
 90
        1
176
     1
 40
0.0
176
     1
 90
        0
176
     1
290
     0
176
     1
290
     1
176
     1
290
     1
176
     1
290
     0
176
     1
290
     0
176
     1
290
     0
176
     1
290
     0
176
     1
290
     0
176
     1
290
     0
176
     1
 90
       50
176
     1
 40
0.0
176
     1
 40
1.0
176
     1
 90
        0
176
     1
 62
    18
420
        0
176
     1
 90
       50
176
     1
 90
        3
176
     1
 62
     5
420
      255
176
     1
290
     0
176
     1
 90
       50
176
     1
 90
       50
176
     1
 90
       50
176
     1
290
     0
176
     1
 90
       50
176
     1
 62
   256
176
     0
 40
1.0
176
     0
 90
        2
176
     1
  1
strokes_ogs.tif
176
     1
290
     0
176
     1
 40
1.0
176
     1
 40
1.0
176
     1
  0
VISUALSTYLE
  5
40
102
{ACAD_REACTORS
330
2A
102
}
330
2A
100
AcDbVisualStyle
  2
X-Ray
 70
    25
177
     3
291
     0
 70
    58
 90
        2
176
     1
 90
        2
176
     1
 90
        1
176
     1
 90
        1
176
     1
 40
0.5
176
     1
 40
30.0
176
     1
 62
     7
420
 16777215
176
     1
 90
        1
176
     1
 90
        0
176
     1
 62
     7
176
     1
 62
   257
176
     1
 90
        1
176
     1
 90
        1
176
     1
 40
1.0
176
     1
 90
        8
176
     1
 62
     7
176
     1
 40
1.0
176
     1
 90
        1
176
     1
 90
        6
176
     1
 90
        2
176
     1
 62
     7
176
     1
 90
        3
176
     1
 90
        0
176
     1
 90
        0
176
     1
290
     0
176
     1
 90
       13
176
     1
 40
0.0
176
     1
 90
        0
176
     1
290
     0
176
     1
290
     1
176
     1
290
     1
176
     1
290
     0
176
     1
290
     0
176
     1
290
     0
176
     1
290
     0
176
     1
290
     0
176
     1
290
     0
176
     1
 90
       50
176
     1
 40
0.0
176
     1
 40
1.0
176
     1
 90
        0
176
     1
 62
    18
420
        0
176
     1
 90
       50
176
     1
 90
        3
176
     1
 62
     5
420
      255
176
     1
290
     0
176
     1
 90
       50
176
     1
 90
       50
176
     1
 90
       50
176
     1
290
     0
176
     1
 90
       50
176
     1
 62
   256
176
     0
 40
1.0
176
     0
 90
        2
176
     1
  1
strokes_ogs.tif
176
     1
290
     0
176
     1
 40
1.0
176
     1
 40
1.0
176
     1
  0
DICTIONARYVAR
  5
1DB
102
{ACAD_REACTORS
330
1DA
102
}
330
1DA
100
DictionaryVariables
280
     0
  1
1:1
  0
DICTIONARYVAR
  5
1E3
102
{ACAD_REACTORS
330
1DA
102
}
330
1DA
100
DictionaryVariables
280
     0
  1
3.500000
  0
DICTIONARYVAR
  5
1E4
102
{ACAD_REACTORS
330
1DA
102
}
330
1DA
100
DictionaryVariables
280
     0
  1
acadiso.lin
  0
DICTIONARYVAR
  5
1E0
102
{ACAD_REACTORS
330
1DA
102
}
330
1DA
100
DictionaryVariables
280
     0
  1
Standard
  0
DICTIONARYVAR
  5
1DF
102
{ACAD_REACTORS
330
1DA
102
}
330
1DA
100
DictionaryVariables
280
     0
  1
Standard
  0
DICTIONARY
  5
1DC
330
5A
100
AcDbDictionary
280
     1
281
     1
  3
ACAD_ROUNDTRIP_2008_TABLESTYLE_CELLSTYLEMAP
360
1DD
  0
CELLSTYLEMAP
  5
1DD
102
{ACAD_REACTORS
330
1DC
102
}
330
1DC
100
AcDbCellStyleMap
 90
        3
300
CELLSTYLE
  1
TABLEFORMAT_BEGIN
 90
        5
170
     1
 91
        0
 92
    32768
 62
   257
 93
        1
300
CONTENTFORMAT
  1
CONTENTFORMAT_BEGIN
 90
        0
 91
        0
 92
        4
 93
        0
300

 40
0.0
140
1.0
 94
        5
 62
     0
340
11
144
6.0
309
CONTENTFORMAT_END
171
     1
301
MARGIN
  1
CELLMARGIN_BEGIN
 40
1.5
 40
1.5
 40
1.5
 40
1.5
 40
1.5
 40
1.5
309
CELLMARGIN_END
 94
        6
 95
        1
302
GRIDFORMAT
  1
GRIDFORMAT_BEGIN
 90
        0
 91
        1
 62
     0
 92
       -2
340
14
 93
        0
 40
0.045
309
GRIDFORMAT_END
 95
        2
302
GRIDFORMAT
  1
GRIDFORMAT_BEGIN
 90
        0
 91
        1
 62
     0
 92
       -2
340
14
 93
        0
 40
0.045
309
GRIDFORMAT_END
 95
        4
302
GRIDFORMAT
  1
GRIDFORMAT_BEGIN
 90
        0
 91
        1
 62
     0
 92
       -2
340
14
 93
        0
 40
0.045
309
GRIDFORMAT_END
 95
        8
302
GRIDFORMAT
  1
GRIDFORMAT_BEGIN
 90
        0
 91
        1
 62
     0
 92
       -2
340
14
 93
        0
 40
0.045
309
GRIDFORMAT_END
 95
       16
302
GRIDFORMAT
  1
GRIDFORMAT_BEGIN
 90
        0
 91
        1
 62
     0
 92
       -2
340
14
 93
        0
 40
0.045
309
GRIDFORMAT_END
 95
       32
302
GRIDFORMAT
  1
GRIDFORMAT_BEGIN
 90
        0
 91
        1
 62
     0
 92
       -2
340
14
 93
        0
 40
0.045
309
GRIDFORMAT_END
309
TABLEFORMAT_END
  1
CELLSTYLE_BEGIN
 90
        1
 91
        1
300
_TITLE
309
CELLSTYLE_END
300
CELLSTYLE
  1
TABLEFORMAT_BEGIN
 90
        5
170
     1
 91
        0
 92
        0
 62
   257
 93
        1
300
CONTENTFORMAT
  1
CONTENTFORMAT_BEGIN
 90
        0
 91
        0
 92
        4
 93
        0
300

 40
0.0
140
1.0
 94
        5
 62
     0
340
11
144
4.5
309
CONTENTFORMAT_END
171
     1
301
MARGIN
  1
CELLMARGIN_BEGIN
 40
1.5
 40
1.5
 40
1.5
 40
1.5
 40
1.5
 40
1.5
309
CELLMARGIN_END
 94
        6
 95
        1
302
GRIDFORMAT
  1
GRIDFORMAT_BEGIN
 90
        0
 91
        1
 62
     0
 92
       -2
340
14
 93
        0
 40
0.045
309
GRIDFORMAT_END
 95
        2
302
GRIDFORMAT
  1
GRIDFORMAT_BEGIN
 90
        0
 91
        1
 62
     0
 92
       -2
340
14
 93
        0
 40
0.045
309
GRIDFORMAT_END
 95
        4
302
GRIDFORMAT
  1
GRIDFORMAT_BEGIN
 90
        0
 91
        1
 62
     0
 92
       -2
340
14
 93
        0
 40
0.045
309
GRIDFORMAT_END
 95
        8
302
GRIDFORMAT
  1
GRIDFORMAT_BEGIN
 90
        0
 91
        1
 62
     0
 92
       -2
340
14
 93
        0
 40
0.045
309
GRIDFORMAT_END
 95
       16
302
GRIDFORMAT
  1
GRIDFORMAT_BEGIN
 90
        0
 91
        1
 62
     0
 92
       -2
340
14
 93
        0
 40
0.045
309
GRIDFORMAT_END
 95
       32
302
GRIDFORMAT
  1
GRIDFORMAT_BEGIN
 90
        0
 91
        1
 62
     0
 92
       -2
340
14
 93
        0
 40
0.045
309
GRIDFORMAT_END
309
TABLEFORMAT_END
  1
CELLSTYLE_BEGIN
 90
        2
 91
        1
300
_HEADER
309
CELLSTYLE_END
300
CELLSTYLE
  1
TABLEFORMAT_BEGIN
 90
        5
170
     1
 91
        0
 92
        0
 62
   257
 93
        1
300
CONTENTFORMAT
  1
CONTENTFORMAT_BEGIN
 90
        0
 91
        0
 92
        4
 93
        0
300

 40
0.0
140
1.0
 94
        2
 62
     0
340
11
144
4.5
309
CONTENTFORMAT_END
171
     1
301
MARGIN
  1
CELLMARGIN_BEGIN
 40
1.5
 40
1.5
 40
1.5
 40
1.5
 40
1.5
 40
1.5
309
CELLMARGIN_END
 94
        6
 95
        1
302
GRIDFORMAT
  1
GRIDFORMAT_BEGIN
 90
        0
 91
        1
 62
     0
 92
       -2
340
14
 93
        0
 40
0.045
309
GRIDFORMAT_END
 95
        2
302
GRIDFORMAT
  1
GRIDFORMAT_BEGIN
 90
        0
 91
        1
 62
     0
 92
       -2
340
14
 93
        0
 40
0.045
309
GRIDFORMAT_END
 95
        4
302
GRIDFORMAT
  1
GRIDFORMAT_BEGIN
 90
        0
 91
        1
 62
     0
 92
       -2
340
14
 93
        0
 40
0.045
309
GRIDFORMAT_END
 95
        8
302
GRIDFORMAT
  1
GRIDFORMAT_BEGIN
 90
        0
 91
        1
 62
     0
 92
       -2
340
14
 93
        0
 40
0.045
309
GRIDFORMAT_END
 95
       16
302
GRIDFORMAT
  1
GRIDFORMAT_BEGIN
 90
        0
 91
        1
 62
     0
 92
       -2
340
14
 93
        0
 40
0.045
309
GRIDFORMAT_END
 95
       32
302
GRIDFORMAT
  1
GRIDFORMAT_BEGIN
 90
        0
 91
        1
 62
     0
 92
       -2
340
14
 93
        0
 40
0.045
309
GRIDFORMAT_END
309
TABLEFORMAT_END
  1
CELLSTYLE_BEGIN
 90
        3
 91
        2
300
_DATA
309
CELLSTYLE_END
  0
ENDSEC
  0
EOF
