  0
SECTION
  2
HEADER
  9
$ACADVER
  1
AC1032
  9
$ACADMAINTVER
 90
       55
  9
$DWGCODEPAGE
  3
ANSI_1252
  9
$LASTSAVEDBY
  1
villesi
  9
$REQUIREDVERSIONS
160
                 0
  9
$INSBASE
 10
0.0
 20
0.0
 30
0.0
  9
$EXTMIN
 10
0.0
 20
0.0
 30
0.0
  9
$EXTMAX
 10
800.0
 20
550.0
 30
0.0
  9
$LIMMIN
 10
0.0
 20
0.0
  9
$LIMMAX
 10
800.0
 20
550.0
  9
$ORTHOMODE
 70
     0
  9
$REGENMODE
 70
     1
  9
$FILLMODE
 70
     1
  9
$QTEXTMODE
 70
     0
  9
$MIRRTEXT
 70
     1
  9
$LTSCALE
 40
1.0
  9
$ATTMODE
 70
     1
  9
$TEXTSIZE
 40
3.5
  9
$TRACEWID
 40
1.0
  9
$TEXTSTYLE
  7
Standard
  9
$CLAYER
  8
0
  9
$CELTYPE
  6
ByLayer
  9
$CECOLOR
 62
   256
  9
$CELTSCALE
 40
1.0
  9
$DISPSILH
 70
     0
  9
$DIMSCALE
 40
1.0
  9
$DIMASZ
 40
3.302
  9
$DIMEXO
 40
1.0
  9
$DIMDLI
 40
3.75
  9
$DIMRND
 40
0.0
  9
$DIMDLE
 40
0.0
  9
$DIMEXE
 40
1.0
  9
$DIMTP
 40
0.0
  9
$DIMTM
 40
0.0
  9
$DIMTXT
 40
3.5
  9
$DIMCEN
 40
2.5
  9
$DIMTSZ
 40
0.0
  9
$DIMTOL
 70
     0
  9
$DIMLIM
 70
     0
  9
$DIMTIH
 70
     1
  9
$DIMTOH
 70
     1
  9
$DIMSE1
 70
     0
  9
$DIMSE2
 70
     0
  9
$DIMTAD
 70
     1
  9
$DIMZIN
 70
     1
  9
$DIMBLK
  1

  9
$DIMASO
 70
     1
  9
$DIMSHO
 70
     1
  9
$DIMPOST
  1

  9
$DIMAPOST
  1

  9
$DIMALT
 70
     0
  9
$DIMALTD
 70
     3
  9
$DIMALTF
 40
0.0393700787
  9
$DIMLFAC
 40
1.0
  9
$DIMTOFL
 70
     1
  9
$DIMTVP
 40
0.0
  9
$DIMTIX
 70
     0
  9
$DIMSOXD
 70
     0
  9
$DIMSAH
 70
     0
  9
$DIMBLK1
  1

  9
$DIMBLK2
  1

  9
$DIMSTYLE
  2
ISO-25
  9
$DIMCLRD
 70
     0
  9
$DIMCLRE
 70
     0
  9
$DIMCLRT
 70
     0
  9
$DIMTFAC
 40
1.0
  9
$DIMGAP
 40
1.524
  9
$DIMJUST
 70
     0
  9
$DIMSD1
 70
     0
  9
$DIMSD2
 70
     0
  9
$DIMTOLJ
 70
     0
  9
$DIMTZIN
 70
     1
  9
$DIMALTZ
 70
     0
  9
$DIMALTTZ
 70
     0
  9
$DIMUPT
 70
     0
  9
$DIMDEC
 70
     0
  9
$DIMTDEC
 70
     0
  9
$DIMALTU
 70
     2
  9
$DIMALTTD
 70
     3
  9
$DIMTXSTY
  7
Standard
  9
$DIMAUNIT
 70
     0
  9
$DIMADEC
 70
     0
  9
$DIMALTRND
 40
0.0
  9
$DIMAZIN
 70
     0
  9
$DIMDSEP
 70
    44
  9
$DIMATFIT
 70
     3
  9
$DIMFRAC
 70
     0
  9
$DIMLDRBLK
  1

  9
$DIMLUNIT
 70
     2
  9
$DIMLWD
 70
    -2
  9
$DIMLWE
 70
    -2
  9
$DIMTMOVE
 70
     0
  9
$DIMFXL
 40
1.0
  9
$DIMFXLON
 70
     0
  9
$DIMJOGANG
 40
0.7853981634
  9
$DIMTFILL
 70
     0
  9
$DIMTFILLCLR
 70
     0
  9
$DIMARCSYM
 70
     0
  9
$DIMLTYPE
  6

  9
$DIMLTEX1
  6

  9
$DIMLTEX2
  6

  9
$DIMTXTDIRECTION
 70
     0
  9
$LUNITS
 70
     2
  9
$LUPREC
 70
     2
  9
$SKETCHINC
 40
1.0
  9
$FILLETRAD
 40
0.0
  9
$AUNITS
 70
     0
  9
$AUPREC
 70
     2
  9
$MENU
  1
.
  9
$ELEVATION
 40
0.0
  9
$PELEVATION
 40
0.0
  9
$THICKNESS
 40
0.0
  9
$LIMCHECK
 70
     0
  9
$CHAMFERA
 40
0.0
  9
$CHAMFERB
 40
0.0
  9
$CHAMFERC
 40
0.0
  9
$CHAMFERD
 40
0.0
  9
$SKPOLY
 70
     0
  9
$TDCREATE
 40
2461106.581601088
  9
$TDUCREATE
 40
2461106.498267755
  9
$TDUPDATE
 40
2461106.581601609
  9
$TDUUPDATE
 40
2461106.498268276
  9
$TDINDWG
 40
0.0000000116
  9
$TDUSRTIMER
 40
0.0000000116
  9
$USRTIMER
 70
     1
  9
$ANGBASE
 50
0.0
  9
$ANGDIR
 70
     0
  9
$PDMODE
 70
     0
  9
$PDSIZE
 40
-1.0
  9
$PLINEWID
 40
0.0
  9
$SPLFRAME
 70
     0
  9
$SPLINETYPE
 70
     6
  9
$SPLINESEGS
 70
     8
  9
$HANDSEED
  5
1B4
  9
$SURFTAB1
 70
     6
  9
$SURFTAB2
 70
     6
  9
$SURFTYPE
 70
     6
  9
$SURFU
 70
     6
  9
$SURFV
 70
     6
  9
$UCSBASE
  2

  9
$UCSNAME
  2

  9
$UCSORG
 10
0.0
 20
0.0
 30
0.0
  9
$UCSXDIR
 10
1.0
 20
0.0
 30
0.0
  9
$UCSYDIR
 10
0.0
 20
1.0
 30
0.0
  9
$UCSORTHOREF
  2

  9
$UCSORTHOVIEW
 70
     0
  9
$UCSORGTOP
 10
0.0
 20
0.0
 30
0.0
  9
$UCSORGBOTTOM
 10
0.0
 20
0.0
 30
0.0
  9
$UCSORGLEFT
 10
0.0
 20
0.0
 30
0.0
  9
$UCSORGRIGHT
 10
0.0
 20
0.0
 30
0.0
  9
$UCSORGFRONT
 10
0.0
 20
0.0
 30
0.0
  9
$UCSORGBACK
 10
0.0
 20
0.0
 30
0.0
  9
$PUCSBASE
  2

  9
$PUCSNAME
  2

  9
$PUCSORG
 10
0.0
 20
0.0
 30
0.0
  9
$PUCSXDIR
 10
1.0
 20
0.0
 30
0.0
  9
$PUCSYDIR
 10
0.0
 20
1.0
 30
0.0
  9
$PUCSORTHOREF
  2

  9
$PUCSORTHOVIEW
 70
     0
  9
$PUCSORGTOP
 10
0.0
 20
0.0
 30
0.0
  9
$PUCSORGBOTTOM
 10
0.0
 20
0.0
 30
0.0
  9
$PUCSORGLEFT
 10
0.0
 20
0.0
 30
0.0
  9
$PUCSORGRIGHT
 10
0.0
 20
0.0
 30
0.0
  9
$PUCSORGFRONT
 10
0.0
 20
0.0
 30
0.0
  9
$PUCSORGBACK
 10
0.0
 20
0.0
 30
0.0
  9
$USERI1
 70
     0
  9
$USERI2
 70
     0
  9
$USERI3
 70
     0
  9
$USERI4
 70
     0
  9
$USERI5
 70
     0
  9
$USERR1
 40
0.0
  9
$USERR2
 40
0.0
  9
$USERR3
 40
0.0
  9
$USERR4
 40
0.0
  9
$USERR5
 40
0.0
  9
$WORLDVIEW
 70
     1
  9
$SHADEDGE
 70
     3
  9
$SHADEDIF
 70
    70
  9
$TILEMODE
 70
     1
  9
$MAXACTVP
 70
    64
  9
$PINSBASE
 10
0.0
 20
0.0
 30
0.0
  9
$PLIMCHECK
 70
     0
  9
$PEXTMIN
 10
1.0000000000E+20
 20
1.0000000000E+20
 30
1.0000000000E+20
  9
$PEXTMAX
 10
-1.0000000000E+20
 20
-1.0000000000E+20
 30
-1.0000000000E+20
  9
$PLIMMIN
 10
0.0
 20
0.0
  9
$PLIMMAX
 10
420.0
 20
297.0
  9
$UNITMODE
 70
     0
  9
$VISRETAIN
 70
     1
  9
$PLINEGEN
 70
     0
  9
$PSLTSCALE
 70
     1
  9
$TREEDEPTH
 70
  3020
  9
$CMLSTYLE
  2
Standard
  9
$CMLJUST
 70
     0
  9
$CMLSCALE
 40
20.0
  9
$PROXYGRAPHICS
 70
     1
  9
$MEASUREMENT
 70
     1
  9
$CELWEIGHT
370
    -1
  9
$ENDCAPS
280
     0
  9
$JOINSTYLE
280
     0
  9
$LWDISPLAY
290
     1
  9
$INSUNITS
 70
     4
  9
$HYPERLINKBASE
  1

  9
$STYLESHEET
  1

  9
$XEDIT
290
     1
  9
$CEPSNTYPE
380
     0
  9
$PSTYLEMODE
290
     1
  9
$FINGERPRINTGUID
  2
{902ee391-77df-407f-912c-6a38536d9b08}
  9
$VERSIONGUID
  2
{FAEB1C32-E019-11D5-929B-00C0DF256EC4}
  9
$EXTNAMES
290
     1
  9
$PSVPSCALE
 40
0.0
  9
$OLESTARTUP
290
     0
  9
$SORTENTS
280
   127
  9
$INDEXCTL
280
     0
  9
$HIDETEXT
280
     1
  9
$XCLIPFRAME
280
     2
  9
$HALOGAP
280
     0
  9
$OBSCOLOR
 70
   257
  9
$OBSLTYPE
280
     0
  9
$INTERSECTIONDISPLAY
280
     0
  9
$INTERSECTIONCOLOR
 70
   257
  9
$DIMASSOC
280
     2
  9
$PROJECTNAME
  1

  9
$CAMERADISPLAY
290
     0
  9
$LENSLENGTH
 40
50.0
  9
$CAMERAHEIGHT
 40
0.0
  9
$STEPSPERSEC
 40
2.0
  9
$STEPSIZE
 40
6.0
  9
$3DDWFPREC
 40
2.0
  9
$PSOLWIDTH
 40
5.0
  9
$PSOLHEIGHT
 40
80.0
  9
$LOFTANG1
 40
1.5707963268
  9
$LOFTANG2
 40
1.5707963268
  9
$LOFTMAG1
 40
0.0
  9
$LOFTMAG2
 40
0.0
  9
$LOFTPARAM
 70
     7
  9
$LOFTNORMALS
280
     1
  9
$LATITUDE
 40
37.795
  9
$LONGITUDE
 40
-122.394
  9
$NORTHDIRECTION
 40
0.0
  9
$TIMEZONE
 70
 -8000
  9
$LIGHTGLYPHDISPLAY
280
     1
  9
$TILEMODELIGHTSYNCH
280
     1
  9
$CMATERIAL
347
44
  9
$SOLIDHIST
280
     0
  9
$SHOWHIST
280
     1
  9
$DWFFRAME
280
     2
  9
$DGNFRAME
280
     2
  9
$REALWORLDSCALE
290
     1
  9
$INTERFERECOLOR
 62
   256
  9
$CSHADOW
280
     0
  9
$SHADOWPLANELOCATION
 40
0.0
  0
ENDSEC
  0
SECTION
  2
CLASSES
  0
CLASS
  1
ACDBDICTIONARYWDFLT
  2
AcDbDictionaryWithDefault
  3
ObjectDBX Classes
 90
        0
 91
        3
280
     0
281
     0
  0
CLASS
  1
VISUALSTYLE
  2
AcDbVisualStyle
  3
ObjectDBX Classes
 90
     4095
 91
        3
280
     0
281
     0
  0
CLASS
  1
MATERIAL
  2
AcDbMaterial
  3
ObjectDBX Classes
 90
     1153
 91
        3
280
     0
281
     0
  0
CLASS
  1
SCALE
  2
AcDbScale
  3
ObjectDBX Classes
 90
     1153
 91
        3
280
     0
281
     0
  0
CLASS
  1
TABLESTYLE
  2
AcDbTableStyle
  3
ObjectDBX Classes
 90
     4095
 91
        3
280
     0
281
     0
  0
CLASS
  1
MLEADERSTYLE
  2
AcDbMLeaderStyle
  3
ACDB_MLEADERSTYLE_CLASS
 90
     4095
 91
        3
280
     0
281
     0
  0
CLASS
  1
SUN
  2
AcDbSun
  3
SCENEOE
 90
     1153
 91
        3
280
     0
281
     0
  0
CLASS
  1
DICTIONARYVAR
  2
AcDbDictionaryVar
  3
ObjectDBX Classes
 90
        0
 91
        3
280
     0
281
     0
  0
CLASS
  1
CELLSTYLEMAP
  2
AcDbCellStyleMap
  3
ObjectDBX Classes
 90
     1152
 91
        3
280
     0
281
     0
  0
ENDSEC
  0
SECTION
  2
TABLES
  0
TABLE
  2
VPORT
  5
8
330
0
100
AcDbSymbolTable
 70
     1
  0
VPORT
  5
29
330
8
100
AcDbSymbolTableRecord
100
AcDbViewportTableRecord
  2
*Active
 70
     0
 10
0.0
 20
0.0
 11
1.0
 21
1.0
 12
400.0
 22
275.0
 13
0.0
 23
0.0
 14
10.0
 24
10.0
 15
10.0
 25
10.0
 16
0.0
 26
0.0
 36
1.0
 17
0.0
 27
0.0
 37
0.0
 40
550.0
 41
1.4545454545
 42
50.0
 43
0.0
 44
0.0
 50
0.0
 51
0.0
 71
     0
 72
  2000
 73
     1
 74
     3
 75
     0
 76
     0
 77
     0
 78
     0
281
     0
 65
     1
110
0.0
120
0.0
130
0.0
111
1.0
121
0.0
131
0.0
112
0.0
122
1.0
132
0.0
 79
     0
146
0.0
348
2F
 60
     3
 61
     5
292
     1
282
     1
141
0.0
142
0.0
 63
   250
361
5D
  0
ENDTAB
  0
TABLE
  2
LTYPE
  5
5
330
0
100
AcDbSymbolTable
 70
     6
  0
LTYPE
  5
14
330
5
100
AcDbSymbolTableRecord
100
AcDbLinetypeTableRecord
  2
ByBlock
 70
     0
  3

 72
    65
 73
     0
 40
0.0
  0
LTYPE
  5
15
330
5
100
AcDbSymbolTableRecord
100
AcDbLinetypeTableRecord
  2
ByLayer
 70
     0
  3

 72
    65
 73
     0
 40
0.0
  0
LTYPE
  5
16
330
5
100
AcDbSymbolTableRecord
100
AcDbLinetypeTableRecord
  2
Continuous
 70
     0
  3
Solid line
 72
    65
 73
     0
 40
0.0
  0
LTYPE
  5
5E
330
5
100
AcDbSymbolTableRecord
100
AcDbLinetypeTableRecord
  2
HIDDEN
 70
     0
  3
Hidden __ __ __ __ __ __ __ __ __ __ __ __ __ __
 72
    65
 73
     2
 40
1.905
 49
1.27
 74
     0
 49
-0.635
 74
     0
  0
LTYPE
  5
5F
330
5
100
AcDbSymbolTableRecord
100
AcDbLinetypeTableRecord
  2
PHANTOM
 70
     0
  3
Phantom ______  __  __  ______  __  __  ______
 72
    65
 73
     6
 40
12.7
 49
6.35
 74
     0
 49
-1.27
 74
     0
 49
1.27
 74
     0
 49
-1.27
 74
     0
 49
1.27
 74
     0
 49
-1.27
 74
     0
  0
LTYPE
  5
60
330
5
100
AcDbSymbolTableRecord
100
AcDbLinetypeTableRecord
  2
CENTER
 70
     0
  3
Center ____ _ ____ _ ____ _ ____ _ ____ _ ____
 72
    65
 73
     4
 40
10.16
 49
6.35
 74
     0
 49
-1.27
 74
     0
 49
1.27
 74
     0
 49
-1.27
 74
     0
  0
LTYPE
  5
61
330
5
100
AcDbSymbolTableRecord
100
AcDbLinetypeTableRecord
  2
CENTERX2
 70
     0
  3
Center (2x) ________  __  ________  __  _____
 72
    65
 73
     4
 40
20.32
 49
12.7
 74
     0
 49
-2.54
 74
     0
 49
2.54
 74
     0
 49
-2.54
 74
     0
  0
LTYPE
  5
62
330
5
100
AcDbSymbolTableRecord
100
AcDbLinetypeTableRecord
  2
DOT2
 70
     0
  3
Dot (.5x) ........................................
 72
    65
 73
     2
 40
0.635
 49
0.0
 74
     0
 49
-0.635
 74
     0
  0
ENDTAB
  0
TABLE
  2
LAYER
  5
2
330
0
100
AcDbSymbolTable
 70
     2
  0
LAYER
  5
10
330
2
100
AcDbSymbolTableRecord
100
AcDbLayerTableRecord
  2
0
 70
     0
 62
     7
  6
Continuous
370
    -3
390
F
347
46
348
0
  0
LAYER
  5
63
330
2
100
AcDbSymbolTableRecord
100
AcDbLayerTableRecord
  2
TABLE_BL1
 70
     0
 62
   179
  6
Continuous
370
    -3
390
F
347
46
348
0
  0
ENDTAB
  0
TABLE
  2
STYLE
  5
3
330
0
100
AcDbSymbolTable
 70
     1
  0
STYLE
  5
11
330
3
100
AcDbSymbolTableRecord
100
AcDbTextStyleTableRecord
  2
Standard
 70
     0
 40
0.0
 41
1.0
 50
0.0
 71
     0
 42
3.5
  3
txt
  4

  0
ENDTAB
  0
TABLE
  2
VIEW
  5
6
330
0
100
AcDbSymbolTable
 70
     0
  0
ENDTAB
  0
TABLE
  2
UCS
  5
7
330
0
100
AcDbSymbolTable
 70
     0
  0
ENDTAB
  0
TABLE
  2
APPID
  5
9
330
0
100
AcDbSymbolTable
 70
     1
  0
APPID
  5
12
330
9
100
AcDbSymbolTableRecord
100
AcDbRegAppTableRecord
  2
ACAD
 70
     0
  0
ENDTAB
  0
TABLE
  2
DIMSTYLE
  5
A
330
0
100
AcDbSymbolTable
 70
     1
100
AcDbDimStyleTable
  0
DIMSTYLE
105
27
330
A
100
AcDbSymbolTableRecord
100
AcDbDimStyleTableRecord
  2
ISO-25
 70
     0
 41
2.5
 42
0.625
 43
3.75
 44
1.25
 73
     0
 74
     0
 77
     1
 78
     8
140
2.5
141
2.5
143
0.0393700787
147
0.625
171
     3
172
     1
178
     0
271
     2
272
     2
274
     3
278
    44
283
     0
284
     8
340
11
  0
ENDTAB
  0
TABLE
  2
BLOCK_RECORD
  5
1
330
0
100
AcDbSymbolTable
 70
     1
  0
BLOCK_RECORD
  5
1F
330
1
100
AcDbSymbolTableRecord
100
AcDbBlockTableRecord
  2
*Model_Space
340
22
 70
     0
280
     1
281
     0
  0
BLOCK_RECORD
  5
1B
330
1
100
AcDbSymbolTableRecord
100
AcDbBlockTableRecord
  2
*Paper_Space
340
1E
 70
     0
280
     1
281
     0
  0
BLOCK_RECORD
  5
23
330
1
100
AcDbSymbolTableRecord
100
AcDbBlockTableRecord
  2
*Paper_Space0
340
26
 70
     0
280
     1
281
     0
  0
ENDTAB
  0
ENDSEC
  0
SECTION
  2
BLOCKS
  0
BLOCK
  5
20
330
1F
100
AcDbEntity
  8
0
100
AcDbBlockBegin
  2
*Model_Space
 70
     0
 10
0.0
 20
0.0
 30
0.0
  3
*Model_Space
  1

  0
ENDBLK
  5
21
330
1F
100
AcDbEntity
  8
0
100
AcDbBlockEnd
  0
BLOCK
  5
1C
330
1B
100
AcDbEntity
 67
     1
  8
0
100
AcDbBlockBegin
  2
*Paper_Space
 70
     0
 10
0.0
 20
0.0
 30
0.0
  3
*Paper_Space
  1

  0
ENDBLK
  5
1D
330
1B
100
AcDbEntity
 67
     1
  8
0
100
AcDbBlockEnd
  0
BLOCK
  5
24
330
23
100
AcDbEntity
  8
0
100
AcDbBlockBegin
  2
*Paper_Space0
 70
     0
 10
0.0
 20
0.0
 30
0.0
  3
*Paper_Space0
  1

  0
ENDBLK
  5
25
330
23
100
AcDbEntity
  8
0
100
AcDbBlockEnd
  0
ENDSEC
  0
SECTION
  2
ENTITIES
  0
SPLINE
  5
64
330
1F
100
AcDbEntity
  8
0
  6
Continuous
 62
     7
370
    25
100
AcDbSpline
210
0.0
220
0.0
230
1.0
 70
     8
 71
     3
 72
    15
 73
    11
 74
     0
 42
0.00000001
 43
0.00000001
 40
0.0
 40
0.0
 40
0.0
 40
0.0
 40
0.143569712050928
 40
0.2830630712899251
 40
0.4177869949919162
 40
0.5471035624718787
 40
0.6704392768339374
 40
0.7872946987831273
 40
0.8972547346571186
 40
1.0
 40
1.0
 40
1.0
 40
1.0
 10
483.6190653498085
 20
429.3103598519288
 30
0.0
 10
483.6371059633054
 20
429.2767580004295
 30
0.0
 10
483.6726749659275
 20
429.2105083496463
 30
0.0
 10
483.8002311184832
 20
429.116108377757
 30
0.0
 10
483.9703059365931
 20
429.0287208146204
 30
0.0
 10
484.1754254469677
 20
428.9496972285473
 30
0.0
 10
484.3998956536968
 20
428.8798493260736
 30
0.0
 10
484.6282263065505
 20
428.8200924332057
 30
0.0
 10
484.8480086080644
 20
428.7699342784915
 30
0.0
 10
484.9794522741379
 20
428.7440334917332
 30
0.0
 10
485.0429448823198
 20
428.7315223639293
 30
0.0
  0
SPLINE
  5
65
330
1F
100
AcDbEntity
  8
0
  6
Continuous
 62
     7
370
    25
100
AcDbSpline
210
0.0
220
0.0
230
1.0
 70
     8
 71
     3
 72
    15
 73
    11
 74
     0
 42
0.00000001
 43
0.00000001
 40
0.0
 40
0.0
 40
0.0
 40
0.0
 40
0.1027452653428832
 40
0.2127053012168751
 40
0.3295607231660657
 40
0.4528964375281264
 40
0.5822130050080877
 40
0.7169369287100777
 40
0.8564302879490758
 40
1.0
 40
1.0
 40
1.0
 40
1.0
 10
521.2429448823198
 20
428.7315223639293
 30
0.0
 10
521.3064374905016
 20
428.7440334917331
 30
0.0
 10
521.4378811565751
 20
428.7699342784914
 30
0.0
 10
521.6576634580891
 20
428.8200924332057
 30
0.0
 10
521.8859941109429
 20
428.8798493260736
 30
0.0
 10
522.1104643176719
 20
428.9496972285474
 30
0.0
 10
522.3155838280466
 20
429.0287208146204
 30
0.0
 10
522.4856586461564
 20
429.116108377757
 30
0.0
 10
522.6132147987122
 20
429.2105083496463
 30
0.0
 10
522.6487838013343
 20
429.2767580004295
 30
0.0
 10
522.6668244148311
 20
429.3103598519288
 30
0.0
  0
LINE
  5
66
330
1F
100
AcDbEntity
  8
0
  6
Continuous
 62
     7
370
    25
100
AcDbLine
 10
485.0429448823
 20
428.6663508518
 30
0.0
 11
521.2429448823
 21
428.6663508518
 31
0.0
  0
SPLINE
  5
67
330
1F
100
AcDbEntity
  8
0
  6
Continuous
 62
     7
370
    25
100
AcDbSpline
210
0.0
220
0.0
230
1.0
 70
     8
 71
     3
 72
    10
 73
     6
 74
     0
 42
0.00000001
 43
0.00000001
 40
0.0
 40
0.0
 40
0.0
 40
0.0
 40
0.3274285650656062
 40
0.6639672068206746
 40
0.9999999999999999
 40
0.9999999999999999
 40
0.9999999999999999
 40
0.9999999999999999
 10
524.4418917742418
 20
430.18997870675
 30
0.0
 10
524.6273326219639
 20
430.1875236959072
 30
0.0
 10
525.0033738560813
 20
430.182545368217
 30
0.0
 10
525.5242149662506
 20
430.1682611070834
 30
0.0
 10
525.8173634345954
 20
430.1549264084409
 30
0.0
 10
525.96382742863
 20
430.1482640737084
 30
0.0
  0
SPLINE
  5
68
330
1F
100
AcDbEntity
  8
0
  6
Continuous
 62
     7
370
    25
100
AcDbSpline
210
0.0
220
0.0
230
1.0
 70
     8
 71
     3
 72
    10
 73
     6
 74
     0
 42
0.00000001
 43
0.00000001
 40
0.0
 40
0.0
 40
0.0
 40
0.0
 40
0.3284379545068311
 40
0.6638373480172985
 40
1.0
 40
1.0
 40
1.0
 40
1.0
 10
480.7855151125641
 20
430.1675883515863
 30
0.0
 10
480.9519606334406
 20
430.1725811062893
 30
0.0
 10
481.2883795876199
 20
430.1826724401191
 30
0.0
 10
481.8577620187419
 20
430.1914201113312
 30
0.0
 10
482.2523149608664
 20
430.1925540227961
 30
0.0
 10
482.4498156449242
 20
430.1931216228976
 30
0.0
  0
LINE
  5
69
330
1F
100
AcDbEntity
  8
0
  6
Continuous
 62
     7
370
    25
100
AcDbLine
 10
482.4498156449
 20
430.1786940032
 30
0.0
 11
523.8360741197
 21
430.1786940032
 31
0.0
  0
CIRCLE
  5
6A
330
1F
100
AcDbEntity
  8
0
  6
Continuous
 62
     7
370
    25
100
AcDbCircle
 10
403.1429448823
 20
322.4595092697
 30
0.0
 40
8.900000000000034
  0
LINE
  5
6B
330
1F
100
AcDbEntity
  8
0
  6
Continuous
 62
     7
370
    25
100
AcDbLine
 10
78.1429448823
 20
47.5340067218
 30
0.0
 11
728.1429448823
 21
47.5340067218
 31
0.0
  0
LINE
  5
6C
330
1F
100
AcDbEntity
  8
0
  6
Continuous
 62
     7
370
    25
100
AcDbLine
 10
753.0684474303
 20
72.4595092697
 30
0.0
 11
753.0684474303
 21
407.4595092697
 31
0.0
  0
LINE
  5
6D
330
1F
100
AcDbEntity
  8
0
  6
Continuous
 62
     7
370
    25
100
AcDbLine
 10
728.1429448823
 20
432.3850118177
 30
0.0
 11
78.1429448823
 21
432.3850118177
 31
0.0
  0
ARC
  5
6E
330
1F
100
AcDbEntity
  8
0
  6
Continuous
 62
     7
370
    25
100
AcDbCircle
 10
728.1429448823
 20
72.4595092697
 30
0.0
 40
24.92550254794048
100
AcDbArc
 50
270.0
 51
0.0
  0
LINE
  5
6F
330
1F
100
AcDbEntity
  8
0
  6
Continuous
 62
     7
370
    25
100
AcDbLine
 10
53.2174423344
 20
407.4595092697
 30
0.0
 11
53.2174423344
 21
72.4595092697
 31
0.0
  0
ARC
  5
70
330
1F
100
AcDbEntity
  8
0
  6
Continuous
 62
     7
370
    25
100
AcDbCircle
 10
78.1429448823
 20
407.4595092697
 30
0.0
 40
24.92550254794037
100
AcDbArc
 50
90.0
 51
180.0
  0
ARC
  5
71
330
1F
100
AcDbEntity
  8
0
  6
Continuous
 62
     7
370
    25
100
AcDbCircle
 10
728.1429448823
 20
407.4595092697
 30
0.0
 40
24.92550254794048
100
AcDbArc
 50
0.0
 51
90.0
  0
ARC
  5
72
330
1F
100
AcDbEntity
  8
0
  6
Continuous
 62
     7
370
    25
100
AcDbCircle
 10
78.1429448823
 20
72.4595092697
 30
0.0
 40
24.92550254794049
100
AcDbArc
 50
180.0
 51
270.0
  0
SPLINE
  5
73
330
1F
100
AcDbEntity
  8
0
  6
Continuous
 62
     7
370
    25
100
AcDbSpline
210
0.0
220
0.0
230
1.0
 70
     8
 71
     3
 72
    15
 73
    11
 74
     0
 42
0.00000001
 43
0.00000001
 40
0.0
 40
0.0
 40
0.0
 40
0.0
 40
0.1277272324949038
 40
0.2500006214582937
 40
0.3758169427894291
 40
0.5000000007288549
 40
0.6241813061257149
 40
0.7499993797159688
 40
0.8722718196511802
 40
1.0
 40
1.0
 40
1.0
 40
1.0
 10
60.34363766458295
 20
407.4595092697268
 30
0.0
 10
60.41547986046225
 20
408.648088609337
 30
0.0
 10
60.55609665193207
 20
410.9744959678219
 30
0.0
 10
61.62749442014825
 20
414.3343884509041
 30
0.0
 10
63.26448965587605
 20
417.405632362993
 30
0.0
 10
65.49197869368584
 20
420.1104524769843
 30
0.0
 10
68.19680773409115
 20
422.3379550672731
 30
0.0
 10
71.26804231330314
 20
423.9749506559016
 30
0.0
 10
74.62794924927141
 20
425.0463555845722
 30
0.0
 10
76.95435667990813
 20
425.1869732907677
 30
0.0
 10
78.14294488231988
 20
425.2588164874637
 30
0.0
  0
LINE
  5
74
330
1F
100
AcDbEntity
  8
0
  6
Continuous
 62
     7
370
    25
100
AcDbLine
 10
53.2174423344
 20
407.4595092697
 30
0.0
 11
60.3436376646
 21
407.4595092697
 31
0.0
  0
LINE
  5
75
330
1F
100
AcDbEntity
  8
0
  6
Continuous
 62
     7
370
    25
100
AcDbLine
 10
78.1429448823
 20
432.3850118177
 30
0.0
 11
78.1429448823
 21
425.2588164875
 31
0.0
  0
LINE
  5
76
330
1F
100
AcDbEntity
  8
0
  6
Continuous
 62
     7
370
    25
100
AcDbLine
 10
60.3713830475
 20
407.4395879571
 30
0.0
 11
60.3436376646
 21
407.4595092697
 31
0.0
  0
SPLINE
  5
77
330
1F
100
AcDbEntity
  8
0
  6
Continuous
 62
     7
370
    25
100
AcDbSpline
210
0.0
220
0.0
230
1.0
 70
     8
 71
     3
 72
    13
 73
     9
 74
     0
 42
0.00000001
 43
0.00000001
 40
0.0
 40
0.0
 40
0.0
 40
0.0
 40
0.1664531964948744
 40
0.332916796356564
 40
0.4993685470697714
 40
0.6662415529067768
 40
0.8331269769045216
 40
0.9999999999999999
 40
0.9999999999999999
 40
0.9999999999999999
 40
0.9999999999999999
 10
59.93299040137762
 20
72.46123796093119
 30
0.0
 10
60.00112834679216
 20
91.0156317512581
 30
0.0
 10
60.1374084962602
 20
128.1255789862094
 30
0.0
 10
60.28254299351254
 20
183.8600855815952
 30
0.0
 10
60.38302543534041
 20
239.6761734039338
 30
0.0
 10
60.43159203978271
 20
295.5647232345474
 30
0.0
 10
60.43350474627346
 20
351.5098154116354
 30
0.0
 10
60.3920897674528
 20
388.7967922451397
 30
0.0
 10
60.37138304743583
 20
407.4395879570936
 30
0.0
  0
LINE
  5
78
330
1F
100
AcDbEntity
  8
0
  6
Continuous
 62
     7
370
    25
100
AcDbLine
 10
59.9250698599
 20
72.4595092697
 30
0.0
 11
59.9329904014
 21
72.4612379609
 31
0.0
  0
LINE
  5
79
330
1F
100
AcDbEntity
  8
0
  6
Continuous
 62
     7
370
    25
100
AcDbLine
 10
53.2174423344
 20
72.4595092697
 30
0.0
 11
59.9250698599
 21
72.4595092697
 31
0.0
  0
SPLINE
  5
7A
330
1F
100
AcDbEntity
  8
0
  6
Continuous
 62
     7
370
    25
100
AcDbSpline
210
0.0
220
0.0
230
1.0
 70
     8
 71
     3
 72
    19
 73
    15
 74
     0
 42
0.00000001
 43
0.00000001
 40
0.0
 40
0.0
 40
0.0
 40
0.0
 40
0.0833990047370871
 40
0.1668019915658995
 40
0.2502006629755815
 40
0.3337799527584238
 40
0.417363206138469
 40
0.5009345119150097
 40
0.5840018761185213
 40
0.6670808683654396
 40
0.7501559706765969
 40
0.8334357716092352
 40
0.9167198684243635
 40
1.0
 40
1.0
 40
1.0
 40
1.0
 10
78.14294488231988
 20
425.2588164874637
 30
0.0
 10
96.16488469816625
 20
425.1686973259008
 30
0.0
 10
132.2096248319434
 20
424.988454699813
 30
0.0
 10
186.3606969483158
 20
424.7679259917339
 30
0.0
 10
240.6012613467144
 20
424.58549987188
 30
0.0
 10
294.9246546477653
 20
424.4422331770803
 30
0.0
 10
349.3244603333489
 20
424.3460894224012
 30
0.0
 10
403.6422273551624
 20
424.3107399220467
 30
0.0
 10
457.8500975297486
 20
424.3473610350785
 30
0.0
 10
511.9212837365
 20
424.4435791729449
 30
0.0
 10
565.9999628460525
 20
424.5864906635394
 30
0.0
 10
620.0796141518878
 20
424.7685234821402
 30
0.0
 10
674.153362414463
 20
424.988824397253
 30
0.0
 10
710.1467030130158
 20
425.1688205523938
 30
0.0
 10
728.1429448823197
 20
425.2588164874637
 30
0.0
  0
LINE
  5
7B
330
1F
100
AcDbEntity
  8
0
  6
Continuous
 62
     7
370
    25
100
AcDbLine
 10
728.1429448823
 20
432.3850118177
 30
0.0
 11
728.1429448823
 21
425.2588164875
 31
0.0
  0
SPLINE
  5
7C
330
1F
100
AcDbEntity
  8
0
  6
Continuous
 62
     7
370
    25
100
AcDbSpline
210
0.0
220
0.0
230
1.0
 70
     8
 71
     3
 72
    15
 73
    11
 74
     0
 42
0.00000001
 43
0.00000001
 40
0.0
 40
0.0
 40
0.0
 40
0.0
 40
0.1277272317967743
 40
0.250000621458375
 40
0.37581694216213
 40
0.5000000007288463
 40
0.6241813067730381
 40
0.7499993797158869
 40
0.8722718203716047
 40
1.0
 40
1.0
 40
1.0
 40
1.0
 10
728.1429448823197
 20
425.2588164874637
 30
0.0
 10
729.3315242154048
 20
425.1869742923174
 30
0.0
 10
731.657931573834
 20
425.0463575015136
 30
0.0
 10
735.017824052174
 20
423.9749597367414
 30
0.0
 10
738.0890679705315
 20
422.3379644995179
 30
0.0
 10
740.793888090546
 20
420.1104754590664
 30
0.0
 10
743.021390683321
 20
417.4056464127394
 30
0.0
 10
744.6583862734922
 20
414.3344118270585
 30
0.0
 10
745.7297911986092
 20
410.9745048959841
 30
0.0
 10
745.8704089041173
 20
408.6480974654048
 30
0.0
 10
745.9422521000567
 20
407.4595092697268
 30
0.0
  0
LINE
  5
7D
330
1F
100
AcDbEntity
  8
0
  6
Continuous
 62
     7
370
    25
100
AcDbLine
 10
753.0684474303
 20
407.4595092697
 30
0.0
 11
745.9422521001
 21
407.4595092697
 31
0.0
  0
SPLINE
  5
7E
330
1F
100
AcDbEntity
  8
0
  6
Continuous
 62
     7
370
    25
100
AcDbSpline
210
0.0
220
0.0
230
1.0
 70
     8
 71
     3
 72
    15
 73
    11
 74
     0
 42
0.00000001
 43
0.00000001
 40
0.0
 40
0.0
 40
0.0
 40
0.0
 40
0.1277272428964332
 40
0.2500006214542265
 40
0.3758169636543247
 40
0.5000000007223258
 40
0.6241813269981236
 40
0.749999379711899
 40
0.8722718300606256
 40
1.0
 40
1.0
 40
1.0
 40
1.0
 10
78.14294488231988
 20
54.24163424733177
 30
0.0
 10
76.92641485841261
 20
54.31516589269883
 30
0.0
 10
74.54529979558173
 20
54.45908943337385
 30
0.0
 10
71.10639603637142
 20
55.55568223426971
 30
0.0
 10
67.96292898019924
 20
57.23117299368108
 30
0.0
 10
65.19450231448593
 20
59.51104374086999
 30
0.0
 10
62.9146180265917
 20
62.27947932521527
 30
0.0
 10
61.23912692287492
 20
65.42293704171406
 30
0.0
 10
60.14252696344258
 20
68.86185523889927
 30
0.0
 10
59.99860250713424
 20
71.2429703737747
 30
0.0
 10
59.9250698599249
 20
72.45950926972672
 30
0.0
  0
LINE
  5
7F
330
1F
100
AcDbEntity
  8
0
  6
Continuous
 62
     7
370
    25
100
AcDbLine
 10
78.1429448823
 20
47.5340067218
 30
0.0
 11
78.1429448823
 21
54.2416342473
 31
0.0
  0
SPLINE
  5
80
330
1F
100
AcDbEntity
  8
0
  6
Continuous
 62
     7
370
    25
100
AcDbSpline
210
0.0
220
0.0
230
1.0
 70
     8
 71
     3
 72
    18
 73
    14
 74
     0
 42
0.00000001
 43
0.00000001
 40
0.0
 40
0.0
 40
0.0
 40
0.0
 40
0.1043473809118468
 40
0.2087035112791016
 40
0.3130489385998037
 40
0.3915992349711328
 40
0.470160012177065
 40
0.5487204403907368
 40
0.6272702607996454
 40
0.7203943990175076
 40
0.8135190504140825
 40
0.9067593904458225
 40
1.0
 40
1.0
 40
1.0
 40
1.0
 10
728.1429448823197
 20
54.2416342473318
 30
0.0
 10
705.5914104774323
 20
54.34988296234388
 30
0.0
 10
660.4864507371624
 20
54.56638946894768
 30
0.0
 10
592.698052267615
 20
54.8070429381344
 30
0.0
 10
530.4310273421756
 20
54.96826644925282
 30
0.0
 10
473.7138431207495
 20
55.05960477469699
 30
0.0
 10
422.5714311215336
 20
55.09843268138598
 30
0.0
 10
371.4236886836475
 20
55.09351740219126
 30
0.0
 10
317.1245692070143
 20
55.04102617258943
 30
0.0
 10
259.6919225848519
 20
54.93190823119043
 30
0.0
 10
199.1253261351362
 20
54.75830243370003
 30
0.0
 10
138.5930791171629
 20
54.53343778099654
 30
0.0
 10
98.29300904260751
 20
54.33890218560802
 30
0.0
 10
78.14294488231982
 20
54.2416342473318
 30
0.0
  0
LINE
  5
81
330
1F
100
AcDbEntity
  8
0
  6
Continuous
 62
     7
370
    25
100
AcDbLine
 10
728.1429448823
 20
47.5340067218
 30
0.0
 11
728.1429448823
 21
54.2416342473
 31
0.0
  0
SPLINE
  5
82
330
1F
100
AcDbEntity
  8
0
  6
Continuous
 62
     7
370
    25
100
AcDbSpline
210
0.0
220
0.0
230
1.0
 70
     8
 71
     3
 72
    15
 73
    11
 74
     0
 42
0.00000001
 43
0.00000001
 40
0.0
 40
0.0
 40
0.0
 40
0.0
 40
0.1277272436232068
 40
0.2500006214539467
 40
0.3758169637005818
 40
0.5000000007219787
 40
0.6241813270098516
 40
0.749999379711621
 40
0.8722718307489025
 40
1.0
 40
1.0
 40
1.0
 40
1.0
 10
746.3608199047147
 20
72.45950926972675
 30
0.0
 10
746.2872882585694
 20
71.24297923886702
 30
0.0
 10
746.1433647171905
 20
68.86186417597962
 30
0.0
 10
745.0467719143514
 20
65.42296041724721
 30
0.0
 10
743.3712811581408
 20
62.27949336718347
 30
0.0
 10
741.0914104107608
 20
59.51106670152356
 30
0.0
 10
738.3229748266933
 20
57.23118241396261
 30
0.0
 10
735.1795171044399
 20
55.55569130712959
 30
0.0
 10
731.7405989065096
 20
54.45909134944632
 30
0.0
 10
729.3594837716877
 20
54.31516689380442
 30
0.0
 10
728.1429448823197
 20
54.2416342473318
 30
0.0
  0
LINE
  5
83
330
1F
100
AcDbEntity
  8
0
  6
Continuous
 62
     7
370
    25
100
AcDbLine
 10
753.0684474303
 20
72.4595092697
 30
0.0
 11
746.3608199047
 21
72.4595092697
 31
0.0
  0
LINE
  5
84
330
1F
100
AcDbEntity
  8
0
  6
Continuous
 62
     7
370
    25
100
AcDbLine
 10
746.3528993633
 20
72.4612379609
 30
0.0
 11
746.3608199047
 21
72.4595092697
 31
0.0
  0
SPLINE
  5
85
330
1F
100
AcDbEntity
  8
0
  6
Continuous
 62
     7
370
    25
100
AcDbSpline
210
0.0
220
0.0
230
1.0
 70
     8
 71
     3
 72
    13
 73
     9
 74
     0
 42
0.00000001
 43
0.00000001
 40
0.0
 40
0.0
 40
0.0
 40
0.0
 40
0.1664467888479024
 40
0.3329058828164802
 40
0.4993526511719714
 40
0.6662306324225252
 40
0.8331205582564102
 40
0.9999999999999999
 40
0.9999999999999999
 40
0.9999999999999999
 40
0.9999999999999999
 10
745.9145067172582
 20
407.4395879968318
 30
0.0
 10
745.8938402120702
 20
388.8444179479584
 30
0.0
 10
745.8525056738555
 20
351.6527031417356
 30
0.0
 10
745.8542115518734
 20
295.8505340274154
 30
0.0
 10
745.9024184819402
 20
240.0095299035483
 30
0.0
 10
746.0026750683197
 20
184.1456127998322
 30
0.0
 10
746.1479917120142
 20
128.2681796916758
 30
0.0
 10
746.2845982431703
 20
91.06316231999081
 30
0.0
 10
746.3528993632619
 20
72.46123796093126
 30
0.0
  0
LINE
  5
86
330
1F
100
AcDbEntity
  8
0
  6
Continuous
 62
     7
370
    25
100
AcDbLine
 10
745.9422521001
 20
407.4595092697
 30
0.0
 11
745.9145067172
 21
407.4395879968
 31
0.0
  0
SPLINE
  5
87
330
1F
100
AcDbEntity
  8
0
  6
Continuous
 62
     7
370
    25
100
AcDbSpline
210
0.0
220
0.0
230
1.0
 70
     8
 71
     3
 72
    20
 73
    16
 74
     0
 42
0.00000001
 43
0.00000001
 40
0.0
 40
0.0
 40
0.0
 40
0.0
 40
0.1263148326563618
 40
0.249965385715188
 40
0.3328217891231573
 40
0.4159781643723459
 40
0.5003585492609535
 40
0.561154167719581
 40
0.6245766711335347
 40
0.6853490414336926
 40
0.7502224370437971
 40
0.8088154689957444
 40
0.8744804627436704
 40
0.9261301051301514
 40
1.0
 40
1.0
 40
1.0
 40
1.0
 10
78.10378283796004
 20
54.27691851910407
 30
0.0
 10
78.0192103689748
 20
54.47215046770193
 30
0.0
 10
77.85184926508693
 20
54.85849645976732
 30
0.0
 10
77.90479042384585
 20
56.2809734201678
 30
0.0
 10
78.09178864014443
 20
57.93654558494799
 30
0.0
 10
78.3602886629048
 20
59.67363926750657
 30
0.0
 10
78.69588438686392
 20
61.50260777250291
 30
0.0
 10
79.07024287598018
 20
63.34457863408905
 30
0.0
 10
79.45014407749895
 20
65.09478558217543
 30
0.0
 10
79.88419257714907
 20
66.98745926942267
 30
0.0
 10
80.34764905657477
 20
68.92058187679991
 30
0.0
 10
80.86054340562548
 20
70.97817296492175
 30
0.0
 10
81.36752233618505
 20
72.94873279149792
 30
0.0
 10
81.94454089309777
 20
75.13066071658534
 30
0.0
 10
82.34190093858157
 20
76.58820013213266
 30
0.0
 10
82.57575253990984
 20
77.44598120549077
 30
0.0
  0
SPLINE
  5
88
330
1F
100
AcDbEntity
  8
0
  6
Continuous
 62
     7
370
    25
100
AcDbSpline
210
0.0
220
0.0
230
1.0
 70
     8
 71
     3
 72
    19
 73
    15
 74
     0
 42
0.00000001
 43
0.00000001
 40
0.0
 40
0.0
 40
0.0
 40
0.0
 40
0.0924299775613628
 40
0.1848597046437975
 40
0.2773943949273767
 40
0.3699286274130962
 40
0.4621526824191976
 40
0.5543765798656839
 40
0.6467312004070727
 40
0.7390862654768747
 40
0.8042965675410771
 40
0.8695069623910964
 40
0.9347534537280434
 40
1.0
 40
1.0
 40
1.0
 40
1.0
 10
82.57575253990979
 20
77.44598120549081
 30
0.0
 10
102.2800855585709
 20
77.5284700291942
 30
0.0
 10
141.688698198496
 20
77.69344745306181
 30
0.0
 10
200.9242127115312
 20
77.87117693671387
 30
0.0
 10
260.2379678938559
 20
77.99682203645669
 30
0.0
 10
319.5568685421645
 20
78.07037039552175
 30
0.0
 10
378.8384828802092
 20
78.1020275361673
 30
0.0
 10
438.0907513775667
 20
78.09836188043909
 30
0.0
 10
497.358091895564
 20
78.06073476908854
 30
0.0
 10
550.8145266134007
 20
77.9865918981534
 30
0.0
 10
598.4303772237962
 20
77.8845527430648
 30
0.0
 10
640.2211297006829
 20
77.76725379046917
 30
0.0
 10
681.9876888776557
 20
77.62399345949841
 30
0.0
 10
709.8026505391873
 20
77.5053186401466
 30
0.0
 10
723.7101372247298
 20
77.44598120549081
 30
0.0
  0
SPLINE
  5
89
330
1F
100
AcDbEntity
  8
0
  6
Continuous
 62
     7
370
    25
100
AcDbSpline
210
0.0
220
0.0
230
1.0
 70
     8
 71
     3
 72
    17
 73
    13
 74
     0
 42
0.00000001
 43
0.00000001
 40
0.0
 40
0.0
 40
0.0
 40
0.0
 40
0.1263687940126823
 40
0.2500721702620145
 40
0.3750739980515894
 40
0.500380805469926
 40
0.6245337532527394
 40
0.7501157389382068
 40
0.8087332588820567
 40
0.8744268472482001
 40
0.9260889723604053
 40
1.0
 40
1.0
 40
1.0
 40
1.0
 10
728.1821069266791
 20
54.27691851910399
 30
0.0
 10
728.2666209370734
 20
54.47237480669448
 30
0.0
 10
728.4338663568146
 20
54.85916474491448
 30
0.0
 10
728.3750862902043
 20
56.45825552883751
 30
0.0
 10
728.0933896000947
 20
58.71742843820918
 30
0.0
 10
727.5758797103317
 20
61.63457341637837
 30
0.0
 10
726.8497579160634
 20
65.08167303934448
 30
0.0
 10
726.1025653156248
 20
68.26111261910336
 30
0.0
 10
725.425381672669
 20
70.97808170322867
 30
0.0
 10
724.9183901358965
 20
72.94863753046631
 30
0.0
 10
724.3413789621744
 20
75.13054306273787
 30
0.0
 10
723.9440190564219
 20
76.58808654822519
 30
0.0
 10
723.7101372247298
 20
77.44598120549077
 30
0.0
  0
LINE
  5
8A
330
1F
100
AcDbEntity
  8
0
  6
Continuous
 62
     7
370
    25
100
AcDbLine
 10
728.1429448823
 20
54.2416342473
 30
0.0
 11
728.1821069267
 21
54.2769185191
 31
0.0
  0
LINE
  5
8B
330
1F
100
AcDbEntity
  8
0
  6
Continuous
 62
     7
370
    25
100
AcDbLine
 10
78.1429448823
 20
54.2416342473
 30
0.0
 11
78.103782838
 21
54.2769185191
 31
0.0
  0
SPLINE
  5
8C
330
1F
100
AcDbEntity
  8
0
  6
Continuous
 62
     7
370
    25
100
AcDbSpline
210
0.0
220
0.0
230
1.0
 70
     8
 71
     3
 72
    14
 73
    10
 74
     0
 42
0.00000001
 43
0.00000001
 40
0.0
 40
0.0
 40
0.0
 40
0.0
 40
0.1333429958510227
 40
0.2878614294782696
 40
0.4423795928166679
 40
0.5970349204812166
 40
0.7516901009606711
 40
0.8758356570764589
 40
1.0
 40
1.0
 40
1.0
 40
1.0
 10
723.7101372247297
 20
77.44598120549077
 30
0.0
 10
723.6657054103537
 20
91.79642154868189
 30
0.0
 10
723.5697858195344
 20
122.7762135090255
 30
0.0
 10
723.4631280572082
 20
170.4351601177578
 30
0.0
 10
723.3836966828804
 20
220.4203957321734
 30
0.0
 10
723.3373259859982
 20
270.4448107635722
 30
0.0
 10
723.3229409045763
 20
317.2044812428301
 30
0.0
 10
723.3309901377054
 20
360.6759804117194
 30
0.0
 10
723.3524746630461
 20
387.4574915756609
 30
0.0
 10
723.3632177384621
 20
400.8492602849848
 30
0.0
  0
SPLINE
  5
8D
330
1F
100
AcDbEntity
  8
0
  6
Continuous
 62
     7
370
    25
100
AcDbSpline
210
0.0
220
0.0
230
1.0
 70
     8
 71
     3
 72
    19
 73
    15
 74
     0
 42
0.00000001
 43
0.00000001
 40
0.0
 40
0.0
 40
0.0
 40
0.0
 40
0.0608187581073724
 40
0.1075115558343145
 40
0.152695659256031
 40
0.2035572799967382
 40
0.2498740451816093
 40
0.335471157726015
 40
0.4181052162446566
 40
0.4997344616354829
 40
0.625017513379897
 40
0.7499547807586456
 40
0.8736277213869287
 40
1.0
 40
1.0
 40
1.0
 40
1.0
 10
723.3632177384621
 20
400.8492602849848
 30
0.0
 10
724.0638208031487
 20
401.0605432829061
 30
0.0
 10
725.3023026112409
 20
401.4340360100634
 30
0.0
 10
727.0338745448062
 20
401.9579232781763
 30
0.0
 10
728.6289420769164
 20
402.4402868023952
 30
0.0
 10
730.1881394870511
 20
402.9111921889814
 30
0.0
 10
732.1393428994954
 20
403.4999812953612
 30
0.0
 10
734.3383603786119
 20
404.1605552700543
 30
0.0
 10
736.724652450164
 20
404.8722737548834
 30
0.0
 10
739.2531443552867
 20
405.6185650385097
 30
0.0
 10
741.7635486321838
 20
406.3465889754327
 30
0.0
 10
743.9303001780976
 20
406.9542359963442
 30
0.0
 10
745.4327616518024
 20
407.3530605956668
 30
0.0
 10
745.7527734769618
 20
407.4105386967598
 30
0.0
 10
745.9145067172581
 20
407.4395879968324
 30
0.0
  0
SPLINE
  5
8E
330
1F
100
AcDbEntity
  8
0
  6
Continuous
 62
     7
370
    25
100
AcDbSpline
210
0.0
220
0.0
230
1.0
 70
     8
 71
     3
 72
    19
 73
    15
 74
     0
 42
0.00000001
 43
0.00000001
 40
0.0
 40
0.0
 40
0.0
 40
0.0
 40
0.0608830253724335
 40
0.1075558023868504
 40
0.1526870452757141
 40
0.203538636017545
 40
0.2498614929287376
 40
0.3354450567950535
 40
0.418077206342276
 40
0.499719027569675
 40
0.6249999406603536
 40
0.7499763870316162
 40
0.873655320206438
 40
1.0
 40
1.0
 40
1.0
 40
1.0
 10
723.7101372247297
 20
77.44598120549077
 30
0.0
 10
724.4151403940233
 20
77.25137257681445
 30
0.0
 10
725.6605972532184
 20
76.90757745361482
 30
0.0
 10
727.4013858998863
 20
76.43429318774925
 30
0.0
 10
729.0041309865152
 20
76.00387918586196
 30
0.0
 10
730.5710853016024
 20
75.5896899169424
 30
0.0
 10
732.5323910123016
 20
75.07958112246274
 30
0.0
 10
734.7424132138605
 20
74.5206318088606
 30
0.0
 10
737.139626707534
 20
73.93954868237718
 30
0.0
 10
739.6783099869932
 20
73.35666922640249
 30
0.0
 10
742.1968775912638
 20
72.83070127393643
 30
0.0
 10
744.3680170437488
 20
72.46286642905872
 30
0.0
 10
745.8715498401782
 20
72.30965784117677
 30
0.0
 10
746.1913130858513
 20
72.41035338308099
 30
0.0
 10
746.3528993632619
 20
72.46123796093131
 30
0.0
  0
SPLINE
  5
8F
330
1F
100
AcDbEntity
  8
0
  6
Continuous
 62
     7
370
    25
100
AcDbSpline
210
0.0
220
0.0
230
1.0
 70
     8
 71
     3
 72
    20
 73
    16
 74
     0
 42
0.00000001
 43
0.00000001
 40
0.0
 40
0.0
 40
0.0
 40
0.0
 40
0.1263440414768411
 40
0.249989347474167
 40
0.3328003665491682
 40
0.415946512714149
 40
0.5003448378561892
 40
0.561125630603768
 40
0.6245677982818267
 40
0.6853220451412638
 40
0.7502098749419069
 40
0.808798553766568
 40
0.8744828133305931
 40
0.9261874108508659
 40
1.0
 40
1.0
 40
1.0
 40
1.0
 10
60.37138304743589
 20
407.4395879570941
 30
0.0
 10
60.53289883871111
 20
407.4106052662723
 30
0.0
 10
60.85248040975871
 20
407.3532589610417
 30
0.0
 10
62.18905383719209
 20
406.9983529119888
 30
0.0
 10
63.77254639794172
 20
406.5574164425831
 30
0.0
 10
65.44973774625856
 20
406.0779023615993
 30
0.0
 10
67.2269146793551
 20
405.5606448767636
 30
0.0
 10
69.02428654286346
 20
405.0308564691846
 30
0.0
 10
70.73673303019196
 20
404.5221560367547
 30
0.0
 10
72.59350022293809
 20
403.9664680883402
 30
0.0
 10
74.49408830609805
 20
403.3952864495091
 30
0.0
 10
76.52172308231387
 20
402.7831387969203
 30
0.0
 10
78.46820708491575
 20
402.1952709772393
 30
0.0
 10
80.62669411817691
 20
401.5416979070513
 30
0.0
 10
82.07246250116901
 20
401.1056726222743
 30
0.0
 10
82.92267202617754
 20
400.8492602849849
 30
0.0
  0
SPLINE
  5
90
330
1F
100
AcDbEntity
  8
0
  6
Continuous
 62
     7
370
    25
100
AcDbSpline
210
0.0
220
0.0
230
1.0
 70
     8
 71
     3
 72
    14
 73
    10
 74
     0
 42
0.00000001
 43
0.00000001
 40
0.0
 40
0.0
 40
0.0
 40
0.0
 40
0.1320691068925345
 40
0.2865896635658284
 40
0.4411102633281042
 40
0.5957735630973002
 40
0.750437116312921
 40
0.8752102186461433
 40
1.0
 40
1.0
 40
1.0
 40
1.0
 10
82.92267202617754
 20
400.8492602849849
 30
0.0
 10
82.93393390208614
 20
386.6048335115619
 30
0.0
 10
82.95837214736329
 20
355.6944595964483
 30
0.0
 10
82.96289778663902
 20
308.1065072836652
 30
0.0
 10
82.93991745896079
 20
258.085763627867
 30
0.0
 10
82.8858316461093
 20
208.0641306092435
 30
0.0
 10
82.80362006054747
 20
161.2756980991494
 30
0.0
 10
82.70103636112452
 20
117.7332482036212
 30
0.0
 10
82.61751567429243
 20
90.87566852851641
 30
0.0
 10
82.5757525399099
 20
77.44598120549071
 30
0.0
  0
SPLINE
  5
91
330
1F
100
AcDbEntity
  8
0
  6
Continuous
 62
     7
370
    25
100
AcDbSpline
210
0.0
220
0.0
230
1.0
 70
     8
 71
     3
 72
    17
 73
    13
 74
     0
 42
0.00000001
 43
0.00000001
 40
0.0
 40
0.0
 40
0.0
 40
0.0
 40
0.1263703456076441
 40
0.2500744030783018
 40
0.3750762373192369
 40
0.5003826001298671
 40
0.6245349202229985
 40
0.7501163091584782
 40
0.8087325686506652
 40
0.874427008063908
 40
0.9260964548009173
 40
1.0
 40
1.0
 40
1.0
 40
1.0
 10
59.93299040137762
 20
72.46123796093116
 30
0.0
 10
60.0945819723725
 20
72.41035473119156
 30
0.0
 10
60.41435569353082
 20
72.30966185706328
 30
0.0
 10
61.91781092573822
 20
72.46285069197067
 30
0.0
 10
64.08924703109464
 20
72.83076108398926
 30
0.0
 10
66.9290975400122
 20
73.42377363371652
 30
0.0
 10
70.31151495154447
 20
74.21260699032123
 30
0.0
 10
73.44961675512562
 20
74.99941175145844
 30
0.0
 10
76.14079167257721
 20
75.70097993512952
 30
0.0
 10
78.09707653232867
 20
76.2213501830511
 30
0.0
 10
80.26703611645297
 20
76.80924422979469
 30
0.0
 10
81.72040217638721
 20
77.2100781737904
 30
0.0
 10
82.5757525399099
 20
77.44598120549078
 30
0.0
  0
LINE
  5
92
330
1F
100
AcDbEntity
  8
0
  6
Continuous
 62
     7
370
    25
100
AcDbLine
 10
78.0140896428
 20
425.0957408014
 30
0.0
 11
78.1429448823
 21
425.2588164875
 31
0.0
  0
LINE
  5
93
330
1F
100
AcDbEntity
  8
0
  6
Continuous
 62
     7
370
    25
100
AcDbLine
 10
728.2718001614
 20
425.0957408016
 30
0.0
 11
728.1429448823
 21
425.2588164875
 31
0.0
  0
SPLINE
  5
94
330
1F
100
AcDbEntity
  8
0
  6
Continuous
 62
     7
370
    25
100
AcDbSpline
210
0.0
220
0.0
230
1.0
 70
     8
 71
     3
 72
    19
 73
    15
 74
     0
 42
0.00000001
 43
0.00000001
 40
0.0
 40
0.0
 40
0.0
 40
0.0
 40
0.0608669685742789
 40
0.1075439925736374
 40
0.1526940158543041
 40
0.2035550241754301
 40
0.2498760099386579
 40
0.335472333728745
 40
0.41810824261636
 40
0.4997412004001111
 40
0.6250261268969616
 40
0.7499635390181666
 40
0.8736339069538236
 40
1.0
 40
1.0
 40
1.0
 40
1.0
 10
723.3632177384621
 20
400.8492602849848
 30
0.0
 10
723.5695800559307
 20
401.5557250178884
 30
0.0
 10
723.9341953482179
 20
402.8039560333069
 30
0.0
 10
724.4328415810852
 20
404.5613152564301
 30
0.0
 10
724.8845141070408
 20
406.1868966298733
 30
0.0
 10
725.3169153808896
 20
407.7847580416516
 30
0.0
 10
725.8465244320167
 20
409.7959707796449
 30
0.0
 10
726.4220042060562
 20
412.0811229153394
 30
0.0
 10
727.0125669958576
 20
414.5898228225516
 30
0.0
 10
727.5950004727242
 20
417.2836859931318
 30
0.0
 10
728.1035736521186
 20
420.0152846119443
 30
0.0
 10
728.4279665159577
 20
422.4671434487573
 30
0.0
 10
728.5159554076679
 20
424.2821230336171
 30
0.0
 10
728.3537681082977
 20
424.8225925525523
 30
0.0
 10
728.2718001613727
 20
425.0957408016124
 30
0.0
  0
SPLINE
  5
95
330
1F
100
AcDbEntity
  8
0
  6
Continuous
 62
     7
370
    25
100
AcDbSpline
210
0.0
220
0.0
230
1.0
 70
     8
 71
     3
 72
    19
 73
    15
 74
     0
 42
0.00000001
 43
0.00000001
 40
0.0
 40
0.0
 40
0.0
 40
0.0
 40
0.0665773034643642
 40
0.1705291449906952
 40
0.2744881797975692
 40
0.378436995685329
 40
0.4387347540871293
 40
0.4990315295656088
 40
0.5824994668260982
 40
0.6659860049561348
 40
0.7494909256563845
 40
0.833006095408166
 40
0.916516288503938
 40
1.0
 40
1.0
 40
1.0
 40
1.0
 10
723.3632177384621
 20
400.8492602849848
 30
0.0
 10
709.187239441136
 20
400.783907684234
 30
0.0
 10
672.8773059854558
 20
400.6165154567171
 30
0.0
 10
614.3453843249528
 20
400.403475166304
 30
0.0
 10
547.7693213712685
 20
400.2445031913691
 30
0.0
 10
490.4547604542001
 20
400.1992327972984
 30
0.0
 10
442.4462879042389
 20
400.2539382014039
 30
0.0
 10
398.8032855663508
 20
400.2869755125636
 30
0.0
 10
350.2001725606319
 20
400.2798710628111
 30
0.0
 10
296.6560558077939
 20
400.3094095518519
 30
0.0
 10
243.1398888006368
 20
400.3650954651525
 30
0.0
 10
189.6694002101329
 20
400.4659756911806
 30
0.0
 10
136.255474071013
 20
400.6147809807968
 30
0.0
 10
100.6983931813374
 20
400.7711087803179
 30
0.0
 10
82.92267202617742
 20
400.8492602849848
 30
0.0
  0
SPLINE
  5
96
330
1F
100
AcDbEntity
  8
0
  6
Continuous
 62
     7
370
    25
100
AcDbSpline
210
0.0
220
0.0
230
1.0
 70
     8
 71
     3
 72
    19
 73
    15
 74
     0
 42
0.00000001
 43
0.00000001
 40
0.0
 40
0.0
 40
0.0
 40
0.0
 40
0.0608446692434347
 40
0.107529128339547
 40
0.1526948063361093
 40
0.2035562060468125
 40
0.2498760161597095
 40
0.3354734726385531
 40
0.418109389472517
 40
0.4997412045824036
 40
0.6250261300895257
 40
0.7499635408780391
 40
0.8736339075657868
 40
1.0
 40
1.0
 40
1.0
 40
1.0
 10
82.92267202617754
 20
400.8492602849848
 30
0.0
 10
82.71638338281612
 20
401.5554657096177
 30
0.0
 10
82.35181507662249
 20
402.8035233403628
 30
0.0
 10
81.85316405716303
 20
404.5608992713149
 30
0.0
 10
81.40141502397435
 20
406.1867520969903
 30
0.0
 10
80.96896849710916
 20
407.7847797316246
 30
0.0
 10
80.43935922497786
 20
409.7959958339143
 30
0.0
 10
79.86387930278465
 20
412.0811468687075
 30
0.0
 10
79.27331859810415
 20
414.5898446655216
 30
0.0
 10
78.69088759537458
 20
417.2836953641282
 30
0.0
 10
78.18231639604272
 20
420.0152846530402
 30
0.0
 10
77.85792342718861
 20
422.4671434502706
 30
0.0
 10
77.76993449142572
 20
424.2821230345884
 30
0.0
 10
77.93212172762726
 20
424.8225925522687
 30
0.0
 10
78.01408964284035
 20
425.0957408014037
 30
0.0
  0
SPLINE
  5
97
330
1F
100
AcDbEntity
  8
0
  6
Continuous
 62
     7
370
    25
100
AcDbSpline
210
0.0
220
0.0
230
1.0
 70
     8
 71
     3
 72
    15
 73
    11
 74
     0
 42
0.00000001
 43
0.00000001
 40
0.0
 40
0.0
 40
0.0
 40
0.0
 40
0.1250376113360681
 40
0.250043408115028
 40
0.3750272900897926
 40
0.4999999995596724
 40
0.6249727090532627
 40
0.7499565910939016
 40
0.8749623912712117
 40
1.0
 40
1.0
 40
1.0
 40
1.0
 10
59.93299040137762
 20
72.46123796093102
 30
0.0
 10
60.00473542056528
 20
71.27514273402974
 30
0.0
 10
60.14820720414532
 20
68.90325407017606
 30
0.0
 10
61.23489821212297
 20
65.4811111606963
 30
0.0
 10
62.91670567267954
 20
62.32522177816516
 30
0.0
 10
65.19292463007098
 20
59.55721907489936
 30
0.0
 10
67.95992272370094
 20
57.27825036441983
 30
0.0
 10
71.11663342256752
 20
55.5920196241339
 30
0.0
 10
74.54125382454436
 20
54.49949275015162
 30
0.0
 10
76.91617246067867
 20
54.35111622121732
 30
0.0
 10
78.10378283796004
 20
54.27691851910402
 30
0.0
  0
SPLINE
  5
98
330
1F
100
AcDbEntity
  8
0
  6
Continuous
 62
     7
370
    25
100
AcDbSpline
210
0.0
220
0.0
230
1.0
 70
     8
 71
     3
 72
    15
 73
    11
 74
     0
 42
0.00000001
 43
0.00000001
 40
0.0
 40
0.0
 40
0.0
 40
0.0
 40
0.1250376097604498
 40
0.250043408112723
 40
0.3750272901014144
 40
0.4999999995782849
 40
0.6249727090648806
 40
0.7499565910915961
 40
0.8749623896955917
 40
1.0
 40
1.0
 40
1.0
 40
1.0
 10
728.1821069266794
 20
54.27691851910413
 30
0.0
 10
729.3697173138144
 20
54.35111622229691
 30
0.0
 10
731.744635942523
 20
54.4994927516948
 30
0.0
 10
735.1692563358088
 20
55.59201962340398
 30
0.0
 10
738.3259670209696
 20
57.27825035109066
 30
0.0
 10
741.092965117236
 20
59.5572190575544
 30
0.0
 10
743.3691840786549
 20
62.32522175819577
 30
0.0
 10
745.0509915517991
 20
65.48111115444044
 30
0.0
 10
746.137682562034
 20
68.90325407260411
 30
0.0
 10
746.2811543451339
 20
71.27514274387198
 30
0.0
 10
746.3528993632618
 20
72.46123796093121
 30
0.0
  0
SPLINE
  5
99
330
1F
100
AcDbEntity
  8
0
  6
Continuous
 62
     7
370
    25
100
AcDbSpline
210
0.0
220
0.0
230
1.0
 70
     8
 71
     3
 72
    15
 73
    11
 74
     0
 42
0.00000001
 43
0.00000001
 40
0.0
 40
0.0
 40
0.0
 40
0.0
 40
0.1251205002699858
 40
0.2501389713740367
 40
0.3750873298304121
 40
0.4999999995515604
 40
0.6249126693698837
 40
0.7498610278758799
 40
0.8748795058399488
 40
1.0
 40
1.0
 40
1.0
 40
1.0
 10
745.91450671725
 20
407.4395879968379
 30
0.0
 10
745.8420256318578
 20
408.5863669160466
 30
0.0
 10
745.6971225655744
 20
410.8789896167661
 30
0.0
 10
744.6374297552288
 20
414.1871679211138
 30
0.0
 10
743.0035364083843
 20
417.239290359178
 30
0.0
 10
740.7960029826395
 20
419.9197893032106
 30
0.0
 10
738.1141182329769
 20
422.13243497217
 30
0.0
 10
735.0540158043866
 20
423.777885780859
 30
0.0
 10
731.7320117405077
 20
424.8547438018932
 30
0.0
 10
729.4255175797962
 20
425.0153866296189
 30
0.0
 10
728.271800161375
 20
425.0957408016124
 30
0.0
  0
SPLINE
  5
9A
330
1F
100
AcDbEntity
  8
0
  6
Continuous
 62
     7
370
    25
100
AcDbSpline
210
0.0
220
0.0
230
1.0
 70
     8
 71
     3
 72
    15
 73
    11
 74
     0
 42
0.00000001
 43
0.00000001
 40
0.0
 40
0.0
 40
0.0
 40
0.0
 40
0.1251204992662374
 40
0.2501389721454213
 40
0.3750873306520205
 40
0.5000000003893134
 40
0.6249126701915011
 40
0.7498610286472767
 40
0.8748795048362169
 40
0.9999999999999999
 40
0.9999999999999999
 40
0.9999999999999999
 40
0.9999999999999999
 10
60.37138304745216
 20
407.4395879571038
 30
0.0
 10
60.4438641319851
 20
408.5863668696285
 30
0.0
 10
60.58876719816053
 20
410.8789895824471
 30
0.0
 10
61.64846001302004
 20
414.1871679023533
 30
0.0
 10
63.28235337539423
 20
417.2392903601751
 30
0.0
 10
65.48988680986683
 20
419.9197893077711
 30
0.0
 10
68.17177156801863
 20
422.132434977943
 30
0.0
 10
71.2318739905412
 20
423.7778857784285
 30
0.0
 10
74.55387805367081
 20
424.8547437996857
 30
0.0
 10
76.86037221253194
 20
425.015386628149
 30
0.0
 10
78.0140896428404
 20
425.0957408014037
 30
0.0
  0
CIRCLE
  5
9B
330
1F
100
AcDbEntity
  8
0
  6
Continuous
 62
     7
370
    25
100
AcDbCircle
 10
403.1429448823
 20
322.4595092697
 30
0.0
 40
70.0
  0
CIRCLE
  5
9C
330
1F
100
AcDbEntity
  8
0
  6
Continuous
 62
     7
370
    25
100
AcDbCircle
 10
403.1429448823
 20
322.4595092697
 30
0.0
 40
58.94765075494627
  0
CIRCLE
  5
9D
330
1F
100
AcDbEntity
  8
0
  6
Continuous
 62
     7
370
    25
100
AcDbCircle
 10
403.1429448823
 20
322.4595092697
 30
0.0
 40
57.49999999999994
  0
LWPOLYLINE
  5
9E
330
1F
100
AcDbEntity
  8
0
  6
Continuous
 62
     7
370
    25
100
AcDbPolyline
 90
        3
 70
   128
 43
0.0
 10
358.8695278338
 20
314.4056565988
 10
359.7195237288
 20
310.6524564908
 10
359.761518584
 20
310.4990806686
  0
LWPOLYLINE
  5
9F
330
1F
100
AcDbEntity
  8
0
  6
Continuous
 62
     7
370
    25
100
AcDbPolyline
 90
        3
 70
   128
 43
0.0
 10
381.835635613
 20
282.8236849223
 10
384.7791823314
 20
281.3770041736
 10
385.4442172193
 20
281.0861478024
  0
LWPOLYLINE
  5
A0
330
1F
100
AcDbEntity
  8
0
  6
Continuous
 62
     7
370
    25
100
AcDbPolyline
 90
        3
 70
   128
 43
0.0
 10
420.8456236428
 20
281.087838229
 10
423.3059501618
 20
282.2295053162
 10
424.453106614
 20
282.8252184728
  0
LWPOLYLINE
  5
A1
330
1F
100
AcDbEntity
  8
0
  6
Continuous
 62
     7
370
    25
100
AcDbPolyline
 90
        3
 70
   128
 43
0.0
 10
446.525600482
 20
310.5035403372
 10
447.0461298022
 20
312.5847761649
 10
447.4166210396
 20
314.4070810943
  0
LWPOLYLINE
  5
A2
330
1F
100
AcDbEntity
  8
0
  6
Continuous
 62
     7
370
    25
100
AcDbPolyline
 90
        3
 70
   128
 43
0.0
 10
439.5403621202
 20
348.9213311725
 10
438.5898036816
 20
350.1817061751
 10
437.0435853551
 20
352.0525249243
  0
LWPOLYLINE
  5
A3
330
1F
100
AcDbEntity
  8
0
  6
Continuous
 62
     7
370
    25
100
AcDbPolyline
 90
        3
 70
   128
 43
0.0
 10
405.1497734315
 20
367.4147385448
 10
404.1384388042
 20
367.4484967206
 10
401.1432041405
 20
367.4150543889
  0
LWPOLYLINE
  5
A4
330
1F
100
AcDbEntity
  8
0
  6
Continuous
 62
     7
370
    25
100
AcDbPolyline
 90
        3
 70
   128
 43
0.0
 10
369.2479467092
 20
352.0589872861
 10
368.9570260761
 20
351.7225056196
 10
366.74648808
 20
348.9226521714
  0
LINE
  5
A5
330
1F
100
AcDbEntity
  8
0
  6
Continuous
 62
     7
370
    25
100
AcDbLine
 10
521.2429448823
 20
429.3480887482
 30
0.0
 11
485.0429448823
 21
429.3480887482
 31
0.0
  0
ARC
  5
A6
330
1F
100
AcDbEntity
  8
0
  6
Continuous
 62
     7
370
    25
100
AcDbCircle
 10
484.9182872639
 20
426.9400474385
 30
0.0
 40
2.41126574050855
100
AcDbArc
 50
87.0366016998
 51
98.9551904986
  0
ARC
  5
A7
330
1F
100
AcDbEntity
  8
0
  6
Continuous
 62
     7
370
    25
100
AcDbCircle
 10
521.3676025008
 20
426.9400474385
 30
0.0
 40
2.41126574052101
100
AcDbArc
 50
81.0448095015
 51
92.9633983002
  0
LINE
  5
A8
330
1F
100
AcDbEntity
  8
0
  6
Continuous
 62
     7
370
    25
100
AcDbLine
 10
521.7429448823
 20
428.6938892952
 30
0.0
 11
521.7429448823
 21
429.3219207701
 31
0.0
  0
ARC
  5
A9
330
1F
100
AcDbEntity
  8
0
  6
Continuous
 62
     7
370
    25
100
AcDbCircle
 10
521.3676025008
 20
431.0757626268
 30
0.0
 40
2.411265740507859
100
AcDbArc
 50
267.0366016998
 51
278.9551904986
  0
LINE
  5
AA
330
1F
100
AcDbEntity
  8
0
  6
Continuous
 62
     7
370
    25
100
AcDbLine
 10
485.0429448823
 20
428.6677213171
 30
0.0
 11
521.2429448823
 21
428.6677213171
 31
0.0
  0
ARC
  5
AB
330
1F
100
AcDbEntity
  8
0
  6
Continuous
 62
     7
370
    25
100
AcDbCircle
 10
484.9182872639
 20
431.0757626268
 30
0.0
 40
2.411265740504459
100
AcDbArc
 50
261.0448095014
 51
272.9633983002
  0
LINE
  5
AC
330
1F
100
AcDbEntity
  8
0
  6
Continuous
 62
     7
370
    25
100
AcDbLine
 10
484.5429448823
 20
429.3219207701
 30
0.0
 11
484.5429448823
 21
428.6938892952
 31
0.0
  0
LWPOLYLINE
  5
AD
330
1F
100
AcDbEntity
  8
0
  6
Continuous
 62
     7
370
    25
100
AcDbPolyline
 90
        3
 70
   128
 43
0.0
 10
483.6189898159
 20
429.3105420078
 10
483.5621596019
 20
429.4976958724
 10
483.5429448823
 20
429.6925188299
  0
LINE
  5
AE
330
1F
100
AcDbEntity
  8
0
  6
Continuous
 62
     7
370
    25
100
AcDbLine
 10
483.5429448823
 20
429.6925188299
 30
0.0
 11
483.5429448823
 21
430.1786940032
 31
0.0
  0
LINE
  5
AF
330
1F
100
AcDbEntity
  8
0
  6
Continuous
 62
     7
370
    25
100
AcDbLine
 10
522.7429448823
 20
430.1786940032
 30
0.0
 11
522.7429448823
 21
429.6925188299
 31
0.0
  0
LWPOLYLINE
  5
B0
330
1F
100
AcDbEntity
  8
0
  6
Continuous
 62
     7
370
    25
100
AcDbPolyline
 90
        4
 70
   128
 43
0.0
 10
522.7429448823
 20
429.6925188299
 10
522.7237301627
 20
429.4976958724
 10
522.6668244148
 20
429.3103598519
 10
522.6667479133
 20
429.3101754662
  0
LINE
  5
B1
330
1F
100
AcDbEntity
  8
0
  6
Continuous
 62
     7
370
    25
100
AcDbLine
 10
477.6429448823
 20
430.9456654341
 30
0.0
 11
477.6429448823
 21
430.3464877132
 31
0.0
  0
LINE
  5
B2
330
1F
100
AcDbEntity
  8
0
  6
Continuous
 62
     7
370
    25
100
AcDbLine
 10
477.6429448823
 20
430.9456654341
 30
0.0
 11
528.6429448823
 21
430.9456654341
 31
0.0
  0
LINE
  5
B3
330
1F
100
AcDbEntity
  8
0
  6
Continuous
 62
     7
370
    25
100
AcDbLine
 10
528.6429448823
 20
430.9456654341
 30
0.0
 11
528.6429448823
 21
430.3464877132
 31
0.0
  0
LINE
  5
B4
330
1F
100
AcDbEntity
  8
0
  6
Continuous
 62
     7
370
    25
100
AcDbLine
 10
477.6429448823
 20
430.3464877132
 30
0.0
 11
528.6429448823
 21
430.3464877132
 31
0.0
  0
LINE
  5
B5
330
1F
100
AcDbEntity
  8
0
  6
Continuous
 62
     7
370
    25
100
AcDbLine
 10
475.6429448823
 20
430.8409935216
 30
0.0
 11
475.6429448823
 21
430.2418158007
 31
0.0
  0
ARC
  5
B6
330
1F
100
AcDbEntity
  8
0
  6
Continuous
 62
     7
370
    25
100
AcDbCircle
 10
477.1443144085
 20
421.3135001951
 30
0.0
 40
9.645062961998992
100
AcDbArc
 50
87.0366016997
 51
98.9551904986
  0
ARC
  5
B7
330
1F
100
AcDbEntity
  8
0
  6
Continuous
 62
     7
370
    25
100
AcDbCircle
 10
477.1443144085
 20
420.7143224742
 30
0.0
 40
9.645062961994746
100
AcDbArc
 50
87.0366016997
 51
98.9551904986
  0
LINE
  5
B8
330
1F
100
AcDbEntity
  8
0
  6
Continuous
 62
     7
370
    25
100
AcDbLine
 10
475.6429448823
 20
428.8810809384
 30
0.0
 11
475.6429448823
 21
430.2418158007
 31
0.0
  0
ARC
  5
B9
330
1F
100
AcDbEntity
  8
0
  6
Continuous
 62
     7
370
    25
100
AcDbCircle
 10
529.1415753562
 20
420.7143224742
 30
0.0
 40
9.64506296200307
100
AcDbArc
 50
81.0448095014
 51
92.9633983002
  0
LINE
  5
BA
330
1F
100
AcDbEntity
  8
0
  6
Continuous
 62
     7
370
    25
100
AcDbLine
 10
530.6429448823
 20
430.2418158007
 30
0.0
 11
530.6429448823
 21
428.8810809384
 31
0.0
  0
ARC
  5
BB
330
1F
100
AcDbEntity
  8
0
  6
Continuous
 62
     7
370
    25
100
AcDbCircle
 10
529.1415753562
 20
438.408574265
 30
0.0
 40
9.645062962015865
100
AcDbArc
 50
267.0366016998
 51
278.9551904986
  0
LINE
  5
BC
330
1F
100
AcDbEntity
  8
0
  6
Continuous
 62
     7
370
    25
100
AcDbLine
 10
528.6429448823
 20
428.7764090259
 30
0.0
 11
521.461418556
 21
428.7764090259
 31
0.0
  0
LINE
  5
BD
330
1F
100
AcDbEntity
  8
0
  6
Continuous
 62
     7
370
    25
100
AcDbLine
 10
484.8244712086
 20
428.7764090259
 30
0.0
 11
477.6429448823
 21
428.7764090259
 31
0.0
  0
ARC
  5
BE
330
1F
100
AcDbEntity
  8
0
  6
Continuous
 62
     7
370
    25
100
AcDbCircle
 10
477.1443144085
 20
438.408574265
 30
0.0
 40
9.645062962022376
100
AcDbArc
 50
261.0448095014
 51
272.9633983002
  0
SPLINE
  5
BF
330
1F
100
AcDbEntity
  8
0
  6
Continuous
 62
     7
370
    25
100
AcDbSpline
210
0.0
220
0.0
230
1.0
 70
     8
 71
     3
 72
     9
 73
     5
 74
     0
 42
0.00000001
 43
0.00000001
 40
0.0
 40
0.0
 40
0.0
 40
0.0
 40
0.5594717333059714
 40
1.0
 40
1.0
 40
1.0
 40
1.0
 10
480.1237331990766
 20
428.9925977825263
 30
0.0
 10
479.8189868697922
 20
429.0127671106603
 30
0.0
 10
479.2742831588761
 20
429.0488177758382
 30
0.0
 10
479.1965963683825
 20
429.0942995322926
 30
0.0
 10
479.1623731412215
 20
429.1143355316296
 30
0.0
  0
SPLINE
  5
C0
330
1F
100
AcDbEntity
  8
0
  6
Continuous
 62
     7
370
    25
100
AcDbSpline
210
0.0
220
0.0
230
1.0
 70
     8
 71
     3
 72
     9
 73
     5
 74
     0
 42
0.00000001
 43
0.00000001
 40
0.0
 40
0.0
 40
0.0
 40
0.0
 40
0.5604800890566302
 40
1.0
 40
1.0
 40
1.0
 40
1.0
 10
482.4498156449242
 20
428.9422840846046
 30
0.0
 10
481.9608127986099
 20
428.9452359110841
 30
0.0
 10
481.0883414015663
 20
428.9505025147281
 30
0.0
 10
480.4182511894361
 20
428.9797450889212
 30
0.0
 10
480.1237331990766
 20
428.9925977825263
 30
0.0
  0
SPLINE
  5
C1
330
1F
100
AcDbEntity
  8
0
  6
Continuous
 62
     7
370
    25
100
AcDbSpline
210
0.0
220
0.0
230
1.0
 70
     8
 71
     3
 72
     9
 73
     5
 74
     0
 42
0.00000001
 43
0.00000001
 40
0.0
 40
0.0
 40
0.0
 40
0.0
 40
0.5594717333059708
 40
1.0
 40
1.0
 40
1.0
 40
1.0
 10
526.162156565563
 20
428.9925977825263
 30
0.0
 10
525.7767747060942
 20
428.9766485919716
 30
0.0
 10
525.0879430162579
 20
428.9481410023918
 30
0.0
 10
524.2189084228477
 20
428.9440751899238
 30
0.0
 10
523.8360741197155
 20
428.9422840846046
 30
0.0
  0
SPLINE
  5
C2
330
1F
100
AcDbEntity
  8
0
  6
Continuous
 62
     7
370
    25
100
AcDbSpline
210
0.0
220
0.0
230
1.0
 70
     8
 71
     3
 72
     9
 73
     5
 74
     0
 42
0.00000001
 43
0.00000001
 40
0.0
 40
0.0
 40
0.0
 40
0.0
 40
0.560480089056622
 40
1.0
 40
1.0
 40
1.0
 40
1.0
 10
527.1235166234183
 20
429.1143355316296
 30
0.0
 10
527.067115122589
 20
429.0887431000622
 30
0.0
 10
526.9664844277075
 20
429.0430814752034
 30
0.0
 10
526.4077371286741
 20
429.0080116631825
 30
0.0
 10
526.162156565563
 20
428.9925977825263
 30
0.0
  0
LINE
  5
C3
330
1F
100
AcDbEntity
  8
0
  6
Continuous
 62
     7
370
    25
100
AcDbLine
 10
527.1235166234
 20
430.0085612075
 30
0.0
 11
527.1235166234
 21
429.1143355316
 31
0.0
  0
SPLINE
  5
C4
330
1F
100
AcDbEntity
  8
0
  6
Continuous
 62
     7
370
    25
100
AcDbSpline
210
0.0
220
0.0
230
1.0
 70
     8
 71
     3
 72
     9
 73
     5
 74
     0
 42
0.00000001
 43
0.00000001
 40
0.0
 40
0.0
 40
0.0
 40
0.0
 40
0.5594717333059724
 40
1.0
 40
1.0
 40
1.0
 40
1.0
 10
526.162156565563
 20
430.1302989566253
 30
0.0
 10
526.4669028948474
 20
430.1101296284913
 30
0.0
 10
527.0116066057636
 20
430.0740789633132
 30
0.0
 10
527.0892933962571
 20
430.0285972068589
 30
0.0
 10
527.1235166234183
 20
430.0085612075218
 30
0.0
  0
SPLINE
  5
C5
330
1F
100
AcDbEntity
  8
0
  6
Continuous
 62
     7
370
    25
100
AcDbSpline
210
0.0
220
0.0
230
1.0
 70
     8
 71
     3
 72
     9
 73
     5
 74
     0
 42
0.00000001
 43
0.00000001
 40
0.0
 40
0.0
 40
0.0
 40
0.0
 40
0.5604800890566214
 40
1.0
 40
1.0
 40
1.0
 40
1.0
 10
523.8360741197155
 20
430.1806126545468
 30
0.0
 10
524.3250769660298
 20
430.1776608280674
 30
0.0
 10
525.1975483630733
 20
430.1723942244234
 30
0.0
 10
525.8676385752036
 20
430.1431516502303
 30
0.0
 10
526.162156565563
 20
430.1302989566253
 30
0.0
  0
LINE
  5
C6
330
1F
100
AcDbEntity
  8
0
  6
Continuous
 62
     7
370
    25
100
AcDbLine
 10
482.4498156449
 20
430.1806126545
 30
0.0
 11
523.8360741197
 21
430.1806126545
 31
0.0
  0
SPLINE
  5
C7
330
1F
100
AcDbEntity
  8
0
  6
Continuous
 62
     7
370
    25
100
AcDbSpline
210
0.0
220
0.0
230
1.0
 70
     8
 71
     3
 72
     9
 73
     5
 74
     0
 42
0.00000001
 43
0.00000001
 40
0.0
 40
0.0
 40
0.0
 40
0.0
 40
0.5594717333059708
 40
1.0
 40
1.0
 40
1.0
 40
1.0
 10
480.1237331990766
 20
430.1302989566253
 30
0.0
 10
480.5091150585454
 20
430.1462481471798
 30
0.0
 10
481.1979467483817
 20
430.1747557367597
 30
0.0
 10
482.066981341792
 20
430.1788215492277
 30
0.0
 10
482.4498156449242
 20
430.1806126545468
 30
0.0
  0
SPLINE
  5
C8
330
1F
100
AcDbEntity
  8
0
  6
Continuous
 62
     7
370
    25
100
AcDbSpline
210
0.0
220
0.0
230
1.0
 70
     8
 71
     3
 72
     9
 73
     5
 74
     0
 42
0.00000001
 43
0.00000001
 40
0.0
 40
0.0
 40
0.0
 40
0.0
 40
0.560480089056622
 40
1.0
 40
1.0
 40
1.0
 40
1.0
 10
479.1623731412215
 20
430.0085612075218
 30
0.0
 10
479.2187746420505
 20
430.0341536390893
 30
0.0
 10
479.3194053369322
 20
430.0798152639481
 30
0.0
 10
479.8781526359656
 20
430.114885075969
 30
0.0
 10
480.1237331990766
 20
430.1302989566253
 30
0.0
  0
LINE
  5
C9
330
1F
100
AcDbEntity
  8
0
  6
Continuous
 62
     7
370
    25
100
AcDbLine
 10
479.1623731412
 20
429.1143355316
 30
0.0
 11
479.1623731412
 21
430.0085612075
 31
0.0
  0
ARC
  5
CA
330
1F
100
AcDbEntity
  8
0
  6
Continuous
 62
     7
370
    25
100
AcDbCircle
 10
529.1415753562
 20
421.3135001951
 30
0.0
 40
9.645062961998486
100
AcDbArc
 50
81.0448095014
 51
92.9633983003
  0
LINE
  5
CB
330
1F
100
AcDbEntity
  8
0
  6
Continuous
 62
     7
370
    25
100
AcDbLine
 10
530.6429448823
 20
430.8409935216
 30
0.0
 11
530.6429448823
 21
430.2418158007
 31
0.0
  0
CIRCLE
  5
CC
330
1F
100
AcDbEntity
  8
0
  6
Continuous
 62
     7
370
    25
100
AcDbCircle
 10
403.1429448823
 20
322.4595092697
 30
0.0
 40
8.100000000000023
  0
CIRCLE
  5
CD
330
1F
100
AcDbEntity
  8
0
  6
Continuous
 62
     7
370
    25
100
AcDbCircle
 10
403.1429448823
 20
322.4595092697
 30
0.0
 40
55.99540163538484
  0
CIRCLE
  5
CE
330
1F
100
AcDbEntity
  8
0
  6
Continuous
 62
     7
370
    25
100
AcDbCircle
 10
403.1429448823
 20
322.4595092697
 30
0.0
 40
56.58542857502061
  0
SPLINE
  5
CF
330
1F
100
AcDbEntity
  8
0
  6
Continuous
 62
     7
370
    25
100
AcDbSpline
210
0.0
220
0.0
230
1.0
 70
     8
 71
     3
 72
    17
 73
    13
 74
     0
 42
0.00000001
 43
0.00000001
 40
0.0
 40
0.0
 40
0.0
 40
0.0
 40
0.1073415831264232
 40
0.2147340135529316
 40
0.3221186568153163
 40
0.4294882791417516
 40
0.5368445105545013
 40
0.6441943157237154
 40
0.7515471508446131
 40
0.8589113006666687
 40
0.9662906002105655
 40
1.0
 40
1.0
 40
1.0
 40
1.0
 10
382.8168119231294
 20
275.6423295284682
 30
0.0
 10
382.6993607705605
 20
275.4493671773074
 30
0.0
 10
382.4644028292579
 20
275.0633510694529
 30
0.0
 10
381.8941108795858
 20
274.6735481777494
 30
0.0
 10
381.2391721811984
 20
274.4837772403332
 30
0.0
 10
380.5550901105182
 20
274.5243732192826
 30
0.0
 10
379.923919352139
 20
274.7883491463035
 30
0.0
 10
379.4156009211604
 20
275.2464166934174
 30
0.0
 10
379.0871760470874
 20
275.84723988767
 30
0.0
 10
378.9776707374876
 20
276.5214418089035
 30
0.0
 10
379.0655420321223
 20
277.0444362952184
 30
0.0
 10
379.1845117865197
 20
277.3135636475452
 30
0.0
 10
379.2129364515197
 20
277.3778644849385
 30
0.0
  0
ARC
  5
D0
330
1F
100
AcDbEntity
  8
0
  6
Continuous
 62
     7
370
    25
100
AcDbCircle
 10
403.1429448823
 20
322.4595092697
 30
0.0
 40
47.00000000000004
100
AcDbArc
 50
246.7245689767
 51
293.2754310233
  0
SPLINE
  5
D1
330
1F
100
AcDbEntity
  8
0
  6
Continuous
 62
     7
370
    25
100
AcDbSpline
210
0.0
220
0.0
230
1.0
 70
     8
 71
     3
 72
    17
 73
    13
 74
     0
 42
0.00000001
 43
0.00000001
 40
0.0
 40
0.0
 40
0.0
 40
0.0
 40
0.1073415831264234
 40
0.2147340135529318
 40
0.3221186568153172
 40
0.4294882791417517
 40
0.5368445105545007
 40
0.6441943157237153
 40
0.7515471508446135
 40
0.8589113006666688
 40
0.966290600210566
 40
1.0
 40
1.0
 40
1.0
 40
1.0
 10
427.0729533131204
 20
277.3778644849388
 30
0.0
 10
427.1505877583458
 20
277.1657274181167
 30
0.0
 10
427.3058934239382
 20
276.74135279595
 30
0.0
 10
427.2550823819265
 20
276.052442467786
 30
0.0
 10
426.9951036759688
 20
275.422070530132
 30
0.0
 10
426.5368462668611
 20
274.9125448095537
 30
0.0
 10
425.9369330454216
 20
274.5836619382735
 30
0.0
 10
425.2618700581789
 20
274.4718430300035
 30
0.0
 10
424.587358009854
 20
274.5896772581643
 30
0.0
 10
423.9919702785084
 20
274.9244205819044
 30
0.0
 10
423.6378635800311
 20
275.3192028551007
 30
0.0
 10
423.5016277717851
 20
275.5800153141272
 30
0.0
 10
423.4690778415108
 20
275.6423295284685
 30
0.0
  0
ARC
  5
D2
330
1F
100
AcDbEntity
  8
0
  6
Continuous
 62
     7
370
    25
100
AcDbCircle
 10
403.1429448823
 20
322.4595092697
 30
0.0
 40
47.00000000000005
100
AcDbArc
 50
298.1531404052
 51
344.7040024519
  0
SPLINE
  5
D3
330
1F
100
AcDbEntity
  8
0
  6
Continuous
 62
     7
370
    25
100
AcDbSpline
210
0.0
220
0.0
230
1.0
 70
     8
 71
     3
 72
    17
 73
    13
 74
     0
 42
0.00000001
 43
0.00000001
 40
0.0
 40
0.0
 40
0.0
 40
0.0
 40
0.1073415831264243
 40
0.2147340135529323
 40
0.322118656815318
 40
0.4294882791417519
 40
0.5368445105545021
 40
0.644194315723715
 40
0.7515471508446128
 40
0.8589113006666693
 40
0.9662906002105653
 40
0.9999999999999999
 40
0.9999999999999999
 40
0.9999999999999999
 40
0.9999999999999999
 10
453.3093102715056
 20
313.0607974623189
 30
0.0
 10
453.5235699938164
 20
312.9892292179602
 30
0.0
 10
453.9521909324546
 20
312.8460588276375
 30
0.0
 10
454.4591225490943
 20
312.3768045913302
 30
0.0
 10
454.7898731037516
 20
311.7805145797361
 30
0.0
 10
454.9025175320221
 20
311.104550419656
 30
0.0
 10
454.7856087392657
 20
310.4304642601366
 30
0.0
 10
454.4521373939283
 20
309.8329608151001
 30
0.0
 10
453.9394595012785
 20
309.3790744999838
 30
0.0
 10
453.3065284535867
 20
309.1222906759349
 30
0.0
 10
452.777093328411
 20
309.0915816322051
 30
0.0
 10
452.4882402998348
 20
309.1476820966795
 30
0.0
 10
452.4192265356804
 20
309.1610858135915
 30
0.0
  0
ARC
  5
D4
330
1F
100
AcDbEntity
  8
0
  6
Continuous
 62
     7
370
    25
100
AcDbCircle
 10
403.1429448823
 20
322.4595092697
 30
0.0
 40
47.00000000000004
100
AcDbArc
 50
349.5817118338
 51
36.1325738805
  0
SPLINE
  5
D5
330
1F
100
AcDbEntity
  8
0
  6
Continuous
 62
     7
370
    25
100
AcDbSpline
210
0.0
220
0.0
230
1.0
 70
     8
 71
     3
 72
    17
 73
    13
 74
     0
 42
0.00000001
 43
0.00000001
 40
0.0
 40
0.0
 40
0.0
 40
0.0
 40
0.107341583126423
 40
0.2147340135529311
 40
0.3221186568153164
 40
0.4294882791417506
 40
0.5368445105545008
 40
0.6441943157237154
 40
0.7515471508446124
 40
0.8589113006666692
 40
0.9662906002105653
 40
1.0
 40
1.0
 40
1.0
 40
1.0
 10
441.7693708844715
 20
355.8211521294587
 30
0.0
 10
441.958913942866
 20
355.9440450552916
 30
0.0
 10
442.3380898454816
 20
356.1898891208696
 30
0.0
 10
443.0210342739227
 20
356.2936489874004
 30
0.0
 10
443.6934521754562
 20
356.180459442696
 30
0.0
 10
444.2921748890897
 20
355.8470716428106
 30
0.0
 10
444.7463052304668
 20
355.3353828220219
 30
0.0
 10
445.0055362516493
 20
354.7021271211804
 30
0.0
 10
445.040749424563
 20
354.0183059156631
 30
0.0
 10
444.8468850488775
 20
353.3633584007694
 30
0.0
 10
444.5407969447691
 20
352.9302825763922
 30
0.0
 10
444.3168389179087
 20
352.7394262523246
 30
0.0
 10
444.2633300919065
 20
352.6938261995866
 30
0.0
  0
ARC
  5
D6
330
1F
100
AcDbEntity
  8
0
  6
Continuous
 62
     7
370
    25
100
AcDbCircle
 10
403.1429448823
 20
322.4595092697
 30
0.0
 40
47.00000000000001
100
AcDbArc
 50
41.0102832624
 51
87.5611453091
  0
SPLINE
  5
D7
330
1F
100
AcDbEntity
  8
0
  6
Continuous
 62
     7
370
    25
100
AcDbSpline
210
0.0
220
0.0
230
1.0
 70
     8
 71
     3
 72
    17
 73
    13
 74
     0
 42
0.00000001
 43
0.00000001
 40
0.0
 40
0.0
 40
0.0
 40
0.0
 40
0.107341583126425
 40
0.2147340135529328
 40
0.3221186568153172
 40
0.429488279141752
 40
0.5368445105545014
 40
0.6441943157237157
 40
0.7515471508446138
 40
0.8589113006666702
 40
0.966290600210565
 40
1.0
 40
1.0
 40
1.0
 40
1.0
 10
401.1429448823192
 20
373.4595092697268
 30
0.0
 10
401.1650414878525
 20
373.6843224860403
 30
0.0
 10
401.2092451659971
 20
374.1340554118337
 30
0.0
 10
401.5539313220959
 20
374.7326960853894
 30
0.0
 10
402.0616721758254
 20
375.1878410433831
 30
0.0
 10
402.6956227597382
 20
375.4480774168777
 30
0.0
 10
403.378822825621
 20
375.4840980534233
 30
0.0
 10
404.0355499670239
 20
375.2919445555727
 30
0.0
 10
404.5921379680794
 20
374.8931197748194
 30
0.0
 10
404.9833240934039
 20
374.3331974062904
 30
0.0
 10
405.1310735958158
 20
373.8238697301589
 30
0.0
 10
405.1406555328082
 20
373.5297753223315
 30
0.0
 10
405.1429448823192
 20
373.4595092697268
 30
0.0
  0
ARC
  5
D8
330
1F
100
AcDbEntity
  8
0
  6
Continuous
 62
     7
370
    25
100
AcDbCircle
 10
403.1429448823
 20
322.4595092697
 30
0.0
 40
46.99999999999999
100
AcDbArc
 50
92.438854691
 51
138.9897167376
  0
SPLINE
  5
D9
330
1F
100
AcDbEntity
  8
0
  6
Continuous
 62
     7
370
    25
100
AcDbSpline
210
0.0
220
0.0
230
1.0
 70
     8
 71
     3
 72
    17
 73
    13
 74
     0
 42
0.00000001
 43
0.00000001
 40
0.0
 40
0.0
 40
0.0
 40
0.0
 40
0.1073415831264234
 40
0.2147340135529324
 40
0.3221186568153165
 40
0.4294882791417512
 40
0.5368445105545008
 40
0.6441943157237151
 40
0.7515471508446133
 40
0.8589113006666688
 40
0.966290600210565
 40
1.0
 40
1.0
 40
1.0
 40
1.0
 10
362.0225596727328
 20
352.6938261995862
 30
0.0
 10
361.8605706307497
 20
352.8512707691422
 30
0.0
 10
361.5365158131898
 20
353.1662344891488
 30
0.0
 10
361.2833879910877
 20
353.8089673324976
 30
0.0
 10
361.2441125781289
 20
354.4897133565551
 30
0.0
 10
361.4359133123995
 20
355.1476106063337
 30
0.0
 10
361.8337195184368
 20
355.7042164262078
 30
0.0
 10
362.3934138477914
 20
356.0978606344465
 30
0.0
 10
363.0522545598677
 20
356.2843554729074
 30
0.0
 10
363.7339200550902
 20
356.2410912145803
 30
0.0
 10
364.2242487751657
 20
356.0390458152125
 30
0.0
 10
364.4601552820196
 20
355.8631724111521
 30
0.0
 10
364.5165188801678
 20
355.8211521294583
 30
0.0
  0
ARC
  5
DA
330
1F
100
AcDbEntity
  8
0
  6
Continuous
 62
     7
370
    25
100
AcDbCircle
 10
403.1429448823
 20
322.4595092697
 30
0.0
 40
47.00000000000001
100
AcDbArc
 50
143.8674261195
 51
190.4182881662
  0
SPLINE
  5
DB
330
1F
100
AcDbEntity
  8
0
  6
Continuous
 62
     7
370
    25
100
AcDbSpline
210
0.0
220
0.0
230
1.0
 70
     8
 71
     3
 72
    17
 73
    13
 74
     0
 42
0.00000001
 43
0.00000001
 40
0.0
 40
0.0
 40
0.0
 40
0.0
 40
0.1073415831264241
 40
0.2147340135529315
 40
0.322118656815317
 40
0.4294882791417519
 40
0.5368445105545006
 40
0.6441943157237154
 40
0.7515471508446139
 40
0.8589113006666692
 40
0.9662906002105642
 40
1.0
 40
1.0
 40
1.0
 40
1.0
 10
353.8666632289595
 20
309.1610858135911
 30
0.0
 10
353.6425695920476
 20
309.1326027642301
 30
0.0
 10
353.1942761659193
 20
309.0756231731959
 30
0.0
 10
352.5339447785257
 20
309.2784572459354
 30
0.0
 10
351.9772282859091
 20
309.6721886952531
 30
0.0
 10
351.5824493056098
 20
310.2323367735742
 30
0.0
 10
351.3953054648877
 20
310.890392241722
 30
0.0
 10
351.4365057365061
 20
311.5734120383678
 30
0.0
 10
351.7014786655085
 20
312.2047920788805
 30
0.0
 10
352.1603155092845
 20
312.7107647997056
 30
0.0
 10
352.6239959199236
 20
312.9681459838006
 30
0.0
 10
352.9085845853623
 20
313.0429298439283
 30
0.0
 10
352.9765794931342
 20
313.0607974623184
 30
0.0
  0
ARC
  5
DC
330
1F
100
AcDbEntity
  8
0
  6
Continuous
 62
     7
370
    25
100
AcDbCircle
 10
403.1429448823
 20
322.4595092697
 30
0.0
 40
47.00000000000001
100
AcDbArc
 50
195.2959975481
 51
241.8468595948
  0
LINE
  5
DD
330
1F
100
AcDbEntity
  8
0
  6
Continuous
 62
     7
370
    25
100
AcDbLine
 10
438.6087604553
 20
353.3006494196
 30
0.0
 11
441.7693708845
 21
355.8211521295
 31
0.0
  0
LINE
  5
DE
330
1F
100
AcDbEntity
  8
0
  6
Continuous
 62
     7
370
    25
100
AcDbLine
 10
384.5708183832
 20
279.2845614724
 30
0.0
 11
382.8168119231
 21
275.6423295285
 31
0.0
  0
LINE
  5
DF
330
1F
100
AcDbEntity
  8
0
  6
Continuous
 62
     7
370
    25
100
AcDbLine
 10
401.1429448823
 20
369.4169367972
 30
0.0
 11
401.1429448823
 21
373.4595092697
 31
0.0
  0
LINE
  5
E0
330
1F
100
AcDbEntity
  8
0
  6
Continuous
 62
     7
370
    25
100
AcDbLine
 10
449.368093531
 20
313.9603544645
 30
0.0
 11
453.3093102715
 21
313.0607974623
 31
0.0
  0
LINE
  5
E1
330
1F
100
AcDbEntity
  8
0
  6
Continuous
 62
     7
370
    25
100
AcDbLine
 10
365.1831701019
 20
350.1733234897
 30
0.0
 11
362.0225596727
 21
352.6938261996
 31
0.0
  0
LINE
  5
E2
330
1F
100
AcDbEntity
  8
0
  6
Continuous
 62
     7
370
    25
100
AcDbLine
 10
425.3189468531
 20
281.0200964289
 30
0.0
 11
427.0729533131
 21
277.3778644849
 31
0.0
  0
LINE
  5
E3
330
1F
100
AcDbEntity
  8
0
  6
Continuous
 62
     7
370
    25
100
AcDbLine
 10
357.8078799694
 20
310.0606428158
 30
0.0
 11
353.866663229
 21
309.1610858136
 31
0.0
  0
LINE
  5
E4
330
1F
100
AcDbEntity
  8
0
  6
Continuous
 62
     7
370
    25
100
AcDbLine
 10
405.1429448823
 20
373.4595092697
 30
0.0
 11
405.1429448823
 21
369.4169367972
 31
0.0
  0
LINE
  5
E5
330
1F
100
AcDbEntity
  8
0
  6
Continuous
 62
     7
370
    25
100
AcDbLine
 10
379.2129364515
 20
277.3778644849
 30
0.0
 11
380.9669429115
 21
281.0200964289
 31
0.0
  0
LINE
  5
E6
330
1F
100
AcDbEntity
  8
0
  6
Continuous
 62
     7
370
    25
100
AcDbLine
 10
444.2633300919
 20
352.6938261996
 30
0.0
 11
441.1027196627
 21
350.1733234897
 31
0.0
  0
LINE
  5
E7
330
1F
100
AcDbEntity
  8
0
  6
Continuous
 62
     7
370
    25
100
AcDbLine
 10
423.4690778415
 20
275.6423295285
 30
0.0
 11
421.7150713815
 21
279.2845614724
 31
0.0
  0
LINE
  5
E8
330
1F
100
AcDbEntity
  8
0
  6
Continuous
 62
     7
370
    25
100
AcDbLine
 10
364.5165188802
 20
355.8211521295
 30
0.0
 11
367.6771293093
 21
353.3006494196
 31
0.0
  0
LINE
  5
E9
330
1F
100
AcDbEntity
  8
0
  6
Continuous
 62
     7
370
    25
100
AcDbLine
 10
452.4192265357
 20
309.1610858136
 30
0.0
 11
448.4780097952
 21
310.0606428158
 31
0.0
  0
LINE
  5
EA
330
1F
100
AcDbEntity
  8
0
  6
Continuous
 62
     7
370
    25
100
AcDbLine
 10
352.9765794931
 20
313.0607974623
 30
0.0
 11
356.9177962336
 21
313.9603544645
 31
0.0
  0
ARC
  5
EB
330
1F
100
AcDbEntity
  8
0
  6
Continuous
 62
     7
370
    25
100
AcDbCircle
 10
403.1429448823
 20
322.4595092697
 30
0.0
 40
32.289889816357
100
AcDbArc
 50
350.6939673141
 51
35.0203184002
  0
SPLINE
  5
EC
330
1F
100
AcDbEntity
  8
0
  6
Continuous
 62
     7
370
    25
100
AcDbSpline
210
0.0
220
0.0
230
1.0
 70
    24
 71
     3
 72
    14
 73
    10
 74
     0
 42
0.00000001
 43
0.00000001
 40
0.0
 40
0.0
 40
0.0
 40
0.0
 40
0.1599365945527954
 40
0.320478234963129
 40
0.4327831140154431
 40
0.5446248701610642
 40
0.6577837919875137
 40
0.7712520390670932
 40
1.0
 40
1.0
 40
1.0
 40
1.0
 10
435.0078576308242
 20
317.2379845994146
 30
0.0
 10
435.6913368717031
 20
317.0819849228028
 30
0.0
 10
437.0608809798747
 20
316.7693954172232
 30
0.0
 10
438.6318635064513
 20
316.4108289071511
 30
0.0
 10
440.1520940118787
 20
316.0638462147185
 30
0.0
 10
441.7031049930755
 20
315.7098380795529
 30
0.0
 10
443.4961543140518
 20
315.3005862727803
 30
0.0
 10
446.0528232124001
 20
314.7170432805561
 30
0.0
 10
448.0398817682424
 20
314.263510131954
 30
0.0
 10
449.3680935310431
 20
313.9603544644866
 30
0.0
  0
SPLINE
  5
ED
330
1F
100
AcDbEntity
  8
0
  6
Continuous
 62
     7
370
    25
100
AcDbSpline
210
0.0
220
0.0
230
1.0
 70
    24
 71
     3
 72
    13
 73
     9
 74
     0
 42
0.00000001
 43
0.00000001
 40
0.0
 40
0.0
 40
0.0
 40
0.0
 40
0.1649272304776903
 40
0.3291782252302808
 40
0.5219202432988935
 40
0.6820453210982792
 40
0.8413177176944866
 40
1.0
 40
1.0
 40
1.0
 40
1.0
 10
441.102719662744
 20
350.1733234897052
 30
0.0
 10
440.3371926515986
 20
349.5628360698461
 30
0.0
 10
438.8092774482402
 20
348.3443643546989
 30
0.0
 10
436.4238183856903
 20
346.4420242320469
 30
0.0
 10
434.2483491940013
 20
344.7071454433413
 30
0.0
 10
432.6132663451795
 20
343.4032103827879
 30
0.0
 10
431.2200179461229
 20
342.2921318604373
 30
0.0
 10
430.1304683244992
 20
341.4232450313255
 30
0.0
 10
429.5867045992992
 20
340.9896079306389
 30
0.0
  0
ARC
  5
EE
330
1F
100
AcDbEntity
  8
0
  6
Continuous
 62
     7
370
    25
100
AcDbCircle
 10
403.1429448823
 20
322.4595092697
 30
0.0
 40
32.28988981635705
100
AcDbArc
 50
93.5511101712
 51
137.8774612573
  0
SPLINE
  5
EF
330
1F
100
AcDbEntity
  8
0
  6
Continuous
 62
     7
370
    25
100
AcDbSpline
210
0.0
220
0.0
230
1.0
 70
    24
 71
     3
 72
    14
 73
    10
 74
     0
 42
0.00000001
 43
0.00000001
 40
0.0
 40
0.0
 40
0.0
 40
0.0
 40
0.1599365945527957
 40
0.3204782349631294
 40
0.4327831140154434
 40
0.5446248701610644
 40
0.6577837919875132
 40
0.771252039067093
 40
1.0
 40
1.0
 40
1.0
 40
1.0
 10
401.1429448823195
 20
354.687400673796
 30
0.0
 10
401.1429448823195
 20
355.3884568568621
 30
0.0
 10
401.1429448823195
 20
356.7932213436093
 30
0.0
 10
401.1429448823194
 20
358.4046046130255
 30
0.0
 10
401.1429448823194
 20
359.9639306785037
 30
0.0
 10
401.1429448823194
 20
361.5548287970383
 30
0.0
 10
401.1429448823193
 20
363.3939897222429
 30
0.0
 10
401.1429448823193
 20
366.0164081250833
 30
0.0
 10
401.1429448823193
 20
368.0545675941208
 30
0.0
 10
401.1429448823193
 20
369.4169367972224
 30
0.0
  0
SPLINE
  5
F0
330
1F
100
AcDbEntity
  8
0
  6
Continuous
 62
     7
370
    25
100
AcDbSpline
210
0.0
220
0.0
230
1.0
 70
    24
 71
     3
 72
    13
 73
     9
 74
     0
 42
0.00000001
 43
0.00000001
 40
0.0
 40
0.0
 40
0.0
 40
0.0
 40
0.1649272304776909
 40
0.329178225230281
 40
0.5219202432988936
 40
0.6820453210982796
 40
0.8413177176944869
 40
0.9999999999999999
 40
0.9999999999999999
 40
0.9999999999999999
 40
0.9999999999999999
 10
367.6771293093304
 20
353.3006494195769
 30
0.0
 10
368.4426563204757
 20
352.6901619997179
 30
0.0
 10
369.9705715238341
 20
351.4716902845706
 30
0.0
 10
372.3560305863841
 20
349.5693501619187
 30
0.0
 10
374.5314997780732
 20
347.8344713732132
 30
0.0
 10
376.1665826268949
 20
346.5305363126597
 30
0.0
 10
377.5598310259516
 20
345.4194577903091
 30
0.0
 10
378.6493806475752
 20
344.5505709611973
 30
0.0
 10
379.1931443727752
 20
344.1169338605108
 30
0.0
  0
ARC
  5
F1
330
1F
100
AcDbEntity
  8
0
  6
Continuous
 62
     7
370
    25
100
AcDbCircle
 10
403.1429448823
 20
322.4595092697
 30
0.0
 40
32.28988981635703
100
AcDbArc
 50
247.836824457
 51
292.163175543
  0
SPLINE
  5
F2
330
1F
100
AcDbEntity
  8
0
  6
Continuous
 62
     7
370
    25
100
AcDbSpline
210
0.0
220
0.0
230
1.0
 70
    24
 71
     3
 72
    14
 73
    10
 74
     0
 42
0.00000001
 43
0.00000001
 40
0.0
 40
0.0
 40
0.0
 40
0.0
 40
0.1599365945527958
 40
0.3204782349631292
 40
0.4327831140154432
 40
0.5446248701610645
 40
0.657783791987514
 40
0.7712520390670937
 40
1.0
 40
1.0
 40
1.0
 40
1.0
 10
390.9617245918527
 20
292.5554149582853
 30
0.0
 10
390.6575477138124
 20
291.9237851626922
 30
0.0
 10
390.048043245723
 20
290.6581360933981
 30
0.0
 10
389.3488902476373
 20
289.2063299333953
 30
0.0
 10
388.6723240238441
 20
287.8014256934907
 30
0.0
 10
387.9820591996192
 20
286.3680760166865
 30
0.0
 10
387.1840771805525
 20
284.7110492800144
 30
0.0
 10
386.0462524783975
 20
282.3483319404409
 30
0.0
 10
385.1619282270536
 20
280.5120137110176
 30
0.0
 10
384.5708183831533
 20
279.284561472434
 30
0.0
  0
SPLINE
  5
F3
330
1F
100
AcDbEntity
  8
0
  6
Continuous
 62
     7
370
    25
100
AcDbSpline
210
0.0
220
0.0
230
1.0
 70
    24
 71
     3
 72
    13
 73
     9
 74
     0
 42
0.00000001
 43
0.00000001
 40
0.0
 40
0.0
 40
0.0
 40
0.0
 40
0.1649272304776909
 40
0.3291782252302812
 40
0.521920243298894
 40
0.6820453210982796
 40
0.8413177176944866
 40
1.0
 40
1.0
 40
1.0
 40
1.0
 10
421.7150713814868
 20
279.2845614724342
 30
0.0
 10
421.2902359413192
 20
280.1667413539646
 30
0.0
 10
420.4423069740754
 20
281.9274839972196
 30
0.0
 10
419.1184770685518
 20
284.6764451214617
 30
0.0
 10
417.9111827495184
 20
287.1834176068947
 30
0.0
 10
417.0037802259282
 20
289.0676583624335
 30
0.0
 10
416.230585696854
 20
290.6732133457687
 30
0.0
 10
415.6259312740212
 20
291.9287911923132
 30
0.0
 10
415.3241651727873
 20
292.5554149582854
 30
0.0
  0
ARC
  5
F4
330
1F
100
AcDbEntity
  8
0
  6
Continuous
 62
     7
370
    25
100
AcDbCircle
 10
403.1429448823
 20
322.4595092697
 30
0.0
 40
32.28988981635705
100
AcDbArc
 50
144.9796815998
 51
189.3060326859
  0
SPLINE
  5
F5
330
1F
100
AcDbEntity
  8
0
  6
Continuous
 62
     7
370
    25
100
AcDbSpline
210
0.0
220
0.0
230
1.0
 70
    24
 71
     3
 72
    14
 73
    10
 74
     0
 42
0.00000001
 43
0.00000001
 40
0.0
 40
0.0
 40
0.0
 40
0.0
 40
0.1599365945527953
 40
0.3204782349631288
 40
0.4327831140154428
 40
0.5446248701610645
 40
0.6577837919875139
 40
0.7712520390670933
 40
1.0
 40
1.0
 40
1.0
 40
1.0
 10
376.6991851653403
 20
340.9896079306387
 30
0.0
 10
376.1510773704402
 20
341.4267093113104
 30
0.0
 10
375.0527882692483
 20
342.3025656428106
 30
0.0
 10
373.7929580988965
 20
343.3072466781774
 30
0.0
 10
372.5738278894726
 20
344.2794705777755
 30
0.0
 10
371.3300136550032
 20
345.2713793304781
 30
0.0
 10
369.892099742353
 20
346.4180774113203
 30
0.0
 10
367.8418104748089
 20
348.0531285416979
 30
0.0
 10
366.2483132356251
 20
349.3239001852045
 30
0.0
 10
365.1831701018954
 20
350.1733234897048
 30
0.0
  0
SPLINE
  5
F6
330
1F
100
AcDbEntity
  8
0
  6
Continuous
 62
     7
370
    25
100
AcDbSpline
210
0.0
220
0.0
230
1.0
 70
    24
 71
     3
 72
    13
 73
     9
 74
     0
 42
0.00000001
 43
0.00000001
 40
0.0
 40
0.0
 40
0.0
 40
0.0
 40
0.1649272304776907
 40
0.3291782252302809
 40
0.5219202432988935
 40
0.6820453210982796
 40
0.8413177176944868
 40
0.9999999999999999
 40
0.9999999999999999
 40
0.9999999999999999
 40
0.9999999999999999
 10
356.9177962335967
 20
313.9603544644861
 30
0.0
 10
357.8723928025897
 20
314.178234902034
 30
0.0
 10
359.7776718973874
 20
314.6131024223135
 30
0.0
 10
362.7522906938902
 20
315.2920397514136
 30
0.0
 10
365.4650564044423
 20
315.9112108223965
 30
0.0
 10
367.5039713673112
 20
316.3765798575077
 30
0.0
 10
369.2413237038468
 20
316.7731191910385
 30
0.0
 10
370.5999698592497
 20
317.0832213100144
 30
0.0
 10
371.2780321338155
 20
317.2379845994143
 30
0.0
  0
ARC
  5
F7
330
1F
100
AcDbEntity
  8
0
  6
Continuous
 62
     7
370
    25
100
AcDbCircle
 10
403.1429448823
 20
322.4595092697
 30
0.0
 40
32.289889816357
100
AcDbArc
 50
42.1225387427
 51
86.4488898288
  0
SPLINE
  5
F8
330
1F
100
AcDbEntity
  8
0
  6
Continuous
 62
     7
370
    25
100
AcDbSpline
210
0.0
220
0.0
230
1.0
 70
    24
 71
     3
 72
    14
 73
    10
 74
     0
 42
0.00000001
 43
0.00000001
 40
0.0
 40
0.0
 40
0.0
 40
0.0
 40
0.1599365945527954
 40
0.3204782349631292
 40
0.4327831140154432
 40
0.5446248701610644
 40
0.6577837919875139
 40
0.7712520390670934
 40
1.0
 40
1.0
 40
1.0
 40
1.0
 10
427.0927453918642
 20
344.116933860511
 30
0.0
 10
427.6408531867643
 20
344.5540352411828
 30
0.0
 10
428.7391422879563
 20
345.4298915726829
 30
0.0
 10
429.9989724583081
 20
346.4345726080497
 30
0.0
 10
431.2181026677319
 20
347.4067965076479
 30
0.0
 10
432.4619169022014
 20
348.3987052603504
 30
0.0
 10
433.8998308148514
 20
349.5454033411926
 30
0.0
 10
435.9501200823955
 20
351.1804544715703
 30
0.0
 10
437.5436173215793
 20
352.451226115077
 30
0.0
 10
438.608760455309
 20
353.3006494195773
 30
0.0
  0
SPLINE
  5
F9
330
1F
100
AcDbEntity
  8
0
  6
Continuous
 62
     7
370
    25
100
AcDbSpline
210
0.0
220
0.0
230
1.0
 70
    24
 71
     3
 72
    13
 73
     9
 74
     0
 42
0.00000001
 43
0.00000001
 40
0.0
 40
0.0
 40
0.0
 40
0.0
 40
0.1649272304776914
 40
0.329178225230281
 40
0.5219202432988941
 40
0.6820453210982798
 40
0.8413177176944868
 40
0.9999999999999999
 40
0.9999999999999999
 40
0.9999999999999999
 40
0.9999999999999999
 10
405.1429448823193
 20
369.4169367972224
 30
0.0
 10
405.1429448823193
 20
368.4377909987842
 30
0.0
 10
405.1429448823193
 20
366.4835141020094
 30
0.0
 10
405.1429448823193
 20
363.432397440629
 30
0.0
 10
405.1429448823195
 20
360.6498679052083
 30
0.0
 10
405.1429448823194
 20
358.5585184450147
 30
0.0
 10
405.1429448823195
 20
356.7764868559843
 30
0.0
 10
405.1429448823195
 20
355.3829005831671
 30
0.0
 10
405.1429448823195
 20
354.687400673796
 30
0.0
  0
ARC
  5
FA
330
1F
100
AcDbEntity
  8
0
  6
Continuous
 62
     7
370
    25
100
AcDbCircle
 10
403.1429448823
 20
322.4595092697
 30
0.0
 40
32.28988981635702
100
AcDbArc
 50
299.2653958855
 51
343.5917469716
  0
SPLINE
  5
FB
330
1F
100
AcDbEntity
  8
0
  6
Continuous
 62
     7
370
    25
100
AcDbSpline
210
0.0
220
0.0
230
1.0
 70
    24
 71
     3
 72
    14
 73
    10
 74
     0
 42
0.00000001
 43
0.00000001
 40
0.0
 40
0.0
 40
0.0
 40
0.0
 40
0.1599365945527955
 40
0.320478234963129
 40
0.4327831140154433
 40
0.5446248701610644
 40
0.6577837919875137
 40
0.771252039067093
 40
1.0
 40
1.0
 40
1.0
 40
1.0
 10
418.928040644397
 20
294.2909499147557
 30
0.0
 10
419.2322175224372
 20
293.6593201191625
 30
0.0
 10
419.8417219905267
 20
292.3936710498684
 30
0.0
 10
420.5408749886124
 20
290.9418648898657
 30
0.0
 10
421.2174412124056
 20
289.536960649961
 30
0.0
 10
421.9077060366305
 20
288.1036109731569
 30
0.0
 10
422.7056880556972
 20
286.4465842364849
 30
0.0
 10
423.8435127578522
 20
284.0838668969113
 30
0.0
 10
424.7278370091962
 20
282.247548667488
 30
0.0
 10
425.3189468530965
 20
281.0200964289045
 30
0.0
  0
SPLINE
  5
FC
330
1F
100
AcDbEntity
  8
0
  6
Continuous
 62
     7
370
    25
100
AcDbSpline
210
0.0
220
0.0
230
1.0
 70
    24
 71
     3
 72
    13
 73
     9
 74
     0
 42
0.00000001
 43
0.00000001
 40
0.0
 40
0.0
 40
0.0
 40
0.0
 40
0.1649272304776909
 40
0.3291782252302811
 40
0.521920243298894
 40
0.6820453210982796
 40
0.8413177176944867
 40
0.9999999999999999
 40
0.9999999999999999
 40
0.9999999999999999
 40
0.9999999999999999
 10
448.4780097952179
 20
310.0606428157593
 30
0.0
 10
447.5234132262249
 20
310.2785232533071
 30
0.0
 10
445.618134131427
 20
310.7133907735867
 30
0.0
 10
442.6435153349242
 20
311.3923281026867
 30
0.0
 10
439.9307496243723
 20
312.0114991736695
 30
0.0
 10
437.8918346615033
 20
312.4768682087808
 30
0.0
 10
436.1544823249677
 20
312.8734075423115
 30
0.0
 10
434.7958361695648
 20
313.1835096612875
 30
0.0
 10
434.117773894999
 20
313.3382729506873
 30
0.0
  0
ARC
  5
FD
330
1F
100
AcDbEntity
  8
0
  6
Continuous
 62
     7
370
    25
100
AcDbCircle
 10
403.1429448823
 20
322.4595092697
 30
0.0
 40
32.28988981635705
100
AcDbArc
 50
196.4082530284
 51
240.7346041145
  0
SPLINE
  5
FE
330
1F
100
AcDbEntity
  8
0
  6
Continuous
 62
     7
370
    25
100
AcDbSpline
210
0.0
220
0.0
230
1.0
 70
    24
 71
     3
 72
    14
 73
    10
 74
     0
 42
0.00000001
 43
0.00000001
 40
0.0
 40
0.0
 40
0.0
 40
0.0
 40
0.1599365945527957
 40
0.3204782349631291
 40
0.432783114015443
 40
0.5446248701610643
 40
0.6577837919875137
 40
0.7712520390670936
 40
1.0
 40
1.0
 40
1.0
 40
1.0
 10
372.1681158696408
 20
313.3382729506869
 30
0.0
 10
371.4846366287618
 20
313.1822732740752
 30
0.0
 10
370.1150925205903
 20
312.8696837684956
 30
0.0
 10
368.5441099940136
 20
312.5111172584235
 30
0.0
 10
367.0238794885863
 20
312.1641345659908
 30
0.0
 10
365.4728685073895
 20
311.8101264308252
 30
0.0
 10
363.6798191864132
 20
311.4008746240527
 30
0.0
 10
361.1231502880648
 20
310.8173316318284
 30
0.0
 10
359.1360917322226
 20
310.3637984832263
 30
0.0
 10
357.8078799694219
 20
310.0606428157589
 30
0.0
  0
SPLINE
  5
FF
330
1F
100
AcDbEntity
  8
0
  6
Continuous
 62
     7
370
    25
100
AcDbSpline
210
0.0
220
0.0
230
1.0
 70
    24
 71
     3
 72
    13
 73
     9
 74
     0
 42
0.00000001
 43
0.00000001
 40
0.0
 40
0.0
 40
0.0
 40
0.0
 40
0.1649272304776907
 40
0.329178225230281
 40
0.5219202432988936
 40
0.6820453210982796
 40
0.8413177176944868
 40
1.0
 40
1.0
 40
1.0
 40
1.0
 10
380.9669429115436
 20
281.0200964289043
 30
0.0
 10
381.3917783517113
 20
281.9022763104346
 30
0.0
 10
382.239707318955
 20
283.6630189536896
 30
0.0
 10
383.5635372244786
 20
286.4119800779317
 30
0.0
 10
384.7708315435119
 20
288.9189525633648
 30
0.0
 10
385.6782340671021
 20
290.8031933189037
 30
0.0
 10
386.4514285961763
 20
292.4087483022388
 30
0.0
 10
387.0560830190091
 20
293.6643261487832
 30
0.0
 10
387.357849120243
 20
294.2909499147556
 30
0.0
  0
CIRCLE
  5
100
330
1F
100
AcDbEntity
  8
0
  6
Continuous
 62
     7
370
    25
100
AcDbCircle
 10
403.1429448823
 20
322.4595092697
 30
0.0
 40
57.0
  0
SPLINE
  5
101
330
1F
100
AcDbEntity
  8
0
  6
Continuous
 62
     7
370
    25
100
AcDbSpline
210
0.0
220
0.0
230
1.0
 70
     8
 71
     3
 72
    17
 73
    13
 74
     0
 42
0.00000001
 43
0.00000001
 40
0.0
 40
0.0
 40
0.0
 40
0.0
 40
0.1455223921505467
 40
0.2624588275806998
 40
0.3598828361522083
 40
0.4578119450664189
 40
0.5434089571657916
 40
0.6239661829574451
 40
0.7083342836252693
 40
0.8033999298611102
 40
0.9148734637124003
 40
1.0
 40
1.0
 40
1.0
 40
1.0
 10
380.1531485295284
 20
343.3513560922836
 30
0.0
 10
380.3484892788825
 20
343.1549499644903
 30
0.0
 10
380.7007986609408
 20
342.8007191051119
 30
0.0
 10
380.9203143509512
 20
342.0887222049197
 30
0.0
 10
380.9068117906418
 20
341.4074931842339
 30
0.0
 10
380.6804539608545
 20
340.790970394421
 30
0.0
 10
380.2873341534502
 20
340.3021200994938
 30
0.0
 10
379.8077002265215
 20
339.9732876336569
 30
0.0
 10
379.2610761084271
 20
339.7910610559488
 30
0.0
 10
378.655521748736
 20
339.7721387329024
 30
0.0
 10
378.0960869506849
 20
339.9229587581997
 30
0.0
 10
377.7912023481474
 20
340.133058400316
 30
0.0
 10
377.6591893220935
 20
340.2240301624115
 30
0.0
  0
SPLINE
  5
102
330
1F
100
AcDbEntity
  8
0
  6
Continuous
 62
     7
370
    25
100
AcDbSpline
210
0.0
220
0.0
230
1.0
 70
     8
 71
     3
 72
    17
 73
    13
 74
     0
 42
0.00000001
 43
0.00000001
 40
0.0
 40
0.0
 40
0.0
 40
0.0
 40
0.1455223921505456
 40
0.2624588275806995
 40
0.3598828361522076
 40
0.4578119450664186
 40
0.5434089571657915
 40
0.6239661829574448
 40
0.708334283625269
 40
0.8033999298611101
 40
0.9148734637123992
 40
1.0
 40
1.0
 40
1.0
 40
1.0
 10
405.1429448823195
 20
353.4595092697269
 30
0.0
 10
405.1111813533707
 20
353.1843285043713
 30
0.0
 10
405.0538938222595
 20
352.688022609583
 30
0.0
 10
404.6340980243392
 20
352.0724755260123
 30
0.0
 10
404.0930730205442
 20
351.6582929056283
 30
0.0
 10
403.4699242953662
 20
351.4508709111973
 30
0.0
 10
402.8426195537531
 20
351.4534311794851
 30
0.0
 10
402.2864811174387
 20
351.6234003946482
 30
0.0
 10
401.8031960789622
 20
351.9371519264222
 30
0.0
 10
401.4108450433446
 20
352.3987955137276
 30
0.0
 10
401.1799589959189
 20
352.930213998921
 30
0.0
 10
401.1541290701547
 20
353.2995773639383
 30
0.0
 10
401.1429448823195
 20
353.4595092697268
 30
0.0
  0
SPLINE
  5
103
330
1F
100
AcDbEntity
  8
0
  6
Continuous
 62
     7
370
    25
100
AcDbSpline
210
0.0
220
0.0
230
1.0
 70
     8
 71
     3
 72
    17
 73
    13
 74
     0
 42
0.00000001
 43
0.00000001
 40
0.0
 40
0.0
 40
0.0
 40
0.0
 40
0.1455223921505455
 40
0.2624588275806993
 40
0.3598828361522073
 40
0.4578119450664184
 40
0.5434089571657905
 40
0.6239661829574463
 40
0.7083342836252692
 40
0.8033999298611099
 40
0.9148734637124
 40
1.0
 40
1.0
 40
1.0
 40
1.0
 10
428.6267004425461
 20
340.2240301624117
 30
0.0
 10
428.3917512204508
 20
340.0772914884712
 30
0.0
 10
427.9680054555494
 20
339.8126390198441
 30
0.0
 10
427.225012967806
 20
339.7570612616958
 30
0.0
 10
426.563868383282
 20
339.9218130025484
 30
0.0
 10
426.0131724626897
 20
340.2796847959436
 30
0.0
 10
425.6240560519873
 20
340.7717276932055
 30
0.0
 10
425.4101966919884
 20
341.3125083036109
 30
0.0
 10
425.354174224321
 20
341.8859766420762
 30
0.0
 10
425.4704748450995
 20
342.4805591026794
 30
0.0
 10
425.7419994512277
 20
342.9924070894567
 30
0.0
 10
426.0146746631719
 20
343.2428960298774
 30
0.0
 10
426.1327412351111
 20
343.3513560922838
 30
0.0
  0
SPLINE
  5
104
330
1F
100
AcDbEntity
  8
0
  6
Continuous
 62
     7
370
    25
100
AcDbSpline
210
0.0
220
0.0
230
1.0
 70
     8
 71
     3
 72
    17
 73
    13
 74
     0
 42
0.00000001
 43
0.00000001
 40
0.0
 40
0.0
 40
0.0
 40
0.0
 40
0.1455223921505466
 40
0.2624588275806997
 40
0.3598828361522088
 40
0.4578119450664186
 40
0.5434089571657923
 40
0.6239661829574457
 40
0.7083342836252695
 40
0.8033999298611108
 40
0.9148734637124004
 40
1.0
 40
1.0
 40
1.0
 40
1.0
 10
432.9206682920438
 20
313.6115044927176
 30
0.0
 10
432.6594549331305
 20
313.7037051245929
 30
0.0
 10
432.1883401382481
 20
313.8699947889295
 30
0.0
 10
431.681639458237
 20
314.416237541669
 30
0.0
 10
431.3982306500222
 20
315.0358622225732
 30
0.0
 10
431.3346727943713
 20
315.6895430441137
 30
0.0
 10
431.4767573083667
 20
316.3005502328657
 30
0.0
 10
431.7662174846986
 20
316.8049234089639
 30
0.0
 10
432.1796436486437
 20
317.2062751986338
 30
0.0
 10
432.7170191862718
 20
317.4860638124288
 30
0.0
 10
433.2864908794469
 20
317.5929093269506
 30
0.0
 10
433.6523412329448
 20
317.5359005615947
 30
0.0
 10
433.8107520278691
 20
317.5112161414449
 30
0.0
  0
SPLINE
  5
105
330
1F
100
AcDbEntity
  8
0
  6
Continuous
 62
     7
370
    25
100
AcDbSpline
210
0.0
220
0.0
230
1.0
 70
     8
 71
     3
 72
    17
 73
    13
 74
     0
 42
0.00000001
 43
0.00000001
 40
0.0
 40
0.0
 40
0.0
 40
0.0
 40
0.1455223921505461
 40
0.2624588275806989
 40
0.3598828361522079
 40
0.4578119450664186
 40
0.5434089571657914
 40
0.623966182957445
 40
0.7083342836252691
 40
0.8033999298611104
 40
0.9148734637124006
 40
0.9999999999999999
 40
0.9999999999999999
 40
0.9999999999999999
 40
0.9999999999999999
 10
414.7914030591594
 20
293.6617068865168
 30
0.0
 10
414.7006245504713
 20
293.9234178678556
 30
0.0
 10
414.5368997751447
 20
294.3954301562196
 30
0.0
 10
414.6480468497247
 20
295.1321614857123
 30
0.0
 10
414.955786430891
 20
295.7400690839072
 30
0.0
 10
415.4272270018305
 20
296.1973239423145
 30
0.0
 10
415.9935199034892
 20
296.4671945471509
 30
0.0
 10
416.5683301994624
 20
296.5553570000022
 30
0.0
 10
417.1398866612126
 20
296.4823661571708
 30
0.0
 10
417.6936823753931
 20
296.2366743913224
 30
0.0
 10
418.1322773555486
 20
295.8580605819024
 30
0.0
 10
418.3158100724291
 20
295.5364828738498
 30
0.0
 10
418.3952785307691
 20
295.3972418429871
 30
0.0
  0
SPLINE
  5
106
330
1F
100
AcDbEntity
  8
0
  6
Continuous
 62
     7
370
    25
100
AcDbSpline
210
0.0
220
0.0
230
1.0
 70
     8
 71
     3
 72
    17
 73
    13
 74
     0
 42
0.00000001
 43
0.00000001
 40
0.0
 40
0.0
 40
0.0
 40
0.0
 40
0.1455223921505459
 40
0.2624588275806997
 40
0.359882836152208
 40
0.4578119450664185
 40
0.5434089571657917
 40
0.6239661829574453
 40
0.7083342836252696
 40
0.8033999298611102
 40
0.9148734637124006
 40
1.0
 40
1.0
 40
1.0
 40
1.0
 10
387.8906112338708
 20
295.3972418429869
 30
0.0
 10
388.0386256439941
 20
295.63138946691
 30
0.0
 10
388.3055789834211
 20
296.0536894988672
 30
0.0
 10
388.9508777984461
 20
296.426135687425
 30
0.0
 10
389.6180315876318
 20
296.5645593824146
 30
0.0
 10
390.2694662196093
 20
296.4810660430086
 30
0.0
 10
390.8335374037123
 20
296.2065819941307
 30
0.0
 10
391.2608539424658
 20
295.8121455985518
 30
0.0
 10
391.5601470286961
 20
295.3197757166129
 30
0.0
 10
391.7133434512772
 20
294.7336144820036
 30
0.0
 10
391.6907907526489
 20
294.1546452694493
 30
0.0
 10
391.5538019537158
 20
293.8106531918534
 30
0.0
 10
391.4944867054805
 20
293.6617068865166
 30
0.0
  0
SPLINE
  5
107
330
1F
100
AcDbEntity
  8
0
  6
Continuous
 62
     7
370
    25
100
AcDbSpline
210
0.0
220
0.0
230
1.0
 70
     8
 71
     3
 72
    17
 73
    13
 74
     0
 42
0.00000001
 43
0.00000001
 40
0.0
 40
0.0
 40
0.0
 40
0.0
 40
0.1455223921505462
 40
0.2624588275807001
 40
0.3598828361522081
 40
0.4578119450664181
 40
0.5434089571657914
 40
0.6239661829574459
 40
0.7083342836252691
 40
0.8033999298611108
 40
0.914873463712401
 40
1.0
 40
1.0
 40
1.0
 40
1.0
 10
372.4751377367706
 20
317.5112161414447
 30
0.0
 10
372.7504871959388
 20
317.5414824713969
 30
0.0
 10
373.2470973406751
 20
317.5960697095329
 30
0.0
 10
373.9406247267345
 20
317.3237711806539
 30
0.0
 10
374.4648123132257
 20
316.8884751067823
 30
0.0
 10
374.8056974415172
 20
316.3271057570895
 30
0.0
 10
374.9427898014797
 20
315.7149591417564
 30
0.0
 10
374.9008345136633
 20
315.1349425486543
 30
0.0
 10
374.7024904259758
 20
314.5939581912233
 30
0.0
 10
374.3397275261165
 20
314.108718853024
 30
0.0
 10
373.8730097907626
 20
313.7653698632085
 30
0.0
 10
373.5186548356749
 20
313.6579964666585
 30
0.0
 10
373.3652214725959
 20
313.6115044927174
 30
0.0
  0
SPLINE
  5
108
330
1F
100
AcDbEntity
  8
0
  6
Continuous
 62
     7
370
    25
100
AcDbSpline
210
0.0
220
0.0
230
1.0
 70
    11
 71
     3
 72
    26
 73
    22
 74
     0
 42
0.00000001
 43
0.00000001
 40
0.0
 40
0.0
 40
0.0
 40
0.0
 40
0.0535972164200068
 40
0.1071921782483997
 40
0.1608597534174717
 40
0.2147094977664127
 40
0.2686478624799093
 40
0.3224381663529161
 40
0.3759329881741657
 40
0.4292427722145618
 40
0.482644997917489
 40
0.5363313024995328
 40
0.5902427041024133
 40
0.6441475424480739
 40
0.6978798079301016
 40
0.7514722617449181
 40
0.8050492353698597
 40
0.8586625397260982
 40
0.912290074165448
 40
0.9659177767677235
 40
1.0
 40
1.0
 40
1.0
 40
1.0
 10
387.7419175989309
 20
317.7414186896813
 30
0.0
 10
387.6238975610372
 20
317.6199898598871
 30
0.0
 10
387.3878624498169
 20
317.3771373082586
 30
0.0
 10
386.906642049662
 20
317.1874133510678
 30
0.0
 10
386.396826522081
 20
317.1574152968594
 30
0.0
 10
385.9029990401867
 20
317.3006170148921
 30
0.0
 10
385.4844097557878
 20
317.5992506875349
 30
0.0
 10
385.1887273923509
 20
318.0198166511981
 30
0.0
 10
385.0494712556503
 20
318.5129755735124
 30
0.0
 10
385.0805356189392
 20
319.0228888727099
 30
0.0
 10
385.2775941809495
 20
319.4940191775033
 30
0.0
 10
385.6198593532365
 20
319.8749053239447
 30
0.0
 10
386.0704186717725
 20
320.1219047305028
 30
0.0
 10
386.5781671293982
 20
320.2054937982654
 30
0.0
 10
387.0844174836844
 20
320.1159591731721
 30
0.0
 10
387.5317734502446
 20
319.8641899233656
 30
0.0
 10
387.8703287653485
 20
319.4790166624846
 30
0.0
 10
388.0629147773905
 20
319.0029132129649
 30
0.0
 10
388.0853523277838
 20
318.491616637998
 30
0.0
 10
387.960940466838
 20
318.0550256923135
 30
0.0
 10
387.8032087932663
 20
317.8291782370152
 30
0.0
 10
387.7419175989309
 20
317.7414186896813
 30
0.0
  0
SPLINE
  5
109
330
1F
100
AcDbEntity
  8
0
  6
Continuous
 62
     7
370
    25
100
AcDbSpline
210
0.0
220
0.0
230
1.0
 70
    11
 71
     3
 72
    26
 73
    22
 74
     0
 42
0.00000001
 43
0.00000001
 40
0.0
 40
0.0
 40
0.0
 40
0.0
 40
0.0535972164200074
 40
0.1071921782484004
 40
0.1608597534174722
 40
0.2147094977664133
 40
0.2686478624799097
 40
0.3224381663529163
 40
0.3759329881741656
 40
0.4292427722145615
 40
0.4826449979174893
 40
0.5363313024995331
 40
0.5902427041024138
 40
0.6441475424480739
 40
0.6978798079301013
 40
0.7514722617449181
 40
0.8050492353698603
 40
0.8586625397260985
 40
0.9122900741654482
 40
0.9659177767677241
 40
1.0
 40
1.0
 40
1.0
 40
1.0
 10
411.1697940559947
 20
308.4944918172393
 30
0.0
 10
411.3144403405623
 20
308.406451244715
 30
0.0
 10
411.6037268250848
 20
308.2303738031335
 30
0.0
 10
411.895775619441
 20
307.8034361552591
 30
0.0
 10
412.0384661871427
 20
307.3130779623961
 30
0.0
 10
412.0087417876447
 20
306.7997663864541
 30
0.0
 10
411.8107403631764
 20
306.3252197656061
 30
0.0
 10
411.4665143819538
 20
305.9433660453271
 30
0.0
 10
411.0167073890459
 20
305.6978631667328
 30
0.0
 10
410.5126662097337
 20
305.6146822980031
 30
0.0
 10
410.0094984700534
 20
305.7019638350035
 30
0.0
 10
409.5620007687262
 20
305.9508925637967
 30
0.0
 10
409.220935272617
 20
306.3351928808971
 30
0.0
 10
409.0264572962963
 20
306.8116107071766
 30
0.0
 10
409.0010957997549
 20
307.3250916365193
 30
0.0
 10
409.1470066013304
 20
307.8172553836083
 30
0.0
 10
409.4471871194767
 20
308.2330315238669
 30
0.0
 10
409.8684992422329
 20
308.5267319867493
 30
0.0
 10
410.3619837199019
 20
308.6623811722991
 30
0.0
 10
410.8153126625484
 20
308.6382392014472
 30
0.0
 10
411.0705962499317
 20
308.5347179769316
 30
0.0
 10
411.1697940559947
 20
308.4944918172393
 30
0.0
  0
SPLINE
  5
10A
330
1F
100
AcDbEntity
  8
0
  6
Continuous
 62
     7
370
    25
100
AcDbSpline
210
0.0
220
0.0
230
1.0
 70
    11
 71
     3
 72
    26
 73
    22
 74
     0
 42
0.00000001
 43
0.00000001
 40
0.0
 40
0.0
 40
0.0
 40
0.0
 40
0.0535972164200074
 40
0.1071921782484008
 40
0.1608597534174718
 40
0.2147094977664131
 40
0.2686478624799095
 40
0.3224381663529161
 40
0.375932988174165
 40
0.429242772214561
 40
0.4826449979174892
 40
0.5363313024995328
 40
0.5902427041024134
 40
0.6441475424480738
 40
0.6978798079301015
 40
0.7514722617449182
 40
0.80504923536986
 40
0.8586625397260982
 40
0.912290074165448
 40
0.965917776767724
 40
1.0
 40
1.0
 40
1.0
 40
1.0
 10
414.9716882160035
 20
333.3926173022599
 30
0.0
 10
415.0253346012267
 20
333.5532278729024
 30
0.0
 10
415.1326251150131
 20
333.8744422580297
 30
0.0
 10
415.4838715742062
 20
334.2541713435127
 30
0.0
 10
415.9301838250037
 20
334.5023993238192
 30
0.0
 10
416.4372399091732
 20
334.5876427483648
 30
0.0
 10
416.9439481173668
 20
334.5002021902759
 30
0.0
 10
417.392825454471
 20
334.2495771195551
 30
0.0
 10
417.7322645354956
 20
333.8656772569083
 30
0.0
 10
417.9255196001526
 20
333.3927829269048
 30
0.0
 10
417.9523917488831
 20
332.8828086838505
 30
0.0
 10
417.8092817894813
 20
332.3911388309699
 30
0.0
 10
417.5105108964143
 20
331.9731096934499
 30
0.0
 10
417.0893132806382
 20
331.6774947463731
 30
0.0
 10
416.5943498541459
 20
331.5385088595341
 30
0.0
 10
416.0820574719039
 20
331.5712446360172
 30
0.0
 10
415.6099092582932
 20
331.7713801068041
 30
0.0
 10
415.2298217121656
 20
332.1167745537157
 30
0.0
 10
414.9877629080445
 20
332.5677015617648
 30
0.0
 10
414.910424409576
 20
333.0150366952522
 30
0.0
 10
414.9545441985712
 20
333.2869554296777
 30
0.0
 10
414.9716882160035
 20
333.3926173022599
 30
0.0
  0
SPLINE
  5
10B
330
1F
100
AcDbEntity
  8
0
  6
Continuous
 62
     7
370
    25
100
AcDbSpline
210
0.0
220
0.0
230
1.0
 70
    11
 71
     3
 72
    26
 73
    22
 74
     0
 42
0.00000001
 43
0.00000001
 40
0.0
 40
0.0
 40
0.0
 40
0.0
 40
0.0564885541921733
 40
0.1128994301864606
 40
0.1712256558510512
 40
0.2300375349559327
 40
0.2867064896555273
 40
0.339536300840482
 40
0.3890615100952066
 40
0.437469046318213
 40
0.4871682267512787
 40
0.5398630249433317
 40
0.5960305847835248
 40
0.6545948261961387
 40
0.7132408736152333
 40
0.7696720731029091
 40
0.8229238449446322
 40
0.8735646339153879
 40
0.9230009993634065
 40
0.9728027922198376
 40
1.0
 40
1.0
 40
1.0
 40
1.0
 10
380.5265064724241
 20
316.4955170529165
 30
0.0
 10
380.4439416336083
 20
316.4114817692844
 30
0.0
 10
380.2789254920368
 20
316.2435267601094
 30
0.0
 10
379.9446872918871
 20
316.1196436088217
 30
0.0
 10
379.5888487947458
 20
316.1091620053687
 30
0.0
 10
379.2451274816298
 20
316.2276074330449
 30
0.0
 10
378.9676365468137
 20
316.4571652663391
 30
0.0
 10
378.792426948151
 20
316.7572952309961
 30
0.0
 10
378.7283959554892
 20
317.0821541128685
 30
0.0
 10
378.7679451726659
 20
317.4003828332549
 30
0.0
 10
378.9037416645937
 20
317.6912091563207
 30
0.0
 10
379.1305261599958
 20
317.9317222967464
 30
0.0
 10
379.4359505163283
 20
318.0916274231251
 30
0.0
 10
379.7903242992651
 20
318.1396865532668
 30
0.0
 10
380.1450209526477
 20
318.0591070726878
 30
0.0
 10
380.4458751642588
 20
317.8607114560709
 30
0.0
 10
380.6535948114929
 20
317.5798485460402
 30
0.0
 10
380.7530592853966
 20
317.2579323120128
 30
0.0
 10
380.743663785783
 20
316.9311898833215
 30
0.0
 10
380.6533906762501
 20
316.6723190994634
 30
0.0
 10
380.5596256819223
 20
316.5416657762622
 30
0.0
 10
380.5265064724241
 20
316.4955170529165
 30
0.0
  0
SPLINE
  5
10C
330
1F
100
AcDbEntity
  8
0
  6
Continuous
 62
     7
370
    25
100
AcDbSpline
210
0.0
220
0.0
230
1.0
 70
    11
 71
     3
 72
    26
 73
    22
 74
     0
 42
0.00000001
 43
0.00000001
 40
0.0
 40
0.0
 40
0.0
 40
0.0
 40
0.0564885541921736
 40
0.1128994301864609
 40
0.1712256558510514
 40
0.2300375349559329
 40
0.2867064896555276
 40
0.3395363008404826
 40
0.3890615100952075
 40
0.4374690463182136
 40
0.4871682267512787
 40
0.5398630249433316
 40
0.5960305847835251
 40
0.6545948261961392
 40
0.7132408736152333
 40
0.7696720731029087
 40
0.822923844944632
 40
0.8735646339153879
 40
0.9230009993634066
 40
0.9728027922198381
 40
1.0
 40
1.0
 40
1.0
 40
1.0
 10
413.9900383602589
 20
301.7372253079712
 30
0.0
 10
414.0903391089253
 20
301.675430151844
 30
0.0
 10
414.290802681301
 20
301.5519248149696
 30
0.0
 10
414.4859548198016
 20
301.2536332588523
 30
0.0
 10
414.5753551422939
 20
300.9090487519503
 30
0.0
 10
414.5363645763974
 20
300.5475886625922
 30
0.0
 10
414.3743097792386
 20
300.2259735814009
 30
0.0
 10
414.1206925029447
 20
299.9883716531389
 30
0.0
 10
413.8182267477765
 20
299.8536581493498
 30
0.0
 10
413.4991761570704
 20
299.8214032330082
 30
0.0
 10
413.1854238949047
 20
299.8890800783374
 30
0.0
 10
412.9004766233335
 20
300.0566594043186
 30
0.0
 10
412.6766173393018
 20
300.3188438963011
 30
0.0
 10
412.5509075667428
 20
300.6536386261075
 30
0.0
 10
412.5505393209264
 20
301.0173729151237
 30
0.0
 10
412.6770143850684
 20
301.3548312614233
 30
0.0
 10
412.9046135056503
 20
301.6198408204741
 30
0.0
 10
413.1963256999595
 20
301.7884446134047
 30
0.0
 10
413.5169667091337
 20
301.8519917089781
 30
0.0
 10
413.7894347186099
 20
301.8215861033732
 30
0.0
 10
413.9376769643282
 20
301.7592450927207
 30
0.0
 10
413.9900383602589
 20
301.7372253079712
 30
0.0
  0
SPLINE
  5
10D
330
1F
100
AcDbEntity
  8
0
  6
Continuous
 62
     7
370
    25
100
AcDbSpline
210
0.0
220
0.0
230
1.0
 70
    11
 71
     3
 72
    26
 73
    22
 74
     0
 42
0.00000001
 43
0.00000001
 40
0.0
 40
0.0
 40
0.0
 40
0.0
 40
0.0564885541921732
 40
0.11289943018646
 40
0.1712256558510506
 40
0.2300375349559321
 40
0.286706489655527
 40
0.3395363008404813
 40
0.3890615100952061
 40
0.4374690463182121
 40
0.4871682267512771
 40
0.5398630249433316
 40
0.5960305847835251
 40
0.6545948261961394
 40
0.7132408736152335
 40
0.7696720731029094
 40
0.8229238449446327
 40
0.8735646339153883
 40
0.9230009993634062
 40
0.9728027922198375
 40
1.0
 40
1.0
 40
1.0
 40
1.0
 10
420.9319725493706
 20
337.6457854482929
 30
0.0
 10
420.9698993556469
 20
337.7573221636359
 30
0.0
 10
421.0457008145199
 20
337.9802422186306
 30
0.0
 10
421.293088142424
 20
338.2368776012353
 30
0.0
 10
421.6091397530514
 20
338.4007137372938
 30
0.0
 10
421.970213500445
 20
338.4431331829613
 30
0.0
 10
422.3198256048929
 20
338.3567075261494
 30
0.0
 10
422.6079055099322
 20
338.1623203674657
 30
0.0
 10
422.8065464272537
 20
337.8974146349527
 30
0.0
 10
422.9089880809235
 20
337.5935407027843
 30
0.0
 10
422.9128244818117
 20
337.2725953500589
 30
0.0
 10
422.8128534524063
 20
336.9575023933749
 30
0.0
 10
422.6070558499889
 20
336.6809141909465
 30
0.0
 10
422.3086281790467
 20
336.4838573888845
 30
0.0
 10
421.95409541047
 20
336.4025598820558
 30
0.0
 10
421.5969545000688
 20
336.4507724058929
 30
0.0
 10
421.2879437150756
 20
336.6136949667489
 30
0.0
 10
421.0586551013237
 20
336.8605754538332
 30
0.0
 10
420.9253519272849
 20
337.1590367644102
 30
0.0
 10
420.8943653649342
 20
337.4314393157818
 30
0.0
 10
420.9221563533239
 20
337.5898369988113
 30
0.0
 10
420.9319725493706
 20
337.6457854482929
 30
0.0
  0
SPLINE
  5
10E
330
1F
100
AcDbEntity
  8
0
  6
Continuous
 62
     7
370
    25
100
AcDbSpline
210
0.0
220
0.0
230
1.0
 70
     8
 71
     3
 72
    22
 73
    18
 74
     0
 42
0.00000001
 43
0.00000001
 40
0.0
 40
0.0
 40
0.0
 40
0.0
 40
0.0397003211012276
 40
0.113435524309469
 40
0.1881134770779573
 40
0.2619711986701833
 40
0.334545121226122
 40
0.4061624874474428
 40
0.4772648119815815
 40
0.5481500003000453
 40
0.6189863431575917
 40
0.6899037124886742
 40
0.7610902340069219
 40
0.8328685008582464
 40
0.9056663168670698
 40
0.9797188782555618
 40
1.0
 40
1.0
 40
1.0
 40
1.0
 10
408.144011124048
 20
315.3089298190411
 30
0.0
 10
408.2610475858157
 20
315.2711084004989
 30
0.0
 10
408.5954552690708
 20
315.1630414548558
 30
0.0
 10
409.0363468510459
 20
314.7610194911979
 30
0.0
 10
409.3930780669181
 20
314.1672059836281
 30
0.0
 10
409.5211433287955
 20
313.4775286752766
 30
0.0
 10
409.4119253697754
 20
312.7927517962494
 30
0.0
 10
409.0830197967258
 20
312.1885159645807
 30
0.0
 10
408.5757475125936
 20
311.7302896377273
 30
0.0
 10
407.9477112324624
 20
311.4659381693561
 30
0.0
 10
407.2689695972211
 20
311.4231915405675
 30
0.0
 10
406.6143791592872
 20
311.6059570531802
 30
0.0
 10
406.0574752304537
 20
311.9930458524428
 30
0.0
 10
405.6535772066867
 20
312.544575104643
 30
0.0
 10
405.4691322929131
 20
313.1955827405062
 30
0.0
 10
405.4544294808864
 20
313.7304453477401
 30
0.0
 10
405.574392743406
 20
313.9968475995659
 30
0.0
 10
405.6001840562353
 20
314.0541223324379
 30
0.0
  0
SPLINE
  5
10F
330
1F
100
AcDbEntity
  8
0
  6
Continuous
 62
     7
370
    25
100
AcDbSpline
210
0.0
220
0.0
230
1.0
 70
     8
 71
     3
 72
    22
 73
    18
 74
     0
 42
0.00000001
 43
0.00000001
 40
0.0
 40
0.0
 40
0.0
 40
0.0
 40
0.0319521395346834
 40
0.1074697491138193
 40
0.1839528974061338
 40
0.2595959870149623
 40
0.333924244221058
 40
0.4072728221874531
 40
0.4800939083269156
 40
0.5526926094013423
 40
0.625241284270012
 40
0.697872944270991
 40
0.770780262694315
 40
0.8442936307532166
 40
0.9188511936047375
 40
0.9946938328862429
 40
1.0
 40
1.0
 40
1.0
 40
1.0
 10
411.9191227681541
 20
321.9512224752631
 30
0.0
 10
411.9999910233622
 20
322.0039634827596
 30
0.0
 10
412.2719881798925
 20
322.1813557615303
 30
0.0
 10
412.8369824661993
 20
322.2658160035604
 30
0.0
 10
413.5228525852217
 20
322.1762692236297
 30
0.0
 10
414.1421263252554
 20
321.8459140189189
 30
0.0
 10
414.6093540240252
 20
321.3336967088027
 30
0.0
 10
414.8767096605803
 20
320.6997801914158
 30
0.0
 10
414.9186841337604
 20
320.0174891723723
 30
0.0
 10
414.7337829002756
 20
319.3616432795358
 30
0.0
 10
414.3440385106646
 20
318.8043474356041
 30
0.0
 10
413.7929275790198
 20
318.406455927446
 30
0.0
 10
413.1433987280126
 20
318.2126386865931
 30
0.0
 10
412.4591086685378
 20
318.239816569395
 30
0.0
 10
411.8399367106081
 20
318.5049951529364
 30
0.0
 10
411.4386215257905
 20
318.7887590141754
 30
0.0
 10
411.3220368995106
 20
319.003807614493
 30
0.0
 10
411.3144136510931
 20
319.0178692361181
 30
0.0
  0
SPLINE
  5
110
330
1F
100
AcDbEntity
  8
0
  6
Continuous
 62
     7
370
    25
100
AcDbSpline
210
0.0
220
0.0
230
1.0
 70
     8
 71
     3
 72
    22
 73
    18
 74
     0
 42
0.00000001
 43
0.00000001
 40
0.0
 40
0.0
 40
0.0
 40
0.0
 40
0.0241217545281233
 40
0.0992478720111492
 40
0.1753345227420488
 40
0.2505854697516585
 40
0.3245284006030671
 40
0.3974967309862195
 40
0.4699403041215942
 40
0.5421626450620491
 40
0.6143352191384321
 40
0.6865903481425191
 40
0.7591197065235381
 40
0.8322519727081369
 40
0.9064230204577599
 40
0.9818724826512687
 40
1.0
 40
1.0
 40
1.0
 40
1.0
 10
409.0217478154172
 20
329.0728808181195
 30
0.0
 10
409.0292550974915
 20
329.1456793005951
 30
0.0
 10
409.0601434712868
 20
329.4452053762344
 30
0.0
 10
409.340085867061
 20
329.9174503573113
 30
0.0
 10
409.8357389220361
 20
330.3983562918074
 30
0.0
 10
410.4806599428621
 20
330.6764175976897
 30
0.0
 10
411.1723010379699
 20
330.7223834200976
 30
0.0
 10
411.8346467589828
 20
330.5361613177588
 30
0.0
 10
412.3942443224113
 20
330.1435773979123
 30
0.0
 10
412.7917241239011
 20
329.5901086753736
 30
0.0
 10
412.9844320745322
 20
328.9379009497319
 30
0.0
 10
412.9519086142407
 20
328.2590379497659
 30
0.0
 10
412.6984502388782
 20
327.6300187901706
 30
0.0
 10
412.2506148796668
 20
327.1133035293195
 30
0.0
 10
411.6570099034128
 20
326.7894473060679
 30
0.0
 10
411.1464398938762
 20
326.6557354564261
 30
0.0
 10
410.8675397821858
 20
326.7109980225082
 30
0.0
 10
410.8135118937248
 20
326.7217033597641
 30
0.0
  0
SPLINE
  5
111
330
1F
100
AcDbEntity
  8
0
  6
Continuous
 62
     7
370
    25
100
AcDbSpline
210
0.0
220
0.0
230
1.0
 70
     8
 71
     3
 72
    22
 73
    18
 74
     0
 42
0.00000001
 43
0.00000001
 40
0.0
 40
0.0
 40
0.0
 40
0.0
 40
0.0367931029534056
 40
0.1104093009909714
 40
0.1849667270350696
 40
0.2587052457176744
 40
0.3311620373556186
 40
0.4026638164961454
 40
0.4736513852026948
 40
0.5444221681412694
 40
0.6151441844532168
 40
0.6859470964657602
 40
0.7570187262664217
 40
0.8286811463508589
 40
0.9013614700881215
 40
0.9752945141046723
 40
1.0
 40
1.0
 40
1.0
 40
1.0
 10
401.7215549007649
 20
331.0909027749948
 30
0.0
 10
401.6391124387957
 20
331.1698295607265
 30
0.0
 10
401.3917178493936
 20
331.4066742555904
 30
0.0
 10
401.1738124639351
 20
331.9529566264472
 30
0.0
 10
401.1095612441283
 20
332.6423685941029
 30
0.0
 10
401.2935491220127
 20
333.3194114073791
 30
0.0
 10
401.6890304109098
 20
333.8889600687013
 30
0.0
 10
402.24754109453
 20
334.2906578940249
 30
0.0
 10
402.9033925666888
 20
334.4834062204429
 30
0.0
 10
403.5839307781312
 20
334.4490856096041
 30
0.0
 10
404.2140078415001
 20
334.1930994564246
 30
0.0
 10
404.7244554945266
 20
333.744433941793
 30
0.0
 10
405.0583284873825
 20
333.153984919182
 30
0.0
 10
405.1826582181729
 20
332.4820658702656
 30
0.0
 10
405.0674057840427
 20
331.8145994648965
 30
0.0
 10
404.8396946887399
 20
331.3159467565648
 30
0.0
 10
404.604245151956
 20
331.1201253696748
 30
0.0
 10
404.5452733159476
 20
331.0710789928063
 30
0.0
  0
SPLINE
  5
112
330
1F
100
AcDbEntity
  8
0
  6
Continuous
 62
     7
370
    25
100
AcDbSpline
210
0.0
220
0.0
230
1.0
 70
     8
 71
     3
 72
    22
 73
    18
 74
     0
 42
0.00000001
 43
0.00000001
 40
0.0
 40
0.0
 40
0.0
 40
0.0
 40
0.0393941738690245
 40
0.1132739451621839
 40
0.1880983144067597
 40
0.2621008442981746
 40
0.3348170580873705
 40
0.406574840080683
 40
0.4778165705762058
 40
0.5488407391304103
 40
0.6198159664554015
 40
0.6908723791175597
 40
0.7621984716770476
 40
0.8341174697683488
 40
0.9070580159845728
 40
0.9812557676826784
 40
1.0
 40
1.0
 40
1.0
 40
1.0
 10
395.5310949350446
 20
326.7317719690911
 30
0.0
 10
395.4104157632097
 20
326.7152653618899
 30
0.0
 10
395.0634150636113
 20
326.6678022896818
 30
0.0
 10
394.4929251270824
 20
326.8386219167027
 30
0.0
 10
393.9138735135367
 20
327.218768094431
 30
0.0
 10
393.4992514294005
 20
327.7846020475899
 30
0.0
 10
393.3005397144354
 20
328.4489469362099
 30
0.0
 10
393.3347053774779
 20
329.1360528830251
 30
0.0
 10
393.5929247705056
 20
329.7689973074613
 30
0.0
 10
394.0440687797774
 20
330.2796647067928
 30
0.0
 10
394.637044281086
 20
330.6126725646654
 30
0.0
 10
395.3061182732217
 20
330.7320243818322
 30
0.0
 10
395.9757875864092
 20
330.6248945951194
 30
0.0
 10
396.5791203350028
 20
330.3032528535367
 30
0.0
 10
397.0272517422393
 20
329.7966508041177
 30
0.0
 10
397.271709576222
 20
329.325875213672
 30
0.0
 10
397.2796429930013
 20
329.0387771432254
 30
0.0
 10
397.2812429782906
 20
328.9808761527601
 30
0.0
  0
SPLINE
  5
113
330
1F
100
AcDbEntity
  8
0
  6
Continuous
 62
     7
370
    25
100
AcDbSpline
210
0.0
220
0.0
230
1.0
 70
     8
 71
     3
 72
    22
 73
    18
 74
     0
 42
0.00000001
 43
0.00000001
 40
0.0
 40
0.0
 40
0.0
 40
0.0
 40
0.0295746948304044
 40
0.105517889916245
 40
0.1824320650856254
 40
0.2585014473538657
 40
0.3332485873765894
 40
0.407010527099188
 40
0.4802420022726278
 40
0.5532498391122767
 40
0.6262073678194988
 40
0.6992483493283566
 40
0.7725665427545653
 40
0.8464942012573687
 40
0.9214719391957558
 40
0.9977419957147553
 40
1.0
 40
1.0
 40
1.0
 40
1.0
 10
395.0026519983666
 20
319.0905287877335
 30
0.0
 10
394.9564927786639
 20
319.0146325027115
 30
0.0
 10
394.7918038954435
 20
318.7438464170416
 30
0.0
 10
394.324490164598
 20
318.4282600935955
 30
0.0
 10
393.6681813263157
 20
318.2109401649826
 30
0.0
 10
392.9667687796703
 20
318.2399961316436
 30
0.0
 10
392.3236025319637
 20
318.4987369123307
 30
0.0
 10
391.8076684608395
 20
318.9538823156226
 30
0.0
 10
391.4738179093786
 20
319.5503907885949
 30
0.0
 10
391.3558476030243
 20
320.2215154301784
 30
0.0
 10
391.4651902263529
 20
320.8927187483947
 30
0.0
 10
391.789098420014
 20
321.4903490292547
 30
0.0
 10
392.2901603305829
 20
321.9467009927396
 30
0.0
 10
392.9186626255343
 20
322.2194624009348
 30
0.0
 10
393.5908641705628
 20
322.2478764697564
 30
0.0
 10
394.067851523657
 20
322.1713220098267
 30
0.0
 10
394.2593501818017
 20
322.0347318705365
 30
0.0
 10
394.2648565547628
 20
322.0308043430173
 30
0.0
  0
SPLINE
  5
114
330
1F
100
AcDbEntity
  8
0
  6
Continuous
 62
     7
370
    25
100
AcDbSpline
210
0.0
220
0.0
230
1.0
 70
     8
 71
     3
 72
    22
 73
    18
 74
     0
 42
0.00000001
 43
0.00000001
 40
0.0
 40
0.0
 40
0.0
 40
0.0
 40
0.0247942514909511
 40
0.0997154160290292
 40
0.1755944933665346
 40
0.2506401468814656
 40
0.3243813526611711
 40
0.3971506167981099
 40
0.4693965552871851
 40
0.5414218651289668
 40
0.6133975438765747
 40
0.6854555523322691
 40
0.7577870420346794
 40
0.8307197947367849
 40
0.904688495084793
 40
0.9799321222106935
 40
1.0
 40
1.0
 40
1.0
 40
1.0
 10
400.7137090851495
 20
313.9567370528351
 30
0.0
 10
400.7393512682952
 20
313.8857894923572
 30
0.0
 10
400.8424768238778
 20
313.6004586158884
 30
0.0
 10
400.7955583844913
 20
313.0513315755194
 30
0.0
 10
400.5574384475299
 20
312.4029517681187
 30
0.0
 10
400.0970864739393
 20
311.8726177765142
 30
0.0
 10
399.4938686661313
 20
311.5311092254912
 30
0.0
 10
398.8163208896663
 20
311.4115092252324
 30
0.0
 10
398.1418040257511
 20
311.5224148403339
 30
0.0
 10
397.5435466297388
 20
311.8486121632426
 30
0.0
 10
397.0869390975136
 20
312.3526211339482
 30
0.0
 10
396.8216988735122
 20
312.9783558376051
 30
0.0
 10
396.7771179493411
 20
313.6550957982389
 30
0.0
 10
396.9564768028547
 20
314.314790464728
 30
0.0
 10
397.3505232291123
 20
314.8647333006483
 30
0.0
 10
397.7580351421988
 20
315.2090691778209
 30
0.0
 10
398.0394450685264
 20
315.281144785568
 30
0.0
 10
398.0986960478837
 20
315.2963203353524
 30
0.0
  0
SPLINE
  5
115
330
1F
100
AcDbEntity
  8
0
  6
Continuous
 62
     7
370
    25
100
AcDbSpline
210
0.0
220
0.0
230
1.0
 70
    11
 71
     3
 72
    26
 73
    22
 74
     0
 42
0.00000001
 43
0.00000001
 40
0.0
 40
0.0
 40
0.0
 40
0.0
 40
0.0535972164200073
 40
0.1071921782484001
 40
0.1608597534174715
 40
0.2147094977664131
 40
0.2686478624799099
 40
0.3224381663529168
 40
0.3759329881741663
 40
0.4292427722145615
 40
0.4826449979174893
 40
0.5363313024995331
 40
0.5902427041024132
 40
0.644147542448074
 40
0.6978798079301013
 40
0.7514722617449182
 40
0.8050492353698601
 40
0.8586625397260986
 40
0.9122900741654482
 40
0.9659177767677241
 40
1.0
 40
1.0
 40
1.0
 40
1.0
 10
389.8518096803633
 20
331.5588359013253
 30
0.0
 10
389.6832885083093
 20
331.5753980454844
 30
0.0
 10
389.3462532531219
 20
331.6085216371084
 30
0.0
 10
388.8978850784688
 20
331.8664639434787
 30
0.0
 10
388.5565668729999
 20
332.2463502923179
 30
0.0
 10
388.3606300856627
 20
332.7217249753729
 30
0.0
 10
388.3331251426698
 20
333.2351863055241
 30
0.0
 10
388.4775819153239
 20
333.7285786754225
 30
0.0
 10
388.7763243055701
 20
334.1449330659806
 30
0.0
 10
389.1943588899238
 20
334.4385717106603
 30
0.0
 10
389.6855673983383
 20
334.578250063376
 30
0.0
 10
390.1967550233145
 20
334.5481350043052
 30
0.0
 10
390.6707860757522
 20
334.3498751554085
 30
0.0
 10
391.0527146257582
 20
334.0050183573589
 30
0.0
 10
391.2983555701742
 20
333.5533919667086
 30
0.0
 10
391.380436327309
 20
333.046659428506
 30
0.0
 10
391.2903815320796
 20
332.5418146244928
 30
0.0
 10
391.0382242808224
 20
332.0943991717902
 30
0.0
 10
390.6524661054841
 20
331.758068588286
 30
0.0
 10
390.2335560326576
 20
331.5831276957477
 30
0.0
 10
389.9586372919679
 20
331.5656336987741
 30
0.0
 10
389.8518096803633
 20
331.5588359013253
 30
0.0
  0
SPLINE
  5
116
330
1F
100
AcDbEntity
  8
0
  6
Continuous
 62
     7
370
    25
100
AcDbSpline
210
0.0
220
0.0
230
1.0
 70
    11
 71
     3
 72
    26
 73
    22
 74
     0
 42
0.00000001
 43
0.00000001
 40
0.0
 40
0.0
 40
0.0
 40
0.0
 40
0.056488554192173
 40
0.1128994301864599
 40
0.1712256558510502
 40
0.2300375349559324
 40
0.2867064896555278
 40
0.3395363008404816
 40
0.3890615100952073
 40
0.4374690463182127
 40
0.4871682267512785
 40
0.5398630249433313
 40
0.5960305847835246
 40
0.6545948261961387
 40
0.7132408736152323
 40
0.7696720731029087
 40
0.8229238449446314
 40
0.8735646339153887
 40
0.923000999363407
 40
0.9728027922198382
 40
1.0
 40
1.0
 40
1.0
 40
1.0
 10
384.3789893030871
 20
336.4232645143364
 30
0.0
 10
384.2618095377116
 20
336.4354211623266
 30
0.0
 10
384.0276111424885
 20
336.4597177415309
 30
0.0
 10
383.7223612854795
 20
336.6437958076013
 30
0.0
 10
383.4923047638369
 20
336.9154663744804
 30
0.0
 10
383.3706023947391
 20
337.2580480345027
 30
0.0
 10
383.3770651678896
 20
337.6181261514371
 30
0.0
 10
383.5024748251367
 20
337.9422385038981
 30
0.0
 10
383.7165370554162
 20
338.1948461497054
 30
0.0
 10
383.9899968212211
 20
338.3623376884292
 30
0.0
 10
384.3020417243694
 20
338.4374949623748
 30
0.0
 10
384.6314802896044
 20
338.4101451944023
 30
0.0
 10
384.9469281230278
 20
338.2710540326712
 30
0.0
 10
385.2054507036999
 20
338.0239578301394
 30
0.0
 10
385.3636008750798
 20
337.6964043354188
 30
0.0
 10
385.3960684688108
 20
337.337489397454
 30
0.0
 10
385.3059920851874
 20
336.9999724775947
 30
0.0
 10
385.1163229238334
 20
336.7214965315409
 30
0.0
 10
384.855007408232
 20
336.5251216568087
 30
0.0
 10
384.5963297163447
 20
336.434296722127
 30
0.0
 10
384.4357193172422
 20
336.4261441320511
 30
0.0
 10
384.3789893030871
 20
336.4232645143364
 30
0.0
  0
SPLINE
  5
117
330
1F
100
AcDbEntity
  8
0
  6
Continuous
 62
     7
370
    25
100
AcDbSpline
210
0.0
220
0.0
230
1.0
 70
    11
 71
     3
 72
    26
 73
    22
 74
     0
 42
0.00000001
 43
0.00000001
 40
0.0
 40
0.0
 40
0.0
 40
0.0
 40
0.0564885541921742
 40
0.11289943018646
 40
0.1712256558510523
 40
0.2300375349559328
 40
0.2867064896555271
 40
0.3395363008404824
 40
0.3890615100952075
 40
0.4374690463182129
 40
0.487168226751279
 40
0.5398630249433317
 40
0.5960305847835254
 40
0.654594826196139
 40
0.7132408736152339
 40
0.7696720731029091
 40
0.8229238449446327
 40
0.8735646339153885
 40
0.9230009993634071
 40
0.9728027922198382
 40
0.9999999999999999
 40
0.9999999999999999
 40
0.9999999999999999
 40
0.9999999999999999
 10
402.3611133998515
 20
345.8360194678681
 30
0.0
 10
402.2975574612757
 20
345.9352138435935
 30
0.0
 10
402.1705329807806
 20
346.1334661914763
 30
0.0
 10
402.1241308352023
 20
346.4868909366457
 30
0.0
 10
402.1930935421531
 20
346.8361401959272
 30
0.0
 10
402.3850544832802
 20
347.1448871109066
 30
0.0
 10
402.6706043643983
 20
347.3643393451746
 30
0.0
 10
403.0021972477572
 20
347.4683708733492
 30
0.0
 10
403.333159475504
 20
347.4585085735417
 30
0.0
 10
403.6346090087233
 20
347.349138385739
 30
0.0
 10
403.8879261464655
 20
347.1520316503546
 30
0.0
 10
404.0719448225893
 20
346.8774139071008
 30
0.0
 10
404.1598774805728
 20
346.5440649389859
 30
0.0
 10
404.1278760828344
 20
346.187881884131
 30
0.0
 10
403.970389467487
 20
345.8600088376671
 30
0.0
 10
403.7100216830402
 20
345.6108448471723
 30
0.0
 10
403.3899786226511
 20
345.4708310422289
 30
0.0
 10
403.0540005730848
 20
345.4454934514013
 30
0.0
 10
402.7375409546086
 20
345.5273604166189
 30
0.0
 10
402.5052482584213
 20
345.6729743594202
 30
0.0
 10
402.3987353609234
 20
345.7934615690791
 30
0.0
 10
402.3611133998515
 20
345.8360194678681
 30
0.0
  0
SPLINE
  5
118
330
1F
100
AcDbEntity
  8
0
  6
Continuous
 62
     7
370
    25
100
AcDbSpline
210
0.0
220
0.0
230
1.0
 70
    11
 71
     3
 72
    26
 73
    22
 74
     0
 42
0.00000001
 43
0.00000001
 40
0.0
 40
0.0
 40
0.0
 40
0.0
 40
0.0564885541921732
 40
0.1128994301864609
 40
0.1712256558510511
 40
0.230037534955933
 40
0.2867064896555278
 40
0.3395363008404833
 40
0.3890615100952076
 40
0.4374690463182141
 40
0.487168226751279
 40
0.5398630249433317
 40
0.5960305847835248
 40
0.6545948261961392
 40
0.713240873615233
 40
0.7696720731029091
 40
0.8229238449446328
 40
0.8735646339153886
 40
0.9230009993634068
 40
0.9728027922198386
 40
1.0
 40
1.0
 40
1.0
 40
1.0
 10
426.1073310355661
 20
318.0199757226779
 30
0.0
 10
426.2181809280027
 20
318.0598653560508
 30
0.0
 10
426.4397282816443
 20
318.1395897700058
 30
0.0
 10
426.7946173793373
 20
318.1061841125369
 30
0.0
 10
427.1197645845609
 20
317.9612351732721
 30
0.0
 10
427.3780552418714
 20
317.7053844418413
 30
0.0
 10
427.5284645242126
 20
317.3781611762908
 30
0.0
 10
427.5561014066785
 20
317.0317328260132
 30
0.0
 10
427.4728403512955
 20
316.7112630804691
 30
0.0
 10
427.2991334707734
 20
316.4417086727562
 30
0.0
 10
427.0506002466906
 20
316.2386030993842
 30
0.0
 10
426.7419197359355
 20
316.1203063523781
 30
0.0
 10
426.3973616652436
 20
316.1087554734359
 30
0.0
 10
426.0572298441321
 20
316.2192127153457
 30
0.0
 10
425.772621328215
 20
316.4457094289612
 30
0.0
 10
425.5876416817383
 20
316.7549934533244
 30
0.0
 10
425.5223545959122
 20
317.0981683686407
 30
0.0
 10
425.5724144207651
 20
317.4313608914184
 30
0.0
 10
425.7226477001043
 20
317.7216690929889
 30
0.0
 10
425.9163007850509
 20
317.9157355757487
 30
0.0
 10
426.0574684782379
 20
317.9927670461037
 30
0.0
 10
426.1073310355661
 20
318.0199757226779
 30
0.0
  0
SPLINE
  5
119
330
1F
100
AcDbEntity
  8
0
  6
Continuous
 62
     7
370
    25
100
AcDbSpline
210
0.0
220
0.0
230
1.0
 70
    11
 71
     3
 72
    26
 73
    22
 74
     0
 42
0.00000001
 43
0.00000001
 40
0.0
 40
0.0
 40
0.0
 40
0.0
 40
0.0564885541921733
 40
0.112899430186461
 40
0.1712256558510512
 40
0.2300375349559327
 40
0.2867064896555271
 40
0.3395363008404821
 40
0.3890615100952072
 40
0.4374690463182131
 40
0.4871682267512787
 40
0.5398630249433318
 40
0.596030584783525
 40
0.6545948261961393
 40
0.7132408736152334
 40
0.7696720731029091
 40
0.8229238449446324
 40
0.8735646339153882
 40
0.9230009993634068
 40
0.9728027922198382
 40
0.9999999999999999
 40
0.9999999999999999
 40
0.9999999999999999
 40
0.9999999999999999
 10
393.7046630556804
 20
301.0587773740251
 30
0.0
 10
393.7188861510683
 20
300.941830441353
 30
0.0
 10
393.7473127834676
 20
300.7080973913653
 30
0.0
 10
393.6357744221068
 20
300.3695395623948
 30
0.0
 10
393.4221075955967
 20
300.0847986497956
 30
0.0
 10
393.1151964978757
 20
299.8899160222391
 30
0.0
 10
392.7627081887931
 20
299.8160918412961
 30
0.0
 10
392.4188157356383
 20
299.866235433227
 30
0.0
 10
392.1249081635036
 20
300.0187201872009
 30
0.0
 10
391.9007654648611
 20
300.2480533721162
 30
0.0
 10
391.7580560174031
 20
300.5355505912575
 30
0.0
 10
391.7114130923739
 20
300.862815339767
 30
0.0
 10
391.7768232017755
 20
301.2013049326223
 30
0.0
 10
391.9601975005179
 20
301.5083298902132
 30
0.0
 10
392.2443468214129
 20
301.7354024161737
 30
0.0
 10
392.5870382932535
 20
301.8469220667502
 30
0.0
 10
392.9361368402692
 20
301.8342086663605
 30
0.0
 10
393.2498361718756
 20
301.7112616344767
 30
0.0
 10
393.4994356910921
 20
301.5001953649617
 30
0.0
 10
393.6455446566277
 20
301.2682137121737
 30
0.0
 10
393.6892320202608
 20
301.1134442730601
 30
0.0
 10
393.7046630556804
 20
301.0587773740251
 30
0.0
  0
SPLINE
  5
11A
330
1F
100
AcDbEntity
  8
0
  6
Continuous
 62
     7
370
    25
100
AcDbSpline
210
0.0
220
0.0
230
1.0
 70
    11
 71
     3
 72
    26
 73
    22
 74
     0
 42
0.00000001
 43
0.00000001
 40
0.0
 40
0.0
 40
0.0
 40
0.0
 40
0.0535972164200069
 40
0.1071921782483999
 40
0.1608597534174716
 40
0.2147094977664135
 40
0.2686478624799095
 40
0.3224381663529163
 40
0.3759329881741655
 40
0.4292427722145617
 40
0.4826449979174892
 40
0.5363313024995331
 40
0.5902427041024132
 40
0.6441475424480738
 40
0.6978798079301018
 40
0.7514722617449179
 40
0.8050492353698596
 40
0.8586625397260982
 40
0.9122900741654478
 40
0.9659177767677241
 40
1.0
 40
1.0
 40
1.0
 40
1.0
 10
401.9701976586176
 20
338.5242745669387
 30
0.0
 10
401.8780752321654
 20
338.6663560526931
 30
0.0
 10
401.6938342544333
 20
338.9505130474787
 30
0.0
 10
401.6159486858397
 20
339.4618857996491
 30
0.0
 10
401.7001473728235
 20
339.9655943825908
 30
0.0
 10
401.9496456772904
 20
340.4151751984512
 30
0.0
 10
402.3339368587758
 20
340.7568173318047
 30
0.0
 10
402.8097538713311
 20
340.9515015900345
 30
0.0
 10
403.3215356754346
 20
340.9775281006644
 30
0.0
 10
403.8117519124831
 20
340.8337762022456
 30
0.0
 10
404.2272203416383
 20
340.5368219543697
 30
0.0
 10
404.5223957113694
 20
340.1183829435022
 30
0.0
 10
404.6629434467519
 20
339.6241575491338
 30
0.0
 10
404.6314521010611
 20
339.1105390880003
 30
0.0
 10
404.4315109942996
 20
338.6369048154518
 30
0.0
 10
404.0865080577442
 20
338.2567889255797
 30
0.0
 10
403.6356562497724
 20
338.0124310128136
 30
0.0
 10
403.1286352884832
 20
337.930616518425
 30
0.0
 10
402.6251651614756
 20
338.0225157156559
 30
0.0
 10
402.2272047058149
 20
338.240958936489
 30
0.0
 10
402.0421183170669
 20
338.4449917343738
 30
0.0
 10
401.9701976586176
 20
338.5242745669387
 30
0.0
  0
SPLINE
  5
11B
330
1F
100
AcDbEntity
  8
0
  6
Continuous
 62
     7
370
    25
100
AcDbSpline
210
0.0
220
0.0
230
1.0
 70
    11
 71
     3
 72
    26
 73
    22
 74
     0
 42
0.00000001
 43
0.00000001
 40
0.0
 40
0.0
 40
0.0
 40
0.0
 40
0.0535972164200074
 40
0.1071921782484003
 40
0.1608597534174717
 40
0.2147094977664131
 40
0.2686478624799091
 40
0.3224381663529162
 40
0.3759329881741659
 40
0.4292427722145617
 40
0.482644997917489
 40
0.536331302499533
 40
0.5902427041024135
 40
0.6441475424480739
 40
0.6978798079301015
 40
0.7514722617449184
 40
0.80504923536986
 40
0.8586625397260985
 40
0.9122900741654484
 40
0.9659177767677243
 40
1.0
 40
1.0
 40
1.0
 40
1.0
 10
419.0658937807345
 20
320.0281066943232
 30
0.0
 10
419.2249121553732
 20
320.0863033143015
 30
0.0
 10
419.5429422154694
 20
320.2026941061902
 30
0.0
 10
420.0588249545547
 20
320.1648357785555
 30
0.0
 10
420.5311685412046
 20
319.9706624241279
 30
0.0
 10
420.9139588316379
 20
319.627378420027
 30
0.0
 10
421.1615224508062
 20
319.1766996941989
 30
0.0
 10
421.2454463221908
 20
318.6694910845999
 30
0.0
 10
421.1569381288296
 20
318.1647492753797
 30
0.0
 10
420.9077070157234
 20
317.7188115895704
 30
0.0
 10
420.5257476079432
 20
317.3798383579364
 30
0.0
 10
420.0521170377493
 20
317.1851750904989
 30
0.0
 10
419.5390080925278
 20
317.1581266766203
 30
0.0
 10
419.0452746022114
 20
317.3031193281951
 30
0.0
 10
418.6280064115509
 20
317.6034410346506
 30
0.0
 10
418.3341911963107
 20
318.0243777701091
 30
0.0
 10
418.1962838119783
 20
318.5183005329268
 30
0.0
 10
418.2293433556193
 20
319.0308148578515
 30
0.0
 10
418.4309710909876
 20
319.5012124424231
 30
0.0
 10
418.732492016476
 20
319.8405870090752
 30
0.0
 10
418.9725948822212
 20
319.9756313268875
 30
0.0
 10
419.0658937807345
 20
320.0281066943232
 30
0.0
  0
SPLINE
  5
11C
330
1F
100
AcDbEntity
  8
0
  6
Continuous
 62
     7
370
    25
100
AcDbSpline
210
0.0
220
0.0
230
1.0
 70
    11
 71
     3
 72
    26
 73
    22
 74
     0
 42
0.00000001
 43
0.00000001
 40
0.0
 40
0.0
 40
0.0
 40
0.0
 40
0.0535972164200078
 40
0.1071921782484005
 40
0.1608597534174721
 40
0.2147094977664135
 40
0.2686478624799098
 40
0.3224381663529168
 40
0.3759329881741658
 40
0.429242772214562
 40
0.4826449979174895
 40
0.5363313024995332
 40
0.5902427041024136
 40
0.6441475424480747
 40
0.6978798079301023
 40
0.7514722617449185
 40
0.8050492353698603
 40
0.858662539726099
 40
0.9122900741654484
 40
0.9659177767677246
 40
1.0
 40
1.0
 40
1.0
 40
1.0
 10
397.2293131855942
 20
307.4768199163202
 30
0.0
 10
397.2506657775647
 20
307.3088384981044
 30
0.0
 10
397.2933700632993
 20
306.9728827278888
 30
0.0
 10
397.1416662140664
 20
306.4783585165651
 30
0.0
 10
396.8472548549835
 20
306.0610652059767
 30
0.0
 10
396.4273988446432
 20
305.7642601445258
 30
0.0
 10
395.932931487656
 20
305.6231889131435
 30
0.0
 10
395.4197648386173
 20
305.6542337219508
 30
0.0
 10
394.9473728862128
 20
305.8528384489101
 30
0.0
 10
394.5680749292829
 20
306.1950512879939
 30
0.0
 10
394.3225944284331
 20
306.6428628160486
 30
0.0
 10
394.2382044923617
 20
307.1479351310705
 30
0.0
 10
394.3260117204031
 20
307.6541982020754
 30
0.0
 10
394.5772351408754
 20
308.1032888627186
 30
0.0
 10
394.962878062629
 20
308.4432674020513
 30
0.0
 10
395.438641071396
 20
308.636048820902
 30
0.0
 10
395.9508674392901
 20
308.660590424699
 30
0.0
 10
396.443175519525
 20
308.5143145865912
 30
0.0
 10
396.8569128625612
 20
308.213068769661
 30
0.0
 10
397.1206838823278
 20
307.8435896577631
 30
0.0
 10
397.1989144432133
 20
307.579456484428
 30
0.0
 10
397.2293131855942
 20
307.4768199163202
 30
0.0
  0
LINE
  5
11D
330
1F
100
AcDbEntity
  8
0
  6
Continuous
 62
     7
370
    25
100
AcDbLine
 10
426.1327412351
 20
343.3513560923
 30
0.0
 11
427.0927453919
 21
344.1169338605
 31
0.0
  0
LINE
  5
11E
330
1F
100
AcDbEntity
  8
0
  6
Continuous
 62
     7
370
    25
100
AcDbLine
 10
391.4944867055
 20
293.6617068865
 30
0.0
 11
390.9617245919
 21
292.5554149583
 31
0.0
  0
LINE
  5
11F
330
1F
100
AcDbEntity
  8
0
  6
Continuous
 62
     7
370
    25
100
AcDbLine
 10
401.1429448823
 20
353.4595092697
 30
0.0
 11
401.1429448823
 21
354.6874006738
 31
0.0
  0
LINE
  5
120
330
1F
100
AcDbEntity
  8
0
  6
Continuous
 62
     7
370
    25
100
AcDbLine
 10
433.8107520279
 20
317.5112161414
 30
0.0
 11
435.0078576308
 21
317.2379845994
 31
0.0
  0
LINE
  5
121
330
1F
100
AcDbEntity
  8
0
  6
Continuous
 62
     7
370
    25
100
AcDbLine
 10
377.6591893221
 20
340.2240301624
 30
0.0
 11
376.6991851653
 21
340.9896079306
 31
0.0
  0
LINE
  5
122
330
1F
100
AcDbEntity
  8
0
  6
Continuous
 62
     7
370
    25
100
AcDbLine
 10
418.3952785308
 20
295.397241843
 30
0.0
 11
418.9280406444
 21
294.2909499148
 31
0.0
  0
LINE
  5
123
330
1F
100
AcDbEntity
  8
0
  6
Continuous
 62
     7
370
    25
100
AcDbLine
 10
373.3652214726
 20
313.6115044927
 30
0.0
 11
372.1681158696
 21
313.3382729507
 31
0.0
  0
LINE
  5
124
330
1F
100
AcDbEntity
  8
0
  6
Continuous
 62
     7
370
    25
100
AcDbLine
 10
405.1429448823
 20
354.6874006738
 30
0.0
 11
405.1429448823
 21
353.4595092697
 31
0.0
  0
LINE
  5
125
330
1F
100
AcDbEntity
  8
0
  6
Continuous
 62
     7
370
    25
100
AcDbLine
 10
387.3578491202
 20
294.2909499148
 30
0.0
 11
387.8906112339
 21
295.397241843
 31
0.0
  0
LINE
  5
126
330
1F
100
AcDbEntity
  8
0
  6
Continuous
 62
     7
370
    25
100
AcDbLine
 10
429.5867045993
 20
340.9896079306
 30
0.0
 11
428.6267004425
 21
340.2240301624
 31
0.0
  0
LINE
  5
127
330
1F
100
AcDbEntity
  8
0
  6
Continuous
 62
     7
370
    25
100
AcDbLine
 10
415.3241651728
 20
292.5554149583
 30
0.0
 11
414.7914030592
 21
293.6617068865
 31
0.0
  0
LINE
  5
128
330
1F
100
AcDbEntity
  8
0
  6
Continuous
 62
     7
370
    25
100
AcDbLine
 10
379.1931443728
 20
344.1169338605
 30
0.0
 11
380.1531485295
 21
343.3513560923
 31
0.0
  0
LINE
  5
129
330
1F
100
AcDbEntity
  8
0
  6
Continuous
 62
     7
370
    25
100
AcDbLine
 10
434.117773895
 20
313.3382729507
 30
0.0
 11
432.920668292
 21
313.6115044927
 31
0.0
  0
LINE
  5
12A
330
1F
100
AcDbEntity
  8
0
  6
Continuous
 62
     7
370
    25
100
AcDbLine
 10
371.2780321338
 20
317.2379845994
 30
0.0
 11
372.4751377368
 21
317.5112161414
 31
0.0
  0
LINE
  5
12B
330
1F
100
AcDbEntity
  8
0
  6
Continuous
 62
     7
370
    25
100
AcDbLine
 10
58.1429448823
 20
29.4595092697
 30
0.0
 11
58.1429448823
 21
30.225634859
 31
0.0
  0
ARC
  5
12C
330
1F
100
AcDbEntity
  8
0
  6
Continuous
 62
     7
370
    25
100
AcDbCircle
 10
58.1429448823
 20
52.4595092697
 30
0.0
 40
23.00000000000002
100
AcDbArc
 50
180.0
 51
270.0
  0
LINE
  5
12D
330
1F
100
AcDbEntity
  8
0
  6
Continuous
 62
     7
370
    25
100
AcDbLine
 10
35.1429448823
 20
52.4595092697
 30
0.0
 11
35.9090704716
 21
52.4595092697
 31
0.0
  0
ARC
  5
12E
330
1F
100
AcDbEntity
  8
0
  6
Continuous
 62
     7
370
    25
100
AcDbCircle
 10
58.1429448823
 20
52.4595092697
 30
0.0
 40
22.23387441067953
100
AcDbArc
 50
180.0
 51
270.0
  0
LINE
  5
12F
330
1F
100
AcDbEntity
  8
0
  6
Continuous
 62
     7
370
    25
100
AcDbLine
 10
35.1429448823
 20
490.4595092697
 30
0.0
 11
35.9090704716
 21
490.4595092697
 31
0.0
  0
ARC
  5
130
330
1F
100
AcDbEntity
  8
0
  6
Continuous
 62
     7
370
    25
100
AcDbCircle
 10
58.1429448823
 20
490.4595092697
 30
0.0
 40
23.00000000000002
100
AcDbArc
 50
90.0
 51
180.0
  0
LINE
  5
131
330
1F
100
AcDbEntity
  8
0
  6
Continuous
 62
     7
370
    25
100
AcDbLine
 10
58.1429448823
 20
513.4595092697
 30
0.0
 11
58.1429448823
 21
512.6933836804
 31
0.0
  0
ARC
  5
132
330
1F
100
AcDbEntity
  8
0
  6
Continuous
 62
     7
370
    25
100
AcDbCircle
 10
58.1429448823
 20
490.4595092697
 30
0.0
 40
22.23387441067956
100
AcDbArc
 50
90.0
 51
180.0
  0
LINE
  5
133
330
1F
100
AcDbEntity
  8
0
  6
Continuous
 62
     7
370
    25
100
AcDbLine
 10
748.1429448823
 20
513.4595092697
 30
0.0
 11
748.1429448823
 21
512.6933836804
 31
0.0
  0
ARC
  5
134
330
1F
100
AcDbEntity
  8
0
  6
Continuous
 62
     7
370
    25
100
AcDbCircle
 10
748.1429448823
 20
490.4595092697
 30
0.0
 40
23.0
100
AcDbArc
 50
0.0
 51
90.0
  0
LINE
  5
135
330
1F
100
AcDbEntity
  8
0
  6
Continuous
 62
     7
370
    25
100
AcDbLine
 10
771.1429448823
 20
490.4595092697
 30
0.0
 11
770.376819293
 21
490.4595092697
 31
0.0
  0
ARC
  5
136
330
1F
100
AcDbEntity
  8
0
  6
Continuous
 62
     7
370
    25
100
AcDbCircle
 10
748.1429448823
 20
490.4595092697
 30
0.0
 40
22.23387441067956
100
AcDbArc
 50
0.0
 51
90.0
  0
LINE
  5
137
330
1F
100
AcDbEntity
  8
0
  6
Continuous
 62
     7
370
    25
100
AcDbLine
 10
771.1429448823
 20
52.4595092697
 30
0.0
 11
770.376819293
 21
52.4595092697
 31
0.0
  0
LINE
  5
138
330
1F
100
AcDbEntity
  8
0
  6
Continuous
 62
     7
370
    25
100
AcDbLine
 10
770.376819293
 20
52.4595092697
 30
0.0
 11
770.376819293
 21
271.4595092697
 31
0.0
  0
LINE
  5
139
330
1F
100
AcDbEntity
  8
0
  6
Continuous
 62
     7
370
    25
100
AcDbLine
 10
771.1429448823
 20
271.4595092697
 30
0.0
 11
770.376819293
 21
271.4595092697
 31
0.0
  0
LINE
  5
13A
330
1F
100
AcDbEntity
  8
0
  6
Continuous
 62
     7
370
    25
100
AcDbLine
 10
771.1429448823
 20
52.4595092697
 30
0.0
 11
771.1429448823
 21
271.4595092697
 31
0.0
  0
LINE
  5
13B
330
1F
100
AcDbEntity
  8
0
  6
Continuous
 62
     7
370
    25
100
AcDbLine
 10
771.1429448823
 20
271.4595092697
 30
0.0
 11
771.1429448823
 21
490.4595092697
 31
0.0
  0
LINE
  5
13C
330
1F
100
AcDbEntity
  8
0
  6
Continuous
 62
     7
370
    25
100
AcDbLine
 10
770.376819293
 20
271.4595092697
 30
0.0
 11
770.376819293
 21
490.4595092697
 31
0.0
  0
LINE
  5
13D
330
1F
100
AcDbEntity
  8
0
  6
Continuous
 62
     7
370
    25
100
AcDbLine
 10
748.1429448823
 20
29.4595092697
 30
0.0
 11
748.1429448823
 21
30.225634859
 31
0.0
  0
LINE
  5
13E
330
1F
100
AcDbEntity
  8
0
  6
Continuous
 62
     7
370
    25
100
AcDbLine
 10
58.1429448823
 20
29.4595092697
 30
0.0
 11
748.1429448823
 21
29.4595092697
 31
0.0
  0
LINE
  5
13F
330
1F
100
AcDbEntity
  8
0
  6
Continuous
 62
     7
370
    25
100
AcDbLine
 10
58.1429448823
 20
30.225634859
 30
0.0
 11
748.1429448823
 21
30.225634859
 31
0.0
  0
LINE
  5
140
330
1F
100
AcDbEntity
  8
0
  6
Continuous
 62
     7
370
    25
100
AcDbLine
 10
35.1429448823
 20
490.4595092697
 30
0.0
 11
35.1429448823
 21
52.4595092697
 31
0.0
  0
LINE
  5
141
330
1F
100
AcDbEntity
  8
0
  6
Continuous
 62
     7
370
    25
100
AcDbLine
 10
35.9090704716
 20
490.4595092697
 30
0.0
 11
35.9090704716
 21
52.4595092697
 31
0.0
  0
LINE
  5
142
330
1F
100
AcDbEntity
  8
0
  6
Continuous
 62
     7
370
    25
100
AcDbLine
 10
748.1429448823
 20
513.4595092697
 30
0.0
 11
58.1429448823
 21
513.4595092697
 31
0.0
  0
LINE
  5
143
330
1F
100
AcDbEntity
  8
0
  6
Continuous
 62
     7
370
    25
100
AcDbLine
 10
748.1429448823
 20
512.6933836804
 30
0.0
 11
58.1429448823
 21
512.6933836804
 31
0.0
  0
ARC
  5
144
330
1F
100
AcDbEntity
  8
0
  6
Continuous
 62
     7
370
    25
100
AcDbCircle
 10
748.1429448823
 20
52.4595092697
 30
0.0
 40
23.0
100
AcDbArc
 50
270.0
 51
0.0
  0
ARC
  5
145
330
1F
100
AcDbEntity
  8
0
  6
Continuous
 62
     7
370
    25
100
AcDbCircle
 10
748.1429448823
 20
52.4595092697
 30
0.0
 40
22.2338744106795
100
AcDbArc
 50
270.0
 51
0.0
  0
ARC
  5
146
330
1F
100
AcDbEntity
  8
0
  6
Continuous
 62
     7
370
    25
100
AcDbCircle
 10
27.1429448823
 20
521.4595092697
 30
0.0
 40
10.00000000000001
100
AcDbArc
 50
90.0
 51
180.0
  0
LINE
  5
147
330
1F
100
AcDbEntity
  8
0
  6
Continuous
 62
     7
370
    25
100
AcDbLine
 10
789.1429448823
 20
21.4595092697
 30
0.0
 11
789.1429448823
 21
521.4595092697
 31
0.0
  0
LINE
  5
148
330
1F
100
AcDbEntity
  8
0
  6
Continuous
 62
     7
370
    25
100
AcDbLine
 10
27.1429448823
 20
11.4595092697
 30
0.0
 11
779.1429448823
 21
11.4595092697
 31
0.0
  0
ARC
  5
149
330
1F
100
AcDbEntity
  8
0
  6
Continuous
 62
     7
370
    25
100
AcDbCircle
 10
27.1429448823
 20
21.4595092697
 30
0.0
 40
10.00000000000001
100
AcDbArc
 50
180.0
 51
270.0
  0
ARC
  5
14A
330
1F
100
AcDbEntity
  8
0
  6
Continuous
 62
     7
370
    25
100
AcDbCircle
 10
779.1429448823
 20
21.4595092697
 30
0.0
 40
10.00000000000001
100
AcDbArc
 50
270.0
 51
0.0
  0
ARC
  5
14B
330
1F
100
AcDbEntity
  8
0
  6
Continuous
 62
     7
370
    25
100
AcDbCircle
 10
779.1429448823
 20
521.4595092697
 30
0.0
 40
10.0
100
AcDbArc
 50
0.0
 51
90.0
  0
LINE
  5
14C
330
1F
100
AcDbEntity
  8
0
  6
Continuous
 62
     7
370
    25
100
AcDbLine
 10
17.1429448823
 20
521.4595092697
 30
0.0
 11
17.1429448823
 21
21.4595092697
 31
0.0
  0
LINE
  5
14D
330
1F
100
AcDbEntity
  8
0
  6
Continuous
 62
     7
370
    25
100
AcDbLine
 10
779.1429448823
 20
531.4595092697
 30
0.0
 11
27.1429448823
 21
531.4595092697
 31
0.0
  0
LINE
  5
14E
330
1F
100
AcDbEntity
  8
0
  6
Continuous
 62
     7
370
    25
100
AcDbLine
 10
748.1429448823
 20
30.225634859
 30
0.0
 11
748.1429448823
 21
31.1832442867
 31
0.0
  0
LINE
  5
14F
330
1F
100
AcDbEntity
  8
0
  6
Continuous
 62
     7
370
    25
100
AcDbLine
 10
58.1429448823
 20
30.225634859
 30
0.0
 11
58.1429448823
 21
31.1832442867
 31
0.0
  0
LINE
  5
150
330
1F
100
AcDbEntity
  8
0
  6
Continuous
 62
     7
370
    25
100
AcDbLine
 10
58.1429448823
 20
31.1832442867
 30
0.0
 11
748.1429448823
 21
31.1832442867
 31
0.0
  0
LINE
  5
151
330
1F
100
AcDbEntity
  8
0
  6
Continuous
 62
     7
370
    25
100
AcDbLine
 10
748.1429448823
 20
512.6933836804
 30
0.0
 11
748.1429448823
 21
511.7357742528
 31
0.0
  0
LINE
  5
152
330
1F
100
AcDbEntity
  8
0
  6
Continuous
 62
     7
370
    25
100
AcDbLine
 10
770.376819293
 20
490.4595092697
 30
0.0
 11
769.4192098654
 21
490.4595092697
 31
0.0
  0
ARC
  5
153
330
1F
100
AcDbEntity
  8
0
  6
Continuous
 62
     7
370
    25
100
AcDbCircle
 10
748.1429448823
 20
490.4595092697
 30
0.0
 40
21.27626498307325
100
AcDbArc
 50
0.0
 51
90.0
  0
LINE
  5
154
330
1F
100
AcDbEntity
  8
0
  6
Continuous
 62
     7
370
    25
100
AcDbLine
 10
35.9090704716
 20
52.4595092697
 30
0.0
 11
36.8666798992
 21
52.4595092697
 31
0.0
  0
ARC
  5
155
330
1F
100
AcDbEntity
  8
0
  6
Continuous
 62
     7
370
    25
100
AcDbCircle
 10
58.1429448823
 20
52.4595092697
 30
0.0
 40
21.27626498307328
100
AcDbArc
 50
180.0
 51
270.0
  0
LINE
  5
156
330
1F
100
AcDbEntity
  8
0
  6
Continuous
 62
     7
370
    25
100
AcDbLine
 10
35.9090704716
 20
490.4595092697
 30
0.0
 11
36.8666798992
 21
490.4595092697
 31
0.0
  0
LINE
  5
157
330
1F
100
AcDbEntity
  8
0
  6
Continuous
 62
     7
370
    25
100
AcDbLine
 10
36.8666798992
 20
490.4595092697
 30
0.0
 11
36.8666798992
 21
52.4595092697
 31
0.0
  0
LINE
  5
158
330
1F
100
AcDbEntity
  8
0
  6
Continuous
 62
     7
370
    25
100
AcDbLine
 10
770.376819293
 20
52.4595092697
 30
0.0
 11
769.4192098654
 21
52.4595092697
 31
0.0
  0
LINE
  5
159
330
1F
100
AcDbEntity
  8
0
  6
Continuous
 62
     7
370
    25
100
AcDbLine
 10
769.4192098654
 20
52.4595092697
 30
0.0
 11
769.4192098654
 21
271.4595092697
 31
0.0
  0
LINE
  5
15A
330
1F
100
AcDbEntity
  8
0
  6
Continuous
 62
     7
370
    25
100
AcDbLine
 10
770.376819293
 20
271.4595092697
 30
0.0
 11
769.4192098654
 21
271.4595092697
 31
0.0
  0
LINE
  5
15B
330
1F
100
AcDbEntity
  8
0
  6
Continuous
 62
     7
370
    25
100
AcDbLine
 10
58.1429448823
 20
512.6933836804
 30
0.0
 11
58.1429448823
 21
511.7357742528
 31
0.0
  0
ARC
  5
15C
330
1F
100
AcDbEntity
  8
0
  6
Continuous
 62
     7
370
    25
100
AcDbCircle
 10
58.1429448823
 20
490.4595092697
 30
0.0
 40
21.27626498307328
100
AcDbArc
 50
90.0
 51
180.0
  0
LINE
  5
15D
330
1F
100
AcDbEntity
  8
0
  6
Continuous
 62
     7
370
    25
100
AcDbLine
 10
769.4192098654
 20
271.4595092697
 30
0.0
 11
769.4192098654
 21
490.4595092697
 31
0.0
  0
ARC
  5
15E
330
1F
100
AcDbEntity
  8
0
  6
Continuous
 62
     7
370
    25
100
AcDbCircle
 10
748.1429448823
 20
52.4595092697
 30
0.0
 40
21.27626498307325
100
AcDbArc
 50
270.0
 51
0.0
  0
LINE
  5
15F
330
1F
100
AcDbEntity
  8
0
  6
Continuous
 62
     7
370
    25
100
AcDbLine
 10
748.1429448823
 20
511.7357742528
 30
0.0
 11
58.1429448823
 21
511.7357742528
 31
0.0
  0
LINE
  5
160
330
1F
100
AcDbEntity
  8
0
  6
Continuous
 62
     7
370
    25
100
AcDbLine
 10
748.1429448823
 20
31.1832442867
 30
0.0
 11
748.1429448823
 21
36.5461234119
 31
0.0
  0
LINE
  5
161
330
1F
100
AcDbEntity
  8
0
  6
Continuous
 62
     7
370
    25
100
AcDbLine
 10
58.1429448823
 20
31.1832442867
 30
0.0
 11
58.1429448823
 21
36.5461234119
 31
0.0
  0
LINE
  5
162
330
1F
100
AcDbEntity
  8
0
  6
Continuous
 62
     7
370
    25
100
AcDbLine
 10
58.1429448823
 20
36.5461234119
 30
0.0
 11
748.1429448823
 21
36.5461234119
 31
0.0
  0
LINE
  5
163
330
1F
100
AcDbEntity
  8
0
  6
Continuous
 62
     7
370
    25
100
AcDbLine
 10
769.4192098654
 20
52.4595092697
 30
0.0
 11
764.0563307402
 21
52.4595092697
 31
0.0
  0
LINE
  5
164
330
1F
100
AcDbEntity
  8
0
  6
Continuous
 62
     7
370
    25
100
AcDbLine
 10
764.0563307402
 20
52.4595092697
 30
0.0
 11
764.0563307402
 21
271.4595092697
 31
0.0
  0
LINE
  5
165
330
1F
100
AcDbEntity
  8
0
  6
Continuous
 62
     7
370
    25
100
AcDbLine
 10
769.4192098654
 20
271.4595092697
 30
0.0
 11
764.0563307402
 21
271.4595092697
 31
0.0
  0
ARC
  5
166
330
1F
100
AcDbEntity
  8
0
  6
Continuous
 62
     7
370
    25
100
AcDbCircle
 10
748.1429448823
 20
52.4595092697
 30
0.0
 40
15.91338585783024
100
AcDbArc
 50
270.0
 51
0.0
  0
LINE
  5
167
330
1F
100
AcDbEntity
  8
0
  6
Continuous
 62
     7
370
    25
100
AcDbLine
 10
36.8666798992
 20
52.4595092697
 30
0.0
 11
42.2295590245
 21
52.4595092697
 31
0.0
  0
LINE
  5
168
330
1F
100
AcDbEntity
  8
0
  6
Continuous
 62
     7
370
    25
100
AcDbLine
 10
36.8666798992
 20
490.4595092697
 30
0.0
 11
42.2295590245
 21
490.4595092697
 31
0.0
  0
LINE
  5
169
330
1F
100
AcDbEntity
  8
0
  6
Continuous
 62
     7
370
    25
100
AcDbLine
 10
42.2295590245
 20
490.4595092697
 30
0.0
 11
42.2295590245
 21
52.4595092697
 31
0.0
  0
ARC
  5
16A
330
1F
100
AcDbEntity
  8
0
  6
Continuous
 62
     7
370
    25
100
AcDbCircle
 10
58.1429448823
 20
52.4595092697
 30
0.0
 40
15.91338585783026
100
AcDbArc
 50
180.0
 51
270.0
  0
LINE
  5
16B
330
1F
100
AcDbEntity
  8
0
  6
Continuous
 62
     7
370
    25
100
AcDbLine
 10
58.1429448823
 20
511.7357742528
 30
0.0
 11
58.1429448823
 21
506.3728951276
 31
0.0
  0
ARC
  5
16C
330
1F
100
AcDbEntity
  8
0
  6
Continuous
 62
     7
370
    25
100
AcDbCircle
 10
58.1429448823
 20
490.4595092697
 30
0.0
 40
15.91338585783026
100
AcDbArc
 50
90.0
 51
180.0
  0
LINE
  5
16D
330
1F
100
AcDbEntity
  8
0
  6
Continuous
 62
     7
370
    25
100
AcDbLine
 10
748.1429448823
 20
511.7357742528
 30
0.0
 11
748.1429448823
 21
506.3728951276
 31
0.0
  0
LINE
  5
16E
330
1F
100
AcDbEntity
  8
0
  6
Continuous
 62
     7
370
    25
100
AcDbLine
 10
748.1429448823
 20
506.3728951276
 30
0.0
 11
58.1429448823
 21
506.3728951276
 31
0.0
  0
LINE
  5
16F
330
1F
100
AcDbEntity
  8
0
  6
Continuous
 62
     7
370
    25
100
AcDbLine
 10
769.4192098654
 20
490.4595092697
 30
0.0
 11
764.0563307402
 21
490.4595092697
 31
0.0
  0
ARC
  5
170
330
1F
100
AcDbEntity
  8
0
  6
Continuous
 62
     7
370
    25
100
AcDbCircle
 10
748.1429448823
 20
490.4595092697
 30
0.0
 40
15.91338585783024
100
AcDbArc
 50
0.0
 51
90.0
  0
LINE
  5
171
330
1F
100
AcDbEntity
  8
0
  6
Continuous
 62
     7
370
    25
100
AcDbLine
 10
764.0563307402
 20
271.4595092697
 30
0.0
 11
764.0563307402
 21
490.4595092697
 31
0.0
  0
LINE
  5
172
330
1F
100
AcDbEntity
  8
0
  6
Continuous
 62
     7
370
    25
100
AcDbLine
 10
727.6429448823
 20
433.4595092697
 30
0.0
 11
78.6429448823
 21
433.4595092697
 31
0.0
  0
LINE
  5
173
330
1F
100
AcDbEntity
  8
0
  6
Continuous
 62
     7
370
    25
100
AcDbLine
 10
78.6429448823
 20
433.4595092697
 30
0.0
 11
78.6429448823
 21
438.4595092697
 31
0.0
  0
LINE
  5
174
330
1F
100
AcDbEntity
  8
0
  6
Continuous
 62
     7
370
    25
100
AcDbLine
 10
78.6429448823
 20
438.4595092697
 30
0.0
 11
727.6429448823
 21
438.4595092697
 31
0.0
  0
LINE
  5
175
330
1F
100
AcDbEntity
  8
0
  6
Continuous
 62
     7
370
    25
100
AcDbLine
 10
727.6429448823
 20
438.4595092697
 30
0.0
 11
727.6429448823
 21
433.4595092697
 31
0.0
  0
LINE
  5
176
330
1F
100
AcDbEntity
  8
0
  6
Continuous
 62
     7
370
    25
100
AcDbLine
 10
759.1429448823
 20
406.9595092697
 30
0.0
 11
759.1429448823
 21
72.9595092697
 31
0.0
  0
ARC
  5
177
330
1F
100
AcDbEntity
  8
0
  6
Continuous
 62
     7
370
    25
100
AcDbCircle
 10
727.6429448823
 20
406.9595092697
 30
0.0
 40
31.50000000000023
100
AcDbArc
 50
0.0
 51
90.0
  0
ARC
  5
178
330
1F
100
AcDbEntity
  8
0
  6
Continuous
 62
     7
370
    25
100
AcDbCircle
 10
78.6429448823
 20
406.9595092697
 30
0.0
 40
31.50000000000026
100
AcDbArc
 50
90.0
 51
180.0
  0
LINE
  5
179
330
1F
100
AcDbEntity
  8
0
  6
Continuous
 62
     7
370
    25
100
AcDbLine
 10
47.1429448823
 20
72.9595092697
 30
0.0
 11
47.1429448823
 21
406.9595092697
 31
0.0
  0
ARC
  5
17A
330
1F
100
AcDbEntity
  8
0
  6
Continuous
 62
     7
370
    25
100
AcDbCircle
 10
78.6429448823
 20
72.9595092697
 30
0.0
 40
31.50000000000026
100
AcDbArc
 50
180.0
 51
270.0
  0
LINE
  5
17B
330
1F
100
AcDbEntity
  8
0
  6
Continuous
 62
     7
370
    25
100
AcDbLine
 10
727.6429448823
 20
41.4595092697
 30
0.0
 11
78.6429448823
 21
41.4595092697
 31
0.0
  0
ARC
  5
17C
330
1F
100
AcDbEntity
  8
0
  6
Continuous
 62
     7
370
    25
100
AcDbCircle
 10
727.6429448823
 20
72.9595092697
 30
0.0
 40
31.50000000000034
100
AcDbArc
 50
270.0
 51
0.0
  0
CIRCLE
  5
17D
330
1F
100
AcDbEntity
  8
0
  6
Continuous
 62
     7
370
    25
100
AcDbCircle
 10
403.1429448823
 20
475.4595092697
 30
0.0
 40
17.50000000000006
  0
LINE
  5
17E
330
1F
100
AcDbEntity
  8
0
  6
Continuous
 62
     7
370
    25
100
AcDbLine
 10
759.1429448823
 20
72.9595092697
 30
0.0
 11
754.1429448823
 21
72.9595092697
 31
0.0
  0
LINE
  5
17F
330
1F
100
AcDbEntity
  8
0
  6
Continuous
 62
     7
370
    25
100
AcDbLine
 10
754.1429448823
 20
72.9595092697
 30
0.0
 11
754.1429448823
 21
406.9595092697
 31
0.0
  0
LINE
  5
180
330
1F
100
AcDbEntity
  8
0
  6
Continuous
 62
     7
370
    25
100
AcDbLine
 10
759.1429448823
 20
406.9595092697
 30
0.0
 11
754.1429448823
 21
406.9595092697
 31
0.0
  0
LINE
  5
181
330
1F
100
AcDbEntity
  8
0
  6
Continuous
 62
     7
370
    25
100
AcDbLine
 10
78.6429448823
 20
46.4595092697
 30
0.0
 11
727.6429448823
 21
46.4595092697
 31
0.0
  0
LINE
  5
182
330
1F
100
AcDbEntity
  8
0
  6
Continuous
 62
     7
370
    25
100
AcDbLine
 10
727.6429448823
 20
41.4595092697
 30
0.0
 11
727.6429448823
 21
46.4595092697
 31
0.0
  0
LINE
  5
183
330
1F
100
AcDbEntity
  8
0
  6
Continuous
 62
     7
370
    25
100
AcDbLine
 10
78.6429448823
 20
46.4595092697
 30
0.0
 11
78.6429448823
 21
41.4595092697
 31
0.0
  0
ARC
  5
184
330
1F
100
AcDbEntity
  8
0
  6
Continuous
 62
     7
370
    25
100
AcDbCircle
 10
727.6429448823
 20
72.9595092697
 30
0.0
 40
26.50000000000011
100
AcDbArc
 50
270.0
 51
0.0
  0
ARC
  5
185
330
1F
100
AcDbEntity
  8
0
  6
Continuous
 62
     7
370
    25
100
AcDbCircle
 10
78.6429448823
 20
406.9595092697
 30
0.0
 40
26.50000000000003
100
AcDbArc
 50
90.0
 51
180.0
  0
LINE
  5
186
330
1F
100
AcDbEntity
  8
0
  6
Continuous
 62
     7
370
    25
100
AcDbLine
 10
52.1429448823
 20
406.9595092697
 30
0.0
 11
47.1429448823
 21
406.9595092697
 31
0.0
  0
ARC
  5
187
330
1F
100
AcDbEntity
  8
0
  6
Continuous
 62
     7
370
    25
100
AcDbCircle
 10
727.6429448823
 20
406.9595092697
 30
0.0
 40
26.5
100
AcDbArc
 50
0.0
 51
90.0
  0
LINE
  5
188
330
1F
100
AcDbEntity
  8
0
  6
Continuous
 62
     7
370
    25
100
AcDbLine
 10
52.1429448823
 20
406.9595092697
 30
0.0
 11
52.1429448823
 21
72.9595092697
 31
0.0
  0
LINE
  5
189
330
1F
100
AcDbEntity
  8
0
  6
Continuous
 62
     7
370
    25
100
AcDbLine
 10
52.1429448823
 20
72.9595092697
 30
0.0
 11
47.1429448823
 21
72.9595092697
 31
0.0
  0
ARC
  5
18A
330
1F
100
AcDbEntity
  8
0
  6
Continuous
 62
     7
370
    25
100
AcDbCircle
 10
78.6429448823
 20
72.9595092697
 30
0.0
 40
26.50000000000003
100
AcDbArc
 50
180.0
 51
270.0
  0
LINE
  5
18B
330
1F
100
AcDbEntity
  8
0
  6
Continuous
 62
     7
370
    25
100
AcDbLine
 10
728.1429448823
 20
47.5340067218
 30
0.0
 11
728.1429448823
 21
46.4642266707
 31
0.0
  0
LINE
  5
18C
330
1F
100
AcDbEntity
  8
0
  6
Continuous
 62
     7
370
    25
100
AcDbLine
 10
78.1429448823
 20
47.5340067218
 30
0.0
 11
78.1429448823
 21
46.4642266707
 31
0.0
  0
LINE
  5
18D
330
1F
100
AcDbEntity
  8
0
  6
Continuous
 62
     7
370
    25
100
AcDbLine
 10
754.1382274813
 20
72.4595092697
 30
0.0
 11
753.0684474303
 21
72.4595092697
 31
0.0
  0
LINE
  5
18E
330
1F
100
AcDbEntity
  8
0
  6
Continuous
 62
     7
370
    25
100
AcDbLine
 10
754.1382274813
 20
407.4595092697
 30
0.0
 11
753.0684474303
 21
407.4595092697
 31
0.0
  0
LINE
  5
18F
330
1F
100
AcDbEntity
  8
0
  6
Continuous
 62
     7
370
    25
100
AcDbLine
 10
728.1429448823
 20
433.4547918687
 30
0.0
 11
728.1429448823
 21
432.3850118177
 31
0.0
  0
LINE
  5
190
330
1F
100
AcDbEntity
  8
0
  6
Continuous
 62
     7
370
    25
100
AcDbLine
 10
78.1429448823
 20
433.4547918687
 30
0.0
 11
78.1429448823
 21
432.3850118177
 31
0.0
  0
LINE
  5
191
330
1F
100
AcDbEntity
  8
0
  6
Continuous
 62
     7
370
    25
100
AcDbLine
 10
53.2174423344
 20
72.4595092697
 30
0.0
 11
52.1476622833
 21
72.4595092697
 31
0.0
  0
LINE
  5
192
330
1F
100
AcDbEntity
  8
0
  6
Continuous
 62
     7
370
    25
100
AcDbLine
 10
53.2174423344
 20
407.4595092697
 30
0.0
 11
52.1476622833
 21
407.4595092697
 31
0.0
  0
LINE
  5
193
330
1F
100
AcDbEntity
  8
0
  6
Continuous
 62
     7
370
    25
100
AcDbLine
 10
485.0429448823
 20
429.3480887482
 30
0.0
 11
485.0429448823
 21
430.1786940032
 31
0.0
  0
LINE
  5
194
330
1F
100
AcDbEntity
  8
0
  6
Continuous
 62
     7
370
    25
100
AcDbLine
 10
521.2429448823
 20
429.3480887482
 30
0.0
 11
521.2429448823
 21
430.1786940032
 31
0.0
  0
ARC
  5
195
330
1F
100
AcDbEntity
  8
0
  6
Continuous
 62
     7
370
    25
100
AcDbCircle
 10
484.542327693
 20
430.3214034601
 30
0.0
 40
0.9994828805507932
100
AcDbArc
 50
188.2089355861
 51
270.0353806424
  0
ARC
  5
196
330
1F
100
AcDbEntity
  8
0
  6
Continuous
 62
     7
370
    25
100
AcDbCircle
 10
521.7435620717
 20
430.3214034601
 30
0.0
 40
0.9994828805510506
100
AcDbArc
 50
269.9646193576
 51
351.7910644139
  0
ARC
  5
197
330
1F
100
AcDbEntity
  8
0
  6
Continuous
 62
     7
370
    25
100
AcDbCircle
 10
484.542453048
 20
429.6936778649
 30
0.0
 40
0.9997886906728277
100
AcDbArc
 50
202.5330836841
 51
270.0281859874
  0
ARC
  5
198
330
1F
100
AcDbEntity
  8
0
  6
Continuous
 62
     7
370
    25
100
AcDbCircle
 10
521.7433010477
 20
429.6938814168
 30
0.0
 40
0.9999921850558292
100
AcDbArc
 50
269.9795930665
 51
337.436386386
  0
LINE
  5
199
330
1F
100
AcDbEntity
  8
0
  6
Continuous
 62
     7
370
    25
100
AcDbLine
 10
485.0429448823
 20
428.6663508518
 30
0.0
 11
485.0429448823
 21
428.6677213171
 31
0.0
  0
LINE
  5
19A
330
1F
100
AcDbEntity
  8
0
  6
Continuous
 62
     7
370
    25
100
AcDbLine
 10
521.2429448823
 20
428.6663508518
 30
0.0
 11
521.2429448823
 21
428.6677213171
 31
0.0
  0
LINE
  5
19B
330
1F
100
AcDbEntity
  8
0
  6
Continuous
 62
     7
370
    25
100
AcDbLine
 10
523.8360741197
 20
428.9422840846
 30
0.0
 11
522.0791558279
 21
428.9422840846
 31
0.0
  0
LINE
  5
19C
330
1F
100
AcDbEntity
  8
0
  6
Continuous
 62
     7
370
    25
100
AcDbLine
 10
484.2067339367
 20
428.9422840846
 30
0.0
 11
482.4498156449
 21
428.9422840846
 31
0.0
  0
LINE
  5
19D
330
1F
100
AcDbEntity
  8
0
  6
Continuous
 62
     7
370
    25
100
AcDbLine
 10
523.8360741197
 20
430.1786940032
 30
0.0
 11
523.8360741197
 21
430.1806126545
 31
0.0
  0
LWPOLYLINE
  5
19E
330
1F
100
AcDbEntity
  8
0
  6
Continuous
 62
     7
370
    25
100
AcDbPolyline
 90
        3
 70
   128
 43
0.0
 10
526.1621565656
 20
430.1302989566
 10
525.983989674
 20
430.1438036233
 10
525.9622291764
 20
430.1486439317
  0
LINE
  5
19F
330
1F
100
AcDbEntity
  8
0
  6
Continuous
 62
     7
370
    25
100
AcDbLine
 10
482.4498156449
 20
430.1786940032
 30
0.0
 11
482.4498156449
 21
430.1806126545
 31
0.0
  0
LWPOLYLINE
  5
1A0
330
1F
100
AcDbEntity
  8
0
  6
Continuous
 62
     7
370
    25
100
AcDbPolyline
 90
        3
 70
   128
 43
0.0
 10
480.1237331991
 20
430.1302989566
 10
480.3019000907
 20
430.1438036233
 10
480.3236605882
 20
430.1486439317
  0
LWPOLYLINE
  5
1A1
330
1F
100
AcDbEntity
  8
0
  6
Continuous
 62
     7
370
    25
100
AcDbPolyline
 90
        3
 70
   128
 43
0.0
 10
479.1623731412
 20
430.0085612075
 10
479.4205054486
 20
430.0325313239
 10
479.5582733479
 20
430.0656266001
  0
LWPOLYLINE
  5
1A2
330
1F
100
AcDbEntity
  8
0
  6
Continuous
 62
     7
370
    25
100
AcDbPolyline
 90
        3
 70
   128
 43
0.0
 10
526.6866594346
 20
430.0783692461
 10
526.8653843161
 20
430.0325313239
 10
527.1235166234
 20
430.0085612075
  0
ARC
  5
1A3
330
1F
100
AcDbEntity
  8
0
  6
Continuous
 62
     7
370
    25
100
AcDbCircle
 10
479.1631002587
 20
430.5138918204
 30
0.0
 40
1.399556477686674
100
AcDbArc
 50
269.9702328807
 51
344.4939258484
  0
ARC
  5
1A4
330
1F
100
AcDbEntity
  8
0
  6
Continuous
 62
     7
370
    25
100
AcDbCircle
 10
527.1229887658
 20
430.5141573355
 30
0.0
 40
1.39982190344347
100
AcDbArc
 50
195.6820979174
 51
270.0216056174
  0
ARC
  5
1A5
330
1F
100
AcDbEntity
  8
0
  6
Continuous
 62
     7
370
    25
100
AcDbCircle
 10
479.8518116222
 20
430.2065500887
 30
0.0
 40
1.244034382824935
100
AcDbArc
 50
282.6256688066
 51
358.5135793326
  0
ARC
  5
1A6
330
1F
100
AcDbEntity
  8
0
  6
Continuous
 62
     7
370
    25
100
AcDbCircle
 10
526.4340781424
 20
430.2065500887
 30
0.0
 40
1.244034382824818
100
AcDbArc
 50
181.4864206674
 51
257.3743311934
  0
LINE
  5
1A7
330
1F
100
AcDbEntity
  8
0
  6
Continuous
 62
     7
370
    25
100
AcDbLine
 10
482.4498156449
 20
428.9422840846
 30
0.0
 11
482.4498156449
 21
430.1786940032
 31
0.0
  0
LINE
  5
1A8
330
1F
100
AcDbEntity
  8
0
  6
Continuous
 62
     7
370
    25
100
AcDbLine
 10
523.8360741197
 20
428.9422840846
 30
0.0
 11
523.8360741197
 21
430.1786940032
 31
0.0
  0
ENDSEC
  0
SECTION
  2
OBJECTS
  0
DICTIONARY
  5
C
330
0
100
AcDbDictionary
281
     1
  3
ACAD_DETAILVIEWSTYLE
350
1B0
  3
ACAD_GROUP
350
D
  3
ACAD_LAYOUT
350
1A
  3
ACAD_MATERIAL
350
43
  3
ACAD_MLEADERSTYLE
350
5B
  3
ACAD_MLINESTYLE
350
17
  3
ACAD_PLOTSETTINGS
350
19
  3
ACAD_PLOTSTYLENAME
350
E
  3
ACAD_SCALELIST
350
47
  3
ACAD_SECTIONVIEWSTYLE
350
1B1
  3
ACAD_TABLESTYLE
350
59
  3
ACAD_VISUALSTYLE
350
2A
  3
ACDB_RECOMPOSE_DATA
350
1AD
  3
AcDbVariableDictionary
350
1A9
  0
SUN
  5
5D
330
29
100
AcDbSun
 90
        1
290
     0
 63
     7
421
 16777215
 40
1.0
291
     1
 91
  2455826
 92
 54000000
292
     0
 70
     2
 71
   256
280
     1
  0
DICTIONARY
  5
1B0
102
{ACAD_REACTORS
330
C
102
}
330
C
100
AcDbDictionary
281
     1
  0
DICTIONARY
  5
D
102
{ACAD_REACTORS
330
C
102
}
330
C
100
AcDbDictionary
281
     1
  0
DICTIONARY
  5
1A
102
{ACAD_REACTORS
330
C
102
}
330
C
100
AcDbDictionary
281
     1
  3
Layout1
350
1E
  3
Layout2
350
26
  3
Model
350
22
  0
DICTIONARY
  5
43
102
{ACAD_REACTORS
330
C
102
}
330
C
100
AcDbDictionary
281
     1
  3
ByBlock
350
45
  3
ByLayer
350
44
  3
Global
350
46
  0
DICTIONARY
  5
5B
102
{ACAD_REACTORS
330
C
102
}
330
C
100
AcDbDictionary
281
     1
  3
Standard
350
5C
  0
DICTIONARY
  5
17
102
{ACAD_REACTORS
330
C
102
}
330
C
100
AcDbDictionary
281
     1
  3
Standard
350
18
  0
DICTIONARY
  5
19
102
{ACAD_REACTORS
330
C
102
}
330
C
100
AcDbDictionary
281
     1
  0
ACDBDICTIONARYWDFLT
  5
E
102
{ACAD_REACTORS
330
C
102
}
330
C
100
AcDbDictionary
281
     1
  3
Normal
350
F
100
AcDbDictionaryWithDefault
340
F
  0
DICTIONARY
  5
47
102
{ACAD_REACTORS
330
C
102
}
330
C
100
AcDbDictionary
281
     1
  3
A0
350
48
  3
A1
350
49
  3
A2
350
4A
  3
A3
350
4B
  3
A4
350
4C
  3
A5
350
4D
  3
A6
350
4E
  3
A7
350
4F
  3
A8
350
50
  3
A9
350
51
  3
B0
350
52
  3
B1
350
53
  3
B2
350
54
  3
B3
350
55
  3
B4
350
56
  3
B5
350
57
  3
B6
350
58
  0
DICTIONARY
  5
1B1
102
{ACAD_REACTORS
330
C
102
}
330
C
100
AcDbDictionary
281
     1
  0
DICTIONARY
  5
59
102
{ACAD_REACTORS
330
C
102
}
330
C
100
AcDbDictionary
281
     1
  3
Standard
350
5A
  0
DICTIONARY
  5
2A
102
{ACAD_REACTORS
330
C
102
}
330
C
100
AcDbDictionary
281
     1
  3
2dWireframe
350
2F
  3
Basic
350
32
  3
Brighten
350
36
  3
ColorChange
350
3A
  3
Conceptual
350
34
  3
Dim
350
35
  3
EdgeColorOff
350
3D
  3
Facepattern
350
39
  3
Flat
350
2B
  3
FlatWithEdges
350
2C
  3
Gouraud
350
2D
  3
GouraudWithEdges
350
2E
  3
Hidden
350
31
  3
JitterOff
350
3B
  3
Linepattern
350
38
  3
OverhangOff
350
3C
  3
Realistic
350
33
  3
Shaded
350
42
  3
Shaded with edges
350
41
  3
Shades of Gray
350
3E
  3
Sketchy
350
3F
  3
Thicken
350
37
  3
Wireframe
350
30
  3
X-Ray
350
40
  0
XRECORD
  5
1AD
102
{ACAD_REACTORS
330
C
102
}
330
C
100
AcDbXrecord
280
     1
 90
        1
330
5A
  0
DICTIONARY
  5
1A9
102
{ACAD_REACTORS
330
C
102
}
330
C
100
AcDbDictionary
281
     1
  3
CANNOSCALE
350
1AA
  3
CENTEREXE
350
1B2
  3
CENTERLTYPEFILE
350
1B3
  3
CMLEADERSTYLE
350
1AF
  3
CTABLESTYLE
350
1AE
  0
LAYOUT
  5
1E
102
{ACAD_REACTORS
330
1A
102
}
330
1A
100
AcDbPlotSettings
  1

  2
none_device
  4

  6

 40
0.0
 41
0.0
 42
0.0
 43
0.0
 44
0.0
 45
0.0
 46
0.0
 47
0.0
 48
0.0
 49
0.0
140
0.0
141
0.0
142
1.0
143
1.0
 70
   688
 72
     1
 73
     0
 74
     5
  7

 75
    16
 76
     0
 77
     2
 78
   300
147
1.0
148
0.0
149
0.0
100
AcDbLayout
  1
Layout1
 70
     1
 71
     1
 10
0.0
 20
0.0
 11
420.0
 21
297.0
 12
0.0
 22
0.0
 32
0.0
 14
1.0000000000E+20
 24
1.0000000000E+20
 34
1.0000000000E+20
 15
-1.0000000000E+20
 25
-1.0000000000E+20
 35
-1.0000000000E+20
146
0.0
 13
0.0
 23
0.0
 33
0.0
 16
1.0
 26
0.0
 36
0.0
 17
0.0
 27
1.0
 37
0.0
 76
     0
330
1B
  0
LAYOUT
  5
26
102
{ACAD_REACTORS
330
1A
102
}
330
1A
100
AcDbPlotSettings
  1

  2
none_device
  4

  6

 40
0.0
 41
0.0
 42
0.0
 43
0.0
 44
0.0
 45
0.0
 46
0.0
 47
0.0
 48
0.0
 49
0.0
140
0.0
141
0.0
142
1.0
143
1.0
 70
   688
 72
     1
 73
     0
 74
     5
  7

 75
    16
 76
     0
 77
     2
 78
   300
147
1.0
148
0.0
149
0.0
100
AcDbLayout
  1
Layout2
 70
     1
 71
     2
 10
0.0
 20
0.0
 11
0.0
 21
0.0
 12
0.0
 22
0.0
 32
0.0
 14
0.0
 24
0.0
 34
0.0
 15
0.0
 25
0.0
 35
0.0
146
0.0
 13
0.0
 23
0.0
 33
0.0
 16
1.0
 26
0.0
 36
0.0
 17
0.0
 27
1.0
 37
0.0
 76
     0
330
23
  0
LAYOUT
  5
22
102
{ACAD_REACTORS
330
1A
102
}
330
1A
100
AcDbPlotSettings
  1

  2
none_device
  4
Letter_(8.50_x_11.00_Inches)
  6

 40
6.35
 41
6.35
 42
6.35000508
 43
6.35000508
 44
215.9
 45
279.4
 46
0.0
 47
0.0
 48
0.0
 49
0.0
140
0.0
141
0.0
142
1.0
143
1.0
 70
  1712
 72
     1
 73
     0
 74
     0
  7

 75
     0
 76
     0
 77
     2
 78
   300
147
1.0
148
0.0
149
0.0
100
AcDbLayout
  1
Model
 70
     1
 71
     0
 10
0.0
 20
0.0
 11
800.0
 21
550.0
 12
0.0
 22
0.0
 32
0.0
 14
0.0
 24
0.0
 34
0.0
 15
800.0
 25
550.0
 35
0.0
146
0.0
 13
0.0
 23
0.0
 33
0.0
 16
1.0
 26
0.0
 36
0.0
 17
0.0
 27
1.0
 37
0.0
 76
     0
330
1F
331
29
  0
MATERIAL
  5
45
102
{ACAD_REACTORS
330
43
102
}
330
43
100
AcDbMaterial
  1
ByBlock
 72
     1
 94
      127
  0
MATERIAL
  5
44
102
{ACAD_REACTORS
330
43
102
}
330
43
100
AcDbMaterial
  1
ByLayer
 72
     1
 94
      127
  0
MATERIAL
  5
46
102
{ACAD_REACTORS
330
43
102
}
330
43
100
AcDbMaterial
  1
Global
 72
     1
 94
      127
  0
MLEADERSTYLE
  5
5C
102
{ACAD_REACTORS
330
5B
102
}
330
5B
100
AcDbMLeaderStyle
179
     2
170
     2
171
     1
172
     0
 90
        2
 40
0.0
 41
0.0
173
     1
 91
-1056964608
340
14
 92
       -2
290
     1
 42
2.0
291
     1
 43
8.0
  3
Standard
341
0
 44
4.0
300

342
11
174
     1
178
     6
175
     1
176
     0
 93
-1056964608
 45
4.0
292
     0
297
     0
 46
4.0
343
0
 94
-1056964608
 47
1.0
 49
1.0
140
1.0
293
     1
141
0.0
294
     1
177
     0
142
1.0
295
     0
296
     0
143
3.75
271
     0
272
     9
273
     9
298
     0
  0
MLINESTYLE
  5
18
102
{ACAD_REACTORS
330
17
102
}
330
17
100
AcDbMlineStyle
  2
Standard
 70
     0
  3

 62
   256
 51
90.0
 52
90.0
 71
     2
 49
0.5
 62
   256
  6
BYLAYER
 49
-0.5
 62
   256
  6
BYLAYER
  0
ACDBPLACEHOLDER
  5
F
102
{ACAD_REACTORS
330
E
102
}
330
E
  0
SCALE
  5
48
102
{ACAD_REACTORS
330
47
102
}
330
47
100
AcDbScale
 70
     0
300
1:1
140
1.0
141
1.0
290
     1
  0
SCALE
  5
49
102
{ACAD_REACTORS
330
47
102
}
330
47
100
AcDbScale
 70
     0
300
1:2
140
1.0
141
2.0
290
     0
  0
SCALE
  5
4A
102
{ACAD_REACTORS
330
47
102
}
330
47
100
AcDbScale
 70
     0
300
1:4
140
1.0
141
4.0
290
     0
  0
SCALE
  5
4B
102
{ACAD_REACTORS
330
47
102
}
330
47
100
AcDbScale
 70
     0
300
1:5
140
1.0
141
5.0
290
     0
  0
SCALE
  5
4C
102
{ACAD_REACTORS
330
47
102
}
330
47
100
AcDbScale
 70
     0
300
1:8
140
1.0
141
8.0
290
     0
  0
SCALE
  5
4D
102
{ACAD_REACTORS
330
47
102
}
330
47
100
AcDbScale
 70
     0
300
1:10
140
1.0
141
10.0
290
     0
  0
SCALE
  5
4E
102
{ACAD_REACTORS
330
47
102
}
330
47
100
AcDbScale
 70
     0
300
1:16
140
1.0
141
16.0
290
     0
  0
SCALE
  5
4F
102
{ACAD_REACTORS
330
47
102
}
330
47
100
AcDbScale
 70
     0
300
1:20
140
1.0
141
20.0
290
     0
  0
SCALE
  5
50
102
{ACAD_REACTORS
330
47
102
}
330
47
100
AcDbScale
 70
     0
300
1:30
140
1.0
141
30.0
290
     0
  0
SCALE
  5
51
102
{ACAD_REACTORS
330
47
102
}
330
47
100
AcDbScale
 70
     0
300
1:40
140
1.0
141
40.0
290
     0
  0
SCALE
  5
52
102
{ACAD_REACTORS
330
47
102
}
330
47
100
AcDbScale
 70
     0
300
1:50
140
1.0
141
50.0
290
     0
  0
SCALE
  5
53
102
{ACAD_REACTORS
330
47
102
}
330
47
100
AcDbScale
 70
     0
300
1:100
140
1.0
141
100.0
290
     0
  0
SCALE
  5
54
102
{ACAD_REACTORS
330
47
102
}
330
47
100
AcDbScale
 70
     0
300
2:1
140
2.0
141
1.0
290
     0
  0
SCALE
  5
55
102
{ACAD_REACTORS
330
47
102
}
330
47
100
AcDbScale
 70
     0
300
4:1
140
4.0
141
1.0
290
     0
  0
SCALE
  5
56
102
{ACAD_REACTORS
330
47
102
}
330
47
100
AcDbScale
 70
     0
300
8:1
140
8.0
141
1.0
290
     0
  0
SCALE
  5
57
102
{ACAD_REACTORS
330
47
102
}
330
47
100
AcDbScale
 70
     0
300
10:1
140
10.0
141
1.0
290
     0
  0
SCALE
  5
58
102
{ACAD_REACTORS
330
47
102
}
330
47
100
AcDbScale
 70
     0
300
100:1
140
100.0
141
1.0
290
     0
  0
TABLESTYLE
  5
5A
102
{ACAD_REACTORS
330
59
102
}
102
{ACAD_XDICTIONARY
360
1AB
102
}
330
59
100
AcDbTableStyle
  3
Standard
 70
     0
 71
     0
 40
0.06
 41
0.06
280
     0
281
     0
  7
Standard
140
4.5
170
     2
 62
     0
 63
   257
283
     0
 90
        4
 91
        0
  1

274
    -2
284
     1
 64
     0
275
    -2
285
     1
 65
     0
276
    -2
286
     1
 66
     0
277
    -2
287
     1
 67
     0
278
    -2
288
     1
 68
     0
279
    -2
289
     1
 69
     0
  7
Standard
140
6.0
170
     5
 62
     0
 63
   257
283
     0
 90
        4
 91
        0
  1

274
    -2
284
     1
 64
     0
275
    -2
285
     1
 65
     0
276
    -2
286
     1
 66
     0
277
    -2
287
     1
 67
     0
278
    -2
288
     1
 68
     0
279
    -2
289
     1
 69
     0
  7
Standard
140
4.5
170
     5
 62
     0
 63
   257
283
     0
 90
        4
 91
        0
  1

274
    -2
284
     1
 64
     0
275
    -2
285
     1
 65
     0
276
    -2
286
     1
 66
     0
277
    -2
287
     1
 67
     0
278
    -2
288
     1
 68
     0
279
    -2
289
     1
 69
     0
  0
VISUALSTYLE
  5
2F
102
{ACAD_REACTORS
330
2A
102
}
330
2A
100
AcDbVisualStyle
  2
2dWireframe
 70
     4
177
     3
291
     0
 70
    58
 90
        0
176
     1
 90
        2
176
     1
 90
        0
176
     1
 90
        0
176
     1
 40
0.6
176
     1
 40
30.0
176
     1
 62
     7
420
 16777215
176
     1
 90
        1
176
     1
 90
        4
176
     1
 62
     7
176
     1
 62
   257
176
     1
 90
        1
176
     1
 90
        1
176
     1
 40
1.0
176
     1
 90
        0
176
     1
 62
   257
176
     1
 40
1.0
176
     1
 90
        1
176
     1
 90
        6
176
     1
 90
        2
176
     1
 62
     7
176
     1
 90
        5
176
     1
 90
        0
176
     1
 90
        0
176
     1
290
     0
176
     1
 90
        1
176
     1
 40
0.0
176
     1
 90
        0
176
     1
290
     1
176
     1
290
     1
176
     1
290
     0
176
     1
290
     0
176
     1
290
     0
176
     1
290
     0
176
     1
290
     0
176
     1
290
     0
176
     1
290
     0
176
     1
 90
       50
176
     1
 40
0.0
176
     1
 40
1.0
176
     1
 90
        0
176
     1
 62
    18
420
        0
176
     1
 90
       50
176
     1
 90
        3
176
     1
 62
     5
420
      255
176
     1
290
     0
176
     1
 90
       50
176
     1
 90
       50
176
     1
 90
       50
176
     1
290
     0
176
     1
 90
       50
176
     1
 62
   256
176
     0
 40
1.0
176
     0
 90
        2
176
     1
  1
strokes_ogs.tif
176
     1
290
     0
176
     1
 40
1.0
176
     1
 40
1.0
176
     1
  0
VISUALSTYLE
  5
32
102
{ACAD_REACTORS
330
2A
102
}
330
2A
100
AcDbVisualStyle
  2
Basic
 70
     7
177
     3
291
     1
 70
    58
 90
        1
176
     1
 90
        0
176
     1
 90
        1
176
     1
 90
        0
176
     1
 40
0.6
176
     1
 40
30.0
176
     1
 62
     7
420
 16777215
176
     1
 90
        0
176
     1
 90
        4
176
     1
 62
     7
176
     1
 62
   257
176
     1
 90
        1
176
     1
 90
        1
176
     1
 40
1.0
176
     1
 90
        8
176
     1
 62
     7
176
     1
 40
1.0
176
     1
 90
        1
176
     1
 90
        6
176
     1
 90
        2
176
     1
 62
     7
176
     1
 90
        5
176
     1
 90
        0
176
     1
 90
        0
176
     1
290
     0
176
     1
 90
        1
176
     1
 40
0.0
176
     1
 90
        0
176
     1
290
     0
176
     1
290
     1
176
     1
290
     1
176
     1
290
     0
176
     1
290
     0
176
     1
290
     0
176
     1
290
     0
176
     1
290
     0
176
     1
290
     0
176
     1
 90
       50
176
     1
 40
0.0
176
     1
 40
1.0
176
     1
 90
        0
176
     1
 62
    18
420
        0
176
     1
 90
       50
176
     1
 90
        3
176
     1
 62
     5
420
      255
176
     1
290
     0
176
     1
 90
       50
176
     1
 90
       50
176
     1
 90
       50
176
     1
290
     0
176
     1
 90
       50
176
     1
 62
   256
176
     0
 40
1.0
176
     0
 90
        2
176
     1
  1
strokes_ogs.tif
176
     1
290
     0
176
     1
 40
1.0
176
     1
 40
1.0
176
     1
  0
VISUALSTYLE
  5
36
102
{ACAD_REACTORS
330
2A
102
}
330
2A
100
AcDbVisualStyle
  2
Brighten
 70
    12
177
     3
291
     1
 70
    58
 90
        2
176
     1
 90
        2
176
     1
 90
        0
176
     1
 90
        0
176
     1
 40
0.6
176
     1
 40
30.0
176
     1
 62
     7
420
 16777215
176
     1
 90
        1
176
     1
 90
        4
176
     1
 62
     7
176
     1
 62
   257
176
     1
 90
        1
176
     1
 90
        1
176
     1
 40
1.0
176
     1
 90
        8
176
     1
 62
     7
176
     1
 40
1.0
176
     1
 90
        1
176
     1
 90
        6
176
     1
 90
        2
176
     1
 62
     7
176
     1
 90
        5
176
     1
 90
        0
176
     1
 90
        0
176
     1
290
     0
176
     1
 90
        1
176
     1
 40
50.0
176
     1
 90
        0
176
     1
290
     0
176
     1
290
     1
176
     1
290
     1
176
     1
290
     0
176
     1
290
     0
176
     1
290
     0
176
     1
290
     0
176
     1
290
     0
176
     1
290
     0
176
     1
 90
       50
176
     1
 40
0.0
176
     1
 40
1.0
176
     1
 90
        0
176
     1
 62
    18
420
        0
176
     1
 90
       50
176
     1
 90
        3
176
     1
 62
     5
420
      255
176
     1
290
     0
176
     1
 90
       50
176
     1
 90
       50
176
     1
 90
       50
176
     1
290
     0
176
     1
 90
       50
176
     1
 62
   256
176
     0
 40
1.0
176
     0
 90
        2
176
     1
  1
strokes_ogs.tif
176
     1
290
     0
176
     1
 40
1.0
176
     1
 40
1.0
176
     1
  0
VISUALSTYLE
  5
3A
102
{ACAD_REACTORS
330
2A
102
}
330
2A
100
AcDbVisualStyle
  2
ColorChange
 70
    16
177
     3
291
     1
 70
    58
 90
        2
176
     1
 90
        2
176
     1
 90
        3
176
     1
 90
        0
176
     1
 40
0.6
176
     1
 40
30.0
176
     1
 62
     8
420
  8421504
176
     1
 90
        1
176
     1
 90
        4
176
     1
 62
     7
176
     1
 62
   257
176
     1
 90
        1
176
     1
 90
        1
176
     1
 40
1.0
176
     1
 90
        8
176
     1
 62
     8
420
  8421504
176
     1
 40
1.0
176
     1
 90
        1
176
     1
 90
        6
176
     1
 90
        2
176
     1
 62
     7
176
     1
 90
        5
176
     1
 90
        0
176
     1
 90
        0
176
     1
290
     0
176
     1
 90
        1
176
     1
 40
0.0
176
     1
 90
        0
176
     1
290
     0
176
     1
290
     1
176
     1
290
     1
176
     1
290
     0
176
     1
290
     0
176
     1
290
     0
176
     1
290
     0
176
     1
290
     0
176
     1
290
     0
176
     1
 90
       50
176
     1
 40
0.0
176
     1
 40
1.0
176
     1
 90
        0
176
     1
 62
    18
420
        0
176
     1
 90
       50
176
     1
 90
        3
176
     1
 62
     5
420
      255
176
     1
290
     0
176
     1
 90
       50
176
     1
 90
       50
176
     1
 90
       50
176
     1
290
     0
176
     1
 90
       50
176
     1
 62
   256
176
     0
 40
1.0
176
     0
 90
        2
176
     1
  1
strokes_ogs.tif
176
     1
290
     0
176
     1
 40
1.0
176
     1
 40
1.0
176
     1
  0
VISUALSTYLE
  5
34
102
{ACAD_REACTORS
330
2A
102
}
330
2A
100
AcDbVisualStyle
  2
Conceptual
 70
     9
177
     3
291
     0
 70
    58
 90
        3
176
     1
 90
        2
176
     1
 90
        0
176
     1
 90
        0
176
     1
 40
0.6
176
     1
 40
30.0
176
     1
 62
     7
420
 16777215
176
     1
 90
        2
176
     1
 90
        2
176
     1
 62
     7
176
     1
 62
   257
176
     1
 90
        1
176
     1
 90
        1
176
     1
 40
179.0
176
     1
 90
        8
176
     1
 62
     7
176
     1
 40
1.0
176
     1
 90
        1
176
     1
 90
        6
176
     1
 90
        2
176
     1
 62
     7
176
     1
 90
        3
176
     1
 90
        0
176
     1
 90
        0
176
     1
290
     0
176
     1
 90
        1
176
     1
 40
0.0
176
     1
 90
        0
176
     1
290
     0
176
     1
290
     1
176
     1
290
     1
176
     1
290
     0
176
     1
290
     0
176
     1
290
     0
176
     1
290
     0
176
     1
290
     0
176
     1
290
     0
176
     1
 90
       50
176
     1
 40
0.0
176
     1
 40
1.0
176
     1
 90
        0
176
     1
 62
    18
420
        0
176
     1
 90
       50
176
     1
 90
        3
176
     1
 62
     5
420
      255
176
     1
290
     0
176
     1
 90
       50
176
     1
 90
       50
176
     1
 90
       50
176
     1
290
     0
176
     1
 90
       50
176
     1
 62
   256
176
     0
 40
1.0
176
     0
 90
        2
176
     1
  1
strokes_ogs.tif
176
     1
290
     0
176
     1
 40
1.0
176
     1
 40
1.0
176
     1
  0
VISUALSTYLE
  5
35
102
{ACAD_REACTORS
330
2A
102
}
330
2A
100
AcDbVisualStyle
  2
Dim
 70
    11
177
     3
291
     1
 70
    58
 90
        2
176
     1
 90
        2
176
     1
 90
        0
176
     1
 90
        0
176
     1
 40
0.6
176
     1
 40
30.0
176
     1
 62
     7
420
 16777215
176
     1
 90
        1
176
     1
 90
        4
176
     1
 62
     7
176
     1
 62
   257
176
     1
 90
        1
176
     1
 90
        1
176
     1
 40
1.0
176
     1
 90
        8
176
     1
 62
     7
176
     1
 40
1.0
176
     1
 90
        1
176
     1
 90
        6
176
     1
 90
        2
176
     1
 62
     7
176
     1
 90
        5
176
     1
 90
        0
176
     1
 90
        0
176
     1
290
     0
176
     1
 90
        1
176
     1
 40
-50.0
176
     1
 90
        0
176
     1
290
     0
176
     1
290
     1
176
     1
290
     1
176
     1
290
     0
176
     1
290
     0
176
     1
290
     0
176
     1
290
     0
176
     1
290
     0
176
     1
290
     0
176
     1
 90
       50
176
     1
 40
0.0
176
     1
 40
1.0
176
     1
 90
        0
176
     1
 62
    18
420
        0
176
     1
 90
       50
176
     1
 90
        3
176
     1
 62
     5
420
      255
176
     1
290
     0
176
     1
 90
       50
176
     1
 90
       50
176
     1
 90
       50
176
     1
290
     0
176
     1
 90
       50
176
     1
 62
   256
176
     0
 40
1.0
176
     0
 90
        2
176
     1
  1
strokes_ogs.tif
176
     1
290
     0
176
     1
 40
1.0
176
     1
 40
1.0
176
     1
  0
VISUALSTYLE
  5
3D
102
{ACAD_REACTORS
330
2A
102
}
330
2A
100
AcDbVisualStyle
  2
EdgeColorOff
 70
    22
177
     3
291
     1
 70
    58
 90
        2
176
     0
 90
        2
176
     0
 90
        0
176
     0
 90
        0
176
     0
 40
0.6
176
     0
 40
30.0
176
     0
 62
     7
420
 16777215
176
     0
 90
        1
176
     0
 90
        4
176
     0
 62
     7
176
     0
 62
   257
176
     0
 90
        1
176
     0
 90
        1
176
     0
 40
1.0
176
     0
 90
        8
176
     2
 62
     7
176
     0
 40
1.0
176
     0
 90
        1
176
     0
 90
        6
176
     0
 90
        2
176
     0
 62
     7
176
     0
 90
        5
176
     0
 90
        0
176
     0
 90
        0
176
     0
290
     0
176
     0
 90
        1
176
     0
 40
0.0
176
     0
 90
        0
176
     0
290
     0
176
     0
290
     1
176
     0
290
     1
176
     0
290
     0
176
     0
290
     0
176
     0
290
     0
176
     0
290
     0
176
     0
290
     0
176
     0
290
     0
176
     0
 90
       50
176
     0
 40
0.0
176
     0
 40
1.0
176
     0
 90
        0
176
     0
 62
    18
420
        0
176
     0
 90
       50
176
     0
 90
        3
176
     0
 62
     5
420
      255
176
     0
290
     0
176
     0
 90
       50
176
     0
 90
       50
176
     0
 90
       50
176
     0
290
     0
176
     0
 90
       50
176
     0
 62
   256
176
     0
 40
1.0
176
     0
 90
        2
176
     0
  1
strokes_ogs.tif
176
     0
290
     0
176
     0
 40
1.0
176
     0
 40
1.0
176
     0
  0
VISUALSTYLE
  5
39
102
{ACAD_REACTORS
330
2A
102
}
330
2A
100
AcDbVisualStyle
  2
Facepattern
 70
    15
177
     3
291
     1
 70
    58
 90
        2
176
     1
 90
        2
176
     1
 90
        0
176
     1
 90
        0
176
     1
 40
0.6
176
     1
 40
30.0
176
     1
 62
     7
420
 16777215
176
     1
 90
        1
176
     1
 90
        4
176
     1
 62
     7
176
     1
 62
   257
176
     1
 90
        1
176
     1
 90
        1
176
     1
 40
1.0
176
     1
 90
        8
176
     1
 62
     7
176
     1
 40
1.0
176
     1
 90
        1
176
     1
 90
        6
176
     1
 90
        2
176
     1
 62
     7
176
     1
 90
        5
176
     1
 90
        0
176
     1
 90
        0
176
     1
290
     0
176
     1
 90
        1
176
     1
 40
0.0
176
     1
 90
        0
176
     1
290
     0
176
     1
290
     1
176
     1
290
     1
176
     1
290
     0
176
     1
290
     0
176
     1
290
     0
176
     1
290
     0
176
     1
290
     0
176
     1
290
     0
176
     1
 90
       50
176
     1
 40
0.0
176
     1
 40
1.0
176
     1
 90
        0
176
     1
 62
    18
420
        0
176
     1
 90
       50
176
     1
 90
        3
176
     1
 62
     5
420
      255
176
     1
290
     0
176
     1
 90
       50
176
     1
 90
       50
176
     1
 90
       50
176
     1
290
     0
176
     1
 90
       50
176
     1
 62
   256
176
     0
 40
1.0
176
     0
 90
        2
176
     1
  1
strokes_ogs.tif
176
     1
290
     0
176
     1
 40
1.0
176
     1
 40
1.0
176
     1
  0
VISUALSTYLE
  5
2B
102
{ACAD_REACTORS
330
2A
102
}
330
2A
100
AcDbVisualStyle
  2
Flat
 70
     0
177
     3
291
     1
 70
    58
 90
        2
176
     1
 90
        1
176
     1
 90
        1
176
     1
 90
        2
176
     1
 40
0.6
176
     1
 40
30.0
176
     1
 62
     7
420
 16777215
176
     1
 90
        0
176
     1
 90
        0
176
     1
 62
     7
176
     1
 62
   257
176
     1
 90
        1
176
     1
 90
        1
176
     1
 40
1.0
176
     1
 90
        8
176
     1
 62
     7
176
     1
 40
1.0
176
     1
 90
        1
176
     1
 90
        6
176
     1
 90
        2
176
     1
 62
     7
176
     1
 90
        5
176
     1
 90
        0
176
     1
 90
        0
176
     1
290
     0
176
     1
 90
       13
176
     1
 40
0.0
176
     1
 90
        0
176
     1
290
     0
176
     1
290
     1
176
     1
290
     1
176
     1
290
     0
176
     1
290
     0
176
     1
290
     0
176
     1
290
     0
176
     1
290
     0
176
     1
290
     0
176
     1
 90
       50
176
     1
 40
0.0
176
     1
 40
1.0
176
     1
 90
        0
176
     1
 62
    18
420
        0
176
     1
 90
       50
176
     1
 90
        3
176
     1
 62
     5
420
      255
176
     1
290
     0
176
     1
 90
       50
176
     1
 90
       50
176
     1
 90
       50
176
     1
290
     0
176
     1
 90
       50
176
     1
 62
   256
176
     0
 40
1.0
176
     0
 90
        2
176
     1
  1
strokes_ogs.tif
176
     1
290
     0
176
     1
 40
1.0
176
     1
 40
1.0
176
     1
  0
VISUALSTYLE
  5
2C
102
{ACAD_REACTORS
330
2A
102
}
330
2A
100
AcDbVisualStyle
  2
FlatWithEdges
 70
     1
177
     3
291
     1
 70
    58
 90
        2
176
     1
 90
        1
176
     1
 90
        1
176
     1
 90
        2
176
     1
 40
0.6
176
     1
 40
30.0
176
     1
 62
     7
420
 16777215
176
     1
 90
        1
176
     1
 90
        0
176
     1
 62
     7
176
     1
 62
   257
176
     1
 90
        1
176
     1
 90
        1
176
     1
 40
1.0
176
     1
 90
        0
176
     1
 62
   257
176
     1
 40
1.0
176
     1
 90
        1
176
     1
 90
        6
176
     1
 90
        2
176
     1
 62
     7
176
     1
 90
        5
176
     1
 90
        0
176
     1
 90
        0
176
     1
290
     0
176
     1
 90
       13
176
     1
 40
0.0
176
     1
 90
        0
176
     1
290
     0
176
     1
290
     1
176
     1
290
     1
176
     1
290
     0
176
     1
290
     0
176
     1
290
     0
176
     1
290
     0
176
     1
290
     0
176
     1
290
     0
176
     1
 90
       50
176
     1
 40
0.0
176
     1
 40
1.0
176
     1
 90
        0
176
     1
 62
    18
420
        0
176
     1
 90
       50
176
     1
 90
        3
176
     1
 62
     5
420
      255
176
     1
290
     0
176
     1
 90
       50
176
     1
 90
       50
176
     1
 90
       50
176
     1
290
     0
176
     1
 90
       50
176
     1
 62
   256
176
     0
 40
1.0
176
     0
 90
        2
176
     1
  1
strokes_ogs.tif
176
     1
290
     0
176
     1
 40
1.0
176
     1
 40
1.0
176
     1
  0
VISUALSTYLE
  5
2D
102
{ACAD_REACTORS
330
2A
102
}
330
2A
100
AcDbVisualStyle
  2
Gouraud
 70
     2
177
     3
291
     1
 70
    58
 90
        2
176
     1
 90
        2
176
     1
 90
        1
176
     1
 90
        2
176
     1
 40
0.6
176
     1
 40
30.0
176
     1
 62
     7
420
 16777215
176
     1
 90
        0
176
     1
 90
        0
176
     1
 62
     7
176
     1
 62
   257
176
     1
 90
        1
176
     1
 90
        1
176
     1
 40
1.0
176
     1
 90
        0
176
     1
 62
     7
176
     1
 40
1.0
176
     1
 90
        1
176
     1
 90
        6
176
     1
 90
        2
176
     1
 62
     7
176
     1
 90
        5
176
     1
 90
        0
176
     1
 90
        0
176
     1
290
     0
176
     1
 90
       13
176
     1
 40
0.0
176
     1
 90
        0
176
     1
290
     0
176
     1
290
     1
176
     1
290
     1
176
     1
290
     0
176
     1
290
     0
176
     1
290
     0
176
     1
290
     0
176
     1
290
     0
176
     1
290
     0
176
     1
 90
       50
176
     1
 40
0.0
176
     1
 40
1.0
176
     1
 90
        0
176
     1
 62
    18
420
        0
176
     1
 90
       50
176
     1
 90
        3
176
     1
 62
     5
420
      255
176
     1
290
     0
176
     1
 90
       50
176
     1
 90
       50
176
     1
 90
       50
176
     1
290
     0
176
     1
 90
       50
176
     1
 62
   256
176
     0
 40
1.0
176
     0
 90
        2
176
     1
  1
strokes_ogs.tif
176
     1
290
     0
176
     1
 40
1.0
176
     1
 40
1.0
176
     1
  0
VISUALSTYLE
  5
2E
102
{ACAD_REACTORS
330
2A
102
}
330
2A
100
AcDbVisualStyle
  2
GouraudWithEdges
 70
     3
177
     3
291
     1
 70
    58
 90
        2
176
     1
 90
        2
176
     1
 90
        1
176
     1
 90
        2
176
     1
 40
0.6
176
     1
 40
30.0
176
     1
 62
     7
420
 16777215
176
     1
 90
        1
176
     1
 90
        0
176
     1
 62
     7
176
     1
 62
   257
176
     1
 90
        1
176
     1
 90
        1
176
     1
 40
1.0
176
     1
 90
        0
176
     1
 62
   257
176
     1
 40
1.0
176
     1
 90
        1
176
     1
 90
        6
176
     1
 90
        2
176
     1
 62
     7
176
     1
 90
        5
176
     1
 90
        0
176
     1
 90
        0
176
     1
290
     0
176
     1
 90
       13
176
     1
 40
0.0
176
     1
 90
        0
176
     1
290
     0
176
     1
290
     1
176
     1
290
     1
176
     1
290
     0
176
     1
290
     0
176
     1
290
     0
176
     1
290
     0
176
     1
290
     0
176
     1
290
     0
176
     1
 90
       50
176
     1
 40
0.0
176
     1
 40
1.0
176
     1
 90
        0
176
     1
 62
    18
420
        0
176
     1
 90
       50
176
     1
 90
        3
176
     1
 62
     5
420
      255
176
     1
290
     0
176
     1
 90
       50
176
     1
 90
       50
176
     1
 90
       50
176
     1
290
     0
176
     1
 90
       50
176
     1
 62
   256
176
     0
 40
1.0
176
     0
 90
        2
176
     1
  1
strokes_ogs.tif
176
     1
290
     0
176
     1
 40
1.0
176
     1
 40
1.0
176
     1
  0
VISUALSTYLE
  5
31
102
{ACAD_REACTORS
330
2A
102
}
330
2A
100
AcDbVisualStyle
  2
Hidden
 70
     6
177
     3
291
     0
 70
    58
 90
        1
176
     1
 90
        2
176
     1
 90
        2
176
     1
 90
        0
176
     1
 40
0.6
176
     1
 40
30.0
176
     1
 62
     7
420
 16777215
176
     1
 90
        2
176
     1
 90
        2
176
     1
 62
     7
176
     1
 62
   257
176
     1
 90
        2
176
     1
 90
        1
176
     1
 40
40.0
176
     1
 90
        0
176
     1
 62
   257
176
     1
 40
1.0
176
     1
 90
        1
176
     1
 90
        6
176
     1
 90
        2
176
     1
 62
     7
176
     1
 90
        3
176
     1
 90
        0
176
     1
 90
        0
176
     1
290
     0
176
     1
 90
        1
176
     1
 40
0.0
176
     1
 90
        0
176
     1
290
     0
176
     1
290
     1
176
     1
290
     1
176
     1
290
     0
176
     1
290
     0
176
     1
290
     0
176
     1
290
     0
176
     1
290
     0
176
     1
290
     0
176
     1
 90
       50
176
     1
 40
0.0
176
     1
 40
1.0
176
     1
 90
        0
176
     1
 62
    18
420
        0
176
     1
 90
       50
176
     1
 90
        3
176
     1
 62
     5
420
      255
176
     1
290
     0
176
     1
 90
       50
176
     1
 90
       50
176
     1
 90
       50
176
     1
290
     0
176
     1
 90
       50
176
     1
 62
   256
176
     0
 40
1.0
176
     0
 90
        2
176
     1
  1
strokes_ogs.tif
176
     1
290
     0
176
     1
 40
1.0
176
     1
 40
1.0
176
     1
  0
VISUALSTYLE
  5
3B
102
{ACAD_REACTORS
330
2A
102
}
330
2A
100
AcDbVisualStyle
  2
JitterOff
 70
    20
177
     3
291
     1
 70
    58
 90
        2
176
     0
 90
        2
176
     0
 90
        0
176
     0
 90
        0
176
     0
 40
0.6
176
     0
 40
30.0
176
     0
 62
     7
420
 16777215
176
     0
 90
        1
176
     0
 90
        4
176
     0
 62
     7
176
     0
 62
   257
176
     0
 90
        1
176
     0
 90
        1
176
     0
 40
1.0
176
     0
 90
       10
176
     2
 62
     7
176
     0
 40
1.0
176
     0
 90
        1
176
     0
 90
        6
176
     0
 90
        2
176
     0
 62
     7
176
     0
 90
        5
176
     0
 90
        0
176
     0
 90
        0
176
     0
290
     0
176
     0
 90
        1
176
     0
 40
0.0
176
     0
 90
        0
176
     0
290
     0
176
     0
290
     1
176
     0
290
     1
176
     0
290
     0
176
     0
290
     0
176
     0
290
     0
176
     0
290
     0
176
     0
290
     0
176
     0
290
     0
176
     0
 90
       50
176
     0
 40
0.0
176
     0
 40
1.0
176
     0
 90
        0
176
     0
 62
    18
420
        0
176
     0
 90
       50
176
     0
 90
        3
176
     0
 62
     5
420
      255
176
     0
290
     0
176
     0
 90
       50
176
     0
 90
       50
176
     0
 90
       50
176
     0
290
     0
176
     0
 90
       50
176
     0
 62
   256
176
     0
 40
1.0
176
     0
 90
        2
176
     0
  1
strokes_ogs.tif
176
     0
290
     0
176
     0
 40
1.0
176
     0
 40
1.0
176
     0
  0
VISUALSTYLE
  5
38
102
{ACAD_REACTORS
330
2A
102
}
330
2A
100
AcDbVisualStyle
  2
Linepattern
 70
    14
177
     3
291
     1
 70
    58
 90
        2
176
     1
 90
        2
176
     1
 90
        0
176
     1
 90
        0
176
     1
 40
0.6
176
     1
 40
30.0
176
     1
 62
     7
420
 16777215
176
     1
 90
        1
176
     1
 90
        4
176
     1
 62
     7
176
     1
 62
   257
176
     1
 90
        7
176
     1
 90
        7
176
     1
 40
1.0
176
     1
 90
        8
176
     1
 62
     7
176
     1
 40
1.0
176
     1
 90
        1
176
     1
 90
        6
176
     1
 90
        2
176
     1
 62
     7
176
     1
 90
        5
176
     1
 90
        0
176
     1
 90
        0
176
     1
290
     0
176
     1
 90
        1
176
     1
 40
0.0
176
     1
 90
        0
176
     1
290
     0
176
     1
290
     1
176
     1
290
     1
176
     1
290
     0
176
     1
290
     0
176
     1
290
     0
176
     1
290
     0
176
     1
290
     0
176
     1
290
     0
176
     1
 90
       50
176
     1
 40
0.0
176
     1
 40
1.0
176
     1
 90
        0
176
     1
 62
    18
420
        0
176
     1
 90
       50
176
     1
 90
        3
176
     1
 62
     5
420
      255
176
     1
290
     0
176
     1
 90
       50
176
     1
 90
       50
176
     1
 90
       50
176
     1
290
     0
176
     1
 90
       50
176
     1
 62
   256
176
     0
 40
1.0
176
     0
 90
        2
176
     1
  1
strokes_ogs.tif
176
     1
290
     0
176
     1
 40
1.0
176
     1
 40
1.0
176
     1
  0
VISUALSTYLE
  5
3C
102
{ACAD_REACTORS
330
2A
102
}
330
2A
100
AcDbVisualStyle
  2
OverhangOff
 70
    21
177
     3
291
     1
 70
    58
 90
        2
176
     0
 90
        2
176
     0
 90
        0
176
     0
 90
        0
176
     0
 40
0.6
176
     0
 40
30.0
176
     0
 62
     7
420
 16777215
176
     0
 90
        1
176
     0
 90
        4
176
     0
 62
     7
176
     0
 62
   257
176
     0
 90
        1
176
     0
 90
        1
176
     0
 40
1.0
176
     0
 90
        9
176
     2
 62
     7
176
     0
 40
1.0
176
     0
 90
        1
176
     0
 90
        6
176
     0
 90
        2
176
     0
 62
     7
176
     0
 90
        5
176
     0
 90
        0
176
     0
 90
        0
176
     0
290
     0
176
     0
 90
        1
176
     0
 40
0.0
176
     0
 90
        0
176
     0
290
     0
176
     0
290
     1
176
     0
290
     1
176
     0
290
     0
176
     0
290
     0
176
     0
290
     0
176
     0
290
     0
176
     0
290
     0
176
     0
290
     0
176
     0
 90
       50
176
     0
 40
0.0
176
     0
 40
1.0
176
     0
 90
        0
176
     0
 62
    18
420
        0
176
     0
 90
       50
176
     0
 90
        3
176
     0
 62
     5
420
      255
176
     0
290
     0
176
     0
 90
       50
176
     0
 90
       50
176
     0
 90
       50
176
     0
290
     0
176
     0
 90
       50
176
     0
 62
   256
176
     0
 40
1.0
176
     0
 90
        2
176
     0
  1
strokes_ogs.tif
176
     0
290
     0
176
     0
 40
1.0
176
     0
 40
1.0
176
     0
  0
VISUALSTYLE
  5
33
102
{ACAD_REACTORS
330
2A
102
}
330
2A
100
AcDbVisualStyle
  2
Realistic
 70
     8
177
     3
291
     0
 70
    58
 90
        2
176
     1
 90
        3
176
     1
 90
        0
176
     1
 90
        2
176
     1
 40
0.6
176
     1
 40
30.0
176
     1
 62
     7
420
 16777215
176
     1
 90
        0
176
     1
 90
        0
176
     1
 62
     7
176
     1
 62
   257
176
     1
 90
        1
176
     1
 90
        1
176
     1
 40
1.0
176
     1
 90
        8
176
     1
 62
   257
176
     1
 40
1.0
176
     1
 90
        1
176
     1
 90
        6
176
     1
 90
        2
176
     1
 62
     7
176
     1
 90
        3
176
     1
 90
        0
176
     1
 90
        0
176
     1
290
     0
176
     1
 90
       13
176
     1
 40
0.0
176
     1
 90
        0
176
     1
290
     0
176
     1
290
     1
176
     1
290
     1
176
     1
290
     0
176
     1
290
     0
176
     1
290
     0
176
     1
290
     0
176
     1
290
     0
176
     1
290
     0
176
     1
 90
       50
176
     1
 40
0.0
176
     1
 40
1.0
176
     1
 90
        0
176
     1
 62
    18
420
        0
176
     1
 90
       50
176
     1
 90
        3
176
     1
 62
     5
420
      255
176
     1
290
     0
176
     1
 90
       50
176
     1
 90
       50
176
     1
 90
       50
176
     1
290
     0
176
     1
 90
       50
176
     1
 62
   256
176
     0
 40
1.0
176
     0
 90
        2
176
     1
  1
strokes_ogs.tif
176
     1
290
     0
176
     1
 40
1.0
176
     1
 40
1.0
176
     1
  0
VISUALSTYLE
  5
42
102
{ACAD_REACTORS
330
2A
102
}
330
2A
100
AcDbVisualStyle
  2
Shaded
 70
    27
177
     3
291
     0
 70
    58
 90
        2
176
     1
 90
        2
176
     1
 90
        1
176
     1
 90
        2
176
     1
 40
0.6
176
     1
 40
30.0
176
     1
 62
     7
420
 16777215
176
     1
 90
        0
176
     1
 90
        4
176
     1
 62
     7
176
     1
 62
   257
176
     1
 90
        1
176
     1
 90
        1
176
     1
 40
1.0
176
     1
 90
        8
176
     1
 62
   257
176
     1
 40
1.0
176
     1
 90
        1
176
     1
 90
        6
176
     1
 90
        2
176
     1
 62
     8
420
  7895160
176
     1
 90
        3
176
     1
 90
        0
176
     1
 90
        0
176
     1
290
     0
176
     1
 90
        5
176
     1
 40
0.0
176
     1
 90
        0
176
     1
290
     0
176
     1
290
     1
176
     1
290
     1
176
     1
290
     0
176
     1
290
     0
176
     1
290
     0
176
     1
290
     0
176
     1
290
     0
176
     1
290
     0
176
     1
 90
       50
176
     1
 40
0.0
176
     1
 40
1.0
176
     1
 90
        0
176
     1
 62
    18
420
        0
176
     1
 90
       50
176
     1
 90
        3
176
     1
 62
     5
420
      255
176
     1
290
     0
176
     1
 90
       50
176
     1
 90
       50
176
     1
 90
       50
176
     1
290
     0
176
     1
 90
       50
176
     1
 62
   256
176
     0
 40
1.0
176
     0
 90
        2
176
     1
  1
strokes_ogs.tif
176
     1
290
     0
176
     1
 40
1.0
176
     1
 40
1.0
176
     1
  0
VISUALSTYLE
  5
41
102
{ACAD_REACTORS
330
2A
102
}
330
2A
100
AcDbVisualStyle
  2
Shaded with edges
 70
    26
177
     3
291
     0
 70
    58
 90
        2
176
     1
 90
        2
176
     1
 90
        1
176
     1
 90
        2
176
     1
 40
0.6
176
     1
 40
30.0
176
     1
 62
     7
420
 16777215
176
     1
 90
        1
176
     1
 90
       10
176
     1
 62
     7
176
     1
 62
   257
176
     1
 90
        2
176
     1
 90
        1
176
     1
 40
1.0
176
     1
 90
        8
176
     1
 62
   257
176
     1
 40
1.0
176
     1
 90
        1
176
     1
 90
        6
176
     1
 90
        2
176
     1
 62
     7
176
     1
 90
        3
176
     1
 90
        0
176
     1
 90
        0
176
     1
290
     0
176
     1
 90
        5
176
     1
 40
0.0
176
     1
 90
        0
176
     1
290
     0
176
     1
290
     1
176
     1
290
     1
176
     1
290
     0
176
     1
290
     0
176
     1
290
     0
176
     1
290
     0
176
     1
290
     0
176
     1
290
     0
176
     1
 90
       50
176
     1
 40
0.0
176
     1
 40
1.0
176
     1
 90
        0
176
     1
 62
    18
420
        0
176
     1
 90
       50
176
     1
 90
        3
176
     1
 62
     5
420
      255
176
     1
290
     0
176
     1
 90
       50
176
     1
 90
       50
176
     1
 90
       50
176
     1
290
     0
176
     1
 90
       50
176
     1
 62
   256
176
     0
 40
1.0
176
     0
 90
        2
176
     1
  1
strokes_ogs.tif
176
     1
290
     0
176
     1
 40
1.0
176
     1
 40
1.0
176
     1
  0
VISUALSTYLE
  5
3E
102
{ACAD_REACTORS
330
2A
102
}
330
2A
100
AcDbVisualStyle
  2
Shades of Gray
 70
    23
177
     3
291
     0
 70
    58
 90
        2
176
     1
 90
        2
176
     1
 90
        3
176
     1
 90
        0
176
     1
 40
0.6
176
     1
 40
30.0
176
     1
 62
     7
420
 16777215
176
     1
 90
        2
176
     1
 90
        2
176
     1
 62
     7
176
     1
 62
     7
176
     1
 90
        1
176
     1
 90
        1
176
     1
 40
40.0
176
     1
 90
        8
176
     1
 62
     7
176
     1
 40
1.0
176
     1
 90
        1
176
     1
 90
        6
176
     1
 90
        2
176
     1
 62
     7
176
     1
 90
        3
176
     1
 90
        0
176
     1
 90
        0
176
     1
290
     0
176
     1
 90
        1
176
     1
 40
0.0
176
     1
 90
        0
176
     1
290
     0
176
     1
290
     1
176
     1
290
     1
176
     1
290
     0
176
     1
290
     0
176
     1
290
     0
176
     1
290
     0
176
     1
290
     0
176
     1
290
     0
176
     1
 90
       50
176
     1
 40
0.0
176
     1
 40
1.0
176
     1
 90
        0
176
     1
 62
    18
420
        0
176
     1
 90
       50
176
     1
 90
        3
176
     1
 62
     5
420
      255
176
     1
290
     0
176
     1
 90
       50
176
     1
 90
       50
176
     1
 90
       50
176
     1
290
     0
176
     1
 90
       50
176
     1
 62
   256
176
     0
 40
1.0
176
     0
 90
        2
176
     1
  1
strokes_ogs.tif
176
     1
290
     0
176
     1
 40
1.0
176
     1
 40
1.0
176
     1
  0
VISUALSTYLE
  5
3F
102
{ACAD_REACTORS
330
2A
102
}
330
2A
100
AcDbVisualStyle
  2
Sketchy
 70
    24
177
     3
291
     0
 70
    58
 90
        1
176
     1
 90
        2
176
     1
 90
        2
176
     1
 90
        0
176
     1
 40
0.6
176
     1
 40
30.0
176
     1
 62
     7
420
 16777215
176
     1
 90
        2
176
     1
 90
        2
176
     1
 62
     7
176
     1
 62
     7
176
     1
 90
        1
176
     1
 90
        1
176
     1
 40
40.0
176
     1
 90
       11
176
     1
 62
     7
176
     1
 40
1.0
176
     1
 90
        1
176
     1
 90
        6
176
     1
 90
        2
176
     1
 62
     7
176
     1
 90
        6
176
     1
 90
        0
176
     1
 90
        0
176
     1
290
     0
176
     1
 90
        1
176
     1
 40
0.0
176
     1
 90
        0
176
     1
290
     0
176
     1
290
     1
176
     1
290
     1
176
     1
290
     0
176
     1
290
     0
176
     1
290
     0
176
     1
290
     0
176
     1
290
     0
176
     1
290
     0
176
     1
 90
       50
176
     1
 40
0.0
176
     1
 40
1.0
176
     1
 90
        0
176
     1
 62
    18
420
        0
176
     1
 90
       50
176
     1
 90
        3
176
     1
 62
     5
420
      255
176
     1
290
     0
176
     1
 90
       50
176
     1
 90
       50
176
     1
 90
       50
176
     1
290
     0
176
     1
 90
       50
176
     1
 62
   256
176
     0
 40
1.0
176
     0
 90
        2
176
     1
  1
strokes_ogs.tif
176
     1
290
     0
176
     1
 40
1.0
176
     1
 40
1.0
176
     1
  0
VISUALSTYLE
  5
37
102
{ACAD_REACTORS
330
2A
102
}
330
2A
100
AcDbVisualStyle
  2
Thicken
 70
    13
177
     3
291
     1
 70
    58
 90
        2
176
     1
 90
        2
176
     1
 90
        0
176
     1
 90
        0
176
     1
 40
0.6
176
     1
 40
30.0
176
     1
 62
     7
420
 16777215
176
     1
 90
        1
176
     1
 90
        4
176
     1
 62
     7
176
     1
 62
   257
176
     1
 90
        1
176
     1
 90
        1
176
     1
 40
1.0
176
     1
 90
       12
176
     1
 62
     7
176
     1
 40
1.0
176
     1
 90
        1
176
     1
 90
        6
176
     1
 90
        2
176
     1
 62
     7
176
     1
 90
        5
176
     1
 90
        0
176
     1
 90
        0
176
     1
290
     0
176
     1
 90
        1
176
     1
 40
0.0
176
     1
 90
        0
176
     1
290
     0
176
     1
290
     1
176
     1
290
     1
176
     1
290
     0
176
     1
290
     0
176
     1
290
     0
176
     1
290
     0
176
     1
290
     0
176
     1
290
     0
176
     1
 90
       50
176
     1
 40
0.0
176
     1
 40
1.0
176
     1
 90
        0
176
     1
 62
    18
420
        0
176
     1
 90
       50
176
     1
 90
        3
176
     1
 62
     5
420
      255
176
     1
290
     0
176
     1
 90
       50
176
     1
 90
       50
176
     1
 90
       50
176
     1
290
     0
176
     1
 90
       50
176
     1
 62
   256
176
     0
 40
1.0
176
     0
 90
        2
176
     1
  1
strokes_ogs.tif
176
     1
290
     0
176
     1
 40
1.0
176
     1
 40
1.0
176
     1
  0
VISUALSTYLE
  5
30
102
{ACAD_REACTORS
330
2A
102
}
330
2A
100
AcDbVisualStyle
  2
Wireframe
 70
     5
177
     3
291
     0
 70
    58
 90
        0
176
     1
 90
        2
176
     1
 90
        0
176
     1
 90
        0
176
     1
 40
0.6
176
     1
 40
30.0
176
     1
 62
     7
420
 16777215
176
     1
 90
        1
176
     1
 90
        4
176
     1
 62
     7
176
     1
 62
   257
176
     1
 90
        1
176
     1
 90
        1
176
     1
 40
1.0
176
     1
 90
        0
176
     1
 62
   257
176
     1
 40
1.0
176
     1
 90
        1
176
     1
 90
        6
176
     1
 90
        2
176
     1
 62
     7
176
     1
 90
        3
176
     1
 90
        0
176
     1
 90
        0
176
     1
290
     0
176
     1
 90
        1
176
     1
 40
0.0
176
     1
 90
        0
176
     1
290
     0
176
     1
290
     1
176
     1
290
     1
176
     1
290
     0
176
     1
290
     0
176
     1
290
     0
176
     1
290
     0
176
     1
290
     0
176
     1
290
     0
176
     1
 90
       50
176
     1
 40
0.0
176
     1
 40
1.0
176
     1
 90
        0
176
     1
 62
    18
420
        0
176
     1
 90
       50
176
     1
 90
        3
176
     1
 62
     5
420
      255
176
     1
290
     0
176
     1
 90
       50
176
     1
 90
       50
176
     1
 90
       50
176
     1
290
     0
176
     1
 90
       50
176
     1
 62
   256
176
     0
 40
1.0
176
     0
 90
        2
176
     1
  1
strokes_ogs.tif
176
     1
290
     0
176
     1
 40
1.0
176
     1
 40
1.0
176
     1
  0
VISUALSTYLE
  5
40
102
{ACAD_REACTORS
330
2A
102
}
330
2A
100
AcDbVisualStyle
  2
X-Ray
 70
    25
177
     3
291
     0
 70
    58
 90
        2
176
     1
 90
        2
176
     1
 90
        1
176
     1
 90
        1
176
     1
 40
0.5
176
     1
 40
30.0
176
     1
 62
     7
420
 16777215
176
     1
 90
        1
176
     1
 90
        0
176
     1
 62
     7
176
     1
 62
   257
176
     1
 90
        1
176
     1
 90
        1
176
     1
 40
1.0
176
     1
 90
        8
176
     1
 62
     7
176
     1
 40
1.0
176
     1
 90
        1
176
     1
 90
        6
176
     1
 90
        2
176
     1
 62
     7
176
     1
 90
        3
176
     1
 90
        0
176
     1
 90
        0
176
     1
290
     0
176
     1
 90
       13
176
     1
 40
0.0
176
     1
 90
        0
176
     1
290
     0
176
     1
290
     1
176
     1
290
     1
176
     1
290
     0
176
     1
290
     0
176
     1
290
     0
176
     1
290
     0
176
     1
290
     0
176
     1
290
     0
176
     1
 90
       50
176
     1
 40
0.0
176
     1
 40
1.0
176
     1
 90
        0
176
     1
 62
    18
420
        0
176
     1
 90
       50
176
     1
 90
        3
176
     1
 62
     5
420
      255
176
     1
290
     0
176
     1
 90
       50
176
     1
 90
       50
176
     1
 90
       50
176
     1
290
     0
176
     1
 90
       50
176
     1
 62
   256
176
     0
 40
1.0
176
     0
 90
        2
176
     1
  1
strokes_ogs.tif
176
     1
290
     0
176
     1
 40
1.0
176
     1
 40
1.0
176
     1
  0
DICTIONARYVAR
  5
1AA
102
{ACAD_REACTORS
330
1A9
102
}
330
1A9
100
DictionaryVariables
280
     0
  1
1:1
  0
DICTIONARYVAR
  5
1B2
102
{ACAD_REACTORS
330
1A9
102
}
330
1A9
100
DictionaryVariables
280
     0
  1
3.500000
  0
DICTIONARYVAR
  5
1B3
102
{ACAD_REACTORS
330
1A9
102
}
330
1A9
100
DictionaryVariables
280
     0
  1
acadiso.lin
  0
DICTIONARYVAR
  5
1AF
102
{ACAD_REACTORS
330
1A9
102
}
330
1A9
100
DictionaryVariables
280
     0
  1
Standard
  0
DICTIONARYVAR
  5
1AE
102
{ACAD_REACTORS
330
1A9
102
}
330
1A9
100
DictionaryVariables
280
     0
  1
Standard
  0
DICTIONARY
  5
1AB
330
5A
100
AcDbDictionary
280
     1
281
     1
  3
ACAD_ROUNDTRIP_2008_TABLESTYLE_CELLSTYLEMAP
360
1AC
  0
CELLSTYLEMAP
  5
1AC
102
{ACAD_REACTORS
330
1AB
102
}
330
1AB
100
AcDbCellStyleMap
 90
        3
300
CELLSTYLE
  1
TABLEFORMAT_BEGIN
 90
        5
170
     1
 91
        0
 92
    32768
 62
   257
 93
        1
300
CONTENTFORMAT
  1
CONTENTFORMAT_BEGIN
 90
        0
 91
        0
 92
        4
 93
        0
300

 40
0.0
140
1.0
 94
        5
 62
     0
340
11
144
6.0
309
CONTENTFORMAT_END
171
     1
301
MARGIN
  1
CELLMARGIN_BEGIN
 40
1.5
 40
1.5
 40
1.5
 40
1.5
 40
1.5
 40
1.5
309
CELLMARGIN_END
 94
        6
 95
        1
302
GRIDFORMAT
  1
GRIDFORMAT_BEGIN
 90
        0
 91
        1
 62
     0
 92
       -2
340
14
 93
        0
 40
0.045
309
GRIDFORMAT_END
 95
        2
302
GRIDFORMAT
  1
GRIDFORMAT_BEGIN
 90
        0
 91
        1
 62
     0
 92
       -2
340
14
 93
        0
 40
0.045
309
GRIDFORMAT_END
 95
        4
302
GRIDFORMAT
  1
GRIDFORMAT_BEGIN
 90
        0
 91
        1
 62
     0
 92
       -2
340
14
 93
        0
 40
0.045
309
GRIDFORMAT_END
 95
        8
302
GRIDFORMAT
  1
GRIDFORMAT_BEGIN
 90
        0
 91
        1
 62
     0
 92
       -2
340
14
 93
        0
 40
0.045
309
GRIDFORMAT_END
 95
       16
302
GRIDFORMAT
  1
GRIDFORMAT_BEGIN
 90
        0
 91
        1
 62
     0
 92
       -2
340
14
 93
        0
 40
0.045
309
GRIDFORMAT_END
 95
       32
302
GRIDFORMAT
  1
GRIDFORMAT_BEGIN
 90
        0
 91
        1
 62
     0
 92
       -2
340
14
 93
        0
 40
0.045
309
GRIDFORMAT_END
309
TABLEFORMAT_END
  1
CELLSTYLE_BEGIN
 90
        1
 91
        1
300
_TITLE
309
CELLSTYLE_END
300
CELLSTYLE
  1
TABLEFORMAT_BEGIN
 90
        5
170
     1
 91
        0
 92
        0
 62
   257
 93
        1
300
CONTENTFORMAT
  1
CONTENTFORMAT_BEGIN
 90
        0
 91
        0
 92
        4
 93
        0
300

 40
0.0
140
1.0
 94
        5
 62
     0
340
11
144
4.5
309
CONTENTFORMAT_END
171
     1
301
MARGIN
  1
CELLMARGIN_BEGIN
 40
1.5
 40
1.5
 40
1.5
 40
1.5
 40
1.5
 40
1.5
309
CELLMARGIN_END
 94
        6
 95
        1
302
GRIDFORMAT
  1
GRIDFORMAT_BEGIN
 90
        0
 91
        1
 62
     0
 92
       -2
340
14
 93
        0
 40
0.045
309
GRIDFORMAT_END
 95
        2
302
GRIDFORMAT
  1
GRIDFORMAT_BEGIN
 90
        0
 91
        1
 62
     0
 92
       -2
340
14
 93
        0
 40
0.045
309
GRIDFORMAT_END
 95
        4
302
GRIDFORMAT
  1
GRIDFORMAT_BEGIN
 90
        0
 91
        1
 62
     0
 92
       -2
340
14
 93
        0
 40
0.045
309
GRIDFORMAT_END
 95
        8
302
GRIDFORMAT
  1
GRIDFORMAT_BEGIN
 90
        0
 91
        1
 62
     0
 92
       -2
340
14
 93
        0
 40
0.045
309
GRIDFORMAT_END
 95
       16
302
GRIDFORMAT
  1
GRIDFORMAT_BEGIN
 90
        0
 91
        1
 62
     0
 92
       -2
340
14
 93
        0
 40
0.045
309
GRIDFORMAT_END
 95
       32
302
GRIDFORMAT
  1
GRIDFORMAT_BEGIN
 90
        0
 91
        1
 62
     0
 92
       -2
340
14
 93
        0
 40
0.045
309
GRIDFORMAT_END
309
TABLEFORMAT_END
  1
CELLSTYLE_BEGIN
 90
        2
 91
        1
300
_HEADER
309
CELLSTYLE_END
300
CELLSTYLE
  1
TABLEFORMAT_BEGIN
 90
        5
170
     1
 91
        0
 92
        0
 62
   257
 93
        1
300
CONTENTFORMAT
  1
CONTENTFORMAT_BEGIN
 90
        0
 91
        0
 92
        4
 93
        0
300

 40
0.0
140
1.0
 94
        2
 62
     0
340
11
144
4.5
309
CONTENTFORMAT_END
171
     1
301
MARGIN
  1
CELLMARGIN_BEGIN
 40
1.5
 40
1.5
 40
1.5
 40
1.5
 40
1.5
 40
1.5
309
CELLMARGIN_END
 94
        6
 95
        1
302
GRIDFORMAT
  1
GRIDFORMAT_BEGIN
 90
        0
 91
        1
 62
     0
 92
       -2
340
14
 93
        0
 40
0.045
309
GRIDFORMAT_END
 95
        2
302
GRIDFORMAT
  1
GRIDFORMAT_BEGIN
 90
        0
 91
        1
 62
     0
 92
       -2
340
14
 93
        0
 40
0.045
309
GRIDFORMAT_END
 95
        4
302
GRIDFORMAT
  1
GRIDFORMAT_BEGIN
 90
        0
 91
        1
 62
     0
 92
       -2
340
14
 93
        0
 40
0.045
309
GRIDFORMAT_END
 95
        8
302
GRIDFORMAT
  1
GRIDFORMAT_BEGIN
 90
        0
 91
        1
 62
     0
 92
       -2
340
14
 93
        0
 40
0.045
309
GRIDFORMAT_END
 95
       16
302
GRIDFORMAT
  1
GRIDFORMAT_BEGIN
 90
        0
 91
        1
 62
     0
 92
       -2
340
14
 93
        0
 40
0.045
309
GRIDFORMAT_END
 95
       32
302
GRIDFORMAT
  1
GRIDFORMAT_BEGIN
 90
        0
 91
        1
 62
     0
 92
       -2
340
14
 93
        0
 40
0.045
309
GRIDFORMAT_END
309
TABLEFORMAT_END
  1
CELLSTYLE_BEGIN
 90
        3
 91
        2
300
_DATA
309
CELLSTYLE_END
  0
ENDSEC
  0
EOF
