  0
SECTION
  2
HEADER
  9
$ACADVER
  1
AC1015
  9
$ACADMAINTVER
 70
     6
  9
$DWGCODEPAGE
  3
ANSI_1252
  9
$INSBASE
 10
0.0
 20
0.0
 30
0.0
  9
$EXTMIN
 10
0.0
 20
0.0
 30
0.0
  9
$EXTMAX
 10
2000.0
 20
900.0
 30
0.0
  9
$LIMMIN
 10
0.0
 20
0.0
  9
$LIMMAX
 10
2000.0
 20
900.0
  9
$ORTHOMODE
 70
     0
  9
$REGENMODE
 70
     1
  9
$FILLMODE
 70
     1
  9
$QTEXTMODE
 70
     0
  9
$MIRRTEXT
 70
     1
  9
$LTSCALE
 40
1.0
  9
$ATTMODE
 70
     1
  9
$TEXTSIZE
 40
5.0
  9
$TRACEWID
 40
1.0
  9
$TEXTSTYLE
  7
Standard
  9
$CLAYER
  8
0
  9
$CELTYPE
  6
ByLayer
  9
$CECOLOR
 62
   256
  9
$CELTSCALE
 40
1.0
  9
$DISPSILH
 70
     0
  9
$DIMSCALE
 40
1.0
  9
$DIMASZ
 40
6.0
  9
$DIMEXO
 40
1.0
  9
$DIMDLI
 40
3.75
  9
$DIMRND
 40
0.0
  9
$DIMDLE
 40
0.0
  9
$DIMEXE
 40
1.0
  9
$DIMTP
 40
0.0
  9
$DIMTM
 40
0.0
  9
$DIMTXT
 40
5.0
  9
$DIMCEN
 40
2.5
  9
$DIMTSZ
 40
0.0
  9
$DIMTOL
 70
     0
  9
$DIMLIM
 70
     0
  9
$DIMTIH
 70
     1
  9
$DIMTOH
 70
     1
  9
$DIMSE1
 70
     0
  9
$DIMSE2
 70
     0
  9
$DIMTAD
 70
     1
  9
$DIMZIN
 70
     0
  9
$DIMBLK
  1

  9
$DIMASO
 70
     1
  9
$DIMSHO
 70
     1
  9
$DIMPOST
  1

  9
$DIMAPOST
  1

  9
$DIMALT
 70
     0
  9
$DIMALTD
 70
     3
  9
$DIMALTF
 40
0.0393700787
  9
$DIMLFAC
 40
1.0
  9
$DIMTOFL
 70
     1
  9
$DIMTVP
 40
0.0
  9
$DIMTIX
 70
     0
  9
$DIMSOXD
 70
     0
  9
$DIMSAH
 70
     0
  9
$DIMBLK1
  1

  9
$DIMBLK2
  1

  9
$DIMSTYLE
  2
ISO-25
  9
$DIMCLRD
 70
     0
  9
$DIMCLRE
 70
     0
  9
$DIMCLRT
 70
     0
  9
$DIMTFAC
 40
1.0
  9
$DIMGAP
 40
1.524
  9
$DIMJUST
 70
     0
  9
$DIMSD1
 70
     0
  9
$DIMSD2
 70
     0
  9
$DIMTOLJ
 70
     0
  9
$DIMTZIN
 70
     0
  9
$DIMALTZ
 70
     0
  9
$DIMALTTZ
 70
     0
  9
$DIMUPT
 70
     0
  9
$DIMDEC
 70
     2
  9
$DIMTDEC
 70
     2
  9
$DIMALTU
 70
     2
  9
$DIMALTTD
 70
     3
  9
$DIMTXSTY
  7
Standard
  9
$DIMAUNIT
 70
     0
  9
$DIMADEC
 70
     2
  9
$DIMALTRND
 40
0.0
  9
$DIMAZIN
 70
     0
  9
$DIMDSEP
 70
    44
  9
$DIMATFIT
 70
     3
  9
$DIMFRAC
 70
     0
  9
$DIMLDRBLK
  1

  9
$DIMLUNIT
 70
     2
  9
$DIMLWD
 70
    -2
  9
$DIMLWE
 70
    -2
  9
$DIMTMOVE
 70
     0
  9
$LUNITS
 70
     2
  9
$LUPREC
 70
     2
  9
$SKETCHINC
 40
1.0
  9
$FILLETRAD
 40
10.0
  9
$AUNITS
 70
     0
  9
$AUPREC
 70
     2
  9
$MENU
  1
.
  9
$ELEVATION
 40
0.0
  9
$PELEVATION
 40
0.0
  9
$THICKNESS
 40
0.0
  9
$LIMCHECK
 70
     0
  9
$CHAMFERA
 40
0.0
  9
$CHAMFERB
 40
0.0
  9
$CHAMFERC
 40
0.0
  9
$CHAMFERD
 40
0.0
  9
$SKPOLY
 70
     0
  9
$TDCREATE
 40
2458457.532147824
  9
$TDUCREATE
 40
2458457.448814491
  9
$TDUPDATE
 40
2458457.532148669
  9
$TDUUPDATE
 40
2458457.448815336
  9
$TDINDWG
 40
0.0000000116
  9
$TDUSRTIMER
 40
0.0000000116
  9
$USRTIMER
 70
     1
  9
$ANGBASE
 50
0.0
  9
$ANGDIR
 70
     0
  9
$PDMODE
 70
     0
  9
$PDSIZE
 40
-1.0
  9
$PLINEWID
 40
0.0
  9
$SPLFRAME
 70
     0
  9
$SPLINETYPE
 70
     6
  9
$SPLINESEGS
 70
     8
  9
$HANDSEED
  5
1F5
  9
$SURFTAB1
 70
     6
  9
$SURFTAB2
 70
     6
  9
$SURFTYPE
 70
     6
  9
$SURFU
 70
     6
  9
$SURFV
 70
     6
  9
$UCSBASE
  2

  9
$UCSNAME
  2

  9
$UCSORG
 10
0.0
 20
0.0
 30
0.0
  9
$UCSXDIR
 10
1.0
 20
0.0
 30
0.0
  9
$UCSYDIR
 10
0.0
 20
1.0
 30
0.0
  9
$UCSORTHOREF
  2

  9
$UCSORTHOVIEW
 70
     0
  9
$UCSORGTOP
 10
0.0
 20
0.0
 30
0.0
  9
$UCSORGBOTTOM
 10
0.0
 20
0.0
 30
0.0
  9
$UCSORGLEFT
 10
0.0
 20
0.0
 30
0.0
  9
$UCSORGRIGHT
 10
0.0
 20
0.0
 30
0.0
  9
$UCSORGFRONT
 10
0.0
 20
0.0
 30
0.0
  9
$UCSORGBACK
 10
0.0
 20
0.0
 30
0.0
  9
$PUCSBASE
  2

  9
$PUCSNAME
  2

  9
$PUCSORG
 10
0.0
 20
0.0
 30
0.0
  9
$PUCSXDIR
 10
1.0
 20
0.0
 30
0.0
  9
$PUCSYDIR
 10
0.0
 20
1.0
 30
0.0
  9
$PUCSORTHOREF
  2

  9
$PUCSORTHOVIEW
 70
     0
  9
$PUCSORGTOP
 10
0.0
 20
0.0
 30
0.0
  9
$PUCSORGBOTTOM
 10
0.0
 20
0.0
 30
0.0
  9
$PUCSORGLEFT
 10
0.0
 20
0.0
 30
0.0
  9
$PUCSORGRIGHT
 10
0.0
 20
0.0
 30
0.0
  9
$PUCSORGFRONT
 10
0.0
 20
0.0
 30
0.0
  9
$PUCSORGBACK
 10
0.0
 20
0.0
 30
0.0
  9
$USERI1
 70
     0
  9
$USERI2
 70
     0
  9
$USERI3
 70
     0
  9
$USERI4
 70
     0
  9
$USERI5
 70
     0
  9
$USERR1
 40
0.0
  9
$USERR2
 40
0.0
  9
$USERR3
 40
0.0
  9
$USERR4
 40
0.0
  9
$USERR5
 40
0.0
  9
$WORLDVIEW
 70
     1
  9
$SHADEDGE
 70
     3
  9
$SHADEDIF
 70
    70
  9
$TILEMODE
 70
     1
  9
$MAXACTVP
 70
    64
  9
$PINSBASE
 10
0.0
 20
0.0
 30
0.0
  9
$PLIMCHECK
 70
     0
  9
$PEXTMIN
 10
1.0000000000E+20
 20
1.0000000000E+20
 30
1.0000000000E+20
  9
$PEXTMAX
 10
-1.0000000000E+20
 20
-1.0000000000E+20
 30
-1.0000000000E+20
  9
$PLIMMIN
 10
0.0
 20
0.0
  9
$PLIMMAX
 10
420.0
 20
297.0
  9
$UNITMODE
 70
     0
  9
$VISRETAIN
 70
     1
  9
$PLINEGEN
 70
     0
  9
$PSLTSCALE
 70
     1
  9
$TREEDEPTH
 70
  3020
  9
$CMLSTYLE
  2
Standard
  9
$CMLJUST
 70
     0
  9
$CMLSCALE
 40
20.0
  9
$PROXYGRAPHICS
 70
     1
  9
$MEASUREMENT
 70
     1
  9
$CELWEIGHT
370
    -1
  9
$ENDCAPS
280
     0
  9
$JOINSTYLE
280
     0
  9
$LWDISPLAY
290
     1
  9
$INSUNITS
 70
     4
  9
$HYPERLINKBASE
  1

  9
$STYLESHEET
  1

  9
$XEDIT
290
     1
  9
$CEPSNTYPE
380
     0
  9
$PSTYLEMODE
290
     1
  9
$FINGERPRINTGUID
  2
{FAA04AD8-9EC9-4DA2-A171-3C5AD423EC7F}
  9
$VERSIONGUID
  2
{FAEB1C32-E019-11D5-929B-00C0DF256EC4}
  9
$EXTNAMES
290
     1
  9
$PSVPSCALE
 40
0.0
  9
$OLESTARTUP
290
     0
  0
ENDSEC
  0
SECTION
  2
CLASSES
  0
CLASS
  1
ACDBDICTIONARYWDFLT
  2
AcDbDictionaryWithDefault
  3
ObjectDBX Classes
 90
        0
280
     0
281
     0
  0
CLASS
  1
VISUALSTYLE
  2
AcDbVisualStyle
  3
ObjectDBX Classes
 90
     4095
280
     0
281
     0
  0
CLASS
  1
MATERIAL
  2
AcDbMaterial
  3
ObjectDBX Classes
 90
     1153
280
     0
281
     0
  0
CLASS
  1
SCALE
  2
AcDbScale
  3
ObjectDBX Classes
 90
     1153
280
     0
281
     0
  0
CLASS
  1
TABLESTYLE
  2
AcDbTableStyle
  3
ObjectDBX Classes
 90
     4095
280
     0
281
     0
  0
CLASS
  1
MLEADERSTYLE
  2
AcDbMLeaderStyle
  3
ACDB_MLEADERSTYLE_CLASS
 90
     4095
280
     0
281
     0
  0
CLASS
  1
SUN
  2
AcDbSun
  3
SCENEOE
 90
     1153
280
     0
281
     0
  0
CLASS
  1
ACDBPLACEHOLDER
  2
AcDbPlaceHolder
  3
ObjectDBX Classes
 90
        0
280
     0
281
     0
  0
CLASS
  1
LAYOUT
  2
AcDbLayout
  3
ObjectDBX Classes
 90
        0
280
     0
281
     0
  0
ENDSEC
  0
SECTION
  2
TABLES
  0
TABLE
  2
VPORT
  5
8
330
0
100
AcDbSymbolTable
 70
     1
  0
VPORT
  5
29
330
8
100
AcDbSymbolTableRecord
100
AcDbViewportTableRecord
  2
*Active
 70
     0
 10
0.0
 20
0.0
 11
1.0
 21
1.0
 12
1000.0
 22
450.0
 13
0.0
 23
0.0
 14
10.0
 24
10.0
 15
10.0
 25
10.0
 16
0.0
 26
0.0
 36
1.0
 17
0.0
 27
0.0
 37
0.0
 40
900.0
 41
2.2222222222
 42
50.0
 43
0.0
 44
0.0
 50
0.0
 51
0.0
 71
     0
 72
  2000
 73
     1
 74
     3
 75
     0
 76
     0
 77
     0
 78
     0
281
     0
 65
     1
110
0.0
120
0.0
130
0.0
111
1.0
121
0.0
131
0.0
112
0.0
122
1.0
132
0.0
 79
     0
146
0.0
  0
ENDTAB
  0
TABLE
  2
LTYPE
  5
5
330
0
100
AcDbSymbolTable
 70
     6
  0
LTYPE
  5
14
330
5
100
AcDbSymbolTableRecord
100
AcDbLinetypeTableRecord
  2
ByBlock
 70
     0
  3

 72
    65
 73
     0
 40
0.0
  0
LTYPE
  5
15
330
5
100
AcDbSymbolTableRecord
100
AcDbLinetypeTableRecord
  2
ByLayer
 70
     0
  3

 72
    65
 73
     0
 40
0.0
  0
LTYPE
  5
16
330
5
100
AcDbSymbolTableRecord
100
AcDbLinetypeTableRecord
  2
Continuous
 70
     0
  3
Solid line
 72
    65
 73
     0
 40
0.0
  0
LTYPE
  5
6E
330
5
100
AcDbSymbolTableRecord
100
AcDbLinetypeTableRecord
  2
HIDDEN
 70
     0
  3
Hidden __ __ __ __ __ __ __ __ __ __ __ __ __ __
 72
    65
 73
     2
 40
1.905
 49
1.27
 74
     0
 49
-0.635
 74
     0
  0
LTYPE
  5
6F
330
5
100
AcDbSymbolTableRecord
100
AcDbLinetypeTableRecord
  2
PHANTOM
 70
     0
  3
Phantom ______  __  __  ______  __  __  ______
 72
    65
 73
     6
 40
12.7
 49
6.35
 74
     0
 49
-1.27
 74
     0
 49
1.27
 74
     0
 49
-1.27
 74
     0
 49
1.27
 74
     0
 49
-1.27
 74
     0
  0
LTYPE
  5
70
330
5
100
AcDbSymbolTableRecord
100
AcDbLinetypeTableRecord
  2
CENTER
 70
     0
  3
Center ____ _ ____ _ ____ _ ____ _ ____ _ ____
 72
    65
 73
     4
 40
10.16
 49
6.35
 74
     0
 49
-1.27
 74
     0
 49
1.27
 74
     0
 49
-1.27
 74
     0
  0
LTYPE
  5
71
330
5
100
AcDbSymbolTableRecord
100
AcDbLinetypeTableRecord
  2
CENTERX2
 70
     0
  3
Center (2x) ________  __  ________  __  _____
 72
    65
 73
     4
 40
20.32
 49
12.7
 74
     0
 49
-2.54
 74
     0
 49
2.54
 74
     0
 49
-2.54
 74
     0
  0
LTYPE
  5
72
330
5
100
AcDbSymbolTableRecord
100
AcDbLinetypeTableRecord
  2
DOT2
 70
     0
  3
Dot (.5x) ........................................
 72
    65
 73
     2
 40
0.635
 49
0.0
 74
     0
 49
-0.635
 74
     0
  0
ENDTAB
  0
TABLE
  2
LAYER
  5
2
330
0
100
AcDbSymbolTable
 70
     2
  0
LAYER
  5
10
330
2
100
AcDbSymbolTableRecord
100
AcDbLayerTableRecord
  2
0
 70
     0
 62
     7
  6
Continuous
370
    -3
390
F
  0
LAYER
  5
73
330
2
100
AcDbSymbolTableRecord
100
AcDbLayerTableRecord
  2
TABLE_BL1
 70
     0
 62
   179
  6
Continuous
370
    -3
390
F
  0
ENDTAB
  0
TABLE
  2
STYLE
  5
3
330
0
100
AcDbSymbolTable
 70
     2
  0
STYLE
  5
11
330
3
100
AcDbSymbolTableRecord
100
AcDbTextStyleTableRecord
  2
Standard
 70
     0
 40
0.0
 41
1.0
 50
0.0
 71
     0
 42
5.0
  3
txt
  4

  0
STYLE
  5
8B
330
3
100
AcDbSymbolTableRecord
100
AcDbTextStyleTableRecord
  2
SLDTEXTSTYLE0
 70
     0
 40
0.0
 41
0.605
 50
0.0
 71
     0
 42
5.0
  3
TXT
  4

  0
ENDTAB
  0
TABLE
  2
VIEW
  5
6
330
0
100
AcDbSymbolTable
 70
     0
  0
ENDTAB
  0
TABLE
  2
UCS
  5
7
330
0
100
AcDbSymbolTable
 70
     0
  0
ENDTAB
  0
TABLE
  2
APPID
  5
9
330
0
100
AcDbSymbolTable
 70
     1
  0
APPID
  5
12
330
9
100
AcDbSymbolTableRecord
100
AcDbRegAppTableRecord
  2
ACAD
 70
     0
  0
ENDTAB
  0
TABLE
  2
DIMSTYLE
  5
A
330
0
100
AcDbSymbolTable
 70
     1
100
AcDbDimStyleTable
  0
DIMSTYLE
105
27
330
A
100
AcDbSymbolTableRecord
100
AcDbDimStyleTableRecord
  2
ISO-25
 70
     0
 41
2.5
 42
0.625
 43
3.75
 44
1.25
 73
     0
 74
     0
 77
     1
 78
     8
140
2.5
141
2.5
143
0.0393700787
147
0.625
171
     3
172
     1
178
     0
271
     2
272
     2
274
     3
278
    44
283
     0
284
     8
340
11
  0
ENDTAB
  0
TABLE
  2
BLOCK_RECORD
  5
1
330
0
100
AcDbSymbolTable
 70
    12
  0
BLOCK_RECORD
  5
1F
330
1
100
AcDbSymbolTableRecord
100
AcDbBlockTableRecord
  2
*Model_Space
340
22
  0
BLOCK_RECORD
  5
1B
330
1
100
AcDbSymbolTableRecord
100
AcDbBlockTableRecord
  2
*Paper_Space
340
1E
  0
BLOCK_RECORD
  5
23
330
1
100
AcDbSymbolTableRecord
100
AcDbBlockTableRecord
  2
*Paper_Space0
340
26
  0
BLOCK_RECORD
  5
74
330
1
100
AcDbSymbolTableRecord
100
AcDbBlockTableRecord
  2
Yleistoleranssit
340
0
  0
BLOCK_RECORD
  5
88
330
1
100
AcDbSymbolTableRecord
100
AcDbBlockTableRecord
  2
SW_NOTE_0
340
0
102
{BLKREFS
331
98
102
}
  0
BLOCK_RECORD
  5
99
330
1
100
AcDbSymbolTableRecord
100
AcDbBlockTableRecord
  2
SW_NOTE_1
340
0
102
{BLKREFS
331
A1
102
}
  0
BLOCK_RECORD
  5
A2
330
1
100
AcDbSymbolTableRecord
100
AcDbBlockTableRecord
  2
SW_NOTE_2
340
0
102
{BLKREFS
331
A7
102
}
  0
BLOCK_RECORD
  5
A9
330
1
100
AcDbSymbolTableRecord
100
AcDbBlockTableRecord
  2
SW_NOTE_3
340
0
102
{BLKREFS
331
B8
102
}
  0
BLOCK_RECORD
  5
B9
330
1
100
AcDbSymbolTableRecord
100
AcDbBlockTableRecord
  2
SW_NOTE_4
340
0
102
{BLKREFS
331
C8
102
}
  0
BLOCK_RECORD
  5
C9
330
1
100
AcDbSymbolTableRecord
100
AcDbBlockTableRecord
  2
SW_NOTE_5
340
0
102
{BLKREFS
331
D4
102
}
  0
BLOCK_RECORD
  5
D5
330
1
100
AcDbSymbolTableRecord
100
AcDbBlockTableRecord
  2
SW_NOTE_6
340
0
102
{BLKREFS
331
E0
102
}
  0
BLOCK_RECORD
  5
E1
330
1
100
AcDbSymbolTableRecord
100
AcDbBlockTableRecord
  2
SW_NOTE_7
340
0
102
{BLKREFS
331
EC
102
}
  0
BLOCK_RECORD
  5
ED
330
1
100
AcDbSymbolTableRecord
100
AcDbBlockTableRecord
  2
SW_NOTE_8
340
0
102
{BLKREFS
331
F8
102
}
  0
BLOCK_RECORD
  5
F9
330
1
100
AcDbSymbolTableRecord
100
AcDbBlockTableRecord
  2
SW_NOTE_9
340
0
102
{BLKREFS
331
103
102
}
  0
ENDTAB
  0
ENDSEC
  0
SECTION
  2
BLOCKS
  0
BLOCK
  5
20
330
1F
100
AcDbEntity
  8
0
100
AcDbBlockBegin
  2
*Model_Space
 70
     0
 10
0.0
 20
0.0
 30
0.0
  3
*Model_Space
  1

  0
ENDBLK
  5
21
330
1F
100
AcDbEntity
  8
0
100
AcDbBlockEnd
  0
BLOCK
  5
1C
330
1B
100
AcDbEntity
 67
     1
  8
0
100
AcDbBlockBegin
  2
*Paper_Space
 70
     0
 10
0.0
 20
0.0
 30
0.0
  3
*Paper_Space
  1

  0
ENDBLK
  5
1D
330
1B
100
AcDbEntity
 67
     1
  8
0
100
AcDbBlockEnd
  0
BLOCK
  5
24
330
23
100
AcDbEntity
  8
0
100
AcDbBlockBegin
  2
*Paper_Space0
 70
     0
 10
0.0
 20
0.0
 30
0.0
  3
*Paper_Space0
  1

  0
ENDBLK
  5
25
330
23
100
AcDbEntity
  8
0
100
AcDbBlockEnd
  0
BLOCK
  5
75
330
74
100
AcDbEntity
  8
0
100
AcDbBlockBegin
  2
Yleistoleranssit
 70
     0
 10
0.0
 20
0.0
 30
0.0
  3
Yleistoleranssit
  1

  0
LINE
  5
77
330
74
100
AcDbEntity
  8
0
  6
Continuous
 62
     7
370
    18
100
AcDbLine
 10
-128.0
 20
20.3216674369
 30
0.0
 11
0.0
 21
20.3216674369
 31
0.0
  0
LINE
  5
78
330
74
100
AcDbEntity
  8
0
  6
Continuous
 62
     7
370
    18
100
AcDbLine
 10
-128.0
 20
0.0
 30
0.0
 11
0.0
 21
0.0
 31
0.0
  0
LINE
  5
79
330
74
100
AcDbEntity
  8
0
  6
Continuous
 62
     7
370
    18
100
AcDbLine
 10
-128.0
 20
0.0
 30
0.0
 11
-128.0
 21
29.3217161766
 31
0.0
  0
LINE
  5
7A
330
74
100
AcDbEntity
  8
0
  6
Continuous
 62
     7
370
    18
100
AcDbLine
 10
-128.0
 20
29.3217161766
 30
0.0
 11
0.0
 21
29.3217161766
 31
0.0
  0
LINE
  5
7B
330
74
100
AcDbEntity
  8
0
  6
Continuous
 62
     7
370
    18
100
AcDbLine
 10
0.0
 20
0.0
 30
0.0
 11
0.0
 21
29.3217161766
 31
0.0
  0
LINE
  5
7C
330
74
100
AcDbEntity
  8
0
  6
Continuous
 62
     7
370
    18
100
AcDbLine
 10
-90.0
 20
29.3217161766
 30
0.0
 11
-90.0
 21
0.0
 31
0.0
  0
LINE
  5
7D
330
74
100
AcDbEntity
  8
0
  6
Continuous
 62
     7
370
    18
100
AcDbLine
 10
-80.3584652713
 20
29.3217161766
 30
0.0
 11
-80.3584652713
 21
0.0
 31
0.0
  0
LINE
  5
7E
330
74
100
AcDbEntity
  8
0
  6
Continuous
 62
     7
370
    18
100
AcDbLine
 10
-69.4492027691
 20
29.3217161766
 30
0.0
 11
-69.4492027691
 21
0.0
 31
0.0
  0
LINE
  5
7F
330
74
100
AcDbEntity
  8
0
  6
Continuous
 62
     7
370
    18
100
AcDbLine
 10
-58.7696089512
 20
29.3217161766
 30
0.0
 11
-58.7696089512
 21
0.0
 31
0.0
  0
LINE
  5
80
330
74
100
AcDbEntity
  8
0
  6
Continuous
 62
     7
370
    18
100
AcDbLine
 10
-47.7455121069
 20
29.3217161766
 30
0.0
 11
-47.7455121069
 21
0.0
 31
0.0
  0
LINE
  5
81
330
74
100
AcDbEntity
  8
0
  6
Continuous
 62
     7
370
    18
100
AcDbLine
 10
-36.6065809205
 20
29.3217161766
 30
0.0
 11
-36.6065809205
 21
0.0
 31
0.0
  0
LINE
  5
82
330
74
100
AcDbEntity
  8
0
  6
Continuous
 62
     7
370
    18
100
AcDbLine
 10
-24.7786436813
 20
29.3217161766
 30
0.0
 11
-24.7786436813
 21
0.0
 31
0.0
  0
LINE
  5
83
330
74
100
AcDbEntity
  8
0
  6
Continuous
 62
     7
370
    18
100
AcDbLine
 10
-12.9507064421
 20
29.3217161766
 30
0.0
 11
-12.9507064421
 21
0.0
 31
0.0
  0
LINE
  5
84
330
74
100
AcDbEntity
  8
0
  6
Continuous
 62
     7
370
    18
100
AcDbLine
 10
0.0
 20
14.5097209922
 30
0.0
 11
-107.7846503106
 21
14.5097209922
 31
0.0
  0
LINE
  5
85
330
74
100
AcDbEntity
  8
0
  6
Continuous
 62
     7
370
    18
100
AcDbLine
 10
0.0
 20
10.9748969649
 30
0.0
 11
-107.7846503106
 21
10.9748969649
 31
0.0
  0
LINE
  5
86
330
74
100
AcDbEntity
  8
0
  6
Continuous
 62
     7
370
    18
100
AcDbLine
 10
0.0
 20
7.3822732316
 30
0.0
 11
-128.0
 21
7.3822732316
 31
0.0
  0
LINE
  5
87
330
74
100
AcDbEntity
  8
0
  6
Continuous
 62
     7
370
    18
100
AcDbLine
 10
0.0
 20
3.8731988874
 30
0.0
 11
-107.7846503106
 21
3.8731988874
 31
0.0
  0
INSERT
  5
98
330
74
100
AcDbEntity
  8
0
  6
Continuous
 62
     7
370
     0
100
AcDbBlockReference
  2
SW_NOTE_0
 10
-88.8934240335
 20
25.2353325833
 30
0.0
  0
INSERT
  5
A1
330
74
100
AcDbEntity
  8
0
  6
Continuous
 62
     7
370
     0
100
AcDbBlockReference
  2
SW_NOTE_1
 10
-107.3133833053
 20
14.6653564798
 30
0.0
  0
INSERT
  5
A7
330
74
100
AcDbEntity
  8
0
  6
Continuous
 62
     7
370
     0
100
AcDbBlockReference
  2
SW_NOTE_2
 10
-127.0419636585
 20
14.6653560141
 30
0.0
  0
MTEXT
  5
A8
330
74
100
AcDbEntity
  8
0
  6
Continuous
 62
     7
370
     0
100
AcDbMText
 10
-127.2347267983
 20
27.0028750836
 30
0.0
 40
2.5
 41
0.0
 71
     1
 72
     1
  1
YLEISTOLERANSSIT
  7
SLDTEXTSTYLE0
 73
     1
 44
1.0
  0
INSERT
  5
B8
330
74
100
AcDbEntity
  8
0
  6
Continuous
 62
     7
370
     0
100
AcDbBlockReference
  2
SW_NOTE_3
 10
-78.0477680533
 20
25.2353321177
 30
0.0
  0
INSERT
  5
C8
330
74
100
AcDbEntity
  8
0
  6
Continuous
 62
     7
370
     0
100
AcDbBlockReference
  2
SW_NOTE_4
 10
-66.7605496266
 20
25.2353321177
 30
0.0
  0
INSERT
  5
D4
330
74
100
AcDbEntity
  8
0
  6
Continuous
 62
     7
370
     0
100
AcDbBlockReference
  2
SW_NOTE_5
 10
-56.7318587441
 20
25.2353321177
 30
0.0
  0
INSERT
  5
E0
330
74
100
AcDbEntity
  8
0
  6
Continuous
 62
     7
370
     0
100
AcDbBlockReference
  2
SW_NOTE_6
 10
-45.8721539112
 20
25.2353321177
 30
0.0
  0
INSERT
  5
EC
330
74
100
AcDbEntity
  8
0
  6
Continuous
 62
     7
370
     0
100
AcDbBlockReference
  2
SW_NOTE_7
 10
-34.7850954787
 20
25.235331652
 30
0.0
  0
INSERT
  5
F8
330
74
100
AcDbEntity
  8
0
  6
Continuous
 62
     7
370
     0
100
AcDbBlockReference
  2
SW_NOTE_8
 10
-22.9284213192
 20
25.235331652
 30
0.0
  0
INSERT
  5
103
330
74
100
AcDbEntity
  8
0
  6
Continuous
 62
     7
370
     0
100
AcDbBlockReference
  2
SW_NOTE_9
 10
-11.1052457585
 20
25.2353325833
 30
0.0
  0
ENDBLK
  5
76
330
74
100
AcDbEntity
  8
0
100
AcDbBlockEnd
  0
BLOCK
  5
89
330
88
100
AcDbEntity
  8
0
100
AcDbBlockBegin
  2
SW_NOTE_0
 70
     0
 10
0.0
 20
0.0
 30
0.0
  3
SW_NOTE_0
  1

  0
MTEXT
  5
8C
330
88
100
AcDbEntity
  8
0
  6
Continuous
 62
     0
370
     0
100
AcDbMText
 10
1.5
 20
2.5781354795
 30
0.0
 40
2.0
 41
0.0
 71
     1
 72
     1
  1
>0,5
  7
SLDTEXTSTYLE0
 73
     1
 44
1.0
  0
MTEXT
  5
8D
330
88
100
AcDbEntity
  8
0
  6
Continuous
 62
     0
370
     0
100
AcDbMText
 10
0.0
 20
-0.9218646285
 30
0.0
 40
2.0
 41
0.0
 71
     1
 72
     1
  1
=<3
  7
SLDTEXTSTYLE0
 73
     1
 44
1.0
  0
MTEXT
  5
8E
330
88
100
AcDbEntity
  8
0
  6
Continuous
 62
     0
370
     0
100
AcDbMText
 10
0.0
 20
-7.9218648446
 30
0.0
 40
2.0
 41
0.0
 71
     1
 72
     1
  1
%%p
  7
SLDTEXTSTYLE0
 73
     1
 44
1.0
  0
MTEXT
  5
8F
330
88
100
AcDbEntity
  8
0
  6
Continuous
 62
     0
370
     0
100
AcDbMText
 10
1.8416666426
 20
-7.9218648446
 30
0.0
 40
2.0
 41
0.0
 71
     1
 72
     1
  1
0,05
  7
SLDTEXTSTYLE0
 73
     1
 44
1.0
  0
MTEXT
  5
90
330
88
100
AcDbEntity
  8
0
  6
Continuous
 62
     0
370
     0
100
AcDbMText
 10
0.0
 20
-11.4218649526
 30
0.0
 40
2.0
 41
0.0
 71
     1
 72
     1
  1
%%p
  7
SLDTEXTSTYLE0
 73
     1
 44
1.0
  0
MTEXT
  5
91
330
88
100
AcDbEntity
  8
0
  6
Continuous
 62
     0
370
     0
100
AcDbMText
 10
1.8416666426
 20
-11.4218649526
 30
0.0
 40
2.0
 41
0.0
 71
     1
 72
     1
  1
0,1
  7
SLDTEXTSTYLE0
 73
     1
 44
1.0
  0
MTEXT
  5
92
330
88
100
AcDbEntity
  8
0
  6
Continuous
 62
     0
370
     0
100
AcDbMText
 10
0.0
 20
-14.9218650606
 30
0.0
 40
2.0
 41
0.0
 71
     1
 72
     1
  1
%%p
  7
SLDTEXTSTYLE0
 73
     1
 44
1.0
  0
MTEXT
  5
93
330
88
100
AcDbEntity
  8
0
  6
Continuous
 62
     0
370
     0
100
AcDbMText
 10
1.8416666426
 20
-14.9218650606
 30
0.0
 40
2.0
 41
0.0
 71
     1
 72
     1
  1
0,2
  7
SLDTEXTSTYLE0
 73
     1
 44
1.0
  0
MTEXT
  5
94
330
88
100
AcDbEntity
  8
0
  6
Continuous
 62
     0
370
     0
100
AcDbMText
 10
0.0
 20
-18.4218651687
 30
0.0
 40
2.0
 41
0.0
 71
     1
 72
     1
  1
%%p
  7
SLDTEXTSTYLE0
 73
     1
 44
1.0
  0
MTEXT
  5
95
330
88
100
AcDbEntity
  8
0
  6
Continuous
 62
     0
370
     0
100
AcDbMText
 10
1.8416666426
 20
-18.4218651687
 30
0.0
 40
2.0
 41
0.0
 71
     1
 72
     1
  1
0,2
  7
SLDTEXTSTYLE0
 73
     1
 44
1.0
  0
MTEXT
  5
96
330
88
100
AcDbEntity
  8
0
  6
Continuous
 62
     0
370
     0
100
AcDbMText
 10
0.0
 20
-21.9218652767
 30
0.0
 40
2.0
 41
0.0
 71
     1
 72
     1
  1
%%p
  7
SLDTEXTSTYLE0
 73
     1
 44
1.0
  0
MTEXT
  5
97
330
88
100
AcDbEntity
  8
0
  6
Continuous
 62
     0
370
     0
100
AcDbMText
 10
1.8416666426
 20
-21.9218652767
 30
0.0
 40
2.0
 41
0.0
 71
     1
 72
     1
  1
0,4
  7
SLDTEXTSTYLE0
 73
     1
 44
1.0
  0
ENDBLK
  5
8A
330
88
100
AcDbEntity
  8
0
100
AcDbBlockEnd
  0
BLOCK
  5
9A
330
99
100
AcDbEntity
  8
0
100
AcDbBlockBegin
  2
SW_NOTE_1
 70
     0
 10
0.0
 20
0.0
 30
0.0
  3
SW_NOTE_1
  1

  0
MTEXT
  5
9C
330
99
100
AcDbEntity
  8
0
  6
Continuous
 62
     0
370
     0
100
AcDbMText
 10
0.0
 20
2.5781354795
 30
0.0
 40
2.0
 41
0.0
 71
     1
 72
     1
  1
ISO-2768-f
  7
SLDTEXTSTYLE0
 73
     1
 44
1.0
  0
MTEXT
  5
9D
330
99
100
AcDbEntity
  8
0
  6
Continuous
 62
     0
370
     0
100
AcDbMText
 10
0.0
 20
-0.9218646285
 30
0.0
 40
2.0
 41
0.0
 71
     1
 72
     1
  1
ISO-2768-m
  7
SLDTEXTSTYLE0
 73
     1
 44
1.0
  0
MTEXT
  5
9E
330
99
100
AcDbEntity
  8
0
  6
Continuous
 62
     0
370
     0
100
AcDbMText
 10
0.0
 20
-4.4218647365
 30
0.0
 40
2.0
 41
0.0
 71
     1
 72
     1
  1
ISO-2768-c
  7
SLDTEXTSTYLE0
 73
     1
 44
1.0
  0
MTEXT
  5
9F
330
99
100
AcDbEntity
  8
0
  6
Continuous
 62
     0
370
     0
100
AcDbMText
 10
0.0
 20
-7.9218648446
 30
0.0
 40
2.0
 41
0.0
 71
     1
 72
     1
  1
ISO-2768-f/m
  7
SLDTEXTSTYLE0
 73
     1
 44
1.0
  0
MTEXT
  5
A0
330
99
100
AcDbEntity
  8
0
  6
Continuous
 62
     0
370
     0
100
AcDbMText
 10
0.0
 20
-11.4218649526
 30
0.0
 40
2.0
 41
0.0
 71
     1
 72
     1
  1
ISO-2768-c
  7
SLDTEXTSTYLE0
 73
     1
 44
1.0
  0
ENDBLK
  5
9B
330
99
100
AcDbEntity
  8
0
100
AcDbBlockEnd
  0
BLOCK
  5
A3
330
A2
100
AcDbEntity
  8
0
100
AcDbBlockBegin
  2
SW_NOTE_2
 70
     0
 10
0.0
 20
0.0
 30
0.0
  3
SW_NOTE_2
  1

  0
MTEXT
  5
A5
330
A2
100
AcDbEntity
  8
0
  6
Continuous
 62
     0
370
     0
100
AcDbMText
 10
0.0
 20
2.5781354795
 30
0.0
 40
2.0
 41
0.0
 71
     1
 72
     1
  1
Pituusmitat
  7
SLDTEXTSTYLE0
 73
     1
 44
1.0
  0
MTEXT
  5
A6
330
A2
100
AcDbEntity
  8
0
  6
Continuous
 62
     0
370
     0
100
AcDbMText
 10
0.0
 20
-7.9218648446
 30
0.0
 40
2.0
 41
0.0
 71
     1
 72
     1
  1
Säteet, viisteet
  7
SLDTEXTSTYLE0
 73
     1
 44
1.0
  0
ENDBLK
  5
A4
330
A2
100
AcDbEntity
  8
0
100
AcDbBlockEnd
  0
BLOCK
  5
AA
330
A9
100
AcDbEntity
  8
0
100
AcDbBlockBegin
  2
SW_NOTE_3
 70
     0
 10
0.0
 20
0.0
 30
0.0
  3
SW_NOTE_3
  1

  0
MTEXT
  5
AC
330
A9
100
AcDbEntity
  8
0
  6
Continuous
 62
     0
370
     0
100
AcDbMText
 10
1.5
 20
2.5781354795
 30
0.0
 40
2.0
 41
0.0
 71
     1
 72
     1
  1
>3
  7
SLDTEXTSTYLE0
 73
     1
 44
1.0
  0
MTEXT
  5
AD
330
A9
100
AcDbEntity
  8
0
  6
Continuous
 62
     0
370
     0
100
AcDbMText
 10
0.0
 20
-0.9218646285
 30
0.0
 40
2.0
 41
0.0
 71
     1
 72
     1
  1
=<6
  7
SLDTEXTSTYLE0
 73
     1
 44
1.0
  0
MTEXT
  5
AE
330
A9
100
AcDbEntity
  8
0
  6
Continuous
 62
     0
370
     0
100
AcDbMText
 10
0.0
 20
-7.9218648446
 30
0.0
 40
2.0
 41
0.0
 71
     1
 72
     1
  1
%%p
  7
SLDTEXTSTYLE0
 73
     1
 44
1.0
  0
MTEXT
  5
AF
330
A9
100
AcDbEntity
  8
0
  6
Continuous
 62
     0
370
     0
100
AcDbMText
 10
1.8416666426
 20
-7.9218648446
 30
0.0
 40
2.0
 41
0.0
 71
     1
 72
     1
  1
0,05
  7
SLDTEXTSTYLE0
 73
     1
 44
1.0
  0
MTEXT
  5
B0
330
A9
100
AcDbEntity
  8
0
  6
Continuous
 62
     0
370
     0
100
AcDbMText
 10
0.0
 20
-11.4218649526
 30
0.0
 40
2.0
 41
0.0
 71
     1
 72
     1
  1
%%p
  7
SLDTEXTSTYLE0
 73
     1
 44
1.0
  0
MTEXT
  5
B1
330
A9
100
AcDbEntity
  8
0
  6
Continuous
 62
     0
370
     0
100
AcDbMText
 10
1.8416666426
 20
-11.4218649526
 30
0.0
 40
2.0
 41
0.0
 71
     1
 72
     1
  1
0,1
  7
SLDTEXTSTYLE0
 73
     1
 44
1.0
  0
MTEXT
  5
B2
330
A9
100
AcDbEntity
  8
0
  6
Continuous
 62
     0
370
     0
100
AcDbMText
 10
0.0
 20
-14.9218650606
 30
0.0
 40
2.0
 41
0.0
 71
     1
 72
     1
  1
%%p
  7
SLDTEXTSTYLE0
 73
     1
 44
1.0
  0
MTEXT
  5
B3
330
A9
100
AcDbEntity
  8
0
  6
Continuous
 62
     0
370
     0
100
AcDbMText
 10
1.8416666426
 20
-14.9218650606
 30
0.0
 40
2.0
 41
0.0
 71
     1
 72
     1
  1
0,3
  7
SLDTEXTSTYLE0
 73
     1
 44
1.0
  0
MTEXT
  5
B4
330
A9
100
AcDbEntity
  8
0
  6
Continuous
 62
     0
370
     0
100
AcDbMText
 10
0.0
 20
-18.4218651687
 30
0.0
 40
2.0
 41
0.0
 71
     1
 72
     1
  1
%%p
  7
SLDTEXTSTYLE0
 73
     1
 44
1.0
  0
MTEXT
  5
B5
330
A9
100
AcDbEntity
  8
0
  6
Continuous
 62
     0
370
     0
100
AcDbMText
 10
1.8416666426
 20
-18.4218651687
 30
0.0
 40
2.0
 41
0.0
 71
     1
 72
     1
  1
0,5
  7
SLDTEXTSTYLE0
 73
     1
 44
1.0
  0
MTEXT
  5
B6
330
A9
100
AcDbEntity
  8
0
  6
Continuous
 62
     0
370
     0
100
AcDbMText
 10
0.0
 20
-21.9218652767
 30
0.0
 40
2.0
 41
0.0
 71
     1
 72
     1
  1
%%p
  7
SLDTEXTSTYLE0
 73
     1
 44
1.0
  0
MTEXT
  5
B7
330
A9
100
AcDbEntity
  8
0
  6
Continuous
 62
     0
370
     0
100
AcDbMText
 10
1.8416666426
 20
-21.9218652767
 30
0.0
 40
2.0
 41
0.0
 71
     1
 72
     1
  1
1
  7
SLDTEXTSTYLE0
 73
     1
 44
1.0
  0
ENDBLK
  5
AB
330
A9
100
AcDbEntity
  8
0
100
AcDbBlockEnd
  0
BLOCK
  5
BA
330
B9
100
AcDbEntity
  8
0
100
AcDbBlockBegin
  2
SW_NOTE_4
 70
     0
 10
0.0
 20
0.0
 30
0.0
  3
SW_NOTE_4
  1

  0
MTEXT
  5
BC
330
B9
100
AcDbEntity
  8
0
  6
Continuous
 62
     0
370
     0
100
AcDbMText
 10
1.5
 20
2.5781354795
 30
0.0
 40
2.0
 41
0.0
 71
     1
 72
     1
  1
>6
  7
SLDTEXTSTYLE0
 73
     1
 44
1.0
  0
MTEXT
  5
BD
330
B9
100
AcDbEntity
  8
0
  6
Continuous
 62
     0
370
     0
100
AcDbMText
 10
0.0
 20
-0.9218646285
 30
0.0
 40
2.0
 41
0.0
 71
     1
 72
     1
  1
=<30
  7
SLDTEXTSTYLE0
 73
     1
 44
1.0
  0
MTEXT
  5
BE
330
B9
100
AcDbEntity
  8
0
  6
Continuous
 62
     0
370
     0
100
AcDbMText
 10
0.0
 20
-7.9218648446
 30
0.0
 40
2.0
 41
0.0
 71
     1
 72
     1
  1
%%p
  7
SLDTEXTSTYLE0
 73
     1
 44
1.0
  0
MTEXT
  5
BF
330
B9
100
AcDbEntity
  8
0
  6
Continuous
 62
     0
370
     0
100
AcDbMText
 10
1.8416666426
 20
-7.9218648446
 30
0.0
 40
2.0
 41
0.0
 71
     1
 72
     1
  1
0,1
  7
SLDTEXTSTYLE0
 73
     1
 44
1.0
  0
MTEXT
  5
C0
330
B9
100
AcDbEntity
  8
0
  6
Continuous
 62
     0
370
     0
100
AcDbMText
 10
0.0
 20
-11.4218649526
 30
0.0
 40
2.0
 41
0.0
 71
     1
 72
     1
  1
%%p
  7
SLDTEXTSTYLE0
 73
     1
 44
1.0
  0
MTEXT
  5
C1
330
B9
100
AcDbEntity
  8
0
  6
Continuous
 62
     0
370
     0
100
AcDbMText
 10
1.8416666426
 20
-11.4218649526
 30
0.0
 40
2.0
 41
0.0
 71
     1
 72
     1
  1
0,2
  7
SLDTEXTSTYLE0
 73
     1
 44
1.0
  0
MTEXT
  5
C2
330
B9
100
AcDbEntity
  8
0
  6
Continuous
 62
     0
370
     0
100
AcDbMText
 10
0.0
 20
-14.9218650606
 30
0.0
 40
2.0
 41
0.0
 71
     1
 72
     1
  1
%%p
  7
SLDTEXTSTYLE0
 73
     1
 44
1.0
  0
MTEXT
  5
C3
330
B9
100
AcDbEntity
  8
0
  6
Continuous
 62
     0
370
     0
100
AcDbMText
 10
1.8416666426
 20
-14.9218650606
 30
0.0
 40
2.0
 41
0.0
 71
     1
 72
     1
  1
0,5
  7
SLDTEXTSTYLE0
 73
     1
 44
1.0
  0
MTEXT
  5
C4
330
B9
100
AcDbEntity
  8
0
  6
Continuous
 62
     0
370
     0
100
AcDbMText
 10
0.0
 20
-18.4218651687
 30
0.0
 40
2.0
 41
0.0
 71
     1
 72
     1
  1
%%p
  7
SLDTEXTSTYLE0
 73
     1
 44
1.0
  0
MTEXT
  5
C5
330
B9
100
AcDbEntity
  8
0
  6
Continuous
 62
     0
370
     0
100
AcDbMText
 10
1.8416666426
 20
-18.4218651687
 30
0.0
 40
2.0
 41
0.0
 71
     1
 72
     1
  1
1
  7
SLDTEXTSTYLE0
 73
     1
 44
1.0
  0
MTEXT
  5
C6
330
B9
100
AcDbEntity
  8
0
  6
Continuous
 62
     0
370
     0
100
AcDbMText
 10
0.0
 20
-21.9218652767
 30
0.0
 40
2.0
 41
0.0
 71
     1
 72
     1
  1
%%p
  7
SLDTEXTSTYLE0
 73
     1
 44
1.0
  0
MTEXT
  5
C7
330
B9
100
AcDbEntity
  8
0
  6
Continuous
 62
     0
370
     0
100
AcDbMText
 10
1.8416666426
 20
-21.9218652767
 30
0.0
 40
2.0
 41
0.0
 71
     1
 72
     1
  1
2
  7
SLDTEXTSTYLE0
 73
     1
 44
1.0
  0
ENDBLK
  5
BB
330
B9
100
AcDbEntity
  8
0
100
AcDbBlockEnd
  0
BLOCK
  5
CA
330
C9
100
AcDbEntity
  8
0
100
AcDbBlockBegin
  2
SW_NOTE_5
 70
     0
 10
0.0
 20
0.0
 30
0.0
  3
SW_NOTE_5
  1

  0
MTEXT
  5
CC
330
C9
100
AcDbEntity
  8
0
  6
Continuous
 62
     0
370
     0
100
AcDbMText
 10
1.5
 20
2.5781354795
 30
0.0
 40
2.0
 41
0.0
 71
     1
 72
     1
  1
>30
  7
SLDTEXTSTYLE0
 73
     1
 44
1.0
  0
MTEXT
  5
CD
330
C9
100
AcDbEntity
  8
0
  6
Continuous
 62
     0
370
     0
100
AcDbMText
 10
0.0
 20
-0.9218646285
 30
0.0
 40
2.0
 41
0.0
 71
     1
 72
     1
  1
=<120
  7
SLDTEXTSTYLE0
 73
     1
 44
1.0
  0
MTEXT
  5
CE
330
C9
100
AcDbEntity
  8
0
  6
Continuous
 62
     0
370
     0
100
AcDbMText
 10
0.0
 20
-7.9218648446
 30
0.0
 40
2.0
 41
0.0
 71
     1
 72
     1
  1
%%p
  7
SLDTEXTSTYLE0
 73
     1
 44
1.0
  0
MTEXT
  5
CF
330
C9
100
AcDbEntity
  8
0
  6
Continuous
 62
     0
370
     0
100
AcDbMText
 10
1.8416666426
 20
-7.9218648446
 30
0.0
 40
2.0
 41
0.0
 71
     1
 72
     1
  1
0,15
  7
SLDTEXTSTYLE0
 73
     1
 44
1.0
  0
MTEXT
  5
D0
330
C9
100
AcDbEntity
  8
0
  6
Continuous
 62
     0
370
     0
100
AcDbMText
 10
0.0
 20
-11.4218649526
 30
0.0
 40
2.0
 41
0.0
 71
     1
 72
     1
  1
%%p
  7
SLDTEXTSTYLE0
 73
     1
 44
1.0
  0
MTEXT
  5
D1
330
C9
100
AcDbEntity
  8
0
  6
Continuous
 62
     0
370
     0
100
AcDbMText
 10
1.8416666426
 20
-11.4218649526
 30
0.0
 40
2.0
 41
0.0
 71
     1
 72
     1
  1
0,3
  7
SLDTEXTSTYLE0
 73
     1
 44
1.0
  0
MTEXT
  5
D2
330
C9
100
AcDbEntity
  8
0
  6
Continuous
 62
     0
370
     0
100
AcDbMText
 10
0.0
 20
-14.9218650606
 30
0.0
 40
2.0
 41
0.0
 71
     1
 72
     1
  1
%%p
  7
SLDTEXTSTYLE0
 73
     1
 44
1.0
  0
MTEXT
  5
D3
330
C9
100
AcDbEntity
  8
0
  6
Continuous
 62
     0
370
     0
100
AcDbMText
 10
1.8416666426
 20
-14.9218650606
 30
0.0
 40
2.0
 41
0.0
 71
     1
 72
     1
  1
0,8
  7
SLDTEXTSTYLE0
 73
     1
 44
1.0
  0
ENDBLK
  5
CB
330
C9
100
AcDbEntity
  8
0
100
AcDbBlockEnd
  0
BLOCK
  5
D6
330
D5
100
AcDbEntity
  8
0
100
AcDbBlockBegin
  2
SW_NOTE_6
 70
     0
 10
0.0
 20
0.0
 30
0.0
  3
SW_NOTE_6
  1

  0
MTEXT
  5
D8
330
D5
100
AcDbEntity
  8
0
  6
Continuous
 62
     0
370
     0
100
AcDbMText
 10
1.5
 20
2.5781354795
 30
0.0
 40
2.0
 41
0.0
 71
     1
 72
     1
  1
>120
  7
SLDTEXTSTYLE0
 73
     1
 44
1.0
  0
MTEXT
  5
D9
330
D5
100
AcDbEntity
  8
0
  6
Continuous
 62
     0
370
     0
100
AcDbMText
 10
0.0
 20
-0.9218646285
 30
0.0
 40
2.0
 41
0.0
 71
     1
 72
     1
  1
=<400
  7
SLDTEXTSTYLE0
 73
     1
 44
1.0
  0
MTEXT
  5
DA
330
D5
100
AcDbEntity
  8
0
  6
Continuous
 62
     0
370
     0
100
AcDbMText
 10
0.0
 20
-7.9218648446
 30
0.0
 40
2.0
 41
0.0
 71
     1
 72
     1
  1
%%p
  7
SLDTEXTSTYLE0
 73
     1
 44
1.0
  0
MTEXT
  5
DB
330
D5
100
AcDbEntity
  8
0
  6
Continuous
 62
     0
370
     0
100
AcDbMText
 10
1.8416666426
 20
-7.9218648446
 30
0.0
 40
2.0
 41
0.0
 71
     1
 72
     1
  1
0,2
  7
SLDTEXTSTYLE0
 73
     1
 44
1.0
  0
MTEXT
  5
DC
330
D5
100
AcDbEntity
  8
0
  6
Continuous
 62
     0
370
     0
100
AcDbMText
 10
0.0
 20
-11.4218649526
 30
0.0
 40
2.0
 41
0.0
 71
     1
 72
     1
  1
%%p
  7
SLDTEXTSTYLE0
 73
     1
 44
1.0
  0
MTEXT
  5
DD
330
D5
100
AcDbEntity
  8
0
  6
Continuous
 62
     0
370
     0
100
AcDbMText
 10
1.8416666426
 20
-11.4218649526
 30
0.0
 40
2.0
 41
0.0
 71
     1
 72
     1
  1
0,5
  7
SLDTEXTSTYLE0
 73
     1
 44
1.0
  0
MTEXT
  5
DE
330
D5
100
AcDbEntity
  8
0
  6
Continuous
 62
     0
370
     0
100
AcDbMText
 10
0.0
 20
-14.9218650606
 30
0.0
 40
2.0
 41
0.0
 71
     1
 72
     1
  1
%%p
  7
SLDTEXTSTYLE0
 73
     1
 44
1.0
  0
MTEXT
  5
DF
330
D5
100
AcDbEntity
  8
0
  6
Continuous
 62
     0
370
     0
100
AcDbMText
 10
1.8416666426
 20
-14.9218650606
 30
0.0
 40
2.0
 41
0.0
 71
     1
 72
     1
  1
1,2
  7
SLDTEXTSTYLE0
 73
     1
 44
1.0
  0
ENDBLK
  5
D7
330
D5
100
AcDbEntity
  8
0
100
AcDbBlockEnd
  0
BLOCK
  5
E2
330
E1
100
AcDbEntity
  8
0
100
AcDbBlockBegin
  2
SW_NOTE_7
 70
     0
 10
0.0
 20
0.0
 30
0.0
  3
SW_NOTE_7
  1

  0
MTEXT
  5
E4
330
E1
100
AcDbEntity
  8
0
  6
Continuous
 62
     0
370
     0
100
AcDbMText
 10
1.5
 20
2.5781354795
 30
0.0
 40
2.0
 41
0.0
 71
     1
 72
     1
  1
>400
  7
SLDTEXTSTYLE0
 73
     1
 44
1.0
  0
MTEXT
  5
E5
330
E1
100
AcDbEntity
  8
0
  6
Continuous
 62
     0
370
     0
100
AcDbMText
 10
0.0
 20
-0.9218646285
 30
0.0
 40
2.0
 41
0.0
 71
     1
 72
     1
  1
=<1000
  7
SLDTEXTSTYLE0
 73
     1
 44
1.0
  0
MTEXT
  5
E6
330
E1
100
AcDbEntity
  8
0
  6
Continuous
 62
     0
370
     0
100
AcDbMText
 10
0.0
 20
-7.9218648446
 30
0.0
 40
2.0
 41
0.0
 71
     1
 72
     1
  1
%%p
  7
SLDTEXTSTYLE0
 73
     1
 44
1.0
  0
MTEXT
  5
E7
330
E1
100
AcDbEntity
  8
0
  6
Continuous
 62
     0
370
     0
100
AcDbMText
 10
1.8416666426
 20
-7.9218648446
 30
0.0
 40
2.0
 41
0.0
 71
     1
 72
     1
  1
0,3
  7
SLDTEXTSTYLE0
 73
     1
 44
1.0
  0
MTEXT
  5
E8
330
E1
100
AcDbEntity
  8
0
  6
Continuous
 62
     0
370
     0
100
AcDbMText
 10
0.0
 20
-11.4218649526
 30
0.0
 40
2.0
 41
0.0
 71
     1
 72
     1
  1
%%p
  7
SLDTEXTSTYLE0
 73
     1
 44
1.0
  0
MTEXT
  5
E9
330
E1
100
AcDbEntity
  8
0
  6
Continuous
 62
     0
370
     0
100
AcDbMText
 10
1.8416666426
 20
-11.4218649526
 30
0.0
 40
2.0
 41
0.0
 71
     1
 72
     1
  1
0,8
  7
SLDTEXTSTYLE0
 73
     1
 44
1.0
  0
MTEXT
  5
EA
330
E1
100
AcDbEntity
  8
0
  6
Continuous
 62
     0
370
     0
100
AcDbMText
 10
0.0
 20
-14.9218650606
 30
0.0
 40
2.0
 41
0.0
 71
     1
 72
     1
  1
%%p
  7
SLDTEXTSTYLE0
 73
     1
 44
1.0
  0
MTEXT
  5
EB
330
E1
100
AcDbEntity
  8
0
  6
Continuous
 62
     0
370
     0
100
AcDbMText
 10
1.8416666426
 20
-14.9218650606
 30
0.0
 40
2.0
 41
0.0
 71
     1
 72
     1
  1
1,2
  7
SLDTEXTSTYLE0
 73
     1
 44
1.0
  0
ENDBLK
  5
E3
330
E1
100
AcDbEntity
  8
0
100
AcDbBlockEnd
  0
BLOCK
  5
EE
330
ED
100
AcDbEntity
  8
0
100
AcDbBlockBegin
  2
SW_NOTE_8
 70
     0
 10
0.0
 20
0.0
 30
0.0
  3
SW_NOTE_8
  1

  0
MTEXT
  5
F0
330
ED
100
AcDbEntity
  8
0
  6
Continuous
 62
     0
370
     0
100
AcDbMText
 10
1.5
 20
2.5781354795
 30
0.0
 40
2.0
 41
0.0
 71
     1
 72
     1
  1
>1000
  7
SLDTEXTSTYLE0
 73
     1
 44
1.0
  0
MTEXT
  5
F1
330
ED
100
AcDbEntity
  8
0
  6
Continuous
 62
     0
370
     0
100
AcDbMText
 10
0.0
 20
-0.9218646285
 30
0.0
 40
2.0
 41
0.0
 71
     1
 72
     1
  1
=<2000
  7
SLDTEXTSTYLE0
 73
     1
 44
1.0
  0
MTEXT
  5
F2
330
ED
100
AcDbEntity
  8
0
  6
Continuous
 62
     0
370
     0
100
AcDbMText
 10
0.0
 20
-7.9218648446
 30
0.0
 40
2.0
 41
0.0
 71
     1
 72
     1
  1
%%p
  7
SLDTEXTSTYLE0
 73
     1
 44
1.0
  0
MTEXT
  5
F3
330
ED
100
AcDbEntity
  8
0
  6
Continuous
 62
     0
370
     0
100
AcDbMText
 10
1.8416666426
 20
-7.9218648446
 30
0.0
 40
2.0
 41
0.0
 71
     1
 72
     1
  1
0,5
  7
SLDTEXTSTYLE0
 73
     1
 44
1.0
  0
MTEXT
  5
F4
330
ED
100
AcDbEntity
  8
0
  6
Continuous
 62
     0
370
     0
100
AcDbMText
 10
0.0
 20
-11.4218649526
 30
0.0
 40
2.0
 41
0.0
 71
     1
 72
     1
  1
%%p
  7
SLDTEXTSTYLE0
 73
     1
 44
1.0
  0
MTEXT
  5
F5
330
ED
100
AcDbEntity
  8
0
  6
Continuous
 62
     0
370
     0
100
AcDbMText
 10
1.8416666426
 20
-11.4218649526
 30
0.0
 40
2.0
 41
0.0
 71
     1
 72
     1
  1
1,2
  7
SLDTEXTSTYLE0
 73
     1
 44
1.0
  0
MTEXT
  5
F6
330
ED
100
AcDbEntity
  8
0
  6
Continuous
 62
     0
370
     0
100
AcDbMText
 10
0.0
 20
-14.9218650606
 30
0.0
 40
2.0
 41
0.0
 71
     1
 72
     1
  1
%%p
  7
SLDTEXTSTYLE0
 73
     1
 44
1.0
  0
MTEXT
  5
F7
330
ED
100
AcDbEntity
  8
0
  6
Continuous
 62
     0
370
     0
100
AcDbMText
 10
1.8416666426
 20
-14.9218650606
 30
0.0
 40
2.0
 41
0.0
 71
     1
 72
     1
  1
3
  7
SLDTEXTSTYLE0
 73
     1
 44
1.0
  0
ENDBLK
  5
EF
330
ED
100
AcDbEntity
  8
0
100
AcDbBlockEnd
  0
BLOCK
  5
FA
330
F9
100
AcDbEntity
  8
0
100
AcDbBlockBegin
  2
SW_NOTE_9
 70
     0
 10
0.0
 20
0.0
 30
0.0
  3
SW_NOTE_9
  1

  0
MTEXT
  5
FC
330
F9
100
AcDbEntity
  8
0
  6
Continuous
 62
     0
370
     0
100
AcDbMText
 10
1.5
 20
2.5781354795
 30
0.0
 40
2.0
 41
0.0
 71
     1
 72
     1
  1
>2000
  7
SLDTEXTSTYLE0
 73
     1
 44
1.0
  0
MTEXT
  5
FD
330
F9
100
AcDbEntity
  8
0
  6
Continuous
 62
     0
370
     0
100
AcDbMText
 10
0.0
 20
-0.9218646285
 30
0.0
 40
2.0
 41
0.0
 71
     1
 72
     1
  1
=<4000
  7
SLDTEXTSTYLE0
 73
     1
 44
1.0
  0
MTEXT
  5
FE
330
F9
100
AcDbEntity
  8
0
  6
Continuous
 62
     0
370
     0
100
AcDbMText
 10
3.0
 20
-7.9218648446
 30
0.0
 40
2.0
 41
0.0
 71
     1
 72
     1
  1
-
  7
SLDTEXTSTYLE0
 73
     1
 44
1.0
  0
MTEXT
  5
FF
330
F9
100
AcDbEntity
  8
0
  6
Continuous
 62
     0
370
     0
100
AcDbMText
 10
0.0
 20
-11.4218649526
 30
0.0
 40
2.0
 41
0.0
 71
     1
 72
     1
  1
%%p
  7
SLDTEXTSTYLE0
 73
     1
 44
1.0
  0
MTEXT
  5
100
330
F9
100
AcDbEntity
  8
0
  6
Continuous
 62
     0
370
     0
100
AcDbMText
 10
1.8416666426
 20
-11.4218649526
 30
0.0
 40
2.0
 41
0.0
 71
     1
 72
     1
  1
2,0
  7
SLDTEXTSTYLE0
 73
     1
 44
1.0
  0
MTEXT
  5
101
330
F9
100
AcDbEntity
  8
0
  6
Continuous
 62
     0
370
     0
100
AcDbMText
 10
0.0
 20
-14.9218650606
 30
0.0
 40
2.0
 41
0.0
 71
     1
 72
     1
  1
%%p
  7
SLDTEXTSTYLE0
 73
     1
 44
1.0
  0
MTEXT
  5
102
330
F9
100
AcDbEntity
  8
0
  6
Continuous
 62
     0
370
     0
100
AcDbMText
 10
1.8416666426
 20
-14.9218650606
 30
0.0
 40
2.0
 41
0.0
 71
     1
 72
     1
  1
4
  7
SLDTEXTSTYLE0
 73
     1
 44
1.0
  0
ENDBLK
  5
FB
330
F9
100
AcDbEntity
  8
0
100
AcDbBlockEnd
  0
ENDSEC
  0
SECTION
  2
ENTITIES
  0
SPLINE
  5
104
330
1F
100
AcDbEntity
  8
0
  6
Continuous
 62
     7
370
    25
100
AcDbSpline
210
0.0
220
0.0
230
1.0
 70
     8
 71
     3
 72
     9
 73
     5
 74
     0
 42
0.000000001
 43
0.00000001
 40
0.0
 40
0.0
 40
0.0
 40
0.0
 40
0.4431395548884535
 40
1.0
 40
1.0
 40
1.0
 40
1.0
 10
893.0438517612791
 20
538.6308916805283
 30
0.0
 10
893.0756874633594
 20
538.6298768225463
 30
0.0
 10
893.1475287190744
 20
538.6275866681902
 30
0.0
 10
893.1439907604426
 20
538.6275117309655
 30
0.0
 10
893.1420206112242
 20
538.6274700013892
 30
0.0
  0
SPLINE
  5
105
330
1F
100
AcDbEntity
  8
0
  6
Continuous
 62
     7
370
    25
100
AcDbSpline
210
0.0
220
0.0
230
1.0
 70
     8
 71
     3
 72
    10
 73
     6
 74
     0
 42
0.000000001
 43
0.00000001
 40
0.0
 40
0.0
 40
0.0
 40
0.0
 40
0.247950829040624
 40
0.8923044121660659
 40
1.0
 40
1.0
 40
1.0
 40
1.0
 10
844.6435092968321
 20
538.6269614992634
 30
0.0
 10
844.6448643814877
 20
538.6270229547495
 30
0.0
 10
844.6497409452072
 20
538.6272441155405
 30
0.0
 10
844.7017448470093
 20
538.6305473371646
 30
0.0
 10
844.7893877314383
 20
538.6326310243668
 30
0.0
 10
844.8019384426451
 20
538.6329294143216
 30
0.0
  0
SPLINE
  5
106
330
1F
100
AcDbEntity
  8
0
  6
Continuous
 62
     7
370
    25
100
AcDbSpline
210
0.0
220
0.0
230
1.0
 70
     8
 71
     3
 72
    29
 73
    25
 74
     0
 42
0.000000001
 43
0.00000001
 40
0.0
 40
0.0
 40
0.0
 40
0.0
 40
0.0349323190592453
 40
0.0633981163416391
 40
0.0838986052285132
 40
0.1410482569181918
 40
0.1993928346715625
 40
0.2579539183366581
 40
0.3167359082635527
 40
0.3756685842465476
 40
0.4347112983998416
 40
0.4938369568000877
 40
0.5530115306518272
 40
0.6120983633342244
 40
0.6710427982538492
 40
0.7298260521073499
 40
0.7884256712473171
 40
0.8467956783296728
 40
0.8655667890530279
 40
0.8834825939110609
 40
0.9012872168369336
 40
0.9267779457217363
 40
0.9604934575040326
 40
0.9999999999999999
 40
0.9999999999999999
 40
0.9999999999999999
 40
0.9999999999999999
 10
902.636504082141
 20
413.8054047672048
 30
0.0
 10
903.1695751791098
 20
415.0592166724749
 30
0.0
 10
904.137037527277
 20
417.334740175682
 30
0.0
 10
905.020779007502
 20
420.4897431550759
 30
0.0
 10
905.8548863032235
 20
424.5401107360528
 30
0.0
 10
906.2792547630459
 20
429.8545870813595
 30
0.0
 10
905.5891325275785
 20
436.6378733933082
 30
0.0
 10
903.6527902641877
 20
443.2443365720526
 30
0.0
 10
900.5277867380659
 20
449.404219324846
 30
0.0
 10
896.3115894925255
 20
454.8995975586508
 30
0.0
 10
891.1446517830268
 20
459.5327976471247
 30
0.0
 10
885.203038646196
 20
463.1375611208809
 30
0.0
 10
878.6958889281573
 20
465.5827993004447
 30
0.0
 10
871.8560978148855
 20
466.7824677207421
 30
0.0
 10
864.9279905320591
 20
466.700647270967
 30
0.0
 10
858.1517462461738
 20
465.3494614091287
 30
0.0
 10
851.760479968857
 20
462.7880889035366
 30
0.0
 10
847.2658006070144
 20
459.9380113995792
 30
0.0
 10
844.3994083894357
 20
457.5904617478909
 30
0.0
 10
842.8360669100703
 20
456.1521791105179
 30
0.0
 10
841.1726651631559
 20
454.441120299721
 30
0.0
 10
839.2346754734325
 20
452.1477856410686
 30
0.0
 10
837.0034174367604
 20
449.0005358216821
 30
0.0
 10
835.71334876682
 20
446.4517917980165
 30
0.0
 10
835.0172995609618
 20
445.0766314713255
 30
0.0
  0
SPLINE
  5
107
330
1F
100
AcDbEntity
  8
0
  6
Continuous
 62
     7
370
    25
100
AcDbSpline
210
0.0
220
0.0
230
1.0
 70
     8
 71
     3
 72
    29
 73
    25
 74
     0
 42
0.000000001
 43
0.00000001
 40
0.0
 40
0.0
 40
0.0
 40
0.0
 40
0.034932070983005
 40
0.0633980694894952
 40
0.0838985580900776
 40
0.1410481682207449
 40
0.1993926301071129
 40
0.2579537741224585
 40
0.3167357632284559
 40
0.375668438388449
 40
0.4347111304400943
 40
0.4938367880146437
 40
0.553011849591926
 40
0.6120981736802169
 40
0.6710431176715809
 40
0.7298263707041666
 40
0.7884259771681075
 40
0.8467959834353193
 40
0.8655671140890754
 40
0.8834825218352331
 40
0.9012874998603779
 40
0.9267779230010058
 40
0.9604937003733777
 40
0.9999999999999999
 40
0.9999999999999999
 40
0.9999999999999999
 40
0.9999999999999999
 10
835.0172995609618
 20
445.0766314713255
 30
0.0
 10
834.4842616488315
 20
443.8228176132239
 30
0.0
 10
833.5168533720589
 20
441.5472760874586
 30
0.0
 10
832.6330141981571
 20
438.3923048841706
 30
0.0
 10
831.7989189320632
 20
434.3419244233866
 30
0.0
 10
831.3746510665652
 20
429.0274533124771
 30
0.0
 10
832.0646459012204
 20
422.244161843947
 30
0.0
 10
834.0010190667249
 20
415.6377020928145
 30
0.0
 10
837.1260152913329
 20
409.4778171232045
 30
0.0
 10
841.3422132946258
 20
403.9824382092859
 30
0.0
 10
846.5091535819524
 20
399.3492439813569
 30
0.0
 10
852.4507793817751
 20
395.744463541744
 30
0.0
 10
858.957939631892
 20
393.2992551763631
 30
0.0
 10
865.7977440831226
 20
392.0995651806279
 30
0.0
 10
872.7258537930676
 20
392.1813905420962
 30
0.0
 10
879.5021149526276
 20
393.5325800647969
 30
0.0
 10
885.8933881033201
 20
396.0939425624397
 30
0.0
 10
890.3880528915555
 20
398.9440358353036
 30
0.0
 10
893.2544550233234
 20
401.2915546518943
 30
0.0
 10
894.817735703247
 20
402.7298995892358
 30
0.0
 10
896.4812112721416
 20
404.4408685614652
 30
0.0
 10
898.4191020398338
 20
406.734304556489
 30
0.0
 10
900.6504725318409
 20
409.8814576056602
 30
0.0
 10
901.9404880492423
 20
412.4302352054373
 30
0.0
 10
902.636504082141
 20
413.8054047672048
 30
0.0
  0
ARC
  5
108
330
1F
100
AcDbEntity
  8
0
  6
Continuous
 62
     7
370
    25
100
AcDbCircle
 10
618.4269124994
 20
191.9410189448
 30
0.0
 40
21.40041507641956
100
AcDbArc
 50
180.0
 51
270.0
  0
LINE
  5
109
330
1F
100
AcDbEntity
  8
0
  6
Continuous
 62
     7
370
    25
100
AcDbLine
 10
618.4268950505
 20
170.5406104175
 30
0.0
 11
1451.2269108576
 21
170.5406104175
 31
0.0
  0
ARC
  5
10A
330
1F
100
AcDbEntity
  8
0
  6
Continuous
 62
     7
370
    25
100
AcDbCircle
 10
1451.2269124994
 20
191.9410189448
 30
0.0
 40
21.40041507641945
100
AcDbArc
 50
270.0
 51
0.0
  0
LINE
  5
10B
330
1F
100
AcDbEntity
  8
0
  6
Continuous
 62
     7
370
    25
100
AcDbLine
 10
1472.6273289902
 20
191.9410322754
 30
0.0
 11
1472.6273289902
 21
548.3410191683
 31
0.0
  0
ARC
  5
10C
330
1F
100
AcDbEntity
  8
0
  6
Continuous
 62
     7
370
    25
100
AcDbCircle
 10
1451.2269124994
 20
548.3410189448
 30
0.0
 40
21.40041507641945
100
AcDbArc
 50
0.0
 51
90.0
  0
LINE
  5
10D
330
1F
100
AcDbEntity
  8
0
  6
Continuous
 62
     7
370
    25
100
AcDbLine
 10
1451.2269108576
 20
569.7414335756
 30
0.0
 11
618.4268950505
 21
569.7414335756
 31
0.0
  0
ARC
  5
10E
330
1F
100
AcDbEntity
  8
0
  6
Continuous
 62
     7
370
    25
100
AcDbCircle
 10
618.4269124994
 20
548.3410189448
 30
0.0
 40
21.40041507641945
100
AcDbArc
 50
90.0
 51
180.0
  0
LINE
  5
10F
330
1F
100
AcDbEntity
  8
0
  6
Continuous
 62
     7
370
    25
100
AcDbLine
 10
597.026502995
 20
548.3410191683
 30
0.0
 11
597.026502995
 21
191.9410322754
 31
0.0
  0
CIRCLE
  5
110
330
1F
100
AcDbEntity
  8
0
  6
Continuous
 62
     7
370
    25
100
AcDbCircle
 10
869.3269124994
 20
603.3410189448
 30
0.0
 40
17.50000000000011
  0
LINE
  5
111
330
1F
100
AcDbEntity
  8
0
  6
Continuous
 62
     7
370
    25
100
AcDbLine
 10
604.8269032521
 20
652.3597185461
 30
0.0
 11
1464.8269138319
 21
652.3597185461
 31
0.0
  0
ARC
  5
112
330
1F
100
AcDbEntity
  8
0
  6
Continuous
 62
     7
370
    25
100
AcDbCircle
 10
1464.8269124994
 20
628.3410189448
 30
0.0
 40
24.01869474724754
100
AcDbArc
 50
0.0
 51
90.0
  0
LINE
  5
113
330
1F
100
AcDbEntity
  8
0
  6
Continuous
 62
     7
370
    25
100
AcDbLine
 10
1488.8456075472
 20
628.3410211055
 30
0.0
 11
1488.8456075472
 21
178.3410106746
 31
0.0
  0
ARC
  5
114
330
1F
100
AcDbEntity
  8
0
  6
Continuous
 62
     7
370
    25
100
AcDbCircle
 10
1464.8269124994
 20
178.3410189448
 30
0.0
 40
24.01869474724748
100
AcDbArc
 50
270.0
 51
0.0
  0
LINE
  5
115
330
1F
100
AcDbEntity
  8
0
  6
Continuous
 62
     7
370
    25
100
AcDbLine
 10
1464.8269138319
 20
154.3223355858
 30
0.0
 11
604.8269032521
 21
154.3223355858
 31
0.0
  0
ARC
  5
116
330
1F
100
AcDbEntity
  8
0
  6
Continuous
 62
     7
370
    25
100
AcDbCircle
 10
604.8269124994
 20
178.3410189448
 30
0.0
 40
24.01869474724759
100
AcDbArc
 50
180.0
 51
270.0
  0
LINE
  5
117
330
1F
100
AcDbEntity
  8
0
  6
Continuous
 62
     7
370
    25
100
AcDbLine
 10
580.8081983609
 20
178.3410106746
 30
0.0
 11
580.8081983609
 21
628.3410211055
 31
0.0
  0
ARC
  5
118
330
1F
100
AcDbEntity
  8
0
  6
Continuous
 62
     7
370
    25
100
AcDbCircle
 10
604.8269124994
 20
628.3410189448
 30
0.0
 40
24.01869474724754
100
AcDbArc
 50
90.0
 51
180.0
  0
LINE
  5
119
330
1F
100
AcDbEntity
  8
0
  6
Continuous
 62
     7
370
    25
100
AcDbLine
 10
1489.8269123418
 20
628.3410211055
 30
0.0
 11
1488.8456075472
 21
628.3410211055
 31
0.0
  0
LINE
  5
11A
330
1F
100
AcDbEntity
  8
0
  6
Continuous
 62
     7
370
    25
100
AcDbLine
 10
1489.8269123418
 20
178.3410106746
 30
0.0
 11
1489.8269123418
 21
628.3410211055
 31
0.0
  0
LINE
  5
11B
330
1F
100
AcDbEntity
  8
0
  6
Continuous
 62
     7
370
    25
100
AcDbLine
 10
1489.8269123418
 20
178.3410106746
 30
0.0
 11
1488.8456075472
 21
178.3410106746
 31
0.0
  0
LINE
  5
11C
330
1F
100
AcDbEntity
  8
0
  6
Continuous
 62
     7
370
    25
100
AcDbLine
 10
1464.8269138319
 20
653.3410196153
 30
0.0
 11
1464.8269138319
 21
652.3597185461
 31
0.0
  0
ARC
  5
11D
330
1F
100
AcDbEntity
  8
0
  6
Continuous
 62
     7
370
    25
100
AcDbCircle
 10
1464.8269124994
 20
628.3410189448
 30
0.0
 40
25.0
100
AcDbArc
 50
0.0
 51
90.0
  0
LINE
  5
11E
330
1F
100
AcDbEntity
  8
0
  6
Continuous
 62
     7
370
    25
100
AcDbLine
 10
1470.7479423863
 20
548.3410191683
 30
0.0
 11
1472.6273289902
 21
548.3410191683
 31
0.0
  0
ARC
  5
11F
330
1F
100
AcDbEntity
  8
0
  6
Continuous
 62
     7
370
    25
100
AcDbCircle
 10
1451.2269124994
 20
548.3410189448
 30
0.0
 40
19.5210298348477
100
AcDbArc
 50
0.0
 51
90.0
  0
LINE
  5
120
330
1F
100
AcDbEntity
  8
0
  6
Continuous
 62
     7
370
    25
100
AcDbLine
 10
1451.2269108576
 20
569.7414335756
 30
0.0
 11
1451.2269108576
 21
567.8620469717
 31
0.0
  0
ARC
  5
121
330
1F
100
AcDbEntity
  8
0
  6
Continuous
 62
     7
370
    25
100
AcDbCircle
 10
1464.8269124994
 20
178.3410189448
 30
0.0
 40
25.00000000000009
100
AcDbArc
 50
270.0
 51
0.0
  0
LINE
  5
122
330
1F
100
AcDbEntity
  8
0
  6
Continuous
 62
     7
370
    25
100
AcDbLine
 10
1464.8269138319
 20
153.3410047142
 30
0.0
 11
1464.8269138319
 21
154.3223355858
 31
0.0
  0
LINE
  5
123
330
1F
100
AcDbEntity
  8
0
  6
Continuous
 62
     7
370
    25
100
AcDbLine
 10
1470.7479423863
 20
191.9410322754
 30
0.0
 11
1472.6273289902
 21
191.9410322754
 31
0.0
  0
LINE
  5
124
330
1F
100
AcDbEntity
  8
0
  6
Continuous
 62
     7
370
    25
100
AcDbLine
 10
1470.7479423863
 20
548.3410191683
 30
0.0
 11
1470.7479423863
 21
191.9410322754
 31
0.0
  0
LINE
  5
125
330
1F
100
AcDbEntity
  8
0
  6
Continuous
 62
     7
370
    25
100
AcDbLine
 10
1451.2269108576
 20
172.4199746696
 30
0.0
 11
1451.2269108576
 21
170.5406104175
 31
0.0
  0
ARC
  5
126
330
1F
100
AcDbEntity
  8
0
  6
Continuous
 62
     7
370
    25
100
AcDbCircle
 10
1451.2269124994
 20
191.9410189448
 30
0.0
 40
19.52102983484792
100
AcDbArc
 50
270.0
 51
0.0
  0
LINE
  5
127
330
1F
100
AcDbEntity
  8
0
  6
Continuous
 62
     7
370
    25
100
AcDbLine
 10
1464.8269138319
 20
653.3410196153
 30
0.0
 11
604.8269032521
 21
653.3410196153
 31
0.0
  0
LINE
  5
128
330
1F
100
AcDbEntity
  8
0
  6
Continuous
 62
     7
370
    25
100
AcDbLine
 10
604.8269032521
 20
652.3597185461
 30
0.0
 11
604.8269032521
 21
653.3410196153
 31
0.0
  0
LINE
  5
129
330
1F
100
AcDbEntity
  8
0
  6
Continuous
 62
     7
370
    25
100
AcDbLine
 10
618.4268950505
 20
567.8620469717
 30
0.0
 11
1451.2269108576
 21
567.8620469717
 31
0.0
  0
LINE
  5
12A
330
1F
100
AcDbEntity
  8
0
  6
Continuous
 62
     7
370
    25
100
AcDbLine
 10
618.4268950505
 20
569.7414335756
 30
0.0
 11
618.4268950505
 21
567.8620469717
 31
0.0
  0
LINE
  5
12B
330
1F
100
AcDbEntity
  8
0
  6
Continuous
 62
     7
370
    25
100
AcDbLine
 10
604.8269032521
 20
153.3410047142
 30
0.0
 11
1464.8269138319
 21
153.3410047142
 31
0.0
  0
LINE
  5
12C
330
1F
100
AcDbEntity
  8
0
  6
Continuous
 62
     7
370
    25
100
AcDbLine
 10
604.8269032521
 20
154.3223355858
 30
0.0
 11
604.8269032521
 21
153.3410047142
 31
0.0
  0
LINE
  5
12D
330
1F
100
AcDbEntity
  8
0
  6
Continuous
 62
     7
370
    25
100
AcDbLine
 10
618.4268950505
 20
172.4199746696
 30
0.0
 11
618.4268950505
 21
170.5406104175
 31
0.0
  0
LINE
  5
12E
330
1F
100
AcDbEntity
  8
0
  6
Continuous
 62
     7
370
    25
100
AcDbLine
 10
1451.2269108576
 20
172.4199746696
 30
0.0
 11
618.4268950505
 21
172.4199746696
 31
0.0
  0
ARC
  5
12F
330
1F
100
AcDbEntity
  8
0
  6
Continuous
 62
     7
370
    25
100
AcDbCircle
 10
618.4269124994
 20
548.3410189448
 30
0.0
 40
19.5210298348477
100
AcDbArc
 50
90.0
 51
180.0
  0
LINE
  5
130
330
1F
100
AcDbEntity
  8
0
  6
Continuous
 62
     7
370
    25
100
AcDbLine
 10
597.026502995
 20
548.3410191683
 30
0.0
 11
598.9058970494
 21
548.3410191683
 31
0.0
  0
ARC
  5
131
330
1F
100
AcDbEntity
  8
0
  6
Continuous
 62
     7
370
    25
100
AcDbCircle
 10
604.8269124994
 20
628.3410189448
 30
0.0
 40
25.00000000000011
100
AcDbArc
 50
90.0
 51
180.0
  0
LINE
  5
132
330
1F
100
AcDbEntity
  8
0
  6
Continuous
 62
     7
370
    25
100
AcDbLine
 10
580.8081983609
 20
628.3410211055
 30
0.0
 11
579.8269270939
 21
628.3410211055
 31
0.0
  0
LINE
  5
133
330
1F
100
AcDbEntity
  8
0
  6
Continuous
 62
     7
370
    25
100
AcDbLine
 10
597.026502995
 20
191.9410322754
 30
0.0
 11
598.9058970494
 21
191.9410322754
 31
0.0
  0
ARC
  5
134
330
1F
100
AcDbEntity
  8
0
  6
Continuous
 62
     7
370
    25
100
AcDbCircle
 10
618.4269124994
 20
191.9410189448
 30
0.0
 40
19.52102983484761
100
AcDbArc
 50
180.0
 51
270.0
  0
LINE
  5
135
330
1F
100
AcDbEntity
  8
0
  6
Continuous
 62
     7
370
    25
100
AcDbLine
 10
598.9058970494
 20
191.9410322754
 30
0.0
 11
598.9058970494
 21
548.3410191683
 31
0.0
  0
ARC
  5
136
330
1F
100
AcDbEntity
  8
0
  6
Continuous
 62
     7
370
    25
100
AcDbCircle
 10
604.8269124994
 20
178.3410189448
 30
0.0
 40
25.00000000000011
100
AcDbArc
 50
180.0
 51
270.0
  0
LINE
  5
137
330
1F
100
AcDbEntity
  8
0
  6
Continuous
 62
     7
370
    25
100
AcDbLine
 10
580.8081983609
 20
178.3410106746
 30
0.0
 11
579.8269270939
 21
178.3410106746
 31
0.0
  0
LINE
  5
138
330
1F
100
AcDbEntity
  8
0
  6
Continuous
 62
     7
370
    25
100
AcDbLine
 10
579.8269270939
 20
628.3410211055
 30
0.0
 11
579.8269270939
 21
178.3410106746
 31
0.0
  0
LINE
  5
139
330
1F
100
AcDbEntity
  8
0
  6
Continuous
 62
     7
370
    25
100
AcDbLine
 10
1470.6139734966
 20
548.3410191683
 30
0.0
 11
1470.7479423863
 21
548.3410191683
 31
0.0
  0
ARC
  5
13A
330
1F
100
AcDbEntity
  8
0
  6
Continuous
 62
     7
370
    25
100
AcDbCircle
 10
1451.2269124994
 20
548.3410189448
 30
0.0
 40
19.38705946235405
100
AcDbArc
 50
0.0
 51
90.0
  0
LINE
  5
13B
330
1F
100
AcDbEntity
  8
0
  6
Continuous
 62
     7
370
    25
100
AcDbLine
 10
1451.2269108576
 20
567.728078082
 30
0.0
 11
1451.2269108576
 21
567.8620469717
 31
0.0
  0
LINE
  5
13C
330
1F
100
AcDbEntity
  8
0
  6
Continuous
 62
     7
370
    25
100
AcDbLine
 10
1470.6139734966
 20
191.9410322754
 30
0.0
 11
1470.7479423863
 21
191.9410322754
 31
0.0
  0
LINE
  5
13D
330
1F
100
AcDbEntity
  8
0
  6
Continuous
 62
     7
370
    25
100
AcDbLine
 10
1470.6139734966
 20
191.9410322754
 30
0.0
 11
1470.6139734966
 21
548.3410191683
 31
0.0
  0
LINE
  5
13E
330
1F
100
AcDbEntity
  8
0
  6
Continuous
 62
     7
370
    25
100
AcDbLine
 10
1451.2269108576
 20
172.5539659111
 30
0.0
 11
1451.2269108576
 21
172.4199746696
 31
0.0
  0
ARC
  5
13F
330
1F
100
AcDbEntity
  8
0
  6
Continuous
 62
     7
370
    25
100
AcDbCircle
 10
1451.2269124994
 20
191.9410189448
 30
0.0
 40
19.38705946235405
100
AcDbArc
 50
270.0
 51
0.0
  0
LINE
  5
140
330
1F
100
AcDbEntity
  8
0
  6
Continuous
 62
     7
370
    25
100
AcDbLine
 10
1451.2269108576
 20
567.728078082
 30
0.0
 11
618.4268950505
 21
567.728078082
 31
0.0
  0
LINE
  5
141
330
1F
100
AcDbEntity
  8
0
  6
Continuous
 62
     7
370
    25
100
AcDbLine
 10
618.4268950505
 20
567.728078082
 30
0.0
 11
618.4268950505
 21
567.8620469717
 31
0.0
  0
LINE
  5
142
330
1F
100
AcDbEntity
  8
0
  6
Continuous
 62
     7
370
    25
100
AcDbLine
 10
618.4268950505
 20
172.5539659111
 30
0.0
 11
618.4268950505
 21
172.4199746696
 31
0.0
  0
LINE
  5
143
330
1F
100
AcDbEntity
  8
0
  6
Continuous
 62
     7
370
    25
100
AcDbLine
 10
618.4268950505
 20
172.5539659111
 30
0.0
 11
1451.2269108576
 21
172.5539659111
 31
0.0
  0
ARC
  5
144
330
1F
100
AcDbEntity
  8
0
  6
Continuous
 62
     7
370
    25
100
AcDbCircle
 10
618.4269124994
 20
548.3410189448
 30
0.0
 40
19.38705946235382
100
AcDbArc
 50
90.0
 51
180.0
  0
LINE
  5
145
330
1F
100
AcDbEntity
  8
0
  6
Continuous
 62
     7
370
    25
100
AcDbLine
 10
599.0398286862
 20
548.3410191683
 30
0.0
 11
598.9058970494
 21
548.3410191683
 31
0.0
  0
LINE
  5
146
330
1F
100
AcDbEntity
  8
0
  6
Continuous
 62
     7
370
    25
100
AcDbLine
 10
599.0398286862
 20
548.3410191683
 30
0.0
 11
599.0398286862
 21
191.9410322754
 31
0.0
  0
LINE
  5
147
330
1F
100
AcDbEntity
  8
0
  6
Continuous
 62
     7
370
    25
100
AcDbLine
 10
599.0398286862
 20
191.9410322754
 30
0.0
 11
598.9058970494
 21
191.9410322754
 31
0.0
  0
ARC
  5
148
330
1F
100
AcDbEntity
  8
0
  6
Continuous
 62
     7
370
    25
100
AcDbCircle
 10
618.4269124994
 20
191.9410189448
 30
0.0
 40
19.38705946235405
100
AcDbArc
 50
180.0
 51
270.0
  0
LINE
  5
149
330
1F
100
AcDbEntity
  8
0
  6
Continuous
 62
     7
370
    25
100
AcDbLine
 10
1468.7345868928
 20
191.9410322754
 30
0.0
 11
1470.6139734966
 21
191.9410322754
 31
0.0
  0
LINE
  5
14A
330
1F
100
AcDbEntity
  8
0
  6
Continuous
 62
     7
370
    25
100
AcDbLine
 10
1468.7345868928
 20
548.3410191683
 30
0.0
 11
1468.7345868928
 21
191.9410322754
 31
0.0
  0
LINE
  5
14B
330
1F
100
AcDbEntity
  8
0
  6
Continuous
 62
     7
370
    25
100
AcDbLine
 10
1468.7345868928
 20
548.3410191683
 30
0.0
 11
1470.6139734966
 21
548.3410191683
 31
0.0
  0
ARC
  5
14C
330
1F
100
AcDbEntity
  8
0
  6
Continuous
 62
     7
370
    25
100
AcDbCircle
 10
1451.2269124994
 20
548.3410189448
 30
0.0
 40
17.50767422078206
100
AcDbArc
 50
0.0
 51
90.0
  0
LINE
  5
14D
330
1F
100
AcDbEntity
  8
0
  6
Continuous
 62
     7
370
    25
100
AcDbLine
 10
1451.2269108576
 20
567.728078082
 30
0.0
 11
1451.2269108576
 21
565.8486914782
 31
0.0
  0
LINE
  5
14E
330
1F
100
AcDbEntity
  8
0
  6
Continuous
 62
     7
370
    25
100
AcDbLine
 10
618.4268950505
 20
565.8486914782
 30
0.0
 11
1451.2269108576
 21
565.8486914782
 31
0.0
  0
LINE
  5
14F
330
1F
100
AcDbEntity
  8
0
  6
Continuous
 62
     7
370
    25
100
AcDbLine
 10
618.4268950505
 20
567.728078082
 30
0.0
 11
618.4268950505
 21
565.8486914782
 31
0.0
  0
LINE
  5
150
330
1F
100
AcDbEntity
  8
0
  6
Continuous
 62
     7
370
    25
100
AcDbLine
 10
1451.2269108576
 20
174.4333301632
 30
0.0
 11
1451.2269108576
 21
172.5539659111
 31
0.0
  0
ARC
  5
151
330
1F
100
AcDbEntity
  8
0
  6
Continuous
 62
     7
370
    25
100
AcDbCircle
 10
1451.2269124994
 20
191.9410189448
 30
0.0
 40
17.50767422078229
100
AcDbArc
 50
270.0
 51
0.0
  0
LINE
  5
152
330
1F
100
AcDbEntity
  8
0
  6
Continuous
 62
     7
370
    25
100
AcDbLine
 10
618.4268950505
 20
174.4333301632
 30
0.0
 11
618.4268950505
 21
172.5539659111
 31
0.0
  0
LINE
  5
153
330
1F
100
AcDbEntity
  8
0
  6
Continuous
 62
     7
370
    25
100
AcDbLine
 10
1451.2269108576
 20
174.4333301632
 30
0.0
 11
618.4268950505
 21
174.4333301632
 31
0.0
  0
ARC
  5
154
330
1F
100
AcDbEntity
  8
0
  6
Continuous
 62
     7
370
    25
100
AcDbCircle
 10
618.4269124994
 20
548.3410189448
 30
0.0
 40
17.50767422078206
100
AcDbArc
 50
90.0
 51
180.0
  0
LINE
  5
155
330
1F
100
AcDbEntity
  8
0
  6
Continuous
 62
     7
370
    25
100
AcDbLine
 10
599.0398286862
 20
548.3410191683
 30
0.0
 11
600.9192227406
 21
548.3410191683
 31
0.0
  0
LINE
  5
156
330
1F
100
AcDbEntity
  8
0
  6
Continuous
 62
     7
370
    25
100
AcDbLine
 10
600.9192227406
 20
191.9410322754
 30
0.0
 11
600.9192227406
 21
548.3410191683
 31
0.0
  0
LINE
  5
157
330
1F
100
AcDbEntity
  8
0
  6
Continuous
 62
     7
370
    25
100
AcDbLine
 10
599.0398286862
 20
191.9410322754
 30
0.0
 11
600.9192227406
 21
191.9410322754
 31
0.0
  0
ARC
  5
158
330
1F
100
AcDbEntity
  8
0
  6
Continuous
 62
     7
370
    25
100
AcDbCircle
 10
618.4269124994
 20
191.9410189448
 30
0.0
 40
17.50767422078206
100
AcDbArc
 50
180.0
 51
270.0
  0
LINE
  5
159
330
1F
100
AcDbEntity
  8
0
  6
Continuous
 62
     7
370
    25
100
AcDbLine
 10
613.3268832249
 20
514.9410188625
 30
0.0
 11
613.3268832249
 21
225.3410314171
 31
0.0
  0
ARC
  5
15A
330
1F
100
AcDbEntity
  8
0
  6
Continuous
 62
     7
370
    25
100
AcDbCircle
 10
644.3269124994
 20
225.3410189448
 30
0.0
 40
31.00000000000014
100
AcDbArc
 50
180.0
 51
270.0
  0
LINE
  5
15B
330
1F
100
AcDbEntity
  8
0
  6
Continuous
 62
     7
370
    25
100
AcDbLine
 10
644.3269013447
 20
194.3410132972
 30
0.0
 11
1094.3269192261
 21
194.3410132972
 31
0.0
  0
ARC
  5
15C
330
1F
100
AcDbEntity
  8
0
  6
Continuous
 62
     7
370
    25
100
AcDbCircle
 10
1094.3269124994
 20
225.3410189448
 30
0.0
 40
31.00000000000023
100
AcDbArc
 50
270.0
 51
0.0
  0
LINE
  5
15D
330
1F
100
AcDbEntity
  8
0
  6
Continuous
 62
     7
370
    25
100
AcDbLine
 10
1125.3269075436
 20
225.3410314171
 30
0.0
 11
1125.3269075436
 21
514.9410188625
 31
0.0
  0
ARC
  5
15E
330
1F
100
AcDbEntity
  8
0
  6
Continuous
 62
     7
370
    25
100
AcDbCircle
 10
1094.3269124994
 20
514.9410189448
 30
0.0
 40
31.00000000000023
100
AcDbArc
 50
0.0
 51
90.0
  0
LINE
  5
15F
330
1F
100
AcDbEntity
  8
0
  6
Continuous
 62
     7
370
    25
100
AcDbLine
 10
1094.3269192261
 20
545.94101952
 30
0.0
 11
644.3269013447
 21
545.94101952
 31
0.0
  0
ARC
  5
160
330
1F
100
AcDbEntity
  8
0
  6
Continuous
 62
     7
370
    25
100
AcDbCircle
 10
644.3269124994
 20
514.9410189448
 30
0.0
 40
31.00000000000023
100
AcDbArc
 50
90.0
 51
180.0
  0
ARC
  5
161
330
1F
100
AcDbEntity
  8
0
  6
Continuous
 62
     7
370
    25
100
AcDbCircle
 10
1094.3269124994
 20
514.9410189448
 30
0.0
 40
26.0
100
AcDbArc
 50
0.0
 51
90.0
  0
LINE
  5
162
330
1F
100
AcDbEntity
  8
0
  6
Continuous
 62
     7
370
    25
100
AcDbLine
 10
1094.3269192261
 20
545.94101952
 30
0.0
 11
1094.3269192261
 21
540.9410187004
 31
0.0
  0
LINE
  5
163
330
1F
100
AcDbEntity
  8
0
  6
Continuous
 62
     7
370
    25
100
AcDbLine
 10
1125.3269075436
 20
514.9410188625
 30
0.0
 11
1120.326912312
 21
514.9410188625
 31
0.0
  0
LINE
  5
164
330
1F
100
AcDbEntity
  8
0
  6
Continuous
 62
     7
370
    25
100
AcDbLine
 10
644.3269013447
 20
540.9410187004
 30
0.0
 11
1094.3269192261
 21
540.9410187004
 31
0.0
  0
LINE
  5
165
330
1F
100
AcDbEntity
  8
0
  6
Continuous
 62
     7
370
    25
100
AcDbLine
 10
644.3269013447
 20
545.94101952
 30
0.0
 11
644.3269013447
 21
540.9410187004
 31
0.0
  0
LINE
  5
166
330
1F
100
AcDbEntity
  8
0
  6
Continuous
 62
     7
370
    25
100
AcDbLine
 10
1120.326912312
 20
225.3410314171
 30
0.0
 11
1125.3269075436
 21
225.3410314171
 31
0.0
  0
LINE
  5
167
330
1F
100
AcDbEntity
  8
0
  6
Continuous
 62
     7
370
    25
100
AcDbLine
 10
1120.326912312
 20
514.9410188625
 30
0.0
 11
1120.326912312
 21
225.3410314171
 31
0.0
  0
LINE
  5
168
330
1F
100
AcDbEntity
  8
0
  6
Continuous
 62
     7
370
    25
100
AcDbLine
 10
1094.3269192261
 20
199.3410085289
 30
0.0
 11
1094.3269192261
 21
194.3410132972
 31
0.0
  0
ARC
  5
169
330
1F
100
AcDbEntity
  8
0
  6
Continuous
 62
     7
370
    25
100
AcDbCircle
 10
1094.3269124994
 20
225.3410189448
 30
0.0
 40
26.00000000000023
100
AcDbArc
 50
270.0
 51
0.0
  0
LINE
  5
16A
330
1F
100
AcDbEntity
  8
0
  6
Continuous
 62
     7
370
    25
100
AcDbLine
 10
644.3269013447
 20
199.3410085289
 30
0.0
 11
644.3269013447
 21
194.3410132972
 31
0.0
  0
LINE
  5
16B
330
1F
100
AcDbEntity
  8
0
  6
Continuous
 62
     7
370
    25
100
AcDbLine
 10
1094.3269192261
 20
199.3410085289
 30
0.0
 11
644.3269013447
 21
199.3410085289
 31
0.0
  0
ARC
  5
16C
330
1F
100
AcDbEntity
  8
0
  6
Continuous
 62
     7
370
    25
100
AcDbCircle
 10
644.3269124994
 20
514.9410189448
 30
0.0
 40
26.00000000000011
100
AcDbArc
 50
90.0
 51
180.0
  0
LINE
  5
16D
330
1F
100
AcDbEntity
  8
0
  6
Continuous
 62
     7
370
    25
100
AcDbLine
 10
613.3268832249
 20
514.9410188625
 30
0.0
 11
618.3269380612
 21
514.9410188625
 31
0.0
  0
LINE
  5
16E
330
1F
100
AcDbEntity
  8
0
  6
Continuous
 62
     7
370
    25
100
AcDbLine
 10
618.3269380612
 20
225.3410314171
 30
0.0
 11
613.3268832249
 21
225.3410314171
 31
0.0
  0
ARC
  5
16F
330
1F
100
AcDbEntity
  8
0
  6
Continuous
 62
     7
370
    25
100
AcDbCircle
 10
644.3269124994
 20
225.3410189448
 30
0.0
 40
26.0
100
AcDbArc
 50
180.0
 51
270.0
  0
LINE
  5
170
330
1F
100
AcDbEntity
  8
0
  6
Continuous
 62
     7
370
    25
100
AcDbLine
 10
618.3269380612
 20
225.3410314171
 30
0.0
 11
618.3269380612
 21
514.9410188625
 31
0.0
  0
ARC
  5
171
330
1F
100
AcDbEntity
  8
0
  6
Continuous
 62
     7
370
    25
100
AcDbCircle
 10
894.8968412546
 20
502.7322405853
 30
0.0
 40
35.96762333670265
100
AcDbArc
 50
87.6097224057
 51
90.7963644763
  0
LINE
  5
172
330
1F
100
AcDbEntity
  8
0
  6
Continuous
 62
     7
370
    25
100
AcDbLine
 10
896.3969110531
 20
538.6685692666
 30
0.0
 11
896.3969110531
 21
538.3068975953
 31
0.0
  0
ARC
  5
173
330
1F
100
AcDbEntity
  8
0
  6
Continuous
 62
     7
370
    25
100
AcDbCircle
 10
894.8968143058
 20
574.2451635892
 30
0.0
 40
35.96956008767093
100
AcDbArc
 50
269.2037213369
 51
272.3901917811
  0
LINE
  5
174
330
1F
100
AcDbEntity
  8
0
  6
Continuous
 62
     7
370
    25
100
AcDbLine
 10
894.3969368023
 20
538.2790771274
 30
0.0
 11
843.396937756
 21
538.2790771274
 31
0.0
  0
ARC
  5
175
330
1F
100
AcDbEntity
  8
0
  6
Continuous
 62
     7
370
    25
100
AcDbCircle
 10
842.8970255455
 20
574.2458824605
 30
0.0
 40
35.97027937180306
100
AcDbArc
 50
267.6098163493
 51
270.7963180281
  0
LINE
  5
176
330
1F
100
AcDbEntity
  8
0
  6
Continuous
 62
     7
370
    25
100
AcDbLine
 10
841.3969039006
 20
538.3068975953
 30
0.0
 11
841.3969039006
 21
538.6685692666
 31
0.0
  0
ARC
  5
177
330
1F
100
AcDbEntity
  8
0
  6
Continuous
 62
     7
370
    25
100
AcDbCircle
 10
842.8969985975
 20
502.7315217141
 30
0.0
 40
35.96834262088223
100
AcDbArc
 50
89.2035961596
 51
92.390269463
  0
LINE
  5
178
330
1F
100
AcDbEntity
  8
0
  6
Continuous
 62
     7
370
    25
100
AcDbLine
 10
843.396937756
 20
538.6963897346
 30
0.0
 11
894.3969368023
 21
538.6963897346
 31
0.0
  0
ELLIPSE
  5
179
330
1F
100
AcDbEntity
  8
0
  6
Continuous
 62
     7
370
    25
100
AcDbEllipse
 10
889.8617834128
 20
538.6124390259
 30
0.0
 11
3.500533148153636
 21
1.483439302774059E-5
 31
0.0
210
0.0
220
0.0
230
1.0
 40
0.0139104406
 41
0.3555307419013813
 42
1.570491681350691
  0
LINE
  5
17A
330
1F
100
AcDbEntity
  8
0
  6
Continuous
 62
     7
370
    25
100
AcDbLine
 10
889.8628710789
 20
538.6611335872
 30
0.0
 11
847.9310034794
 21
538.6611335872
 31
0.0
  0
ELLIPSE
  5
17B
330
1F
100
AcDbEntity
  8
0
  6
Continuous
 62
     7
370
    25
100
AcDbEllipse
 10
847.9320606566
 20
538.6124390259
 30
0.0
 11
3.500533148153636
 21
-1.483439314142743E-5
 31
0.0
210
0.0
220
0.0
230
1.0
 40
0.0139104406
 41
1.571100972239038
 42
2.727974655529106
  0
LINE
  5
17C
330
1F
100
AcDbEntity
  8
0
  6
Continuous
 62
     7
370
    25
100
AcDbLine
 10
844.43155518
 20
538.6124533562
 30
0.0
 11
844.43155518
 21
538.3630135057
 31
0.0
  0
ELLIPSE
  5
17D
330
1F
100
AcDbEntity
  8
0
  6
Continuous
 62
     7
370
    25
100
AcDbEllipse
 10
847.9320606566
 20
538.3630286707
 30
0.0
 11
3.500533148153636
 21
1.483439314142743E-5
 31
0.0
210
0.0
220
0.0
230
1.0
 40
0.0139104406
 41
3.141592594638059
 42
4.712084334940547
  0
LINE
  5
17E
330
1F
100
AcDbEntity
  8
0
  6
Continuous
 62
     7
370
    25
100
AcDbLine
 10
847.9310034794
 20
538.3143351374
 30
0.0
 11
889.8628710789
 21
538.3143351374
 31
0.0
  0
ELLIPSE
  5
17F
330
1F
100
AcDbEntity
  8
0
  6
Continuous
 62
     7
370
    25
100
AcDbEllipse
 10
889.8617834128
 20
538.3630286707
 30
0.0
 11
3.500533148153636
 21
-1.483439302774059E-5
 31
0.0
210
0.0
220
0.0
230
1.0
 40
0.0139104406
 41
4.712693625828831
 42
6.283185366126633
  0
LINE
  5
180
330
1F
100
AcDbEntity
  8
0
  6
Continuous
 62
     7
370
    25
100
AcDbLine
 10
893.3623193783
 20
538.3630135057
 30
0.0
 11
893.3623193783
 21
538.6124533562
 31
0.0
  0
LINE
  5
181
330
1F
100
AcDbEntity
  8
0
  6
Continuous
 62
     7
370
    25
100
AcDbLine
 10
841.3969039006
 20
539.3684246538
 30
0.0
 11
841.3969039006
 21
538.6685692666
 31
0.0
  0
LINE
  5
182
330
1F
100
AcDbEntity
  8
0
  6
Continuous
 62
     7
370
    25
100
AcDbLine
 10
896.3969110531
 20
538.6685692666
 30
0.0
 11
896.3969110531
 21
539.3684246538
 31
0.0
  0
LWPOLYLINE
  5
183
330
1F
100
AcDbEntity
  8
0
  6
Continuous
 62
     7
370
    25
100
AcDbPolyline
 90
        9
 70
   128
 43
0.0
 10
847.3969458622
 20
538.5793131737
 10
852.7633904499
 20
538.5848880706
 10
858.137166409
 20
538.5888741313
 10
863.5158299488
 20
538.5912657676
 10
868.8969372792
 20
538.5920629797
 10
874.2780446095
 20
538.5912657676
 10
879.6567081494
 20
538.5888741313
 10
885.0304841084
 20
538.5848880706
 10
890.3969286961
 20
538.5793131737
  0
LINE
  5
184
330
1F
100
AcDbEntity
  8
0
  6
Continuous
 62
     7
370
    25
100
AcDbLine
 10
847.3969458622
 20
538.3961555509
 30
0.0
 11
847.3969458622
 21
538.5793131737
 31
0.0
  0
LINE
  5
185
330
1F
100
AcDbEntity
  8
0
  6
Continuous
 62
     7
370
    25
100
AcDbLine
 10
890.3969286961
 20
538.5793131737
 30
0.0
 11
890.3969286961
 21
538.3961555509
 31
0.0
  0
LWPOLYLINE
  5
186
330
1F
100
AcDbEntity
  8
0
  6
Continuous
 62
     7
370
    25
100
AcDbPolyline
 90
        9
 70
   128
 43
0.0
 10
890.3969286961
 20
538.3961555509
 10
885.0304841084
 20
538.3905787913
 10
879.6567081494
 20
538.3865945933
 10
874.2780446095
 20
538.384202957
 10
868.8969372792
 20
538.3834057448
 10
863.5158299488
 20
538.384202957
 10
858.137166409
 20
538.3865945933
 10
852.7633904499
 20
538.3905787913
 10
847.3969458622
 20
538.3961555509
  0
ARC
  5
187
330
1F
100
AcDbEntity
  8
0
  6
Continuous
 62
     7
370
    25
100
AcDbCircle
 10
890.3969659591
 20
539.3960704117
 30
0.0
 40
0.9999148614947859
100
AcDbArc
 50
269.9978648049
 51
312.438960435
  0
ARC
  5
188
330
1F
100
AcDbEntity
  8
0
  6
Continuous
 62
     7
370
    25
100
AcDbCircle
 10
847.3969664542
 20
539.3963729637
 30
0.0
 40
1.000217413035499
100
AcDbArc
 50
227.5677691314
 51
269.9988204242
  0
ARC
  5
189
330
1F
100
AcDbEntity
  8
0
  6
Continuous
 62
     7
370
    25
100
AcDbCircle
 10
1093.8269124994
 20
514.4410189448
 30
0.0
 40
26.49999999999989
100
AcDbArc
 50
0.0
 51
90.0
  0
LINE
  5
18A
330
1F
100
AcDbEntity
  8
0
  6
Continuous
 62
     7
370
    25
100
AcDbLine
 10
643.8269375843
 20
539.4410193859
 30
0.0
 11
1093.8269256634
 21
539.4410193859
 31
0.0
  0
LINE
  5
18B
330
1F
100
AcDbEntity
  8
0
  6
Continuous
 62
     7
370
    25
100
AcDbLine
 10
643.8269375843
 20
540.9410187004
 30
0.0
 11
643.8269375843
 21
539.4410193859
 31
0.0
  0
LINE
  5
18C
330
1F
100
AcDbEntity
  8
0
  6
Continuous
 62
     7
370
    25
100
AcDbLine
 10
1093.8269256634
 20
540.9410187004
 30
0.0
 11
1093.8269256634
 21
539.4410193859
 31
0.0
  0
LINE
  5
18D
330
1F
100
AcDbEntity
  8
0
  6
Continuous
 62
     7
370
    25
100
AcDbLine
 10
1118.8269018216
 20
514.4410188969
 30
0.0
 11
1120.326912312
 21
514.4410188969
 31
0.0
  0
ARC
  5
18E
330
1F
100
AcDbEntity
  8
0
  6
Continuous
 62
     7
370
    25
100
AcDbCircle
 10
1093.8269124994
 20
514.4410189448
 30
0.0
 40
24.99999999999989
100
AcDbArc
 50
0.0
 51
90.0
  0
LINE
  5
18F
330
1F
100
AcDbEntity
  8
0
  6
Continuous
 62
     7
370
    25
100
AcDbLine
 10
1118.8269018216
 20
224.4410310833
 30
0.0
 11
1120.326912312
 21
224.4410310833
 31
0.0
  0
LINE
  5
190
330
1F
100
AcDbEntity
  8
0
  6
Continuous
 62
     7
370
    25
100
AcDbLine
 10
1118.8269018216
 20
514.4410188969
 30
0.0
 11
1118.8269018216
 21
224.4410310833
 31
0.0
  0
LINE
  5
191
330
1F
100
AcDbEntity
  8
0
  6
Continuous
 62
     7
370
    25
100
AcDbLine
 10
1093.8269256634
 20
199.4410251228
 30
0.0
 11
643.8269375843
 21
199.4410251228
 31
0.0
  0
ARC
  5
192
330
1F
100
AcDbEntity
  8
0
  6
Continuous
 62
     7
370
    25
100
AcDbCircle
 10
1093.8269124994
 20
224.4410189448
 30
0.0
 40
25.00000000000003
100
AcDbArc
 50
270.0
 51
0.0
  0
ARC
  5
193
330
1F
100
AcDbEntity
  8
0
  6
Continuous
 62
     7
370
    25
100
AcDbCircle
 10
643.8269124994
 20
514.4410189448
 30
0.0
 40
25.0
100
AcDbArc
 50
90.0
 51
180.0
  0
ARC
  5
194
330
1F
100
AcDbEntity
  8
0
  6
Continuous
 62
     7
370
    25
100
AcDbCircle
 10
643.8269124994
 20
224.4410189448
 30
0.0
 40
25.00000000000003
100
AcDbArc
 50
254.9869253666
 51
270.0
  0
ARC
  5
195
330
1F
100
AcDbEntity
  8
0
  6
Continuous
 62
     7
370
    25
100
AcDbCircle
 10
643.8269124994
 20
224.4410189448
 30
0.0
 40
25.00000000000003
100
AcDbArc
 50
180.0
 51
226.9038652999
  0
LINE
  5
196
330
1F
100
AcDbEntity
  8
0
  6
Continuous
 62
     7
370
    25
100
AcDbLine
 10
618.8269018216
 20
224.4410310833
 30
0.0
 11
618.8269018216
 21
514.4410188969
 31
0.0
  0
SPLINE
  5
197
330
1F
100
AcDbEntity
  8
0
  6
Continuous
 62
     7
370
    25
100
AcDbSpline
210
0.0
220
0.0
230
1.0
 70
     8
 71
     3
 72
    15
 73
    11
 74
     0
 42
0.000000001
 43
0.00000001
 40
0.0
 40
0.0
 40
0.0
 40
0.0
 40
0.1277051381690802
 40
0.2500054558110581
 40
0.3758497379066844
 40
0.5000008406303409
 40
0.6241487114935443
 40
0.7499941133524093
 40
0.8722940460935702
 40
1.0
 40
1.0
 40
1.0
 40
1.0
 10
1109.741246609149
 20
514.4410188969196
 30
0.0
 10
1109.658829430488
 20
515.4912295131395
 30
0.0
 10
1109.497483186999
 20
517.5472030438056
 30
0.0
 10
1108.513368712082
 20
520.5224714937654
 30
0.0
 10
1107.036849597264
 20
523.2495265458209
 30
0.0
 10
1105.044461528548
 20
525.6585494585411
 30
0.0
 10
1102.635436793035
 20
527.650948857468
 30
0.0
 10
1099.908397067337
 20
529.1274557480115
 30
0.0
 10
1096.93311963932
 20
530.1115816240977
 30
0.0
 10
1094.877142845191
 20
530.2729291774687
 30
0.0
 10
1093.826925663409
 20
530.3553474096552
 30
0.0
  0
LINE
  5
198
330
1F
100
AcDbEntity
  8
0
  6
Continuous
 62
     7
370
    25
100
AcDbLine
 10
1093.8269256634
 20
539.4410193859
 30
0.0
 11
1093.8269256634
 21
530.3553474097
 31
0.0
  0
LINE
  5
199
330
1F
100
AcDbEntity
  8
0
  6
Continuous
 62
     7
370
    25
100
AcDbLine
 10
1118.8269018216
 20
514.4410188969
 30
0.0
 11
1109.7412466091
 21
514.4410188969
 31
0.0
  0
SPLINE
  5
19A
330
1F
100
AcDbEntity
  8
0
  6
Continuous
 62
     7
370
    25
100
AcDbSpline
210
0.0
220
0.0
230
1.0
 70
     8
 71
     3
 72
    13
 73
     9
 74
     0
 42
0.000000001
 43
0.00000001
 40
0.0
 40
0.0
 40
0.0
 40
0.0
 40
0.1664631057787965
 40
0.3329351622668966
 40
0.4993956792806719
 40
0.6662593728167007
 40
0.8331357492711983
 40
1.0
 40
1.0
 40
1.0
 40
1.0
 10
1110.484814552722
 20
224.4414185134664
 30
0.0
 10
1110.334469452685
 20
240.5084284038206
 30
0.0
 10
1110.033771168566
 20
272.6433121065027
 30
0.0
 10
1109.706158346392
 20
320.897408967699
 30
0.0
 10
1109.48289700186
 20
369.216627238654
 30
0.0
 10
1109.390492759175
 20
417.593493605323
 30
0.0
 10
1109.416801890159
 20
466.0144122800804
 30
0.0
 10
1109.540255696281
 20
498.283791165619
 30
0.0
 10
1109.601980356631
 20
514.4178943902225
 30
0.0
  0
LINE
  5
19B
330
1F
100
AcDbEntity
  8
0
  6
Continuous
 62
     7
370
    25
100
AcDbLine
 10
1109.6019803566
 20
514.4178943902
 30
0.0
 11
1109.7412466091
 21
514.4410188969
 31
0.0
  0
LINE
  5
19C
330
1F
100
AcDbEntity
  8
0
  6
Continuous
 62
     7
370
    25
100
AcDbLine
 10
1118.8269018216
 20
224.4410310833
 30
0.0
 11
1110.502129702
 21
224.4410310833
 31
0.0
  0
LINE
  5
19D
330
1F
100
AcDbEntity
  8
0
  6
Continuous
 62
     7
370
    25
100
AcDbLine
 10
1110.502129702
 20
224.4410310833
 30
0.0
 11
1110.4848145527
 21
224.4410310833
 31
0.0
  0
SPLINE
  5
19E
330
1F
100
AcDbEntity
  8
0
  6
Continuous
 62
     7
370
    25
100
AcDbSpline
210
0.0
220
0.0
230
1.0
 70
     8
 71
     3
 72
    15
 73
    11
 74
     0
 42
0.000000001
 43
0.00000001
 40
0.0
 40
0.0
 40
0.0
 40
0.0
 40
0.1277060153814734
 40
0.2500044811840555
 40
0.3758456521537569
 40
0.5000001788838295
 40
0.6241514858749939
 40
0.7499932183258969
 40
0.872290574285275
 40
1.0
 40
1.0
 40
1.0
 40
1.0
 10
1093.826925663409
 20
207.765797242333
 30
0.0
 10
1094.928564305788
 20
207.8503678695151
 30
0.0
 10
1097.085194096621
 20
208.0159280877155
 30
0.0
 10
1100.205537327738
 20
209.044512439615
 30
0.0
 10
1103.064871710634
 20
210.5903348619715
 30
0.0
 10
1105.58995663383
 20
212.6779616898672
 30
0.0
 10
1107.677571359573
 20
215.2030579716239
 30
0.0
 10
1109.223413216816
 20
218.0623430558898
 30
0.0
 10
1110.252011489037
 20
221.182711132107
 30
0.0
 10
1110.417562366243
 20
223.339362259914
 30
0.0
 10
1110.502129702029
 20
224.4410310832753
 30
0.0
  0
LINE
  5
19F
330
1F
100
AcDbEntity
  8
0
  6
Continuous
 62
     7
370
    25
100
AcDbLine
 10
1093.8269256634
 20
199.4410251228
 30
0.0
 11
1093.8269256634
 21
207.7657972423
 31
0.0
  0
SPLINE
  5
1A0
330
1F
100
AcDbEntity
  8
0
  6
Continuous
 62
     7
370
    25
100
AcDbSpline
210
0.0
220
0.0
230
1.0
 70
     8
 71
     3
 72
    11
 73
     7
 74
     0
 42
0.000000001
 43
0.00000001
 40
0.0
 40
0.0
 40
0.0
 40
0.0
 40
0.2498820515299073
 40
0.4997635301534369
 40
0.7498857851229598
 40
0.9999999999999999
 40
0.9999999999999999
 40
0.9999999999999999
 40
0.9999999999999999
 10
1093.826925663409
 20
530.3553474096552
 30
0.0
 10
1077.019154185445
 20
530.165414569513
 30
0.0
 10
1043.403649764817
 20
529.7855493246892
 30
0.0
 10
992.9029851976871
 20
529.3405016093533
 30
0.0
 10
942.3557905360351
 20
528.9800952813625
 30
0.0
 10
908.6210478729846
 20
528.8740926513216
 30
0.0
 10
891.7539476436949
 20
528.8210921881691
 30
0.0
  0
LINE
  5
1A1
330
1F
100
AcDbEntity
  8
0
  6
Continuous
 62
     7
370
    25
100
AcDbLine
 10
891.7539476437
 20
528.8210921882
 30
0.0
 11
845.8998559994
 21
528.8210921882
 31
0.0
  0
SPLINE
  5
1A2
330
1F
100
AcDbEntity
  8
0
  6
Continuous
 62
     7
370
    25
100
AcDbSpline
210
0.0
220
0.0
230
1.0
 70
     8
 71
     3
 72
    11
 73
     7
 74
     0
 42
0.000000001
 43
0.00000001
 40
0.0
 40
0.0
 40
0.0
 40
0.0
 40
0.2498569978918219
 40
0.4997219636102704
 40
0.7498607757344882
 40
0.9999999999999999
 40
0.9999999999999999
 40
0.9999999999999999
 40
0.9999999999999999
 10
845.8998559994078
 20
528.8210921881691
 30
0.0
 10
829.0501057755198
 20
528.8740203891241
 30
0.0
 10
795.3500679968317
 20
528.9798784788906
 30
0.0
 10
744.820163906379
 20
529.3399506114624
 30
0.0
 10
694.3021201673811
 20
529.7849865011472
 30
0.0
 10
660.6520076859479
 20
530.1652270024019
 30
0.0
 10
643.8269375843382
 20
530.3553474096552
 30
0.0
  0
LINE
  5
1A3
330
1F
100
AcDbEntity
  8
0
  6
Continuous
 62
     7
370
    25
100
AcDbLine
 10
643.8269375843
 20
539.4410193859
 30
0.0
 11
643.8269375843
 21
530.3553474097
 31
0.0
  0
SPLINE
  5
1A4
330
1F
100
AcDbEntity
  8
0
  6
Continuous
 62
     7
370
    25
100
AcDbSpline
210
0.0
220
0.0
230
1.0
 70
     8
 71
     3
 72
    17
 73
    13
 74
     0
 42
0.000000001
 43
0.00000001
 40
0.0
 40
0.0
 40
0.0
 40
0.0
 40
0.1085136437046121
 40
0.2170328048354881
 40
0.3255446662833129
 40
0.4343232938669359
 40
0.5431103119449415
 40
0.6518886987075684
 40
0.7388884703487587
 40
0.8258885733748644
 40
0.9129441697767153
 40
1.0
 40
1.0
 40
1.0
 40
1.0
 10
643.8269375843382
 20
207.765797242333
 30
0.0
 10
660.0794378966173
 20
207.9335278394387
 30
0.0
 10
692.5852648870499
 20
208.2689975619899
 30
0.0
 10
741.4019337418636
 20
208.6521502670193
 30
0.0
 10
790.2897783523819
 20
208.9310456146411
 30
0.0
 10
839.2432258195903
 20
209.0793324797078
 30
0.0
 10
888.2459336039277
 20
209.0938360301281
 30
0.0
 10
933.9727175589436
 20
208.9809545063509
 30
0.0
 10
976.4113092791591
 20
208.7729560687967
 30
0.0
 10
1015.569411764456
 20
208.5053436881808
 30
0.0
 10
1054.713328109436
 20
208.1732582680877
 30
0.0
 10
1080.789048139364
 20
207.9016177058504
 30
0.0
 10
1093.826925663409
 20
207.765797242333
 30
0.0
  0
LINE
  5
1A5
330
1F
100
AcDbEntity
  8
0
  6
Continuous
 62
     7
370
    25
100
AcDbLine
 10
643.8269375843
 20
199.4410251228
 30
0.0
 11
643.8269375843
 21
207.7657972423
 31
0.0
  0
SPLINE
  5
1A6
330
1F
100
AcDbEntity
  8
0
  6
Continuous
 62
     7
370
    25
100
AcDbSpline
210
0.0
220
0.0
230
1.0
 70
     8
 71
     3
 72
    15
 73
    11
 74
     0
 42
0.000000001
 43
0.00000001
 40
0.0
 40
0.0
 40
0.0
 40
0.0
 40
0.1277067897117194
 40
0.2500064381540634
 40
0.3758502956262992
 40
0.5000010780793086
 40
0.6241491587275626
 40
0.7499934390234907
 40
0.8722931455898693
 40
1.0
 40
1.0
 40
1.0
 40
1.0
 10
643.8269375843382
 20
530.3553474096552
 30
0.0
 10
642.77671027635
 20
530.2729342517937
 30
0.0
 10
640.7207225789455
 20
530.1115973322729
 30
0.0
 10
637.7454454995577
 20
529.1274753307508
 30
0.0
 10
635.0183946371395
 20
527.6509583102365
 30
0.0
 10
632.6093825174211
 20
525.658557064659
 30
0.0
 10
630.6169640359348
 20
523.2495538286215
 30
0.0
 10
629.1404686616875
 20
520.5225092268007
 30
0.0
 10
628.1563500478022
 20
517.5472296474228
 30
0.0
 10
627.9949847096929
 20
515.491244776971
 30
0.0
 10
627.9125570339537
 20
514.4410188969196
 30
0.0
  0
LINE
  5
1A7
330
1F
100
AcDbEntity
  8
0
  6
Continuous
 62
     7
370
    25
100
AcDbLine
 10
618.8269018216
 20
514.4410188969
 30
0.0
 11
627.912557034
 21
514.4410188969
 31
0.0
  0
SPLINE
  5
1A8
330
1F
100
AcDbEntity
  8
0
  6
Continuous
 62
     7
370
    25
100
AcDbSpline
210
0.0
220
0.0
230
1.0
 70
     8
 71
     3
 72
    13
 73
     9
 74
     0
 42
0.000000001
 43
0.00000001
 40
0.0
 40
0.0
 40
0.0
 40
0.0
 40
0.1924273597523248
 40
0.3848540586786045
 40
0.5775806652486023
 40
0.770308643601877
 40
0.885148137895715
 40
1.0
 40
1.0
 40
1.0
 40
1.0
 10
628.0518530887938
 20
514.4178945066378
 30
0.0
 10
628.1212560666285
 20
495.8116669556433
 30
0.0
 10
628.2600617839566
 20
458.5992757503881
 30
0.0
 10
628.256136270445
 20
402.7310354388098
 30
0.0
 10
628.0894290831159
 20
346.8469778895189
 30
0.0
 10
627.8044801815586
 20
298.493543440706
 30
0.0
 10
627.4856009791807
 20
257.6936220553496
 30
0.0
 10
627.2745301750407
 20
235.5258842372615
 30
0.0
 10
627.1689890903807
 20
224.4414185134664
 30
0.0
  0
LINE
  5
1A9
330
1F
100
AcDbEntity
  8
0
  6
Continuous
 62
     7
370
    25
100
AcDbLine
 10
627.1517037434
 20
224.4410310833
 30
0.0
 11
627.1689890904
 21
224.4410310833
 31
0.0
  0
LINE
  5
1AA
330
1F
100
AcDbEntity
  8
0
  6
Continuous
 62
     7
370
    25
100
AcDbLine
 10
618.8269018216
 20
224.4410310833
 30
0.0
 11
627.1517037434
 21
224.4410310833
 31
0.0
  0
LINE
  5
1AB
330
1F
100
AcDbEntity
  8
0
  6
Continuous
 62
     7
370
    25
100
AcDbLine
 10
627.912557034
 20
514.4410188969
 30
0.0
 11
628.0518530888
 21
514.4178945066
 31
0.0
  0
SPLINE
  5
1AC
330
1F
100
AcDbEntity
  8
0
  6
Continuous
 62
     7
370
    25
100
AcDbSpline
210
0.0
220
0.0
230
1.0
 70
     8
 71
     3
 72
    15
 73
    11
 74
     0
 42
0.000000001
 43
0.00000001
 40
0.0
 40
0.0
 40
0.0
 40
0.0
 40
0.1277069382457091
 40
0.2500052106928095
 40
0.3758456378016241
 40
0.4999999682417583
 40
0.6241510789480748
 40
0.7499936135899045
 40
0.8722907761955555
 40
1.0
 40
1.0
 40
1.0
 40
1.0
 10
627.1517037433958
 20
224.4410310832754
 30
0.0
 10
627.2362727843846
 20
223.3393819529156
 30
0.0
 10
627.4018291840682
 20
221.1827409220641
 30
0.0
 10
628.4304254524332
 20
218.0623985409106
 30
0.0
 10
629.9762058581007
 20
215.2030465962221
 30
0.0
 10
632.0638412646111
 20
212.6779726341284
 30
0.0
 10
634.5889385876831
 20
210.5903456010952
 30
0.0
 10
637.4482440513474
 20
209.0445213975324
 30
0.0
 10
640.5686169040725
 20
208.0159141743749
 30
0.0
 10
642.7252685144622
 20
207.8503641450175
 30
0.0
 10
643.8269375843382
 20
207.765797242333
 30
0.0
  0
LINE
  5
1AD
330
1F
100
AcDbEntity
  8
0
  6
Continuous
 62
     7
370
    25
100
AcDbLine
 10
643.8269375843
 20
207.7657972423
 30
0.0
 11
643.8191293759
 21
207.7990864364
 31
0.0
  0
SPLINE
  5
1AE
330
1F
100
AcDbEntity
  8
0
  6
Continuous
 62
     7
370
    25
100
AcDbSpline
210
0.0
220
0.0
230
1.0
 70
     8
 71
     3
 72
    25
 73
    21
 74
     0
 42
0.000000001
 43
0.00000001
 40
0.0
 40
0.0
 40
0.0
 40
0.0
 40
0.0629848465032263
 40
0.1261679579354237
 40
0.1875324257721891
 40
0.2501811621987727
 40
0.3329280587335166
 40
0.416052811498737
 40
0.5003501966385442
 40
0.5610446175528647
 40
0.6247626769451063
 40
0.6851977235959791
 40
0.7501899001120642
 40
0.7824183794470492
 40
0.8172690472324211
 40
0.8547413524127118
 40
0.8904505835834975
 40
0.9270531243588465
 40
0.9565481631438685
 40
1.0
 40
1.0
 40
1.0
 40
1.0
 10
643.8191293758726
 20
207.7990864364401
 30
0.0
 10
643.7993792721484
 20
207.9907886521898
 30
0.0
 10
643.7598168949379
 20
208.3747965276652
 30
0.0
 10
643.9264159415634
 20
209.3129118035288
 30
0.0
 10
644.2549071034158
 20
210.4954882882796
 30
0.0
 10
644.8026699032989
 20
212.0806865795788
 30
0.0
 10
645.6317313064787
 20
214.1538150518565
 30
0.0
 10
646.7992677924103
 20
216.7678995312963
 30
0.0
 10
648.0732146534942
 20
219.4165475706981
 30
0.0
 10
649.3839265677093
 20
222.0079005353431
 30
0.0
 10
650.642186955392
 20
224.4125614626467
 30
0.0
 10
652.0166351518011
 20
226.96453020771
 30
0.0
 10
653.2230098655538
 20
229.1567474894976
 30
0.0
 10
654.2667547864932
 20
231.0255542395991
 30
0.0
 10
655.1089519879383
 20
232.5212681381252
 30
0.0
 10
655.9939543622513
 20
234.0828242389512
 30
0.0
 10
656.906954911836
 20
235.6831723636586
 30
0.0
 10
657.7633740176292
 20
237.1781218638015
 30
0.0
 10
658.6921063203825
 20
238.7948430078119
 30
0.0
 10
659.3159895134369
 20
239.8774589583675
 30
0.0
 10
659.6876143497801
 20
240.5223344413534
 30
0.0
  0
SPLINE
  5
1AF
330
1F
100
AcDbEntity
  8
0
  6
Continuous
 62
     7
370
    25
100
AcDbSpline
210
0.0
220
0.0
230
1.0
 70
     8
 71
     3
 72
    17
 73
    13
 74
     0
 42
0.000000001
 43
0.00000001
 40
0.0
 40
0.0
 40
0.0
 40
0.0
 40
0.0836333190418253
 40
0.1672665828533347
 40
0.2509370950380895
 40
0.3346076313475617
 40
0.4453868350726626
 40
0.556173089400345
 40
0.6669523981721288
 40
0.7779656830666877
 40
0.8889853263263006
 40
1.0
 40
1.0
 40
1.0
 40
1.0
 10
1077.966248897967
 20
240.5223344413534
 30
0.0
 10
1066.32005273234
 20
240.6181796030711
 30
0.0
 10
1043.027668092077
 20
240.8098698632114
 30
0.0
 10
1008.057527626785
 20
241.0335858316255
 30
0.0
 10
973.0666818075881
 20
241.2067695021982
 30
0.0
 10
934.2755514133463
 20
241.338092553826
 30
0.0
 10
891.6882853359803
 20
241.4132924283706
 30
0.0
 10
845.3130605476454
 20
241.4124596082475
 30
0.0
 10
798.9109172305906
 20
241.3304571978264
 30
0.0
 10
752.4944541816681
 20
241.1576861453801
 30
0.0
 10
706.0686713816908
 20
240.8968161247483
 30
0.0
 10
675.1477360023164
 20
240.6471598065439
 30
0.0
 10
659.6876143497801
 20
240.5223344413533
 30
0.0
  0
SPLINE
  5
1B0
330
1F
100
AcDbEntity
  8
0
  6
Continuous
 62
     7
370
    25
100
AcDbSpline
210
0.0
220
0.0
230
1.0
 70
     8
 71
     3
 72
    21
 73
    17
 74
     0
 42
0.000000001
 43
0.00000001
 40
0.0
 40
0.0
 40
0.0
 40
0.0
 40
0.1176895058218723
 40
0.2395304497279591
 40
0.3666527599402095
 40
0.5000594259578122
 40
0.5569847161284063
 40
0.6176002660930225
 40
0.6819444929648559
 40
0.7500483237989994
 40
0.7780367614773189
 40
0.811494564208646
 40
0.8504210784161592
 40
0.8948155147096589
 40
0.9446755147143291
 40
0.9999999999999999
 40
0.9999999999999999
 40
0.9999999999999999
 40
0.9999999999999999
 10
1093.83467426723
 20
207.7990864364401
 30
0.0
 10
1093.840099692532
 20
208.2050779473786
 30
0.0
 10
1093.851141922283
 20
209.0313821154667
 30
0.0
 10
1093.035609771293
 20
211.6096569204834
 30
0.0
 10
1091.601467121349
 20
215.156272531941
 30
0.0
 10
1089.91022683214
 20
218.7661936688052
 30
0.0
 10
1088.336999004737
 20
221.8725345438363
 30
0.0
 10
1087.105914911277
 20
224.2278434164319
 30
0.0
 10
1085.711869208756
 20
226.8250728033556
 30
0.0
 10
1084.488896035451
 20
229.0547982373367
 30
0.0
 10
1083.464162455323
 20
230.8838602479453
 30
0.0
 10
1082.654496334346
 20
232.3147272536225
 30
0.0
 10
1081.698380568436
 20
233.9982570802323
 30
0.0
 10
1080.592755176159
 20
235.9397958525315
 30
0.0
 10
1079.335989874456
 20
238.1412870364998
 30
0.0
 10
1078.438373379402
 20
239.701631264194
 30
0.0
 10
1077.966248897967
 20
240.5223344413533
 30
0.0
  0
LINE
  5
1B1
330
1F
100
AcDbEntity
  8
0
  6
Continuous
 62
     7
370
    25
100
AcDbLine
 10
1093.8269256634
 20
207.7657972423
 30
0.0
 11
1093.8346742672
 21
207.7990864364
 31
0.0
  0
SPLINE
  5
1B2
330
1F
100
AcDbEntity
  8
0
  6
Continuous
 62
     7
370
    25
100
AcDbSpline
210
0.0
220
0.0
230
1.0
 70
     8
 71
     3
 72
    12
 73
     8
 74
     0
 42
0.000000001
 43
0.00000001
 40
0.0
 40
0.0
 40
0.0
 40
0.0
 40
0.2020939369438224
 40
0.4041876566360976
 40
0.6065199205017052
 40
0.8088531507510743
 40
0.9999999999999999
 40
0.9999999999999999
 40
0.9999999999999999
 40
0.9999999999999999
 10
1077.336257605014
 20
496.3171706495777
 30
0.0
 10
1077.301550505691
 20
479.0796744543098
 30
0.0
 10
1077.232136344356
 20
444.6047005941306
 30
0.0
 10
1077.259226940254
 20
392.8616157162534
 30
0.0
 10
1077.384288258687
 20
341.1117419107616
 30
0.0
 10
1077.611240502981
 20
290.3169818170641
 30
0.0
 10
1077.85017703603
 20
256.8029563000222
 30
0.0
 10
1077.966248897967
 20
240.5223344413534
 30
0.0
  0
SPLINE
  5
1B3
330
1F
100
AcDbEntity
  8
0
  6
Continuous
 62
     7
370
    25
100
AcDbSpline
210
0.0
220
0.0
230
1.0
 70
     8
 71
     3
 72
    21
 73
    17
 74
     0
 42
0.000000001
 43
0.00000001
 40
0.0
 40
0.0
 40
0.0
 40
0.0
 40
0.1173308480933004
 40
0.2389927194700848
 40
0.3661995202559824
 40
0.5000240426028527
 40
0.5568698476149657
 40
0.6174587507575202
 40
0.6818325395596951
 40
0.7500251114000542
 40
0.7780635325356863
 40
0.8115509376094763
 40
0.850488645369015
 40
0.8948757408082276
 40
0.9447134224867317
 40
1.0
 40
1.0
 40
1.0
 40
1.0
 10
1109.601980356631
 20
514.4178943902225
 30
0.0
 10
1109.196313875241
 20
514.3206809142677
 30
0.0
 10
1108.370006581287
 20
514.1226655298643
 30
0.0
 10
1105.810738974914
 20
512.9730666880074
 30
0.0
 10
1102.296217886512
 20
511.1959246354364
 30
0.0
 10
1098.728595914378
 20
509.2350940383392
 30
0.0
 10
1095.66546548209
 20
507.4645295607759
 30
0.0
 10
1093.349315774927
 20
506.1001048164024
 30
0.0
 10
1090.795147643164
 20
504.5723145168665
 30
0.0
 10
1088.602379418961
 20
503.245645473805
 30
0.0
 10
1086.803733510756
 20
502.1420119829521
 30
0.0
 10
1085.397381906438
 20
501.2740381354509
 30
0.0
 10
1083.743613033511
 20
500.2541421267591
 30
0.0
 10
1081.837015552321
 20
499.080663756546
 30
0.0
 10
1079.675244877028
 20
497.7534584867485
 30
0.0
 10
1078.142403896455
 20
496.8121960510543
 30
0.0
 10
1077.336257605014
 20
496.3171706495777
 30
0.0
  0
SPLINE
  5
1B4
330
1F
100
AcDbEntity
  8
0
  6
Continuous
 62
     7
370
    25
100
AcDbSpline
210
0.0
220
0.0
230
1.0
 70
     8
 71
     3
 72
    24
 73
    20
 74
     0
 42
0.000000001
 43
0.00000001
 40
0.0
 40
0.0
 40
0.0
 40
0.0
 40
0.0629855714758609
 40
0.1261698961969387
 40
0.1875347413017099
 40
0.250184020930304
 40
0.3329310479994569
 40
0.4160556381685996
 40
0.5003529838984364
 40
0.5610480916827976
 40
0.6247658292481745
 40
0.6852016606880359
 40
0.7501935958854614
 40
0.7880495664516174
 40
0.829472497917524
 40
0.8744625932127561
 40
0.9141732023739595
 40
0.9514478110519252
 40
1.0
 40
1.0
 40
1.0
 40
1.0
 10
1110.484814552722
 20
224.4414185134664
 30
0.0
 10
1110.299843643686
 20
224.4284362802463
 30
0.0
 10
1109.929318143231
 20
224.4024308479002
 30
0.0
 10
1109.010781270741
 20
224.5889548873768
 30
0.0
 10
1107.847154094043
 20
224.9366244175058
 30
0.0
 10
1106.282141996197
 20
225.5050288597619
 30
0.0
 10
1104.229970385068
 20
226.3555331260016
 30
0.0
 10
1101.636972054176
 20
227.5447258505403
 30
0.0
 10
1099.005596363017
 20
228.8365395497788
 30
0.0
 10
1096.428405406852
 20
230.1620429263093
 30
0.0
 10
1094.03505815801
 20
231.432157633754
 30
0.0
 10
1091.493346760066
 20
232.8174784198833
 30
0.0
 10
1089.230575710272
 20
234.0750074097259
 30
0.0
 10
1087.193069659295
 20
235.2238953521999
 30
0.0
 10
1085.414883802113
 20
236.2344461595779
 30
0.0
 10
1083.588496995704
 20
237.2793879154196
 30
0.0
 10
1081.805594466684
 20
238.3051005657396
 30
0.0
 10
1079.95815135599
 20
239.3705699971035
 30
0.0
 10
1078.685938984741
 20
240.1061928529506
 30
0.0
 10
1077.966248897967
 20
240.5223344413534
 30
0.0
  0
SPLINE
  5
1B5
330
1F
100
AcDbEntity
  8
0
  6
Continuous
 62
     7
370
    25
100
AcDbSpline
210
0.0
220
0.0
230
1.0
 70
     8
 71
     3
 72
    22
 73
    18
 74
     0
 42
0.000000001
 43
0.00000001
 40
0.0
 40
0.0
 40
0.0
 40
0.0
 40
0.1050840871408251
 40
0.1883653578728716
 40
0.2498374470042856
 40
0.2957359095300589
 40
0.3399263323021922
 40
0.38241794845198
 40
0.4232197176252376
 40
0.4623449452534681
 40
0.4998072378497
 40
0.5676704867985627
 40
0.6337550634982874
 40
0.6981825918204678
 40
0.7610824774582777
 40
0.8827091243714449
 40
1.0
 40
1.0
 40
1.0
 40
1.0
 10
660.3175758404112
 20
496.3171706495777
 30
0.0
 10
658.7856105797463
 20
497.2573002333604
 30
0.0
 10
656.0395317734738
 20
498.9425015831972
 30
0.0
 10
652.4773850639549
 20
501.1374244030151
 30
0.0
 10
649.8187429374775
 20
502.7783491488522
 30
0.0
 10
647.7413563191612
 20
504.0380632862987
 30
0.0
 10
645.9598575541232
 20
505.1106940523084
 30
0.0
 10
644.2844570090705
 20
506.1098794068776
 30
0.0
 10
642.7155754200961
 20
507.0364993285571
 30
0.0
 10
641.252144494062
 20
507.890733805921
 30
0.0
 10
639.505055031611
 20
508.8959168665295
 30
0.0
 10
637.5264670299001
 20
510.0037088644472
 30
0.0
 10
635.4081614577043
 20
511.1470714990408
 30
0.0
 10
633.5307875452955
 20
512.1203853161389
 30
0.0
 10
631.3980945348212
 20
513.1720791016076
 30
0.0
 10
629.2823585713527
 20
514.1234903979341
 30
0.0
 10
628.4570290090037
 20
514.3209543000736
 30
0.0
 10
628.0518530887938
 20
514.4178945066378
 30
0.0
  0
SPLINE
  5
1B6
330
1F
100
AcDbEntity
  8
0
  6
Continuous
 62
     7
370
    25
100
AcDbSpline
210
0.0
220
0.0
230
1.0
 70
     8
 71
     3
 72
    12
 73
     8
 74
     0
 42
0.000000001
 43
0.00000001
 40
0.0
 40
0.0
 40
0.0
 40
0.0
 40
0.1912926201971292
 40
0.3933533861199822
 40
0.5954131831392376
 40
0.797706466664901
 40
1.0
 40
1.0
 40
1.0
 40
1.0
 10
659.6876143497801
 20
240.5223344413533
 30
0.0
 10
659.8037350492873
 20
256.8153751350129
 30
0.0
 10
660.0425130549561
 20
290.3186159837041
 30
0.0
 10
660.2694543651106
 20
341.0793408282627
 30
0.0
 10
660.3944537678963
 20
392.7997273313225
 30
0.0
 10
660.4217405710797
 20
444.5536231836869
 30
0.0
 10
660.3522974315932
 20
479.0626477251583
 30
0.0
 10
660.3175758404112
 20
496.3171706495777
 30
0.0
  0
SPLINE
  5
1B7
330
1F
100
AcDbEntity
  8
0
  6
Continuous
 62
     7
370
    25
100
AcDbSpline
210
0.0
220
0.0
230
1.0
 70
     8
 71
     3
 72
    21
 73
    17
 74
     0
 42
0.000000001
 43
0.00000001
 40
0.0
 40
0.0
 40
0.0
 40
0.0
 40
0.1176882325272658
 40
0.2395275978837348
 40
0.3666492371334659
 40
0.500058899674941
 40
0.5569835176991993
 40
0.6175987410331576
 40
0.6819424515243327
 40
0.750047306883767
 40
0.7780625129836252
 40
0.8115362833217159
 40
0.8504677408488605
 40
0.8948569269530883
 40
0.9447008160515409
 40
0.9999999999999999
 40
0.9999999999999999
 40
0.9999999999999999
 40
0.9999999999999999
 10
627.1689890903807
 20
224.4414185134664
 30
0.0
 10
627.5624352325766
 20
224.4486739063466
 30
0.0
 10
628.363205261262
 20
224.4634406063894
 30
0.0
 10
630.9046383908245
 20
225.3163072076287
 30
0.0
 10
634.4163875502462
 20
226.7861344395524
 30
0.0
 10
638.0014692151852
 20
228.5031335217803
 30
0.0
 10
641.0907272523742
 20
230.0941812340027
 30
0.0
 10
643.4348462251245
 20
231.336980911833
 30
0.0
 10
646.0214437664848
 20
232.7423088334365
 30
0.0
 10
648.244011711254
 20
233.9735206113384
 30
0.0
 10
650.0682612216775
 20
235.0044771251688
 30
0.0
 10
651.495961236453
 20
235.8187438521001
 30
0.0
 10
653.1757661644981
 20
236.7793275065311
 30
0.0
 10
655.1131079193207
 20
237.8893062553454
 30
0.0
 10
657.3102640353259
 20
239.1498653181309
 30
0.0
 10
658.868219666541
 20
240.0492893475609
 30
0.0
 10
659.6876143497801
 20
240.5223344413534
 30
0.0
  0
SPLINE
  5
1B8
330
1F
100
AcDbEntity
  8
0
  6
Continuous
 62
     7
370
    25
100
AcDbSpline
210
0.0
220
0.0
230
1.0
 70
     8
 71
     3
 72
    11
 73
     7
 74
     0
 42
0.000000001
 43
0.00000001
 40
0.0
 40
0.0
 40
0.0
 40
0.0
 40
0.2498869404618899
 40
0.4997796359698611
 40
0.7498894457159457
 40
1.0
 40
1.0
 40
1.0
 40
1.0
 10
892.1611665768004
 20
495.4373334495321
 30
0.0
 10
907.5999636424799
 20
495.4326652717891
 30
0.0
 10
938.477913338593
 20
495.4233288087922
 30
0.0
 10
984.7804902814013
 20
495.5811097911618
 30
0.0
 10
1031.073789145737
 20
495.8865999707745
 30
0.0
 10
1061.915419483489
 20
496.1736469475612
 30
0.0
 10
1077.336257605014
 20
496.3171706495777
 30
0.0
  0
LWPOLYLINE
  5
1B9
330
1F
100
AcDbEntity
  8
0
  6
Continuous
 62
     7
370
    25
100
AcDbPolyline
 90
       14
 70
   128
 43
0.0
 10
892.1611665768
 20
495.4373334495
 10
892.1503185315
 20
499.1233182101
 10
892.135119347
 20
502.7552527336
 10
892.1156286282
 20
506.2925555704
 10
892.0920847935
 20
509.6957055813
 10
892.0647262616
 20
512.9266785171
 10
892.0339702648
 20
515.9493746197
 10
892.000055222
 20
518.7300211711
 10
891.9633983654
 20
521.2375494612
 10
891.9243573231
 20
523.4439439101
 10
891.8834685368
 20
525.3245505465
 10
891.8410896344
 20
526.8583578018
 10
891.7978166622
 20
528.0282293407
 10
891.7539476437
 20
528.8210921882
  0
LINE
  5
1BA
330
1F
100
AcDbEntity
  8
0
  6
Continuous
 62
     7
370
    25
100
AcDbLine
 10
1093.881702332
 20
530.0660003869
 30
0.0
 11
1093.8269256634
 21
530.3553474097
 31
0.0
  0
SPLINE
  5
1BB
330
1F
100
AcDbEntity
  8
0
  6
Continuous
 62
     7
370
    25
100
AcDbSpline
210
0.0
220
0.0
230
1.0
 70
     8
 71
     3
 72
    22
 73
    18
 74
     0
 42
0.000000001
 43
0.00000001
 40
0.0
 40
0.0
 40
0.0
 40
0.0
 40
0.1051959588638178
 40
0.1884782838497371
 40
0.2498268325589039
 40
0.2957276354906737
 40
0.3399202603811374
 40
0.3824136795320506
 40
0.4232176070998496
 40
0.4623427435777513
 40
0.4998024045754057
 40
0.5676521003440002
 40
0.6337313913938114
 40
0.6981593618176071
 40
0.7610626840264608
 40
0.8827021886842259
 40
0.9999999999999999
 40
0.9999999999999999
 40
0.9999999999999999
 40
0.9999999999999999
 10
1077.336257605014
 20
496.3171706495777
 30
0.0
 10
1078.260226721069
 20
497.8646247758558
 30
0.0
 10
1079.915690630569
 20
500.6371789804774
 30
0.0
 10
1082.044465817166
 20
504.2574659347821
 30
0.0
 10
1083.6241173808
 20
506.9689906001752
 30
0.0
 10
1084.828112742158
 20
509.0949762057346
 30
0.0
 10
1085.848137743873
 20
510.9253565611214
 30
0.0
 10
1086.792364907871
 20
512.6521550235332
 30
0.0
 10
1087.662173000767
 20
514.2745009479222
 30
0.0
 10
1088.458183476659
 20
515.792879461658
 30
0.0
 10
1089.387444786065
 20
517.6116966581941
 30
0.0
 10
1090.39809644975
 20
519.6825477458258
 30
0.0
 10
1091.419377595119
 20
521.9178565341313
 30
0.0
 10
1092.265242948579
 20
523.9184234851183
 30
0.0
 10
1093.143250296328
 20
526.2201520273331
 30
0.0
 10
1093.868993854057
 20
528.5571936508677
 30
0.0
 10
1093.877517801773
 20
529.5691944453138
 30
0.0
 10
1093.881702331958
 20
530.0660003868834
 30
0.0
  0
LWPOLYLINE
  5
1BC
330
1F
100
AcDbEntity
  8
0
  6
Continuous
 62
     7
370
    25
100
AcDbPolyline
 90
       14
 70
   128
 43
0.0
 10
845.4926966709
 20
495.4373334495
 10
845.5034851117
 20
499.1233182101
 10
845.5187439007
 20
502.7552527336
 10
845.5382346196
 20
506.2925555704
 10
845.5617784542
 20
509.6957055813
 10
845.5890773815
 20
512.9266785171
 10
845.6198333783
 20
515.9493746197
 10
845.6537484211
 20
518.7300211711
 10
845.6904648823
 20
521.2375494612
 10
845.72944632
 20
523.4439439101
 10
845.7703351063
 20
525.3245505465
 10
845.8127140087
 20
526.8583578018
 10
845.8560465855
 20
528.0282293407
 10
845.8998559994
 20
528.8210921882
  0
SPLINE
  5
1BD
330
1F
100
AcDbEntity
  8
0
  6
Continuous
 62
     7
370
    25
100
AcDbSpline
210
0.0
220
0.0
230
1.0
 70
     8
 71
     3
 72
    11
 73
     7
 74
     0
 42
0.000000001
 43
0.00000001
 40
0.0
 40
0.0
 40
0.0
 40
0.0
 40
0.2499060068141908
 40
0.4998113714923045
 40
0.7499085180675952
 40
1.0
 40
1.0
 40
1.0
 40
1.0
 10
660.3175758404112
 20
496.3171706495777
 30
0.0
 10
675.7258013068346
 20
496.1737583117077
 30
0.0
 10
706.5422126480862
 20
495.8869340044673
 30
0.0
 10
752.8228553464928
 20
495.5813837054672
 30
0.0
 10
799.1380381650737
 20
495.4233617300629
 30
0.0
 10
830.0412604954574
 20
495.4326762448714
 30
0.0
 10
845.4926966709471
 20
495.4373334495321
 30
0.0
  0
SPLINE
  5
1BE
330
1F
100
AcDbEntity
  8
0
  6
Continuous
 62
     7
370
    25
100
AcDbSpline
210
0.0
220
0.0
230
1.0
 70
     8
 71
     3
 72
    23
 73
    19
 74
     0
 42
0.000000001
 43
0.00000001
 40
0.0
 40
0.0
 40
0.0
 40
0.0
 40
0.0487438816815164
 40
0.0858465222715729
 40
0.1255375368995986
 40
0.1705683224703289
 40
0.2119983052330754
 40
0.2498290752593413
 40
0.3354596585675494
 40
0.4180681675775533
 40
0.499651399213309
 40
0.5839592702550345
 40
0.667093940976452
 40
0.7497848476946496
 40
0.8123914342973901
 40
0.8737046796683624
 40
0.9369780135559764
 40
1.0
 40
1.0
 40
1.0
 40
1.0
 10
660.3175758404112
 20
496.3171706495777
 30
0.0
 10
659.8877198874811
 20
497.0339222202219
 30
0.0
 10
659.1306681845024
 20
498.2962474095559
 30
0.0
 10
658.0350466115217
 20
500.1347195688637
 30
0.0
 10
656.9817512523368
 20
501.9105833732332
 30
0.0
 10
655.9073314659377
 20
503.7374719802434
 30
0.0
 10
654.868383804813
 20
505.5214058319766
 30
0.0
 10
653.5186679226604
 20
507.8640391150696
 30
0.0
 10
651.8969584935656
 20
510.7404387148588
 30
0.0
 10
650.0694776324061
 20
514.1032054256693
 30
0.0
 10
648.4185940588056
 20
517.290335765478
 30
0.0
 10
646.9651379411656
 20
520.2782676137879
 30
0.0
 10
645.7382932478106
 20
523.0145390343502
 30
0.0
 10
644.8607071509081
 20
525.2207569253283
 30
0.0
 10
644.2749259707031
 20
526.9413614332209
 30
0.0
 10
643.9172304950247
 20
528.2581106535272
 30
0.0
 10
643.7267299326319
 20
529.3391333857007
 30
0.0
 10
643.7569975974365
 20
529.8240330618917
 30
0.0
 10
643.7721013111449
 20
530.0660003868834
 30
0.0
  0
LINE
  5
1BF
330
1F
100
AcDbEntity
  8
0
  6
Continuous
 62
     7
370
    25
100
AcDbLine
 10
643.7721013111
 20
530.0660003869
 30
0.0
 11
643.8269375843
 21
530.3553474097
 31
0.0
  0
SPLINE
  5
1C0
330
1F
100
AcDbEntity
  8
0
  6
Continuous
 62
     7
370
    25
100
AcDbSpline
210
0.0
220
0.0
230
1.0
 70
     8
 71
     3
 72
    15
 73
    11
 74
     0
 42
0.000000001
 43
0.00000001
 40
0.0
 40
0.0
 40
0.0
 40
0.0
 40
0.1250175603814253
 40
0.2500242646599256
 40
0.3750139059881312
 40
0.4999997130725402
 40
0.624984910511382
 40
0.7499777745918212
 40
0.8749787209647216
 40
1.0
 40
1.0
 40
1.0
 40
1.0
 10
1110.484814552722
 20
224.4414185134664
 30
0.0
 10
1110.40236155513
 20
223.3661760737756
 30
0.0
 10
1110.237462719887
 20
221.2157845648177
 30
0.0
 10
1109.217049654792
 20
218.1079343421675
 30
0.0
 10
1107.663355802788
 20
215.2351274958023
 30
0.0
 10
1105.57600765401
 20
212.7088085105203
 30
0.0
 10
1103.048277350867
 20
210.6222139484075
 30
0.0
 10
1100.173522177798
 20
209.0686520648543
 30
0.0
 10
1097.063226527183
 20
208.04775421503
 30
0.0
 10
1094.910916698279
 20
207.8819801897402
 30
0.0
 10
1093.83467426723
 20
207.7990864364401
 30
0.0
  0
SPLINE
  5
1C1
330
1F
100
AcDbEntity
  8
0
  6
Continuous
 62
     7
370
    25
100
AcDbSpline
210
0.0
220
0.0
230
1.0
 70
     8
 71
     3
 72
    15
 73
    11
 74
     0
 42
0.000000001
 43
0.00000001
 40
0.0
 40
0.0
 40
0.0
 40
0.0
 40
0.1250213233030133
 40
0.2500219395656474
 40
0.3750136868116193
 40
0.5000011861531096
 40
0.6249857383124611
 40
0.7499761163829836
 40
0.8749833155667853
 40
1.0
 40
1.0
 40
1.0
 40
1.0
 10
627.1689890903807
 20
224.4414185134664
 30
0.0
 10
627.2514637256284
 20
223.3661461769272
 30
0.0
 10
627.4163993360087
 20
221.2157795991294
 30
0.0
 10
628.436783696922
 20
218.1079321254266
 30
0.0
 10
629.9904389451499
 20
215.235126382635
 30
0.0
 10
632.0778087420554
 20
212.7087890015559
 30
0.0
 10
634.6055475801176
 20
210.6222279635045
 30
0.0
 10
637.4803207904065
 20
209.0686548607895
 30
0.0
 10
640.5906037904001
 20
208.0477349974814
 30
0.0
 10
642.7429269628859
 20
207.8819713863325
 30
0.0
 10
643.8191293758726
 20
207.7990864364401
 30
0.0
  0
SPLINE
  5
1C2
330
1F
100
AcDbEntity
  8
0
  6
Continuous
 62
     7
370
    25
100
AcDbSpline
210
0.0
220
0.0
230
1.0
 70
     8
 71
     3
 72
    15
 73
    11
 74
     0
 42
0.000000001
 43
0.00000001
 40
0.0
 40
0.0
 40
0.0
 40
0.0
 40
0.1251304936153918
 40
0.2501415304766987
 40
0.3750904517069809
 40
0.4999994511875744
 40
0.6249102396525575
 40
0.7498596638269157
 40
0.8748709945779691
 40
1.0
 40
1.0
 40
1.0
 40
1.0
 10
628.0518530887938
 20
514.4178945066378
 30
0.0
 10
628.1377682174751
 20
515.4227101452323
 30
0.0
 10
628.3095164553225
 20
517.431382167717
 30
0.0
 10
629.2841642499835
 20
520.3362691066637
 30
0.0
 10
630.7594803525636
 20
523.0213501425269
 30
0.0
 10
632.7266444882531
 20
525.3899688838816
 30
0.0
 10
635.1076979753336
 20
527.3495369752745
 30
0.0
 10
637.8095340757123
 20
528.8225143788833
 30
0.0
 10
640.7347856053949
 20
529.7996649934893
 30
0.0
 10
642.7593452682512
 20
529.9771940838093
 30
0.0
 10
643.7721013111449
 20
530.0660003868834
 30
0.0
  0
SPLINE
  5
1C3
330
1F
100
AcDbEntity
  8
0
  6
Continuous
 62
     7
370
    25
100
AcDbSpline
210
0.0
220
0.0
230
1.0
 70
     8
 71
     3
 72
    15
 73
    11
 74
     0
 42
0.000000001
 43
0.00000001
 40
0.0
 40
0.0
 40
0.0
 40
0.0
 40
0.1251283710756443
 40
0.250140144761259
 40
0.3750905506825148
 40
0.5000002126455858
 40
0.6249084925817326
 40
0.7498585350328791
 40
0.8748698571901381
 40
1.0
 40
1.0
 40
1.0
 40
1.0
 10
1109.601980356631
 20
514.4178943902225
 30
0.0
 10
1109.516078504275
 20
515.4226958458783
 30
0.0
 10
1109.344354844814
 20
517.4313624609189
 30
0.0
 10
1108.369661781398
 20
520.3362406976471
 30
0.0
 10
1106.894323643681
 20
523.0213376062428
 30
0.0
 10
1104.927175487008
 20
525.3899660117513
 30
0.0
 10
1102.546153206191
 20
527.349566913307
 30
0.0
 10
1099.84429695935
 20
528.8224842550098
 30
0.0
 10
1096.919041181236
 20
529.7996670667231
 30
0.0
 10
1094.89446918161
 20
529.9771945041679
 30
0.0
 10
1093.881702331958
 20
530.0660003868834
 30
0.0
  0
SPLINE
  5
1C4
330
1F
100
AcDbEntity
  8
0
  6
Continuous
 62
     7
370
    25
100
AcDbSpline
210
0.0
220
0.0
230
1.0
 70
     8
 71
     3
 72
     9
 73
     5
 74
     0
 42
0.000000001
 43
0.00000001
 40
0.0
 40
0.0
 40
0.0
 40
0.0
 40
0.4980317787163303
 40
1.0
 40
1.0
 40
1.0
 40
1.0
 10
875.1435040516234
 20
495.480606421639
 30
0.0
 10
873.0462831236192
 20
495.6215781941239
 30
0.0
 10
868.8352648359719
 20
495.9046359798101
 30
0.0
 10
864.6241469475475
 20
495.6223200478468
 30
0.0
 10
862.5102995914793
 20
495.480606421639
 30
0.0
  0
LINE
  5
1C5
330
1F
100
AcDbEntity
  8
0
  6
Continuous
 62
     7
370
    25
100
AcDbLine
 10
845.4926966709
 20
495.4373334495
 30
0.0
 11
862.5102995915
 21
495.4806064216
 31
0.0
  0
LINE
  5
1C6
330
1F
100
AcDbEntity
  8
0
  6
Continuous
 62
     7
370
    25
100
AcDbLine
 10
875.1435040516
 20
495.4806064216
 30
0.0
 11
892.1611665768
 21
495.4373334495
 31
0.0
  0
ARC
  5
1C7
330
1F
100
AcDbEntity
  8
0
  6
Continuous
 62
     7
370
    25
100
AcDbCircle
 10
868.8269124994
 20
429.4410189448
 30
0.0
 40
69.99999999999999
100
AcDbArc
 50
109.4720015612
 51
70.5279984388
  0
LWPOLYLINE
  5
1C8
330
1F
100
AcDbEntity
  8
0
  6
Continuous
 62
     7
370
    25
100
AcDbPolyline
 90
        9
 70
   128
 43
0.0
 10
875.1435040516
 20
495.4806064216
 10
875.1354574246
 20
495.3960125295
 10
875.1273511929
 20
495.3115713743
 10
875.1193045658
 20
495.2273500113
 10
875.1112579388
 20
495.1434154956
 10
875.1032709164
 20
495.0598367451
 10
875.0953434986
 20
494.9766789524
 10
875.0874160809
 20
494.894012898
 10
875.0795482678
 20
494.8119000493
  0
SPLINE
  5
1C9
330
1F
100
AcDbEntity
  8
0
  6
Continuous
 62
     7
370
    25
100
AcDbSpline
210
0.0
220
0.0
230
1.0
 70
     8
 71
     3
 72
     9
 73
     5
 74
     0
 42
0.000000001
 43
0.00000001
 40
0.0
 40
0.0
 40
0.0
 40
0.0
 40
0.4976842432987908
 40
1.0
 40
1.0
 40
1.0
 40
1.0
 10
862.5742553753233
 20
494.8119000492588
 30
0.0
 10
864.6487837672412
 20
494.9631982111917
 30
0.0
 10
868.8171463783767
 20
495.2672025351582
 30
0.0
 10
872.9856454848186
 20
494.9641354310102
 30
0.0
 10
875.0795482677794
 20
494.8119000492588
 30
0.0
  0
LWPOLYLINE
  5
1CA
330
1F
100
AcDbEntity
  8
0
  6
Continuous
 62
     7
370
    25
100
AcDbPolyline
 90
        9
 70
   128
 43
0.0
 10
862.5742553753
 20
494.8119000493
 10
862.5663875622
 20
494.894012898
 10
862.5585197491
 20
494.9766789524
 10
862.5505327267
 20
495.0598367451
 10
862.5425457043
 20
495.1434154956
 10
862.5344990773
 20
495.2273500113
 10
862.5264524502
 20
495.3115713743
 10
862.5184058232
 20
495.3960125295
 10
862.5102995915
 20
495.4806064216
  0
CIRCLE
  5
1CB
330
1F
100
AcDbEntity
  8
0
  6
Continuous
 62
     7
370
    25
100
AcDbCircle
 10
868.8269124994
 20
429.4410189448
 30
0.0
 40
58.61177143234625
  0
ARC
  5
1CC
330
1F
100
AcDbEntity
  8
0
  6
Continuous
 62
     7
370
    25
100
AcDbCircle
 10
868.8269124994
 20
429.4410189448
 30
0.0
 40
65.66922975938013
100
AcDbArc
 50
95.4636553582
 51
84.5363446418
  0
ARC
  5
1CD
330
1F
100
AcDbEntity
  8
0
  6
Continuous
 62
     7
370
    25
100
AcDbCircle
 10
868.8269124994
 20
429.4410189448
 30
0.0
 40
66.34098840458022
100
AcDbArc
 50
95.4636553582
 51
84.5363446418
  0
CIRCLE
  5
1CE
330
1F
100
AcDbEntity
  8
0
  6
Continuous
 62
     7
370
    25
100
AcDbCircle
 10
868.8269124994
 20
429.4410189448
 30
0.0
 40
57.50000000000006
  0
ARC
  5
1CF
330
1F
100
AcDbEntity
  8
0
  6
Continuous
 62
     7
370
    25
100
AcDbCircle
 10
868.8269124994
 20
429.4410189448
 30
0.0
 40
36.31056399417653
100
AcDbArc
 50
155.1813223123
 51
335.1813223292
  0
ARC
  5
1D0
330
1F
100
AcDbEntity
  8
0
  6
Continuous
 62
     7
370
    25
100
AcDbCircle
 10
868.8269124994
 20
429.4410189448
 30
0.0
 40
36.31056399417653
100
AcDbArc
 50
335.1813223292
 51
155.1813223123
  0
SPLINE
  5
1D1
330
1F
100
AcDbEntity
  8
0
  6
Continuous
 62
     7
370
    25
100
AcDbSpline
210
0.0
220
0.0
230
1.0
 70
     8
 71
     3
 72
     9
 73
     5
 74
     0
 42
0.000000001
 43
0.00000001
 40
0.0
 40
0.0
 40
0.0
 40
0.0
 40
0.5600011246272696
 40
1.0
 40
1.0
 40
1.0
 40
1.0
 10
838.3428215069151
 20
406.2562380878225
 30
0.0
 10
838.1879598064354
 20
406.1384575823853
 30
0.0
 10
837.9114216109402
 20
405.9281356736294
 30
0.0
 10
837.547157856361
 20
405.651093692251
 30
0.0
 10
837.3868822140074
 20
405.5291955320135
 30
0.0
  0
SPLINE
  5
1D2
330
1F
100
AcDbEntity
  8
0
  6
Continuous
 62
     7
370
    25
100
AcDbSpline
210
0.0
220
0.0
230
1.0
 70
     8
 71
     3
 72
     9
 73
     5
 74
     0
 42
0.000000001
 43
0.00000001
 40
0.0
 40
0.0
 40
0.0
 40
0.0
 40
0.5599786575983554
 40
1.0
 40
1.0
 40
1.0
 40
1.0
 10
900.2669214290953
 20
453.3528407065168
 30
0.0
 10
900.0620531430139
 20
453.1970126855224
 30
0.0
 10
899.696202974795
 20
452.9187377568621
 30
0.0
 10
899.4286924683432
 20
452.7153104898288
 30
0.0
 10
899.3109821361876
 20
452.6257981507078
 30
0.0
  0
ARC
  5
1D3
330
1F
100
AcDbEntity
  8
0
  6
Continuous
 62
     7
370
    25
100
AcDbCircle
 10
868.8269124994
 20
429.4410189448
 30
0.0
 40
38.29899805700042
100
AcDbArc
 50
37.2549368278
 51
217.2549368278
  0
ARC
  5
1D4
330
1F
100
AcDbEntity
  8
0
  6
Continuous
 62
     7
370
    25
100
AcDbCircle
 10
868.8269124994
 20
429.4410189448
 30
0.0
 40
39.49999999999992
100
AcDbArc
 50
37.2549368278
 51
217.2549368513
  0
ARC
  5
1D5
330
1F
100
AcDbEntity
  8
0
  6
Continuous
 62
     7
370
    25
100
AcDbCircle
 10
868.8269124994
 20
429.4410189448
 30
0.0
 40
38.29899805700042
100
AcDbArc
 50
217.2549368278
 51
37.2549368278
  0
ARC
  5
1D6
330
1F
100
AcDbEntity
  8
0
  6
Continuous
 62
     7
370
    25
100
AcDbCircle
 10
868.8269124994
 20
429.4410189448
 30
0.0
 40
39.4999999999999
100
AcDbArc
 50
217.2549368513
 51
37.2549368176
  0
CIRCLE
  5
1D7
330
1F
100
AcDbEntity
  8
0
  6
Continuous
 62
     7
370
    25
100
AcDbCircle
 10
868.8269124994
 20
429.4410189448
 30
0.0
 40
57.00000000000014
  0
SPLINE
  5
1D8
330
1F
100
AcDbEntity
  8
0
  6
Continuous
 62
     7
370
    25
100
AcDbSpline
210
0.0
220
0.0
230
1.0
 70
     8
 71
     3
 72
    35
 73
    31
 74
     0
 42
0.000000001
 43
0.00000001
 40
0.0
 40
0.0
 40
0.0
 40
0.0
 40
0.0282545828665391
 40
0.0583833806763312
 40
0.0903494605894288
 40
0.1258616323694113
 40
0.1640104807893356
 40
0.204840487149435
 40
0.237462433178873
 40
0.2716125046699963
 40
0.3071912385451303
 40
0.3440548086141763
 40
0.3820151289546112
 40
0.4208414730031838
 40
0.4602674183698747
 40
0.4999999306218617
 40
0.5397328320545239
 40
0.5791586619422157
 40
0.6179846690675644
 40
0.6559450892917875
 40
0.6928086950186375
 40
0.7283871985038068
 40
0.7625375660437842
 40
0.7951595034437856
 40
0.8359929374864608
 40
0.8741415742430255
 40
0.9096505100667227
 40
0.9416198737237091
 40
0.9717470439724163
 40
1.0
 40
1.0
 40
1.0
 40
1.0
 10
912.8347991985655
 20
424.7953911272779
 30
0.0
 10
912.9386959233847
 20
426.1007498311149
 30
0.0
 10
913.1533811680688
 20
428.798055768536
 30
0.0
 10
913.0026505539188
 20
432.9892326069147
 30
0.0
 10
912.4289038284496
 20
437.4795406863606
 30
0.0
 10
911.2883515901833
 20
442.2481550447131
 30
0.0
 10
909.4659208167315
 20
447.2409696270025
 30
0.0
 10
907.0986940229708
 20
451.8527713323602
 30
0.0
 10
904.3231489153168
 20
456.0019272152641
 30
0.0
 10
901.2836235259356
 20
459.6517198800323
 30
0.0
 10
897.7210781029197
 20
463.0843432740378
 30
0.0
 10
893.650721620437
 20
466.1982433368864
 30
0.0
 10
889.1130135611043
 20
468.8905841666017
 30
0.0
 10
884.1749034673221
 20
471.0655481020987
 30
0.0
 10
878.9281529372877
 20
472.6423885156072
 30
0.0
 10
873.4846121775275
 20
473.5633385057868
 30
0.0
 10
867.9687672978915
 20
473.7993054346619
 30
0.0
 10
862.5084211093161
 20
473.3527515873612
 30
0.0
 10
857.2250415550444
 20
472.2567905753745
 30
0.0
 10
852.2252033798615
 20
470.5712660382812
 30
0.0
 10
847.5943748844317
 20
468.3759108254451
 30
0.0
 10
843.3936475836832
 20
465.762762699376
 30
0.0
 10
839.6589843710578
 20
462.8281391987721
 30
0.0
 10
836.07817157633
 20
459.3498258489644
 30
0.0
 10
832.800077520911
 20
455.3338421085393
 30
0.0
 10
829.975360723743
 20
450.8315714190942
 30
0.0
 10
827.8643097777409
 20
446.4062003209855
 30
0.0
 10
826.365680958399
 20
442.1347251432607
 30
0.0
 10
825.3431557374261
 20
438.0673986801069
 30
0.0
 10
824.9899818905957
 20
435.3848615374998
 30
0.0
 10
824.819064049182
 20
434.086652561833
 30
0.0
  0
SPLINE
  5
1D9
330
1F
100
AcDbEntity
  8
0
  6
Continuous
 62
     7
370
    25
100
AcDbSpline
210
0.0
220
0.0
230
1.0
 70
     8
 71
     3
 72
    35
 73
    31
 74
     0
 42
0.000000001
 43
0.00000001
 40
0.0
 40
0.0
 40
0.0
 40
0.0
 40
0.028254606933788
 40
0.0583834561996021
 40
0.0903495887921025
 40
0.125861658416933
 40
0.164010453758814
 40
0.2048405049241465
 40
0.2374624486366559
 40
0.2716127716231132
 40
0.3071915029713168
 40
0.3440550704221788
 40
0.3820150328261035
 40
0.4208413849238598
 40
0.460267304340623
 40
0.4999998182429786
 40
0.539732717999624
 40
0.5791585429018454
 40
0.6179849781907267
 40
0.6559449892245482
 40
0.6928085923332116
 40
0.7283874433777833
 40
0.7625374711944052
 40
0.7951594249583898
 40
0.835992835330241
 40
0.8741414693773517
 40
0.9096504510842184
 40
0.9416197618971004
 40
0.9717469820750776
 40
1.0
 40
1.0
 40
1.0
 40
1.0
 10
824.819064049182
 20
434.086652561833
 30
0.0
 10
824.7151441138739
 20
432.7812944372572
 30
0.0
 10
824.500410813724
 20
430.0839885051819
 30
0.0
 10
824.6511337589458
 20
425.8927996520781
 30
0.0
 10
825.2249992743292
 20
421.4025102293685
 30
0.0
 10
826.365422601471
 20
416.6338724823827
 30
0.0
 10
828.1878943875267
 20
411.6410717502408
 30
0.0
 10
830.5551097129047
 20
407.0292694025393
 30
0.0
 10
833.3306495077996
 20
402.8800889530938
 30
0.0
 10
836.3702458935587
 20
399.2303408891487
 30
0.0
 10
839.9327796827663
 20
395.7976909443183
 30
0.0
 10
844.0031352064092
 20
392.6838167719457
 30
0.0
 10
848.5407993353429
 20
389.9914356277051
 30
0.0
 10
853.4788989729949
 20
387.8164830771763
 30
0.0
 10
858.7256529209966
 20
386.2396590964702
 30
0.0
 10
864.1691909062337
 20
385.3187005918775
 30
0.0
 10
869.685036398091
 20
385.082730237849
 30
0.0
 10
875.1454016980181
 20
385.5292857115901
 30
0.0
 10
880.4287861324849
 20
386.6252321921165
 30
0.0
 10
885.4286181159137
 20
388.3107837146781
 30
0.0
 10
890.0594341477232
 20
390.5061495569713
 30
0.0
 10
894.2602043835188
 20
393.1192344828589
 30
0.0
 10
897.9948229790822
 20
396.0539195942466
 30
0.0
 10
901.5756325839403
 20
399.5322100290419
 30
0.0
 10
904.8537261612639
 20
403.548195455885
 30
0.0
 10
907.6784459579492
 20
408.0504659605682
 30
0.0
 10
909.7894885279765
 20
412.4758402056962
 30
0.0
 10
911.288130666188
 20
416.7473143478451
 30
0.0
 10
912.3106306211437
 20
420.8146482733555
 30
0.0
 10
912.6638562501805
 20
423.4971829753154
 30
0.0
 10
912.8347991985655
 20
424.7953911272779
 30
0.0
  0
SPLINE
  5
1DA
330
1F
100
AcDbEntity
  8
0
  6
Continuous
 62
     7
370
    25
100
AcDbSpline
210
0.0
220
0.0
230
1.0
 70
     8
 71
     3
 72
    11
 73
     7
 74
     0
 42
0.000000001
 43
0.00000001
 40
0.0
 40
0.0
 40
0.0
 40
0.0
 40
0.2706943793295362
 40
0.5623141905453841
 40
0.7892988675503692
 40
1.0
 40
1.0
 40
1.0
 40
1.0
 10
824.819064049182
 20
434.086652561833
 30
0.0
 10
825.3573063658581
 20
434.0298293956583
 30
0.0
 10
826.4753986342257
 20
433.9117904737903
 30
0.0
 10
827.7590230417873
 20
433.7762961188207
 30
0.0
 10
828.5286619202217
 20
433.6950573533373
 30
0.0
 10
828.6410504636892
 20
433.6831880071503
 30
0.0
 10
828.6951540989256
 20
433.6774741260305
 30
0.0
  0
SPLINE
  5
1DB
330
1F
100
AcDbEntity
  8
0
  6
Continuous
 62
     7
370
    25
100
AcDbSpline
210
0.0
220
0.0
230
1.0
 70
     8
 71
     3
 72
    11
 73
     7
 74
     0
 42
0.000000001
 43
0.00000001
 40
0.0
 40
0.0
 40
0.0
 40
0.0
 40
0.2706989731215159
 40
0.5623167937570892
 40
0.7892936035731822
 40
1.0
 40
1.0
 40
1.0
 40
1.0
 10
908.9587091488219
 20
425.2045621124998
 30
0.0
 10
909.0429722596205
 20
425.1956654143501
 30
0.0
 10
909.2180100950064
 20
425.1771845064955
 30
0.0
 10
910.2669254087185
 20
425.0664630189929
 30
0.0
 10
911.5487982619419
 20
424.9311343105031
 30
0.0
 10
912.416889006851
 20
424.8395034277514
 30
0.0
 10
912.8347991985655
 20
424.7953911272779
 30
0.0
  0
ARC
  5
1DC
330
1F
100
AcDbEntity
  8
0
  6
Continuous
 62
     7
370
    25
100
AcDbCircle
 10
868.8269124994
 20
429.4410189448
 30
0.0
 40
40.35476230894962
100
AcDbArc
 50
353.973964907
 51
173.973964907
  0
ARC
  5
1DD
330
1F
100
AcDbEntity
  8
0
  6
Continuous
 62
     7
370
    25
100
AcDbCircle
 10
868.8269124994
 20
429.4410189448
 30
0.0
 40
40.35476230894962
100
AcDbArc
 50
173.973964907
 51
353.973964907
  0
CIRCLE
  5
1DE
330
1F
100
AcDbEntity
  8
0
  6
Continuous
 62
     7
370
    25
100
AcDbCircle
 10
868.8269124994
 20
429.4410189448
 30
0.0
 40
39.93812333100025
  0
LWPOLYLINE
  5
1DF
330
1F
100
AcDbEntity
  8
0
  6
Continuous
 62
     8
370
    25
100
AcDbPolyline
 90
        3
 70
   128
 43
0.0
 10
893.3623193783
 20
538.6124533562
 10
893.295085339
 20
538.6219509838
 10
893.1433915181
 20
538.6294034271
  0
ELLIPSE
  5
1E0
330
1F
100
AcDbEntity
  8
0
  6
Continuous
 62
     8
370
    25
100
AcDbEllipse
 10
847.9320606566
 20
538.6124390259
 30
0.0
 11
3.500533148153636
 21
-1.483439314142743E-5
 31
0.0
210
0.0
220
0.0
230
1.0
 40
0.0139104406
 41
2.727974655529106
 42
3.141592712542531
  0
LINE
  5
1E1
330
1F
100
AcDbEntity
  8
0
  6
Continuous
 62
     8
370
    25
100
AcDbLine
 10
894.3969368023
 20
539.3928681461
 30
0.0
 11
894.3969368023
 21
538.6963897346
 31
0.0
  0
LINE
  5
1E2
330
1F
100
AcDbEntity
  8
0
  6
Continuous
 62
     8
370
    25
100
AcDbLine
 10
843.396937756
 20
538.6963897346
 30
0.0
 11
843.396937756
 21
539.3928681461
 31
0.0
  0
LINE
  5
1E3
330
1F
100
AcDbEntity
  8
0
  6
Continuous
 62
     8
370
    25
100
AcDbLine
 10
893.3623193783
 20
538.6124533562
 30
0.0
 11
893.0821775479
 21
538.6321713177
 31
0.0
  0
LINE
  5
1E4
330
1F
100
AcDbEntity
  8
0
  6
Continuous
 62
     8
370
    25
100
AcDbLine
 10
844.648516087
 20
538.6242569385
 30
0.0
 11
844.43155518
 21
538.6124533562
 31
0.0
  0
ARC
  5
1E5
330
1F
100
AcDbEntity
  8
0
  6
Continuous
 62
     8
370
    25
100
AcDbCircle
 10
893.3623656404
 20
540.3633469384
 30
0.0
 40
2.000333433233722
100
AcDbArc
 50
239.1013562751
 51
269.9986749107
  0
ARC
  5
1E6
330
1F
100
AcDbEntity
  8
0
  6
Continuous
 62
     8
370
    25
100
AcDbCircle
 10
844.431508918
 20
540.3633469384
 30
0.0
 40
2.000333433233722
100
AcDbArc
 50
270.0013250893
 51
300.8986437249
  0
LINE
  5
1E7
330
1F
100
AcDbEntity
  8
0
  6
Continuous
 62
     8
370
    25
100
AcDbLine
 10
847.9310034794
 20
538.3143351374
 30
0.0
 11
847.9310034794
 21
538.3955278395
 31
0.0
  0
LINE
  5
1E8
330
1F
100
AcDbEntity
  8
0
  6
Continuous
 62
     8
370
    25
100
AcDbLine
 10
889.8628710789
 20
538.3143351374
 30
0.0
 11
889.8628710789
 21
538.3955278395
 31
0.0
  0
LWPOLYLINE
  5
1E9
330
1F
100
AcDbEntity
  8
0
  6
Continuous
 62
     8
370
    25
100
AcDbPolyline
 90
        3
 70
   128
 43
0.0
 10
847.3644017262
 20
538.6604909746
 10
847.3803161663
 20
538.6012290565
 10
847.3969458622
 20
538.5793131737
  0
LWPOLYLINE
  5
1EA
330
1F
100
AcDbEntity
  8
0
  6
Continuous
 62
     8
370
    25
100
AcDbPolyline
 90
        3
 70
   128
 43
0.0
 10
890.4294728321
 20
538.6604909746
 10
890.4134987873
 20
538.6012290565
 10
890.3969286961
 20
538.5793131737
  0
ARC
  5
1EB
330
1F
100
AcDbEntity
  8
0
  6
Continuous
 62
     8
370
    25
100
AcDbCircle
 10
890.3964292603
 20
539.5818687147
 30
0.0
 40
1.002555665356514
100
AcDbArc
 50
270.0285426181
 51
293.0564278301
  0
ARC
  5
1EC
330
1F
100
AcDbEntity
  8
0
  6
Continuous
 62
     8
370
    25
100
AcDbCircle
 10
847.3963049389
 20
539.5762848669
 30
0.0
 40
0.996971899253623
100
AcDbArc
 50
246.8781958085
 51
270.0368337433
  0
LINE
  5
1ED
330
1F
100
AcDbEntity
  8
0
  6
Continuous
 62
     8
370
    25
100
AcDbLine
 10
1120.326912312
 20
225.3410314171
 30
0.0
 11
1120.326912312
 21
514.4410188969
 31
0.0
  0
LINE
  5
1EE
330
1F
100
AcDbEntity
  8
0
  6
Continuous
 62
     8
370
    25
100
AcDbLine
 10
1093.8269256634
 20
540.9410187004
 30
0.0
 11
644.3269013447
 21
540.9410187004
 31
0.0
  0
LINE
  5
1EF
330
1F
100
AcDbEntity
  8
0
  6
Continuous
 62
     8
370
    25
100
AcDbLine
 10
643.8269375843
 20
199.4410251228
 30
0.0
 11
643.8269375843
 21
199.3458365051
 31
0.0
  0
LINE
  5
1F0
330
1F
100
AcDbEntity
  8
0
  6
Continuous
 62
     8
370
    25
100
AcDbLine
 10
1093.8269256634
 20
199.4410251228
 30
0.0
 11
1093.8269256634
 21
199.3410085289
 31
0.0
  0
LINE
  5
1F1
330
1F
100
AcDbEntity
  8
0
  6
Continuous
 62
     8
370
    25
100
AcDbLine
 10
618.3269380612
 20
514.4410188969
 30
0.0
 11
618.8269018216
 21
514.4410188969
 31
0.0
  0
LINE
  5
1F2
330
1F
100
AcDbEntity
  8
0
  6
Continuous
 62
     8
370
    25
100
AcDbLine
 10
618.3424948735
 20
224.4410310833
 30
0.0
 11
618.8269018216
 21
224.4410310833
 31
0.0
  0
SPLINE
  5
1F3
330
1F
100
AcDbEntity
  8
0
  6
Continuous
 62
     8
370
    25
100
AcDbSpline
210
0.0
220
0.0
230
1.0
 70
     8
 71
     3
 72
    12
 73
     8
 74
     0
 42
0.000000001
 43
0.00000001
 40
0.0
 40
0.0
 40
0.0
 40
0.0
 40
0.2636069607784189
 40
0.4531066736602696
 40
0.6509957949583964
 40
0.8488646897898736
 40
1.0
 40
1.0
 40
1.0
 40
1.0
 10
901.783859638629
 20
414.1997341958776
 30
0.0
 10
901.9033565536859
 20
414.1444783306771
 30
0.0
 10
902.1087564776262
 20
414.0495005607149
 30
0.0
 10
902.3556691402164
 20
413.9352743921232
 30
0.0
 10
902.5230869170883
 20
413.8578725382504
 30
0.0
 10
902.6227777008309
 20
413.8117449505223
 30
0.0
 10
902.6282384569178
 20
413.8092443571163
 30
0.0
 10
902.6306032223082
 20
413.8081614820257
 30
0.0
  0
SPLINE
  5
1F4
330
1F
100
AcDbEntity
  8
0
  6
Continuous
 62
     8
370
    25
100
AcDbSpline
210
0.0
220
0.0
230
1.0
 70
     8
 71
     3
 72
    12
 73
     8
 74
     0
 42
0.000000001
 43
0.00000001
 40
0.0
 40
0.0
 40
0.0
 40
0.0
 40
0.1511333696265039
 40
0.3490038410768438
 40
0.546894539154998
 40
0.7364237531159847
 40
1.0
 40
1.0
 40
1.0
 40
1.0
 10
835.0232600254393
 20
445.0738747565046
 30
0.0
 10
835.0256002624399
 20
445.0727916695556
 30
0.0
 10
835.0310044409099
 20
445.0702905574163
 30
0.0
 10
835.1307258671629
 20
445.0241663215535
 30
0.0
 10
835.2981309843939
 20
444.946748561834
 30
0.0
 10
835.5450993459594
 20
444.8325704717822
 30
0.0
 10
835.7504748803308
 20
444.7375667273069
 30
0.0
 10
835.8699440044737
 20
444.6823020426527
 30
0.0
  0
ENDSEC
  0
SECTION
  2
OBJECTS
  0
DICTIONARY
  5
C
330
0
100
AcDbDictionary
281
     1
  3
ACAD_GROUP
350
D
  3
ACAD_LAYOUT
350
1A
  3
ACAD_MLINESTYLE
350
17
  3
ACAD_PLOTSETTINGS
350
19
  3
ACAD_PLOTSTYLENAME
350
E
  3
ACAD_SCALELIST
350
47
  0
DICTIONARY
  5
D
102
{ACAD_REACTORS
330
C
102
}
330
C
100
AcDbDictionary
281
     1
  0
DICTIONARY
  5
1A
102
{ACAD_REACTORS
330
C
102
}
330
C
100
AcDbDictionary
281
     1
  3
Layout1
350
1E
  3
Layout2
350
26
  3
Model
350
22
  0
DICTIONARY
  5
17
102
{ACAD_REACTORS
330
C
102
}
330
C
100
AcDbDictionary
281
     1
  3
Standard
350
18
  0
DICTIONARY
  5
19
102
{ACAD_REACTORS
330
C
102
}
330
C
100
AcDbDictionary
281
     1
  0
ACDBDICTIONARYWDFLT
  5
E
102
{ACAD_REACTORS
330
C
102
}
330
C
100
AcDbDictionary
281
     1
  3
Normal
350
F
100
AcDbDictionaryWithDefault
340
F
  0
DICTIONARY
  5
47
102
{ACAD_REACTORS
330
C
102
}
330
C
100
AcDbDictionary
281
     1
  3
A0
350
48
  3
A1
350
49
  3
A2
350
4A
  3
A3
350
4B
  3
A4
350
4C
  3
A5
350
4D
  3
A6
350
4E
  3
A7
350
4F
  3
A8
350
50
  3
A9
350
51
  3
B0
350
52
  3
B1
350
53
  3
B2
350
54
  3
B3
350
55
  3
B4
350
56
  3
B5
350
57
  3
B6
350
58
  3
B7
350
59
  3
B8
350
5A
  3
B9
350
5B
  3
C0
350
5C
  3
C1
350
5D
  3
C2
350
5E
  3
C3
350
5F
  3
C4
350
60
  3
C5
350
61
  3
C6
350
62
  3
C7
350
63
  3
C8
350
64
  3
C9
350
65
  3
D0
350
66
  3
D1
350
67
  3
D2
350
68
  0
LAYOUT
  5
1E
102
{ACAD_REACTORS
330
1A
102
}
330
1A
100
AcDbPlotSettings
  1

  2
none_device
  4

  6

 40
0.0
 41
0.0
 42
0.0
 43
0.0
 44
0.0
 45
0.0
 46
0.0
 47
0.0
 48
0.0
 49
0.0
140
0.0
141
0.0
142
1.0
143
1.0
 70
   688
 72
     1
 73
     0
 74
     5
  7

 75
    16
147
1.0
148
0.0
149
0.0
100
AcDbLayout
  1
Layout1
 70
     1
 71
     1
 10
0.0
 20
0.0
 11
420.0
 21
297.0
 12
0.0
 22
0.0
 32
0.0
 14
1.0000000000E+20
 24
1.0000000000E+20
 34
1.0000000000E+20
 15
-1.0000000000E+20
 25
-1.0000000000E+20
 35
-1.0000000000E+20
146
0.0
 13
0.0
 23
0.0
 33
0.0
 16
1.0
 26
0.0
 36
0.0
 17
0.0
 27
1.0
 37
0.0
 76
     0
330
1B
  0
LAYOUT
  5
26
102
{ACAD_REACTORS
330
1A
102
}
330
1A
100
AcDbPlotSettings
  1

  2
none_device
  4

  6

 40
0.0
 41
0.0
 42
0.0
 43
0.0
 44
0.0
 45
0.0
 46
0.0
 47
0.0
 48
0.0
 49
0.0
140
0.0
141
0.0
142
1.0
143
1.0
 70
   688
 72
     1
 73
     0
 74
     5
  7

 75
    16
147
1.0
148
0.0
149
0.0
100
AcDbLayout
  1
Layout2
 70
     1
 71
     2
 10
0.0
 20
0.0
 11
0.0
 21
0.0
 12
0.0
 22
0.0
 32
0.0
 14
0.0
 24
0.0
 34
0.0
 15
0.0
 25
0.0
 35
0.0
146
0.0
 13
0.0
 23
0.0
 33
0.0
 16
1.0
 26
0.0
 36
0.0
 17
0.0
 27
1.0
 37
0.0
 76
     0
330
23
  0
LAYOUT
  5
22
102
{ACAD_REACTORS
330
1A
102
}
330
1A
100
AcDbPlotSettings
  1

  2
none_device
  4
Letter_(8.50_x_11.00_Inches)
  6

 40
6.35
 41
6.35
 42
6.35000508
 43
6.35000508
 44
215.9
 45
279.4
 46
0.0
 47
0.0
 48
0.0
 49
0.0
140
0.0
141
0.0
142
1.0
143
1.0
 70
  1712
 72
     1
 73
     0
 74
     0
  7

 75
     0
147
1.0
148
0.0
149
0.0
100
AcDbLayout
  1
Model
 70
     1
 71
     0
 10
0.0
 20
0.0
 11
2000.0
 21
900.0
 12
0.0
 22
0.0
 32
0.0
 14
0.0
 24
0.0
 34
0.0
 15
2000.0
 25
900.0
 35
0.0
146
0.0
 13
0.0
 23
0.0
 33
0.0
 16
1.0
 26
0.0
 36
0.0
 17
0.0
 27
1.0
 37
0.0
 76
     0
330
1F
331
29
  0
MLINESTYLE
  5
18
102
{ACAD_REACTORS
330
17
102
}
330
17
100
AcDbMlineStyle
  2
Standard
 70
     0
  3

 62
   256
 51
90.0
 52
90.0
 71
     2
 49
0.5
 62
   256
  6
BYLAYER
 49
-0.5
 62
   256
  6
BYLAYER
  0
ACDBPLACEHOLDER
  5
F
102
{ACAD_REACTORS
330
E
102
}
330
E
  0
SCALE
  5
48
102
{ACAD_REACTORS
330
47
102
}
330
47
100
AcDbScale
 70
     0
300
1:1
140
1.0
141
1.0
290
     1
  0
SCALE
  5
49
102
{ACAD_REACTORS
330
47
102
}
330
47
100
AcDbScale
 70
     0
300
1:2
140
1.0
141
2.0
290
     0
  0
SCALE
  5
4A
102
{ACAD_REACTORS
330
47
102
}
330
47
100
AcDbScale
 70
     0
300
1:4
140
1.0
141
4.0
290
     0
  0
SCALE
  5
4B
102
{ACAD_REACTORS
330
47
102
}
330
47
100
AcDbScale
 70
     0
300
1:5
140
1.0
141
5.0
290
     0
  0
SCALE
  5
4C
102
{ACAD_REACTORS
330
47
102
}
330
47
100
AcDbScale
 70
     0
300
1:8
140
1.0
141
8.0
290
     0
  0
SCALE
  5
4D
102
{ACAD_REACTORS
330
47
102
}
330
47
100
AcDbScale
 70
     0
300
1:10
140
1.0
141
10.0
290
     0
  0
SCALE
  5
4E
102
{ACAD_REACTORS
330
47
102
}
330
47
100
AcDbScale
 70
     0
300
1:16
140
1.0
141
16.0
290
     0
  0
SCALE
  5
4F
102
{ACAD_REACTORS
330
47
102
}
330
47
100
AcDbScale
 70
     0
300
1:20
140
1.0
141
20.0
290
     0
  0
SCALE
  5
50
102
{ACAD_REACTORS
330
47
102
}
330
47
100
AcDbScale
 70
     0
300
1:30
140
1.0
141
30.0
290
     0
  0
SCALE
  5
51
102
{ACAD_REACTORS
330
47
102
}
330
47
100
AcDbScale
 70
     0
300
1:40
140
1.0
141
40.0
290
     0
  0
SCALE
  5
52
102
{ACAD_REACTORS
330
47
102
}
330
47
100
AcDbScale
 70
     0
300
1:50
140
1.0
141
50.0
290
     0
  0
SCALE
  5
53
102
{ACAD_REACTORS
330
47
102
}
330
47
100
AcDbScale
 70
     0
300
1:100
140
1.0
141
100.0
290
     0
  0
SCALE
  5
54
102
{ACAD_REACTORS
330
47
102
}
330
47
100
AcDbScale
 70
     0
300
2:1
140
2.0
141
1.0
290
     0
  0
SCALE
  5
55
102
{ACAD_REACTORS
330
47
102
}
330
47
100
AcDbScale
 70
     0
300
4:1
140
4.0
141
1.0
290
     0
  0
SCALE
  5
56
102
{ACAD_REACTORS
330
47
102
}
330
47
100
AcDbScale
 70
     0
300
8:1
140
8.0
141
1.0
290
     0
  0
SCALE
  5
57
102
{ACAD_REACTORS
330
47
102
}
330
47
100
AcDbScale
 70
     0
300
10:1
140
10.0
141
1.0
290
     0
  0
SCALE
  5
58
102
{ACAD_REACTORS
330
47
102
}
330
47
100
AcDbScale
 70
     0
300
100:1
140
100.0
141
1.0
290
     0
  0
SCALE
  5
59
102
{ACAD_REACTORS
330
47
102
}
330
47
100
AcDbScale
 70
     0
300
1/128" = 1'-0"
140
0.0078125
141
12.0
290
     0
  0
SCALE
  5
5A
102
{ACAD_REACTORS
330
47
102
}
330
47
100
AcDbScale
 70
     0
300
1/64" = 1'-0"
140
0.015625
141
12.0
290
     0
  0
SCALE
  5
5B
102
{ACAD_REACTORS
330
47
102
}
330
47
100
AcDbScale
 70
     0
300
1/32" = 1'-0"
140
0.03125
141
12.0
290
     0
  0
SCALE
  5
5C
102
{ACAD_REACTORS
330
47
102
}
330
47
100
AcDbScale
 70
     0
300
1/16" = 1'-0"
140
0.0625
141
12.0
290
     0
  0
SCALE
  5
5D
102
{ACAD_REACTORS
330
47
102
}
330
47
100
AcDbScale
 70
     0
300
3/32" = 1'-0"
140
0.09375
141
12.0
290
     0
  0
SCALE
  5
5E
102
{ACAD_REACTORS
330
47
102
}
330
47
100
AcDbScale
 70
     0
300
1/8" = 1'-0"
140
0.125
141
12.0
290
     0
  0
SCALE
  5
5F
102
{ACAD_REACTORS
330
47
102
}
330
47
100
AcDbScale
 70
     0
300
3/16" = 1'-0"
140
0.1875
141
12.0
290
     0
  0
SCALE
  5
60
102
{ACAD_REACTORS
330
47
102
}
330
47
100
AcDbScale
 70
     0
300
1/4" = 1'-0"
140
0.25
141
12.0
290
     0
  0
SCALE
  5
61
102
{ACAD_REACTORS
330
47
102
}
330
47
100
AcDbScale
 70
     0
300
3/8" = 1'-0"
140
0.375
141
12.0
290
     0
  0
SCALE
  5
62
102
{ACAD_REACTORS
330
47
102
}
330
47
100
AcDbScale
 70
     0
300
1/2" = 1'-0"
140
0.5
141
12.0
290
     0
  0
SCALE
  5
63
102
{ACAD_REACTORS
330
47
102
}
330
47
100
AcDbScale
 70
     0
300
3/4" = 1'-0"
140
0.75
141
12.0
290
     0
  0
SCALE
  5
64
102
{ACAD_REACTORS
330
47
102
}
330
47
100
AcDbScale
 70
     0
300
1" = 1'-0"
140
1.0
141
12.0
290
     0
  0
SCALE
  5
65
102
{ACAD_REACTORS
330
47
102
}
330
47
100
AcDbScale
 70
     0
300
1-1/2" = 1'-0"
140
1.5
141
12.0
290
     0
  0
SCALE
  5
66
102
{ACAD_REACTORS
330
47
102
}
330
47
100
AcDbScale
 70
     0
300
3" = 1'-0"
140
3.0
141
12.0
290
     0
  0
SCALE
  5
67
102
{ACAD_REACTORS
330
47
102
}
330
47
100
AcDbScale
 70
     0
300
6" = 1'-0"
140
6.0
141
12.0
290
     0
  0
SCALE
  5
68
102
{ACAD_REACTORS
330
47
102
}
330
47
100
AcDbScale
 70
     0
300
1'-0" = 1'-0"
140
12.0
141
12.0
290
     0
  0
ENDSEC
  0
EOF
