  0
SECTION
  2
HEADER
  9
$ACADVER
  1
AC1015
  9
$ACADMAINTVER
 70
     6
  9
$DWGCODEPAGE
  3
ANSI_1252
  9
$INSBASE
 10
0.0
 20
0.0
 30
0.0
  9
$EXTMIN
 10
0.0
 20
0.0
 30
0.0
  9
$EXTMAX
 10
2000.0
 20
900.0
 30
0.0
  9
$LIMMIN
 10
0.0
 20
0.0
  9
$LIMMAX
 10
2000.0
 20
900.0
  9
$ORTHOMODE
 70
     0
  9
$REGENMODE
 70
     1
  9
$FILLMODE
 70
     1
  9
$QTEXTMODE
 70
     0
  9
$MIRRTEXT
 70
     1
  9
$LTSCALE
 40
1.0
  9
$ATTMODE
 70
     1
  9
$TEXTSIZE
 40
5.0
  9
$TRACEWID
 40
1.0
  9
$TEXTSTYLE
  7
Standard
  9
$CLAYER
  8
0
  9
$CELTYPE
  6
ByLayer
  9
$CECOLOR
 62
   256
  9
$CELTSCALE
 40
1.0
  9
$DISPSILH
 70
     0
  9
$DIMSCALE
 40
1.0
  9
$DIMASZ
 40
6.0
  9
$DIMEXO
 40
1.0
  9
$DIMDLI
 40
3.75
  9
$DIMRND
 40
0.0
  9
$DIMDLE
 40
0.0
  9
$DIMEXE
 40
1.0
  9
$DIMTP
 40
0.0
  9
$DIMTM
 40
0.0
  9
$DIMTXT
 40
5.0
  9
$DIMCEN
 40
2.5
  9
$DIMTSZ
 40
0.0
  9
$DIMTOL
 70
     0
  9
$DIMLIM
 70
     0
  9
$DIMTIH
 70
     1
  9
$DIMTOH
 70
     1
  9
$DIMSE1
 70
     0
  9
$DIMSE2
 70
     0
  9
$DIMTAD
 70
     1
  9
$DIMZIN
 70
     0
  9
$DIMBLK
  1

  9
$DIMASO
 70
     1
  9
$DIMSHO
 70
     1
  9
$DIMPOST
  1

  9
$DIMAPOST
  1

  9
$DIMALT
 70
     0
  9
$DIMALTD
 70
     3
  9
$DIMALTF
 40
0.0393700787401575
  9
$DIMLFAC
 40
1.0
  9
$DIMTOFL
 70
     1
  9
$DIMTVP
 40
0.0
  9
$DIMTIX
 70
     0
  9
$DIMSOXD
 70
     0
  9
$DIMSAH
 70
     0
  9
$DIMBLK1
  1

  9
$DIMBLK2
  1

  9
$DIMSTYLE
  2
ISO-25
  9
$DIMCLRD
 70
     0
  9
$DIMCLRE
 70
     0
  9
$DIMCLRT
 70
     0
  9
$DIMTFAC
 40
1.0
  9
$DIMGAP
 40
1.524
  9
$DIMJUST
 70
     0
  9
$DIMSD1
 70
     0
  9
$DIMSD2
 70
     0
  9
$DIMTOLJ
 70
     0
  9
$DIMTZIN
 70
     0
  9
$DIMALTZ
 70
     0
  9
$DIMALTTZ
 70
     0
  9
$DIMUPT
 70
     0
  9
$DIMDEC
 70
     2
  9
$DIMTDEC
 70
     2
  9
$DIMALTU
 70
     2
  9
$DIMALTTD
 70
     3
  9
$DIMTXSTY
  7
Standard
  9
$DIMAUNIT
 70
     0
  9
$DIMADEC
 70
     2
  9
$DIMALTRND
 40
0.0
  9
$DIMAZIN
 70
     0
  9
$DIMDSEP
 70
    44
  9
$DIMATFIT
 70
     3
  9
$DIMFRAC
 70
     0
  9
$DIMLDRBLK
  1

  9
$DIMLUNIT
 70
     2
  9
$DIMLWD
 70
    -2
  9
$DIMLWE
 70
    -2
  9
$DIMTMOVE
 70
     0
  9
$LUNITS
 70
     2
  9
$LUPREC
 70
     2
  9
$SKETCHINC
 40
1.0
  9
$FILLETRAD
 40
10.0
  9
$AUNITS
 70
     0
  9
$AUPREC
 70
     2
  9
$MENU
  1
.
  9
$ELEVATION
 40
0.0
  9
$PELEVATION
 40
0.0
  9
$THICKNESS
 40
0.0
  9
$LIMCHECK
 70
     0
  9
$CHAMFERA
 40
10.0
  9
$CHAMFERB
 40
10.0
  9
$CHAMFERC
 40
20.0
  9
$CHAMFERD
 40
0.0
  9
$SKPOLY
 70
     0
  9
$TDCREATE
 40
2456338.54816875
  9
$TDUCREATE
 40
2456338.464835417
  9
$TDUPDATE
 40
2457758.358863866
  9
$TDUUPDATE
 40
2457758.275530532
  9
$TDINDWG
 40
0.0000893866
  9
$TDUSRTIMER
 40
2457758.275441285
  9
$USRTIMER
 70
     1
  9
$ANGBASE
 50
0.0
  9
$ANGDIR
 70
     0
  9
$PDMODE
 70
     0
  9
$PDSIZE
 40
-1.0
  9
$PLINEWID
 40
0.0
  9
$SPLFRAME
 70
     0
  9
$SPLINETYPE
 70
     6
  9
$SPLINESEGS
 70
     8
  9
$HANDSEED
  5
1C5
  9
$SURFTAB1
 70
     6
  9
$SURFTAB2
 70
     6
  9
$SURFTYPE
 70
     6
  9
$SURFU
 70
     6
  9
$SURFV
 70
     6
  9
$UCSBASE
  2

  9
$UCSNAME
  2

  9
$UCSORG
 10
0.0
 20
0.0
 30
0.0
  9
$UCSXDIR
 10
1.0
 20
0.0
 30
0.0
  9
$UCSYDIR
 10
0.0
 20
1.0
 30
0.0
  9
$UCSORTHOREF
  2

  9
$UCSORTHOVIEW
 70
     0
  9
$UCSORGTOP
 10
0.0
 20
0.0
 30
0.0
  9
$UCSORGBOTTOM
 10
0.0
 20
0.0
 30
0.0
  9
$UCSORGLEFT
 10
0.0
 20
0.0
 30
0.0
  9
$UCSORGRIGHT
 10
0.0
 20
0.0
 30
0.0
  9
$UCSORGFRONT
 10
0.0
 20
0.0
 30
0.0
  9
$UCSORGBACK
 10
0.0
 20
0.0
 30
0.0
  9
$PUCSBASE
  2

  9
$PUCSNAME
  2

  9
$PUCSORG
 10
0.0
 20
0.0
 30
0.0
  9
$PUCSXDIR
 10
1.0
 20
0.0
 30
0.0
  9
$PUCSYDIR
 10
0.0
 20
1.0
 30
0.0
  9
$PUCSORTHOREF
  2

  9
$PUCSORTHOVIEW
 70
     0
  9
$PUCSORGTOP
 10
0.0
 20
0.0
 30
0.0
  9
$PUCSORGBOTTOM
 10
0.0
 20
0.0
 30
0.0
  9
$PUCSORGLEFT
 10
0.0
 20
0.0
 30
0.0
  9
$PUCSORGRIGHT
 10
0.0
 20
0.0
 30
0.0
  9
$PUCSORGFRONT
 10
0.0
 20
0.0
 30
0.0
  9
$PUCSORGBACK
 10
0.0
 20
0.0
 30
0.0
  9
$USERI1
 70
     0
  9
$USERI2
 70
     0
  9
$USERI3
 70
     0
  9
$USERI4
 70
     0
  9
$USERI5
 70
     0
  9
$USERR1
 40
0.0
  9
$USERR2
 40
0.0
  9
$USERR3
 40
0.0
  9
$USERR4
 40
0.0
  9
$USERR5
 40
0.0
  9
$WORLDVIEW
 70
     1
  9
$SHADEDGE
 70
     3
  9
$SHADEDIF
 70
    70
  9
$TILEMODE
 70
     1
  9
$MAXACTVP
 70
    64
  9
$PINSBASE
 10
0.0
 20
0.0
 30
0.0
  9
$PLIMCHECK
 70
     0
  9
$PEXTMIN
 10
1.000000000000000E+20
 20
1.000000000000000E+20
 30
1.000000000000000E+20
  9
$PEXTMAX
 10
-1.000000000000000E+20
 20
-1.000000000000000E+20
 30
-1.000000000000000E+20
  9
$PLIMMIN
 10
0.0
 20
0.0
  9
$PLIMMAX
 10
0.0
 20
0.0
  9
$UNITMODE
 70
     0
  9
$VISRETAIN
 70
     1
  9
$PLINEGEN
 70
     0
  9
$PSLTSCALE
 70
     1
  9
$TREEDEPTH
 70
  3020
  9
$CMLSTYLE
  2
Standard
  9
$CMLJUST
 70
     0
  9
$CMLSCALE
 40
20.0
  9
$PROXYGRAPHICS
 70
     1
  9
$MEASUREMENT
 70
     1
  9
$CELWEIGHT
370
    -1
  9
$ENDCAPS
280
     0
  9
$JOINSTYLE
280
     0
  9
$LWDISPLAY
290
     1
  9
$INSUNITS
 70
     4
  9
$HYPERLINKBASE
  1

  9
$STYLESHEET
  1

  9
$XEDIT
290
     1
  9
$CEPSNTYPE
380
     0
  9
$PSTYLEMODE
290
     1
  9
$FINGERPRINTGUID
  2
{832E14F2-B26D-4674-BB7A-D2344301677D}
  9
$VERSIONGUID
  2
{FAEB1C32-E019-11D5-929B-00C0DF256EC4}
  9
$EXTNAMES
290
     1
  9
$PSVPSCALE
 40
0.0
  9
$OLESTARTUP
290
     0
  0
ENDSEC
  0
SECTION
  2
CLASSES
  0
CLASS
  1
ACDBDICTIONARYWDFLT
  2
AcDbDictionaryWithDefault
  3
ObjectDBX Classes
 90
        0
280
     0
281
     0
  0
CLASS
  1
VISUALSTYLE
  2
AcDbVisualStyle
  3
ObjectDBX Classes
 90
     4095
280
     0
281
     0
  0
CLASS
  1
MATERIAL
  2
AcDbMaterial
  3
ObjectDBX Classes
 90
     1153
280
     0
281
     0
  0
CLASS
  1
ACDBPLACEHOLDER
  2
AcDbPlaceHolder
  3
ObjectDBX Classes
 90
        0
280
     0
281
     0
  0
CLASS
  1
LAYOUT
  2
AcDbLayout
  3
ObjectDBX Classes
 90
        0
280
     0
281
     0
  0
CLASS
  1
SCALE
  2
AcDbScale
  3
ObjectDBX Classes
 90
     1153
280
     0
281
     0
  0
CLASS
  1
TABLESTYLE
  2
AcDbTableStyle
  3
ObjectDBX Classes
 90
     4095
280
     0
281
     0
  0
CLASS
  1
SUN
  2
AcDbSun
  3
SCENEOE
 90
     1153
280
     0
281
     0
  0
CLASS
  1
RASTERVARIABLES
  2
AcDbRasterVariables
  3
ISM
 90
        0
280
     0
281
     0
  0
ENDSEC
  0
SECTION
  2
TABLES
  0
TABLE
  2
VPORT
  5
8
330
0
100
AcDbSymbolTable
 70
     1
  0
VPORT
  5
29
330
8
100
AcDbSymbolTableRecord
100
AcDbViewportTableRecord
  2
*Active
 70
     0
 10
0.0
 20
0.0
 11
1.0
 21
1.0
 12
1000.0
 22
450.0
 13
0.0
 23
0.0
 14
10.0
 24
10.0
 15
10.0
 25
10.0
 16
0.0
 26
0.0
 36
1.0
 17
0.0
 27
0.0
 37
0.0
 40
900.0
 41
2.222222222222222
 42
50.0
 43
0.0
 44
0.0
 50
0.0
 51
0.0
 71
     0
 72
  2000
 73
     1
 74
     3
 75
     0
 76
     0
 77
     0
 78
     0
281
     0
 65
     1
110
0.0
120
0.0
130
0.0
111
1.0
121
0.0
131
0.0
112
0.0
122
1.0
132
0.0
 79
     0
146
0.0
  0
ENDTAB
  0
TABLE
  2
LTYPE
  5
5
330
0
100
AcDbSymbolTable
 70
     6
  0
LTYPE
  5
14
330
5
100
AcDbSymbolTableRecord
100
AcDbLinetypeTableRecord
  2
ByBlock
 70
     0
  3

 72
    65
 73
     0
 40
0.0
  0
LTYPE
  5
15
330
5
100
AcDbSymbolTableRecord
100
AcDbLinetypeTableRecord
  2
ByLayer
 70
     0
  3

 72
    65
 73
     0
 40
0.0
  0
LTYPE
  5
16
330
5
100
AcDbSymbolTableRecord
100
AcDbLinetypeTableRecord
  2
Continuous
 70
     0
  3
Solid line
 72
    65
 73
     0
 40
0.0
  0
LTYPE
  5
3F
330
5
100
AcDbSymbolTableRecord
100
AcDbLinetypeTableRecord
  2
HIDDEN
 70
     0
  3
Hidden __ __ __ __ __ __ __ __ __ __ __ __ __ __
 72
    65
 73
     2
 40
1.905
 49
1.27
 74
     0
 49
-0.635
 74
     0
  0
LTYPE
  5
40
330
5
100
AcDbSymbolTableRecord
100
AcDbLinetypeTableRecord
  2
PHANTOM
 70
     0
  3
Phantom ______  __  __  ______  __  __  ______
 72
    65
 73
     6
 40
12.7
 49
6.35
 74
     0
 49
-1.27
 74
     0
 49
1.27
 74
     0
 49
-1.27
 74
     0
 49
1.27
 74
     0
 49
-1.27
 74
     0
  0
LTYPE
  5
41
330
5
100
AcDbSymbolTableRecord
100
AcDbLinetypeTableRecord
  2
CENTER
 70
     0
  3
Center ____ _ ____ _ ____ _ ____ _ ____ _ ____
 72
    65
 73
     4
 40
10.16
 49
6.35
 74
     0
 49
-1.27
 74
     0
 49
1.27
 74
     0
 49
-1.27
 74
     0
  0
LTYPE
  5
42
330
5
100
AcDbSymbolTableRecord
100
AcDbLinetypeTableRecord
  2
CENTERX2
 70
     0
  3
Center (2x) ________  __  ________  __  _____
 72
    65
 73
     4
 40
20.32
 49
12.7
 74
     0
 49
-2.54
 74
     0
 49
2.54
 74
     0
 49
-2.54
 74
     0
  0
LTYPE
  5
43
330
5
100
AcDbSymbolTableRecord
100
AcDbLinetypeTableRecord
  2
DOT2
 70
     0
  3
Dot (.5x) ........................................
 72
    65
 73
     2
 40
0.635
 49
0.0
 74
     0
 49
-0.635
 74
     0
  0
ENDTAB
  0
TABLE
  2
LAYER
  5
2
330
0
100
AcDbSymbolTable
 70
     2
  0
LAYER
  5
10
330
2
100
AcDbSymbolTableRecord
100
AcDbLayerTableRecord
  2
0
 70
     0
 62
     7
  6
Continuous
370
    -3
390
F
  0
LAYER
  5
44
330
2
100
AcDbSymbolTableRecord
100
AcDbLayerTableRecord
  2
TABLE_BL1
 70
     0
 62
   179
  6
Continuous
370
    -3
390
F
  0
ENDTAB
  0
TABLE
  2
STYLE
  5
3
330
0
100
AcDbSymbolTable
 70
     2
  0
STYLE
  5
11
330
3
100
AcDbSymbolTableRecord
100
AcDbTextStyleTableRecord
  2
Standard
 70
     0
 40
0.0
 41
1.0
 50
0.0
 71
     0
 42
5.0
  3
txt
  4

  0
STYLE
  5
5C
330
3
100
AcDbSymbolTableRecord
100
AcDbTextStyleTableRecord
  2
SLDTEXTSTYLE0
 70
     0
 40
0.0
 41
0.605
 50
0.0
 71
     0
 42
0.2
  3
TXT
  4

  0
ENDTAB
  0
TABLE
  2
VIEW
  5
6
330
0
100
AcDbSymbolTable
 70
     0
  0
ENDTAB
  0
TABLE
  2
UCS
  5
7
330
0
100
AcDbSymbolTable
 70
     0
  0
ENDTAB
  0
TABLE
  2
APPID
  5
9
330
0
100
AcDbSymbolTable
 70
     1
  0
APPID
  5
12
330
9
100
AcDbSymbolTableRecord
100
AcDbRegAppTableRecord
  2
ACAD
 70
     0
  0
ENDTAB
  0
TABLE
  2
DIMSTYLE
  5
A
330
0
100
AcDbSymbolTable
 70
     1
100
AcDbDimStyleTable
  0
DIMSTYLE
105
27
330
A
100
AcDbSymbolTableRecord
100
AcDbDimStyleTableRecord
  2
ISO-25
 70
     0
 41
2.5
 42
0.625
 43
3.75
 44
1.25
 73
     0
 74
     0
 77
     1
 78
     8
140
2.5
141
2.5
143
0.03937007874016
147
0.625
171
     3
172
     1
178
     0
271
     2
272
     2
274
     3
278
    44
283
     0
284
     8
340
11
  0
ENDTAB
  0
TABLE
  2
BLOCK_RECORD
  5
1
330
0
100
AcDbSymbolTable
 70
    12
  0
BLOCK_RECORD
  5
1F
330
1
100
AcDbSymbolTableRecord
100
AcDbBlockTableRecord
  2
*Model_Space
340
22
  0
BLOCK_RECORD
  5
1B
330
1
100
AcDbSymbolTableRecord
100
AcDbBlockTableRecord
  2
*Paper_Space
340
1E
  0
BLOCK_RECORD
  5
23
330
1
100
AcDbSymbolTableRecord
100
AcDbBlockTableRecord
  2
*Paper_Space0
340
26
  0
BLOCK_RECORD
  5
45
330
1
100
AcDbSymbolTableRecord
100
AcDbBlockTableRecord
  2
Yleistoleranssit
340
0
  0
BLOCK_RECORD
  5
59
330
1
100
AcDbSymbolTableRecord
100
AcDbBlockTableRecord
  2
SW_NOTE_0
340
0
102
{BLKREFS
331
69
102
}
  0
BLOCK_RECORD
  5
6A
330
1
100
AcDbSymbolTableRecord
100
AcDbBlockTableRecord
  2
SW_NOTE_1
340
0
102
{BLKREFS
331
72
102
}
  0
BLOCK_RECORD
  5
73
330
1
100
AcDbSymbolTableRecord
100
AcDbBlockTableRecord
  2
SW_NOTE_2
340
0
102
{BLKREFS
331
78
102
}
  0
BLOCK_RECORD
  5
7A
330
1
100
AcDbSymbolTableRecord
100
AcDbBlockTableRecord
  2
SW_NOTE_3
340
0
102
{BLKREFS
331
89
102
}
  0
BLOCK_RECORD
  5
8A
330
1
100
AcDbSymbolTableRecord
100
AcDbBlockTableRecord
  2
SW_NOTE_4
340
0
102
{BLKREFS
331
99
102
}
  0
BLOCK_RECORD
  5
9A
330
1
100
AcDbSymbolTableRecord
100
AcDbBlockTableRecord
  2
SW_NOTE_5
340
0
102
{BLKREFS
331
A5
102
}
  0
BLOCK_RECORD
  5
A6
330
1
100
AcDbSymbolTableRecord
100
AcDbBlockTableRecord
  2
SW_NOTE_6
340
0
102
{BLKREFS
331
B1
102
}
  0
BLOCK_RECORD
  5
B2
330
1
100
AcDbSymbolTableRecord
100
AcDbBlockTableRecord
  2
SW_NOTE_7
340
0
102
{BLKREFS
331
BD
102
}
  0
BLOCK_RECORD
  5
BE
330
1
100
AcDbSymbolTableRecord
100
AcDbBlockTableRecord
  2
SW_NOTE_8
340
0
102
{BLKREFS
331
C9
102
}
  0
BLOCK_RECORD
  5
CA
330
1
100
AcDbSymbolTableRecord
100
AcDbBlockTableRecord
  2
SW_NOTE_9
340
0
102
{BLKREFS
331
D4
102
}
  0
ENDTAB
  0
ENDSEC
  0
SECTION
  2
BLOCKS
  0
BLOCK
  5
20
330
1F
100
AcDbEntity
  8
0
100
AcDbBlockBegin
  2
*Model_Space
 70
     0
 10
0.0
 20
0.0
 30
0.0
  3
*Model_Space
  1
*Model_Space
  0
ENDBLK
  5
21
330
1F
100
AcDbEntity
  8
0
100
AcDbBlockEnd
  0
BLOCK
  5
1C
330
1B
100
AcDbEntity
 67
     1
  8
0
100
AcDbBlockBegin
  2
*Paper_Space
 70
     0
 10
0.0
 20
0.0
 30
0.0
  3
*Paper_Space
  1
*Paper_Space
  0
ENDBLK
  5
1D
330
1B
100
AcDbEntity
 67
     1
  8
0
100
AcDbBlockEnd
  0
BLOCK
  5
24
330
23
100
AcDbEntity
  8
0
100
AcDbBlockBegin
  2
*Paper_Space0
 70
     0
 10
0.0
 20
0.0
 30
0.0
  3
*Paper_Space0
  1
*Paper_Space0
  0
ENDBLK
  5
25
330
23
100
AcDbEntity
  8
0
100
AcDbBlockEnd
  0
BLOCK
  5
46
330
45
100
AcDbEntity
  8
0
100
AcDbBlockBegin
  2
Yleistoleranssit
 70
     0
 10
0.0
 20
0.0
 30
0.0
  3
Yleistoleranssit
  1
Yleistoleranssit
  0
LINE
  5
48
330
45
100
AcDbEntity
  8
0
  6
Continuous
 62
     7
370
     0
100
AcDbLine
 10
-128.0
 20
20.3216674369395
 30
0.0
 11
0.0
 21
20.3216674369395
 31
0.0
  0
LINE
  5
49
330
45
100
AcDbEntity
  8
0
  6
Continuous
 62
     7
370
     0
100
AcDbLine
 10
-128.0
 20
0.0
 30
0.0
 11
0.0
 21
0.0
 31
0.0
  0
LINE
  5
4A
330
45
100
AcDbEntity
  8
0
  6
Continuous
 62
     7
370
     0
100
AcDbLine
 10
-128.0
 20
0.0
 30
0.0
 11
-128.0
 21
29.3217161765533
 31
0.0
  0
LINE
  5
4B
330
45
100
AcDbEntity
  8
0
  6
Continuous
 62
     7
370
     0
100
AcDbLine
 10
-128.0
 20
29.3217161765533
 30
0.0
 11
0.0
 21
29.3217161765533
 31
0.0
  0
LINE
  5
4C
330
45
100
AcDbEntity
  8
0
  6
Continuous
 62
     7
370
     0
100
AcDbLine
 10
0.0
 20
0.0
 30
0.0
 11
0.0
 21
29.3217161765533
 31
0.0
  0
LINE
  5
4D
330
45
100
AcDbEntity
  8
0
  6
Continuous
 62
     7
370
     0
100
AcDbLine
 10
-90.0
 20
29.3217161765533
 30
0.0
 11
-90.0
 21
0.0
 31
0.0
  0
LINE
  5
4E
330
45
100
AcDbEntity
  8
0
  6
Continuous
 62
     7
370
     0
100
AcDbLine
 10
-80.35846527125837
 20
29.3217161765533
 30
0.0
 11
-80.35846527125837
 21
0.0
 31
0.0
  0
LINE
  5
4F
330
45
100
AcDbEntity
  8
0
  6
Continuous
 62
     7
370
     0
100
AcDbLine
 10
-69.44920276909968
 20
29.3217161765533
 30
0.0
 11
-69.44920276909968
 21
0.0
 31
0.0
  0
LINE
  5
50
330
45
100
AcDbEntity
  8
0
  6
Continuous
 62
     7
370
     0
100
AcDbLine
 10
-58.76960895119699
 20
29.3217161765533
 30
0.0
 11
-58.76960895119699
 21
0.0
 31
0.0
  0
LINE
  5
51
330
45
100
AcDbEntity
  8
0
  6
Continuous
 62
     7
370
     0
100
AcDbLine
 10
-47.7455121069103
 20
29.3217161765533
 30
0.0
 11
-47.7455121069103
 21
0.0
 31
0.0
  0
LINE
  5
52
330
45
100
AcDbEntity
  8
0
  6
Continuous
 62
     7
370
     0
100
AcDbLine
 10
-36.60658092049568
 20
29.3217161765533
 30
0.0
 11
-36.60658092049568
 21
0.0
 31
0.0
  0
LINE
  5
53
330
45
100
AcDbEntity
  8
0
  6
Continuous
 62
     7
370
     0
100
AcDbLine
 10
-24.77864368131311
 20
29.3217161765533
 30
0.0
 11
-24.77864368131311
 21
0.0
 31
0.0
  0
LINE
  5
54
330
45
100
AcDbEntity
  8
0
  6
Continuous
 62
     7
370
     0
100
AcDbLine
 10
-12.95070644213053
 20
29.3217161765533
 30
0.0
 11
-12.95070644213053
 21
0.0
 31
0.0
  0
LINE
  5
55
330
45
100
AcDbEntity
  8
0
  6
Continuous
 62
     7
370
     0
100
AcDbLine
 10
0.0
 20
14.50972099221878
 30
0.0
 11
-107.7846503106451
 21
14.50972099221878
 31
0.0
  0
LINE
  5
56
330
45
100
AcDbEntity
  8
0
  6
Continuous
 62
     7
370
     0
100
AcDbLine
 10
0.0
 20
10.97489696491011
 30
0.0
 11
-107.7846503106451
 21
10.97489696491008
 31
0.0
  0
LINE
  5
57
330
45
100
AcDbEntity
  8
0
  6
Continuous
 62
     7
370
     0
100
AcDbLine
 10
0.0
 20
7.382273231563818
 30
0.0
 11
-128.0
 21
7.382273231563791
 31
0.0
  0
LINE
  5
58
330
45
100
AcDbEntity
  8
0
  6
Continuous
 62
     7
370
     0
100
AcDbLine
 10
0.0
 20
3.87319888736512
 30
0.0
 11
-107.7846503106451
 21
3.873198887365092
 31
0.0
  0
INSERT
  5
69
330
45
100
AcDbEntity
  8
0
  6
Continuous
 62
     7
370
     0
100
AcDbBlockReference
  2
SW_NOTE_0
 10
-88.89342403353773
 20
25.23533252512787
 30
0.0
  0
INSERT
  5
72
330
45
100
AcDbEntity
  8
0
  6
Continuous
 62
     7
370
     0
100
AcDbBlockReference
  2
SW_NOTE_1
 10
-107.3133833052766
 20
14.6653564215458
 30
0.0
  0
INSERT
  5
78
330
45
100
AcDbEntity
  8
0
  6
Continuous
 62
     7
370
     0
100
AcDbBlockReference
  2
SW_NOTE_2
 10
-127.0419636585391
 20
14.6653559558844
 30
0.0
  0
MTEXT
  5
79
330
45
100
AcDbEntity
  8
0
  6
Continuous
 62
     7
370
     0
100
AcDbMText
 10
-127.2347267983281
 20
27.0028750836024
 30
0.0
 40
2.5
 41
0.0
 71
     1
 72
     1
  1
YLEISTOLERANSSIT
  7
SLDTEXTSTYLE0
 73
     1
 44
1.0
  0
INSERT
  5
89
330
45
100
AcDbEntity
  8
0
  6
Continuous
 62
     7
370
     0
100
AcDbBlockReference
  2
SW_NOTE_3
 10
-78.04776805326102
 20
25.23533205946658
 30
0.0
  0
INSERT
  5
99
330
45
100
AcDbEntity
  8
0
  6
Continuous
 62
     7
370
     0
100
AcDbBlockReference
  2
SW_NOTE_4
 10
-66.7605496266333
 20
25.23533205946658
 30
0.0
  0
INSERT
  5
A5
330
45
100
AcDbEntity
  8
0
  6
Continuous
 62
     7
370
     0
100
AcDbBlockReference
  2
SW_NOTE_5
 10
-56.73185874405453
 20
25.23533205946658
 30
0.0
  0
INSERT
  5
B1
330
45
100
AcDbEntity
  8
0
  6
Continuous
 62
     7
370
     0
100
AcDbBlockReference
  2
SW_NOTE_6
 10
-45.87215391116062
 20
25.23533205946658
 30
0.0
  0
INSERT
  5
BD
330
45
100
AcDbEntity
  8
0
  6
Continuous
 62
     7
370
     0
100
AcDbBlockReference
  2
SW_NOTE_7
 10
-34.78509547874237
 20
25.2353315938053
 30
0.0
  0
INSERT
  5
C9
330
45
100
AcDbEntity
  8
0
  6
Continuous
 62
     7
370
     0
100
AcDbBlockReference
  2
SW_NOTE_8
 10
-22.9284213191655
 20
25.2353315938053
 30
0.0
  0
INSERT
  5
D4
330
45
100
AcDbEntity
  8
0
  6
Continuous
 62
     7
370
     0
100
AcDbBlockReference
  2
SW_NOTE_9
 10
-11.10524575847433
 20
25.23533252512787
 30
0.0
  0
ENDBLK
  5
47
330
45
100
AcDbEntity
  8
0
100
AcDbBlockEnd
  0
BLOCK
  5
5A
330
59
100
AcDbEntity
  8
0
100
AcDbBlockBegin
  2
SW_NOTE_0
 70
     0
 10
0.0
 20
0.0
 30
0.0
  3
SW_NOTE_0
  1
SW_NOTE_0
  0
MTEXT
  5
5D
330
59
100
AcDbEntity
  8
0
  6
Continuous
 62
     0
370
     0
100
AcDbMText
 10
1.500000000000001
 20
2.578135479543931
 30
0.0
 40
2.0
 41
0.0
 71
     1
 72
     1
  1
>0,5
  7
SLDTEXTSTYLE0
 73
     1
 44
1.0
  0
MTEXT
  5
5E
330
59
100
AcDbEntity
  8
0
  6
Continuous
 62
     0
370
     0
100
AcDbMText
 10
0.0
 20
-0.9218646284894876
 30
0.0
 40
2.0
 41
0.0
 71
     1
 72
     1
  1
=<3
  7
SLDTEXTSTYLE0
 73
     1
 44
1.0
  0
MTEXT
  5
5F
330
59
100
AcDbEntity
  8
0
  6
Continuous
 62
     0
370
     0
100
AcDbMText
 10
0.0
 20
-7.921864844556325
 30
0.0
 40
2.0
 41
0.0
 71
     1
 72
     1
  1
%%p
  7
SLDTEXTSTYLE0
 73
     1
 44
1.0
  0
MTEXT
  5
60
330
59
100
AcDbEntity
  8
0
  6
Continuous
 62
     0
370
     0
100
AcDbMText
 10
1.841666758991778
 20
-7.921864844556325
 30
0.0
 40
2.0
 41
0.0
 71
     1
 72
     1
  1
0,05
  7
SLDTEXTSTYLE0
 73
     1
 44
1.0
  0
MTEXT
  5
61
330
59
100
AcDbEntity
  8
0
  6
Continuous
 62
     0
370
     0
100
AcDbMText
 10
0.0
 20
-11.42186495258974
 30
0.0
 40
2.0
 41
0.0
 71
     1
 72
     1
  1
%%p
  7
SLDTEXTSTYLE0
 73
     1
 44
1.0
  0
MTEXT
  5
62
330
59
100
AcDbEntity
  8
0
  6
Continuous
 62
     0
370
     0
100
AcDbMText
 10
1.841666758991778
 20
-11.42186495258974
 30
0.0
 40
2.0
 41
0.0
 71
     1
 72
     1
  1
0,1
  7
SLDTEXTSTYLE0
 73
     1
 44
1.0
  0
MTEXT
  5
63
330
59
100
AcDbEntity
  8
0
  6
Continuous
 62
     0
370
     0
100
AcDbMText
 10
0.0
 20
-14.92186506062316
 30
0.0
 40
2.0
 41
0.0
 71
     1
 72
     1
  1
%%p
  7
SLDTEXTSTYLE0
 73
     1
 44
1.0
  0
MTEXT
  5
64
330
59
100
AcDbEntity
  8
0
  6
Continuous
 62
     0
370
     0
100
AcDbMText
 10
1.841666758991778
 20
-14.92186506062316
 30
0.0
 40
2.0
 41
0.0
 71
     1
 72
     1
  1
0,2
  7
SLDTEXTSTYLE0
 73
     1
 44
1.0
  0
MTEXT
  5
65
330
59
100
AcDbEntity
  8
0
  6
Continuous
 62
     0
370
     0
100
AcDbMText
 10
0.0
 20
-18.42186516865658
 30
0.0
 40
2.0
 41
0.0
 71
     1
 72
     1
  1
%%p
  7
SLDTEXTSTYLE0
 73
     1
 44
1.0
  0
MTEXT
  5
66
330
59
100
AcDbEntity
  8
0
  6
Continuous
 62
     0
370
     0
100
AcDbMText
 10
1.841666758991778
 20
-18.42186516865658
 30
0.0
 40
2.0
 41
0.0
 71
     1
 72
     1
  1
0,2
  7
SLDTEXTSTYLE0
 73
     1
 44
1.0
  0
MTEXT
  5
67
330
59
100
AcDbEntity
  8
0
  6
Continuous
 62
     0
370
     0
100
AcDbMText
 10
0.0
 20
-21.92186527669
 30
0.0
 40
2.0
 41
0.0
 71
     1
 72
     1
  1
%%p
  7
SLDTEXTSTYLE0
 73
     1
 44
1.0
  0
MTEXT
  5
68
330
59
100
AcDbEntity
  8
0
  6
Continuous
 62
     0
370
     0
100
AcDbMText
 10
1.841666758991778
 20
-21.92186527669
 30
0.0
 40
2.0
 41
0.0
 71
     1
 72
     1
  1
0,4
  7
SLDTEXTSTYLE0
 73
     1
 44
1.0
  0
ENDBLK
  5
5B
330
59
100
AcDbEntity
  8
0
100
AcDbBlockEnd
  0
BLOCK
  5
6B
330
6A
100
AcDbEntity
  8
0
100
AcDbBlockBegin
  2
SW_NOTE_1
 70
     0
 10
0.0
 20
0.0
 30
0.0
  3
SW_NOTE_1
  1
SW_NOTE_1
  0
MTEXT
  5
6D
330
6A
100
AcDbEntity
  8
0
  6
Continuous
 62
     0
370
     0
100
AcDbMText
 10
0.0
 20
2.578135479543931
 30
0.0
 40
2.0
 41
0.0
 71
     1
 72
     1
  1
ISO-2768-f
  7
SLDTEXTSTYLE0
 73
     1
 44
1.0
  0
MTEXT
  5
6E
330
6A
100
AcDbEntity
  8
0
  6
Continuous
 62
     0
370
     0
100
AcDbMText
 10
0.0
 20
-0.9218646284894876
 30
0.0
 40
2.0
 41
0.0
 71
     1
 72
     1
  1
ISO-2768-m
  7
SLDTEXTSTYLE0
 73
     1
 44
1.0
  0
MTEXT
  5
6F
330
6A
100
AcDbEntity
  8
0
  6
Continuous
 62
     0
370
     0
100
AcDbMText
 10
0.0
 20
-4.421864736522906
 30
0.0
 40
2.0
 41
0.0
 71
     1
 72
     1
  1
ISO-2768-c
  7
SLDTEXTSTYLE0
 73
     1
 44
1.0
  0
MTEXT
  5
70
330
6A
100
AcDbEntity
  8
0
  6
Continuous
 62
     0
370
     0
100
AcDbMText
 10
0.0
 20
-7.921864844556325
 30
0.0
 40
2.0
 41
0.0
 71
     1
 72
     1
  1
ISO-2768-f/m
  7
SLDTEXTSTYLE0
 73
     1
 44
1.0
  0
MTEXT
  5
71
330
6A
100
AcDbEntity
  8
0
  6
Continuous
 62
     0
370
     0
100
AcDbMText
 10
0.0
 20
-11.42186495258974
 30
0.0
 40
2.0
 41
0.0
 71
     1
 72
     1
  1
ISO-2768-c
  7
SLDTEXTSTYLE0
 73
     1
 44
1.0
  0
ENDBLK
  5
6C
330
6A
100
AcDbEntity
  8
0
100
AcDbBlockEnd
  0
BLOCK
  5
74
330
73
100
AcDbEntity
  8
0
100
AcDbBlockBegin
  2
SW_NOTE_2
 70
     0
 10
0.0
 20
0.0
 30
0.0
  3
SW_NOTE_2
  1
SW_NOTE_2
  0
MTEXT
  5
76
330
73
100
AcDbEntity
  8
0
  6
Continuous
 62
     0
370
     0
100
AcDbMText
 10
0.0
 20
2.578135479543931
 30
0.0
 40
2.0
 41
0.0
 71
     1
 72
     1
  1
Pituusmitat
  7
SLDTEXTSTYLE0
 73
     1
 44
1.0
  0
MTEXT
  5
77
330
73
100
AcDbEntity
  8
0
  6
Continuous
 62
     0
370
     0
100
AcDbMText
 10
0.0
 20
-7.921864844556325
 30
0.0
 40
2.0
 41
0.0
 71
     1
 72
     1
  1
Säteet, viisteet
  7
SLDTEXTSTYLE0
 73
     1
 44
1.0
  0
ENDBLK
  5
75
330
73
100
AcDbEntity
  8
0
100
AcDbBlockEnd
  0
BLOCK
  5
7B
330
7A
100
AcDbEntity
  8
0
100
AcDbBlockBegin
  2
SW_NOTE_3
 70
     0
 10
0.0
 20
0.0
 30
0.0
  3
SW_NOTE_3
  1
SW_NOTE_3
  0
MTEXT
  5
7D
330
7A
100
AcDbEntity
  8
0
  6
Continuous
 62
     0
370
     0
100
AcDbMText
 10
1.500000000000001
 20
2.578135479543931
 30
0.0
 40
2.0
 41
0.0
 71
     1
 72
     1
  1
>3
  7
SLDTEXTSTYLE0
 73
     1
 44
1.0
  0
MTEXT
  5
7E
330
7A
100
AcDbEntity
  8
0
  6
Continuous
 62
     0
370
     0
100
AcDbMText
 10
0.0
 20
-0.9218646284894876
 30
0.0
 40
2.0
 41
0.0
 71
     1
 72
     1
  1
=<6
  7
SLDTEXTSTYLE0
 73
     1
 44
1.0
  0
MTEXT
  5
7F
330
7A
100
AcDbEntity
  8
0
  6
Continuous
 62
     0
370
     0
100
AcDbMText
 10
0.0
 20
-7.921864844556325
 30
0.0
 40
2.0
 41
0.0
 71
     1
 72
     1
  1
%%p
  7
SLDTEXTSTYLE0
 73
     1
 44
1.0
  0
MTEXT
  5
80
330
7A
100
AcDbEntity
  8
0
  6
Continuous
 62
     0
370
     0
100
AcDbMText
 10
1.841666758991778
 20
-7.921864844556325
 30
0.0
 40
2.0
 41
0.0
 71
     1
 72
     1
  1
0,05
  7
SLDTEXTSTYLE0
 73
     1
 44
1.0
  0
MTEXT
  5
81
330
7A
100
AcDbEntity
  8
0
  6
Continuous
 62
     0
370
     0
100
AcDbMText
 10
0.0
 20
-11.42186495258974
 30
0.0
 40
2.0
 41
0.0
 71
     1
 72
     1
  1
%%p
  7
SLDTEXTSTYLE0
 73
     1
 44
1.0
  0
MTEXT
  5
82
330
7A
100
AcDbEntity
  8
0
  6
Continuous
 62
     0
370
     0
100
AcDbMText
 10
1.841666758991778
 20
-11.42186495258974
 30
0.0
 40
2.0
 41
0.0
 71
     1
 72
     1
  1
0,1
  7
SLDTEXTSTYLE0
 73
     1
 44
1.0
  0
MTEXT
  5
83
330
7A
100
AcDbEntity
  8
0
  6
Continuous
 62
     0
370
     0
100
AcDbMText
 10
0.0
 20
-14.92186506062316
 30
0.0
 40
2.0
 41
0.0
 71
     1
 72
     1
  1
%%p
  7
SLDTEXTSTYLE0
 73
     1
 44
1.0
  0
MTEXT
  5
84
330
7A
100
AcDbEntity
  8
0
  6
Continuous
 62
     0
370
     0
100
AcDbMText
 10
1.841666758991778
 20
-14.92186506062316
 30
0.0
 40
2.0
 41
0.0
 71
     1
 72
     1
  1
0,3
  7
SLDTEXTSTYLE0
 73
     1
 44
1.0
  0
MTEXT
  5
85
330
7A
100
AcDbEntity
  8
0
  6
Continuous
 62
     0
370
     0
100
AcDbMText
 10
0.0
 20
-18.42186516865658
 30
0.0
 40
2.0
 41
0.0
 71
     1
 72
     1
  1
%%p
  7
SLDTEXTSTYLE0
 73
     1
 44
1.0
  0
MTEXT
  5
86
330
7A
100
AcDbEntity
  8
0
  6
Continuous
 62
     0
370
     0
100
AcDbMText
 10
1.841666758991778
 20
-18.42186516865658
 30
0.0
 40
2.0
 41
0.0
 71
     1
 72
     1
  1
0,5
  7
SLDTEXTSTYLE0
 73
     1
 44
1.0
  0
MTEXT
  5
87
330
7A
100
AcDbEntity
  8
0
  6
Continuous
 62
     0
370
     0
100
AcDbMText
 10
0.0
 20
-21.92186527669
 30
0.0
 40
2.0
 41
0.0
 71
     1
 72
     1
  1
%%p
  7
SLDTEXTSTYLE0
 73
     1
 44
1.0
  0
MTEXT
  5
88
330
7A
100
AcDbEntity
  8
0
  6
Continuous
 62
     0
370
     0
100
AcDbMText
 10
1.841666758991778
 20
-21.92186527669
 30
0.0
 40
2.0
 41
0.0
 71
     1
 72
     1
  1
1
  7
SLDTEXTSTYLE0
 73
     1
 44
1.0
  0
ENDBLK
  5
7C
330
7A
100
AcDbEntity
  8
0
100
AcDbBlockEnd
  0
BLOCK
  5
8B
330
8A
100
AcDbEntity
  8
0
100
AcDbBlockBegin
  2
SW_NOTE_4
 70
     0
 10
0.0
 20
0.0
 30
0.0
  3
SW_NOTE_4
  1
SW_NOTE_4
  0
MTEXT
  5
8D
330
8A
100
AcDbEntity
  8
0
  6
Continuous
 62
     0
370
     0
100
AcDbMText
 10
1.500000000000001
 20
2.578135479543931
 30
0.0
 40
2.0
 41
0.0
 71
     1
 72
     1
  1
>6
  7
SLDTEXTSTYLE0
 73
     1
 44
1.0
  0
MTEXT
  5
8E
330
8A
100
AcDbEntity
  8
0
  6
Continuous
 62
     0
370
     0
100
AcDbMText
 10
0.0
 20
-0.9218646284894876
 30
0.0
 40
2.0
 41
0.0
 71
     1
 72
     1
  1
=<30
  7
SLDTEXTSTYLE0
 73
     1
 44
1.0
  0
MTEXT
  5
8F
330
8A
100
AcDbEntity
  8
0
  6
Continuous
 62
     0
370
     0
100
AcDbMText
 10
0.0
 20
-7.921864844556325
 30
0.0
 40
2.0
 41
0.0
 71
     1
 72
     1
  1
%%p
  7
SLDTEXTSTYLE0
 73
     1
 44
1.0
  0
MTEXT
  5
90
330
8A
100
AcDbEntity
  8
0
  6
Continuous
 62
     0
370
     0
100
AcDbMText
 10
1.841666758991778
 20
-7.921864844556325
 30
0.0
 40
2.0
 41
0.0
 71
     1
 72
     1
  1
0,1
  7
SLDTEXTSTYLE0
 73
     1
 44
1.0
  0
MTEXT
  5
91
330
8A
100
AcDbEntity
  8
0
  6
Continuous
 62
     0
370
     0
100
AcDbMText
 10
0.0
 20
-11.42186495258974
 30
0.0
 40
2.0
 41
0.0
 71
     1
 72
     1
  1
%%p
  7
SLDTEXTSTYLE0
 73
     1
 44
1.0
  0
MTEXT
  5
92
330
8A
100
AcDbEntity
  8
0
  6
Continuous
 62
     0
370
     0
100
AcDbMText
 10
1.841666758991778
 20
-11.42186495258974
 30
0.0
 40
2.0
 41
0.0
 71
     1
 72
     1
  1
0,2
  7
SLDTEXTSTYLE0
 73
     1
 44
1.0
  0
MTEXT
  5
93
330
8A
100
AcDbEntity
  8
0
  6
Continuous
 62
     0
370
     0
100
AcDbMText
 10
0.0
 20
-14.92186506062316
 30
0.0
 40
2.0
 41
0.0
 71
     1
 72
     1
  1
%%p
  7
SLDTEXTSTYLE0
 73
     1
 44
1.0
  0
MTEXT
  5
94
330
8A
100
AcDbEntity
  8
0
  6
Continuous
 62
     0
370
     0
100
AcDbMText
 10
1.841666758991778
 20
-14.92186506062316
 30
0.0
 40
2.0
 41
0.0
 71
     1
 72
     1
  1
0,5
  7
SLDTEXTSTYLE0
 73
     1
 44
1.0
  0
MTEXT
  5
95
330
8A
100
AcDbEntity
  8
0
  6
Continuous
 62
     0
370
     0
100
AcDbMText
 10
0.0
 20
-18.42186516865658
 30
0.0
 40
2.0
 41
0.0
 71
     1
 72
     1
  1
%%p
  7
SLDTEXTSTYLE0
 73
     1
 44
1.0
  0
MTEXT
  5
96
330
8A
100
AcDbEntity
  8
0
  6
Continuous
 62
     0
370
     0
100
AcDbMText
 10
1.841666758991778
 20
-18.42186516865658
 30
0.0
 40
2.0
 41
0.0
 71
     1
 72
     1
  1
1
  7
SLDTEXTSTYLE0
 73
     1
 44
1.0
  0
MTEXT
  5
97
330
8A
100
AcDbEntity
  8
0
  6
Continuous
 62
     0
370
     0
100
AcDbMText
 10
0.0
 20
-21.92186527669
 30
0.0
 40
2.0
 41
0.0
 71
     1
 72
     1
  1
%%p
  7
SLDTEXTSTYLE0
 73
     1
 44
1.0
  0
MTEXT
  5
98
330
8A
100
AcDbEntity
  8
0
  6
Continuous
 62
     0
370
     0
100
AcDbMText
 10
1.841666758991778
 20
-21.92186527669
 30
0.0
 40
2.0
 41
0.0
 71
     1
 72
     1
  1
2
  7
SLDTEXTSTYLE0
 73
     1
 44
1.0
  0
ENDBLK
  5
8C
330
8A
100
AcDbEntity
  8
0
100
AcDbBlockEnd
  0
BLOCK
  5
9B
330
9A
100
AcDbEntity
  8
0
100
AcDbBlockBegin
  2
SW_NOTE_5
 70
     0
 10
0.0
 20
0.0
 30
0.0
  3
SW_NOTE_5
  1
SW_NOTE_5
  0
MTEXT
  5
9D
330
9A
100
AcDbEntity
  8
0
  6
Continuous
 62
     0
370
     0
100
AcDbMText
 10
1.500000000000001
 20
2.578135479543931
 30
0.0
 40
2.0
 41
0.0
 71
     1
 72
     1
  1
>30
  7
SLDTEXTSTYLE0
 73
     1
 44
1.0
  0
MTEXT
  5
9E
330
9A
100
AcDbEntity
  8
0
  6
Continuous
 62
     0
370
     0
100
AcDbMText
 10
0.0
 20
-0.9218646284894876
 30
0.0
 40
2.0
 41
0.0
 71
     1
 72
     1
  1
=<120
  7
SLDTEXTSTYLE0
 73
     1
 44
1.0
  0
MTEXT
  5
9F
330
9A
100
AcDbEntity
  8
0
  6
Continuous
 62
     0
370
     0
100
AcDbMText
 10
0.0
 20
-7.921864844556325
 30
0.0
 40
2.0
 41
0.0
 71
     1
 72
     1
  1
%%p
  7
SLDTEXTSTYLE0
 73
     1
 44
1.0
  0
MTEXT
  5
A0
330
9A
100
AcDbEntity
  8
0
  6
Continuous
 62
     0
370
     0
100
AcDbMText
 10
1.841666758991778
 20
-7.921864844556325
 30
0.0
 40
2.0
 41
0.0
 71
     1
 72
     1
  1
0,15
  7
SLDTEXTSTYLE0
 73
     1
 44
1.0
  0
MTEXT
  5
A1
330
9A
100
AcDbEntity
  8
0
  6
Continuous
 62
     0
370
     0
100
AcDbMText
 10
0.0
 20
-11.42186495258974
 30
0.0
 40
2.0
 41
0.0
 71
     1
 72
     1
  1
%%p
  7
SLDTEXTSTYLE0
 73
     1
 44
1.0
  0
MTEXT
  5
A2
330
9A
100
AcDbEntity
  8
0
  6
Continuous
 62
     0
370
     0
100
AcDbMText
 10
1.841666758991778
 20
-11.42186495258974
 30
0.0
 40
2.0
 41
0.0
 71
     1
 72
     1
  1
0,3
  7
SLDTEXTSTYLE0
 73
     1
 44
1.0
  0
MTEXT
  5
A3
330
9A
100
AcDbEntity
  8
0
  6
Continuous
 62
     0
370
     0
100
AcDbMText
 10
0.0
 20
-14.92186506062316
 30
0.0
 40
2.0
 41
0.0
 71
     1
 72
     1
  1
%%p
  7
SLDTEXTSTYLE0
 73
     1
 44
1.0
  0
MTEXT
  5
A4
330
9A
100
AcDbEntity
  8
0
  6
Continuous
 62
     0
370
     0
100
AcDbMText
 10
1.841666758991778
 20
-14.92186506062316
 30
0.0
 40
2.0
 41
0.0
 71
     1
 72
     1
  1
0,8
  7
SLDTEXTSTYLE0
 73
     1
 44
1.0
  0
ENDBLK
  5
9C
330
9A
100
AcDbEntity
  8
0
100
AcDbBlockEnd
  0
BLOCK
  5
A7
330
A6
100
AcDbEntity
  8
0
100
AcDbBlockBegin
  2
SW_NOTE_6
 70
     0
 10
0.0
 20
0.0
 30
0.0
  3
SW_NOTE_6
  1
SW_NOTE_6
  0
MTEXT
  5
A9
330
A6
100
AcDbEntity
  8
0
  6
Continuous
 62
     0
370
     0
100
AcDbMText
 10
1.500000000000001
 20
2.578135479543931
 30
0.0
 40
2.0
 41
0.0
 71
     1
 72
     1
  1
>120
  7
SLDTEXTSTYLE0
 73
     1
 44
1.0
  0
MTEXT
  5
AA
330
A6
100
AcDbEntity
  8
0
  6
Continuous
 62
     0
370
     0
100
AcDbMText
 10
0.0
 20
-0.9218646284894876
 30
0.0
 40
2.0
 41
0.0
 71
     1
 72
     1
  1
=<400
  7
SLDTEXTSTYLE0
 73
     1
 44
1.0
  0
MTEXT
  5
AB
330
A6
100
AcDbEntity
  8
0
  6
Continuous
 62
     0
370
     0
100
AcDbMText
 10
0.0
 20
-7.921864844556325
 30
0.0
 40
2.0
 41
0.0
 71
     1
 72
     1
  1
%%p
  7
SLDTEXTSTYLE0
 73
     1
 44
1.0
  0
MTEXT
  5
AC
330
A6
100
AcDbEntity
  8
0
  6
Continuous
 62
     0
370
     0
100
AcDbMText
 10
1.841666758991778
 20
-7.921864844556325
 30
0.0
 40
2.0
 41
0.0
 71
     1
 72
     1
  1
0,2
  7
SLDTEXTSTYLE0
 73
     1
 44
1.0
  0
MTEXT
  5
AD
330
A6
100
AcDbEntity
  8
0
  6
Continuous
 62
     0
370
     0
100
AcDbMText
 10
0.0
 20
-11.42186495258974
 30
0.0
 40
2.0
 41
0.0
 71
     1
 72
     1
  1
%%p
  7
SLDTEXTSTYLE0
 73
     1
 44
1.0
  0
MTEXT
  5
AE
330
A6
100
AcDbEntity
  8
0
  6
Continuous
 62
     0
370
     0
100
AcDbMText
 10
1.841666758991778
 20
-11.42186495258974
 30
0.0
 40
2.0
 41
0.0
 71
     1
 72
     1
  1
0,5
  7
SLDTEXTSTYLE0
 73
     1
 44
1.0
  0
MTEXT
  5
AF
330
A6
100
AcDbEntity
  8
0
  6
Continuous
 62
     0
370
     0
100
AcDbMText
 10
0.0
 20
-14.92186506062316
 30
0.0
 40
2.0
 41
0.0
 71
     1
 72
     1
  1
%%p
  7
SLDTEXTSTYLE0
 73
     1
 44
1.0
  0
MTEXT
  5
B0
330
A6
100
AcDbEntity
  8
0
  6
Continuous
 62
     0
370
     0
100
AcDbMText
 10
1.841666758991778
 20
-14.92186506062316
 30
0.0
 40
2.0
 41
0.0
 71
     1
 72
     1
  1
1,2
  7
SLDTEXTSTYLE0
 73
     1
 44
1.0
  0
ENDBLK
  5
A8
330
A6
100
AcDbEntity
  8
0
100
AcDbBlockEnd
  0
BLOCK
  5
B3
330
B2
100
AcDbEntity
  8
0
100
AcDbBlockBegin
  2
SW_NOTE_7
 70
     0
 10
0.0
 20
0.0
 30
0.0
  3
SW_NOTE_7
  1
SW_NOTE_7
  0
MTEXT
  5
B5
330
B2
100
AcDbEntity
  8
0
  6
Continuous
 62
     0
370
     0
100
AcDbMText
 10
1.500000000000001
 20
2.578135479543931
 30
0.0
 40
2.0
 41
0.0
 71
     1
 72
     1
  1
>400
  7
SLDTEXTSTYLE0
 73
     1
 44
1.0
  0
MTEXT
  5
B6
330
B2
100
AcDbEntity
  8
0
  6
Continuous
 62
     0
370
     0
100
AcDbMText
 10
0.0
 20
-0.9218646284894876
 30
0.0
 40
2.0
 41
0.0
 71
     1
 72
     1
  1
=<1000
  7
SLDTEXTSTYLE0
 73
     1
 44
1.0
  0
MTEXT
  5
B7
330
B2
100
AcDbEntity
  8
0
  6
Continuous
 62
     0
370
     0
100
AcDbMText
 10
0.0
 20
-7.921864844556325
 30
0.0
 40
2.0
 41
0.0
 71
     1
 72
     1
  1
%%p
  7
SLDTEXTSTYLE0
 73
     1
 44
1.0
  0
MTEXT
  5
B8
330
B2
100
AcDbEntity
  8
0
  6
Continuous
 62
     0
370
     0
100
AcDbMText
 10
1.841666758991778
 20
-7.921864844556325
 30
0.0
 40
2.0
 41
0.0
 71
     1
 72
     1
  1
0,3
  7
SLDTEXTSTYLE0
 73
     1
 44
1.0
  0
MTEXT
  5
B9
330
B2
100
AcDbEntity
  8
0
  6
Continuous
 62
     0
370
     0
100
AcDbMText
 10
0.0
 20
-11.42186495258974
 30
0.0
 40
2.0
 41
0.0
 71
     1
 72
     1
  1
%%p
  7
SLDTEXTSTYLE0
 73
     1
 44
1.0
  0
MTEXT
  5
BA
330
B2
100
AcDbEntity
  8
0
  6
Continuous
 62
     0
370
     0
100
AcDbMText
 10
1.841666758991778
 20
-11.42186495258974
 30
0.0
 40
2.0
 41
0.0
 71
     1
 72
     1
  1
0,8
  7
SLDTEXTSTYLE0
 73
     1
 44
1.0
  0
MTEXT
  5
BB
330
B2
100
AcDbEntity
  8
0
  6
Continuous
 62
     0
370
     0
100
AcDbMText
 10
0.0
 20
-14.92186506062316
 30
0.0
 40
2.0
 41
0.0
 71
     1
 72
     1
  1
%%p
  7
SLDTEXTSTYLE0
 73
     1
 44
1.0
  0
MTEXT
  5
BC
330
B2
100
AcDbEntity
  8
0
  6
Continuous
 62
     0
370
     0
100
AcDbMText
 10
1.841666758991778
 20
-14.92186506062316
 30
0.0
 40
2.0
 41
0.0
 71
     1
 72
     1
  1
1,2
  7
SLDTEXTSTYLE0
 73
     1
 44
1.0
  0
ENDBLK
  5
B4
330
B2
100
AcDbEntity
  8
0
100
AcDbBlockEnd
  0
BLOCK
  5
BF
330
BE
100
AcDbEntity
  8
0
100
AcDbBlockBegin
  2
SW_NOTE_8
 70
     0
 10
0.0
 20
0.0
 30
0.0
  3
SW_NOTE_8
  1
SW_NOTE_8
  0
MTEXT
  5
C1
330
BE
100
AcDbEntity
  8
0
  6
Continuous
 62
     0
370
     0
100
AcDbMText
 10
1.500000000000001
 20
2.578135479543931
 30
0.0
 40
2.0
 41
0.0
 71
     1
 72
     1
  1
>1000
  7
SLDTEXTSTYLE0
 73
     1
 44
1.0
  0
MTEXT
  5
C2
330
BE
100
AcDbEntity
  8
0
  6
Continuous
 62
     0
370
     0
100
AcDbMText
 10
0.0
 20
-0.9218646284894876
 30
0.0
 40
2.0
 41
0.0
 71
     1
 72
     1
  1
=<2000
  7
SLDTEXTSTYLE0
 73
     1
 44
1.0
  0
MTEXT
  5
C3
330
BE
100
AcDbEntity
  8
0
  6
Continuous
 62
     0
370
     0
100
AcDbMText
 10
0.0
 20
-7.921864844556325
 30
0.0
 40
2.0
 41
0.0
 71
     1
 72
     1
  1
%%p
  7
SLDTEXTSTYLE0
 73
     1
 44
1.0
  0
MTEXT
  5
C4
330
BE
100
AcDbEntity
  8
0
  6
Continuous
 62
     0
370
     0
100
AcDbMText
 10
1.841666758991778
 20
-7.921864844556325
 30
0.0
 40
2.0
 41
0.0
 71
     1
 72
     1
  1
0,5
  7
SLDTEXTSTYLE0
 73
     1
 44
1.0
  0
MTEXT
  5
C5
330
BE
100
AcDbEntity
  8
0
  6
Continuous
 62
     0
370
     0
100
AcDbMText
 10
0.0
 20
-11.42186495258974
 30
0.0
 40
2.0
 41
0.0
 71
     1
 72
     1
  1
%%p
  7
SLDTEXTSTYLE0
 73
     1
 44
1.0
  0
MTEXT
  5
C6
330
BE
100
AcDbEntity
  8
0
  6
Continuous
 62
     0
370
     0
100
AcDbMText
 10
1.841666758991778
 20
-11.42186495258974
 30
0.0
 40
2.0
 41
0.0
 71
     1
 72
     1
  1
1,2
  7
SLDTEXTSTYLE0
 73
     1
 44
1.0
  0
MTEXT
  5
C7
330
BE
100
AcDbEntity
  8
0
  6
Continuous
 62
     0
370
     0
100
AcDbMText
 10
0.0
 20
-14.92186506062316
 30
0.0
 40
2.0
 41
0.0
 71
     1
 72
     1
  1
%%p
  7
SLDTEXTSTYLE0
 73
     1
 44
1.0
  0
MTEXT
  5
C8
330
BE
100
AcDbEntity
  8
0
  6
Continuous
 62
     0
370
     0
100
AcDbMText
 10
1.841666758991778
 20
-14.92186506062316
 30
0.0
 40
2.0
 41
0.0
 71
     1
 72
     1
  1
3
  7
SLDTEXTSTYLE0
 73
     1
 44
1.0
  0
ENDBLK
  5
C0
330
BE
100
AcDbEntity
  8
0
100
AcDbBlockEnd
  0
BLOCK
  5
CB
330
CA
100
AcDbEntity
  8
0
100
AcDbBlockBegin
  2
SW_NOTE_9
 70
     0
 10
0.0
 20
0.0
 30
0.0
  3
SW_NOTE_9
  1
SW_NOTE_9
  0
MTEXT
  5
CD
330
CA
100
AcDbEntity
  8
0
  6
Continuous
 62
     0
370
     0
100
AcDbMText
 10
1.5
 20
2.578135479543931
 30
0.0
 40
2.0
 41
0.0
 71
     1
 72
     1
  1
>2000
  7
SLDTEXTSTYLE0
 73
     1
 44
1.0
  0
MTEXT
  5
CE
330
CA
100
AcDbEntity
  8
0
  6
Continuous
 62
     0
370
     0
100
AcDbMText
 10
0.0
 20
-0.9218646284894876
 30
0.0
 40
2.0
 41
0.0
 71
     1
 72
     1
  1
=<4000
  7
SLDTEXTSTYLE0
 73
     1
 44
1.0
  0
MTEXT
  5
CF
330
CA
100
AcDbEntity
  8
0
  6
Continuous
 62
     0
370
     0
100
AcDbMText
 10
2.999999999999999
 20
-7.921864844556325
 30
0.0
 40
2.0
 41
0.0
 71
     1
 72
     1
  1
-
  7
SLDTEXTSTYLE0
 73
     1
 44
1.0
  0
MTEXT
  5
D0
330
CA
100
AcDbEntity
  8
0
  6
Continuous
 62
     0
370
     0
100
AcDbMText
 10
0.0
 20
-11.42186495258974
 30
0.0
 40
2.0
 41
0.0
 71
     1
 72
     1
  1
%%p
  7
SLDTEXTSTYLE0
 73
     1
 44
1.0
  0
MTEXT
  5
D1
330
CA
100
AcDbEntity
  8
0
  6
Continuous
 62
     0
370
     0
100
AcDbMText
 10
1.841666758991778
 20
-11.42186495258974
 30
0.0
 40
2.0
 41
0.0
 71
     1
 72
     1
  1
2,0
  7
SLDTEXTSTYLE0
 73
     1
 44
1.0
  0
MTEXT
  5
D2
330
CA
100
AcDbEntity
  8
0
  6
Continuous
 62
     0
370
     0
100
AcDbMText
 10
0.0
 20
-14.92186506062316
 30
0.0
 40
2.0
 41
0.0
 71
     1
 72
     1
  1
%%p
  7
SLDTEXTSTYLE0
 73
     1
 44
1.0
  0
MTEXT
  5
D3
330
CA
100
AcDbEntity
  8
0
  6
Continuous
 62
     0
370
     0
100
AcDbMText
 10
1.841666758991778
 20
-14.92186506062316
 30
0.0
 40
2.0
 41
0.0
 71
     1
 72
     1
  1
4
  7
SLDTEXTSTYLE0
 73
     1
 44
1.0
  0
ENDBLK
  5
CC
330
CA
100
AcDbEntity
  8
0
100
AcDbBlockEnd
  0
ENDSEC
  0
SECTION
  2
ENTITIES
  0
ELLIPSE
  5
D5
330
1F
100
AcDbEntity
  8
0
  6
Continuous
 62
     7
370
    15
100
AcDbEllipse
 10
1225.744130475131
 20
462.0511856994359
 30
0.0
 11
7.837202391756819
 21
-7.31311170662616
 31
0.0
210
0.0
220
0.0
230
1.0
 40
0.2453475563235146
 41
0.6503308592557207
 42
0.8278472171845858
  0
LINE
  5
D6
330
1F
100
AcDbEntity
  8
0
  6
Continuous
 62
     7
370
    15
100
AcDbLine
 10
1232.367135110536
 20
457.8405423923086
 30
0.0
 11
1233.067966523805
 21
457.3949827714513
 31
0.0
  0
LINE
  5
D7
330
1F
100
AcDbEntity
  8
0
  6
Continuous
 62
     7
370
    15
100
AcDbLine
 10
1233.067966523805
 20
456.9125874801229
 30
0.0
 11
1233.067966523805
 21
457.3949827714513
 31
0.0
  0
LINE
  5
D8
330
1F
100
AcDbEntity
  8
0
  6
Continuous
 62
     7
370
    15
100
AcDbLine
 10
1233.067966523805
 20
456.9125874801229
 30
0.0
 11
1232.367135110536
 21
456.9125874801229
 31
0.0
  0
LINE
  5
D9
330
1F
100
AcDbEntity
  8
0
  6
Continuous
 62
     7
370
    15
100
AcDbLine
 10
1233.067966523805
 20
480.4301919317494
 30
0.0
 11
1233.067966523805
 21
480.9125872230779
 31
0.0
  0
LINE
  5
DA
330
1F
100
AcDbEntity
  8
0
  6
Continuous
 62
     7
370
    15
100
AcDbLine
 10
1232.367135110536
 20
479.9846327765535
 30
0.0
 11
1233.067966523805
 21
480.4301919317494
 31
0.0
  0
LINE
  5
DB
330
1F
100
AcDbEntity
  8
0
  6
Continuous
 62
     7
370
    15
100
AcDbLine
 10
1233.067966523805
 20
480.9125872230779
 30
0.0
 11
1232.367135110536
 21
480.9125872230779
 31
0.0
  0
ELLIPSE
  5
DC
330
1F
100
AcDbEntity
  8
0
  6
Continuous
 62
     7
370
    15
100
AcDbEllipse
 10
1225.744130475129
 20
475.7739891257406
 30
0.0
 11
7.837202391755228
 21
7.313111706627865
 31
0.0
210
0.0
220
0.0
230
1.0
 40
0.245347556323502
 41
5.455338089995547
 42
5.63285444792395
  0
ELLIPSE
  5
DD
330
1F
100
AcDbEntity
  8
0
  6
Continuous
 62
     7
370
    15
100
AcDbEllipse
 10
1225.744130475131
 20
652.051185699436
 30
0.0
 11
7.837202391756819
 21
-7.313111706626273
 31
0.0
210
0.0
220
0.0
230
1.0
 40
0.245347556323509
 41
0.6503308592557226
 42
0.8278472171845592
  0
LINE
  5
DE
330
1F
100
AcDbEntity
  8
0
  6
Continuous
 62
     7
370
    15
100
AcDbLine
 10
1232.367135110536
 20
647.8405362828325
 30
0.0
 11
1233.067966523805
 21
647.3949766619753
 31
0.0
  0
LINE
  5
DF
330
1F
100
AcDbEntity
  8
0
  6
Continuous
 62
     7
370
    15
100
AcDbLine
 10
1233.067966523805
 20
646.9125813706469
 30
0.0
 11
1233.067966523805
 21
647.3949766619753
 31
0.0
  0
LINE
  5
E0
330
1F
100
AcDbEntity
  8
0
  6
Continuous
 62
     7
370
    15
100
AcDbLine
 10
1233.067966523805
 20
646.9125813706469
 30
0.0
 11
1232.367135110536
 21
646.9125813706469
 31
0.0
  0
LINE
  5
E1
330
1F
100
AcDbEntity
  8
0
  6
Continuous
 62
     7
370
    15
100
AcDbLine
 10
1232.367135110536
 20
669.9846303923678
 30
0.0
 11
1233.067966523805
 21
670.430190013225
 31
0.0
  0
ELLIPSE
  5
E2
330
1F
100
AcDbEntity
  8
0
  6
Continuous
 62
     7
370
    15
100
AcDbEllipse
 10
1225.744130475129
 20
665.7739891257406
 30
0.0
 11
7.837202391755228
 21
7.313111706627865
 31
0.0
210
0.0
220
0.0
230
1.0
 40
0.245347556323502
 41
5.455338089995519
 42
5.632854447923897
  0
LINE
  5
E3
330
1F
100
AcDbEntity
  8
0
  6
Continuous
 62
     7
370
    15
100
AcDbLine
 10
1233.067966523805
 20
670.430190013225
 30
0.0
 11
1233.067966523805
 21
670.9125853045534
 31
0.0
  0
LINE
  5
E4
330
1F
100
AcDbEntity
  8
0
  6
Continuous
 62
     7
370
    15
100
AcDbLine
 10
1233.067966523805
 20
670.9125853045534
 30
0.0
 11
1232.367135110536
 21
670.9125853045534
 31
0.0
  0
ELLIPSE
  5
E5
330
1F
100
AcDbEntity
  8
0
  6
Continuous
 62
     7
370
    15
100
AcDbEllipse
 10
975.005731154003
 20
218.0355898045701
 30
0.0
 11
7.313111706626161
 21
7.837202391756793
 31
0.0
210
0.0
220
0.0
230
1.0
 40
0.2453475563235154
 41
3.791923512845535
 42
3.96943987077863
  0
LINE
  5
E6
330
1F
100
AcDbEntity
  8
0
  6
Continuous
 62
     7
370
    15
100
AcDbLine
 10
970.7950870424893
 20
211.4126003249239
 30
0.0
 11
970.349527421632
 21
210.7117689116548
 31
0.0
  0
LINE
  5
E7
330
1F
100
AcDbEntity
  8
0
  6
Continuous
 62
     7
370
    15
100
AcDbLine
 10
992.9391811520245
 20
211.4126003249239
 30
0.0
 11
993.3847407728817
 21
210.7117689116548
 31
0.0
  0
ELLIPSE
  5
E8
330
1F
100
AcDbEntity
  8
0
  6
Continuous
 62
     7
370
    15
100
AcDbEllipse
 10
988.7285345803076
 20
218.0355898045716
 30
0.0
 11
-7.313111706627865
 21
7.837202391755199
 31
0.0
210
0.0
220
0.0
230
1.0
 40
0.2453475563235192
 41
2.313745436401518
 42
2.491261794334088
  0
LINE
  5
E9
330
1F
100
AcDbEntity
  8
0
  6
Continuous
 62
     7
370
    15
100
AcDbLine
 10
993.3847407728817
 20
210.7117689116548
 30
0.0
 11
993.8671360642102
 21
210.7117689116548
 31
0.0
  0
LINE
  5
EA
330
1F
100
AcDbEntity
  8
0
  6
Continuous
 62
     7
370
    15
100
AcDbLine
 10
993.8671360642102
 20
210.7117689116548
 30
0.0
 11
993.8671360642102
 21
211.4126003249239
 31
0.0
  0
LINE
  5
EB
330
1F
100
AcDbEntity
  8
0
  6
Continuous
 62
     7
370
    15
100
AcDbLine
 10
969.8671321303036
 20
210.7117689116548
 30
0.0
 11
970.349527421632
 21
210.7117689116548
 31
0.0
  0
LINE
  5
EC
330
1F
100
AcDbEntity
  8
0
  6
Continuous
 62
     7
370
    15
100
AcDbLine
 10
969.8671321303036
 20
210.7117689116548
 30
0.0
 11
969.8671321303036
 21
211.4126003249239
 31
0.0
  0
ELLIPSE
  5
ED
330
1F
100
AcDbEntity
  8
0
  6
Continuous
 62
     7
370
    15
100
AcDbEllipse
 10
759.9901352591345
 20
460.773989125739
 30
0.0
 11
7.837202391756819
 21
-7.313111706626215
 31
0.0
210
0.0
220
0.0
230
1.0
 40
0.2453475563235099
 41
3.791923512845552
 42
3.969439870774433
  0
LINE
  5
EE
330
1F
100
AcDbEntity
  8
0
  6
Continuous
 62
     7
370
    15
100
AcDbLine
 10
753.3671329647686
 20
464.9846331118296
 30
0.0
 11
752.6663015514996
 21
465.4301918013643
 31
0.0
  0
LINE
  5
EF
330
1F
100
AcDbEntity
  8
0
  6
Continuous
 62
     7
370
    15
100
AcDbLine
 10
752.6663015514996
 20
465.9125870926927
 30
0.0
 11
752.6663015514996
 21
465.4301918013643
 31
0.0
  0
LINE
  5
F0
330
1F
100
AcDbEntity
  8
0
  6
Continuous
 62
     7
370
    15
100
AcDbLine
 10
752.6663015514996
 20
465.9125870926927
 30
0.0
 11
753.3671329647686
 21
465.9125870926927
 31
0.0
  0
LINE
  5
F1
330
1F
100
AcDbEntity
  8
0
  6
Continuous
 62
     7
370
    15
100
AcDbLine
 10
752.6663015514996
 20
442.3949821754049
 30
0.0
 11
752.6663015514996
 21
441.9125868840765
 31
0.0
  0
LINE
  5
F2
330
1F
100
AcDbEntity
  8
0
  6
Continuous
 62
     7
370
    15
100
AcDbLine
 10
753.3671329647686
 20
442.8405417962621
 30
0.0
 11
752.6663015514996
 21
442.3949821754049
 31
0.0
  0
LINE
  5
F3
330
1F
100
AcDbEntity
  8
0
  6
Continuous
 62
     7
370
    15
100
AcDbLine
 10
752.6663015514996
 20
441.9125868840765
 30
0.0
 11
753.3671329647686
 21
441.9125868840765
 31
0.0
  0
ELLIPSE
  5
F4
330
1F
100
AcDbEntity
  8
0
  6
Continuous
 62
     7
370
    15
100
AcDbEllipse
 10
759.9901352591361
 20
447.0511856994344
 30
0.0
 11
7.837202391755228
 21
7.313111706627921
 31
0.0
210
0.0
220
0.0
230
1.0
 40
0.2453475563235083
 41
2.313745436405665
 42
2.491261794334036
  0
LINE
  5
F5
330
1F
100
AcDbEntity
  8
0
  6
Continuous
 62
     7
370
    15
100
AcDbLine
 10
802.8671215206768
 20
210.7117689116548
 30
0.0
 11
803.3495317131665
 21
210.7117689116548
 31
0.0
  0
LINE
  5
F6
330
1F
100
AcDbEntity
  8
0
  6
Continuous
 62
     7
370
    15
100
AcDbLine
 10
803.7950764328625
 20
211.4126003249239
 30
0.0
 11
803.3495317131665
 21
210.7117689116548
 31
0.0
  0
LINE
  5
F7
330
1F
100
AcDbEntity
  8
0
  6
Continuous
 62
     7
370
    15
100
AcDbLine
 10
802.8671215206768
 20
210.7117689116548
 30
0.0
 11
802.8671215206768
 21
211.4126003249239
 31
0.0
  0
ELLIPSE
  5
F8
330
1F
100
AcDbEntity
  8
0
  6
Continuous
 62
     7
370
    15
100
AcDbEllipse
 10
808.005731154003
 20
218.0355898045701
 30
0.0
 11
7.313111706626274
 21
7.837202391756791
 31
0.0
210
0.0
220
0.0
230
1.0
 40
0.2453475563235058
 41
3.791923512845575
 42
3.969439870778664
  0
LINE
  5
F9
330
1F
100
AcDbEntity
  8
0
  6
Continuous
 62
     7
370
    15
100
AcDbLine
 10
826.384730163255
 20
210.7117689116548
 30
0.0
 11
826.8671254545834
 21
210.7117689116548
 31
0.0
  0
LINE
  5
FA
330
1F
100
AcDbEntity
  8
0
  6
Continuous
 62
     7
370
    15
100
AcDbLine
 10
825.9391854435589
 20
211.4126003249239
 30
0.0
 11
826.384730163255
 21
210.7117689116548
 31
0.0
  0
LINE
  5
FB
330
1F
100
AcDbEntity
  8
0
  6
Continuous
 62
     7
370
    15
100
AcDbLine
 10
826.8671254545834
 20
210.7117689116548
 30
0.0
 11
826.8671254545834
 21
211.4126003249239
 31
0.0
  0
ELLIPSE
  5
FC
330
1F
100
AcDbEntity
  8
0
  6
Continuous
 62
     7
370
    15
100
AcDbEllipse
 10
821.7285345803077
 20
218.0355898045716
 30
0.0
 11
-7.313111706627978
 21
7.837202391755199
 31
0.0
210
0.0
220
0.0
230
1.0
 40
0.2453475563235097
 41
2.313745436401429
 42
2.491261794334018
  0
LINE
  5
FD
330
1F
100
AcDbEntity
  8
0
  6
Continuous
 62
     7
370
    15
100
AcDbLine
 10
752.6663015514996
 20
275.9125894768785
 30
0.0
 11
752.6663015514996
 21
275.4301941855501
 31
0.0
  0
LINE
  5
FE
330
1F
100
AcDbEntity
  8
0
  6
Continuous
 62
     7
370
    15
100
AcDbLine
 10
753.3671329647686
 20
274.9846345646928
 30
0.0
 11
752.6663015514996
 21
275.4301941855501
 31
0.0
  0
LINE
  5
FF
330
1F
100
AcDbEntity
  8
0
  6
Continuous
 62
     7
370
    15
100
AcDbLine
 10
752.6663015514996
 20
275.9125894768785
 30
0.0
 11
753.3671329647686
 21
275.9125894768785
 31
0.0
  0
ELLIPSE
  5
100
330
1F
100
AcDbEntity
  8
0
  6
Continuous
 62
     7
370
    15
100
AcDbEllipse
 10
759.9901352591347
 20
270.773989125739
 30
0.0
 11
7.837202391756819
 21
-7.313111706626215
 31
0.0
210
0.0
220
0.0
230
1.0
 40
0.2453475563235099
 41
3.791923512845552
 42
3.969439870774421
  0
LINE
  5
101
330
1F
100
AcDbEntity
  8
0
  6
Continuous
 62
     7
370
    15
100
AcDbLine
 10
752.6663015514996
 20
252.3949808343004
 30
0.0
 11
752.6663015514996
 21
251.912585542972
 31
0.0
  0
LINE
  5
102
330
1F
100
AcDbEntity
  8
0
  6
Continuous
 62
     7
370
    15
100
AcDbLine
 10
753.3671329647686
 20
252.8405404551576
 30
0.0
 11
752.6663015514996
 21
252.3949808343004
 31
0.0
  0
LINE
  5
103
330
1F
100
AcDbEntity
  8
0
  6
Continuous
 62
     7
370
    15
100
AcDbLine
 10
752.6663015514996
 20
251.912585542972
 30
0.0
 11
753.3671329647686
 21
251.912585542972
 31
0.0
  0
ELLIPSE
  5
104
330
1F
100
AcDbEntity
  8
0
  6
Continuous
 62
     7
370
    15
100
AcDbEllipse
 10
759.9901352591362
 20
257.0511856994344
 30
0.0
 11
7.837202391755228
 21
7.313111706627921
 31
0.0
210
0.0
220
0.0
230
1.0
 40
0.2453475563235122
 41
2.313745436405693
 42
2.491261794334052
  0
LINE
  5
105
330
1F
100
AcDbEntity
  8
0
  6
Continuous
 62
     7
370
    15
100
AcDbLine
 10
817.8671370178845
 20
598.912588403995
 30
0.0
 11
1167.86713105742
 21
598.912588403995
 31
0.0
  0
LINE
  5
106
330
1F
100
AcDbEntity
  8
0
  6
Continuous
 62
     7
370
    15
100
AcDbLine
 10
1167.86713105742
 20
598.912588403995
 30
0.0
 11
1167.86713105742
 21
597.4125853641581
 31
0.0
  0
LINE
  5
107
330
1F
100
AcDbEntity
  8
0
  6
Continuous
 62
     7
370
    15
100
AcDbLine
 10
1167.86713105742
 20
597.4125853641581
 30
0.0
 11
817.8671370178845
 21
597.4125853641581
 31
0.0
  0
LINE
  5
108
330
1F
100
AcDbEntity
  8
0
  6
Continuous
 62
     7
370
    15
100
AcDbLine
 10
817.8671370178845
 20
598.912588403995
 30
0.0
 11
817.8671370178845
 21
597.4125853641581
 31
0.0
  0
LINE
  5
109
330
1F
100
AcDbEntity
  8
0
  6
Continuous
 62
     7
370
    15
100
AcDbLine
 10
792.86713105742
 20
572.4125868542742
 30
0.0
 11
792.86713105742
 21
282.4125802977632
 31
0.0
  0
ARC
  5
10A
330
1F
100
AcDbEntity
  8
0
  6
Continuous
 62
     7
370
    15
100
AcDbCircle
 10
817.8671328671328
 20
572.4125874125874
 30
0.0
 40
25.0
100
AcDbArc
 50
90.0
 51
180.0000000000013
  0
ARC
  5
10B
330
1F
100
AcDbEntity
  8
0
  6
Continuous
 62
     7
370
    15
100
AcDbCircle
 10
1167.867132867133
 20
572.4125874125874
 30
0.0
 40
25.0
100
AcDbArc
 50
0.0000000000003053
 51
90.00000000000053
  0
LINE
  5
10C
330
1F
100
AcDbEntity
  8
0
  6
Continuous
 62
     7
370
    15
100
AcDbLine
 10
1192.867137017884
 20
282.4125802977632
 30
0.0
 11
1192.867137017884
 21
572.4125868542742
 31
0.0
  0
ARC
  5
10D
330
1F
100
AcDbEntity
  8
0
  6
Continuous
 62
     7
370
    15
100
AcDbCircle
 10
817.8671328671328
 20
282.4125874125874
 30
0.0
 40
25.0
100
AcDbArc
 50
179.9999999999995
 51
270.0000000000015
  0
ARC
  5
10E
330
1F
100
AcDbEntity
  8
0
  6
Continuous
 62
     7
370
    15
100
AcDbCircle
 10
1167.867132867133
 20
282.4125874125874
 30
0.0
 40
25.0
100
AcDbArc
 50
270.0000000000003
 51
0.0000000000003908
  0
LINE
  5
10F
330
1F
100
AcDbEntity
  8
0
  6
Continuous
 62
     7
370
    15
100
AcDbLine
 10
817.8671370178845
 20
592.0671216114115
 30
0.0
 11
817.8671370178845
 21
597.4125853641581
 31
0.0
  0
SPLINE
  5
110
330
1F
100
AcDbEntity
  8
0
  6
Continuous
 62
     7
370
    15
100
AcDbSpline
210
0.0
220
0.0
230
1.0
 70
     8
 71
     3
 72
    15
 73
    11
 74
     0
 42
0.000000001
 43
0.00000001
 40
0.0
 40
0.0
 40
0.0
 40
0.0
 40
0.1277197734726189
 40
0.2500001902047589
 40
0.3758253842877873
 40
0.5000006869533459
 40
0.6241723974418621
 40
0.749997507702636
 40
0.8722782965631726
 40
1.0
 40
1.0
 40
1.0
 40
1.0
 10
798.2125948101666
 20
572.4125868542742
 30
0.0
 10
798.2981205017849
 20
573.7207739021342
 30
0.0
 10
798.4655294987678
 20
576.2814346510239
 30
0.0
 10
799.6574787160724
 20
579.9817211837568
 30
0.0
 10
801.4694460075449
 20
583.3667008406387
 30
0.0
 10
803.9294188926975
 20
586.350283752011
 30
0.0
 10
806.9130055810025
 20
588.8102442272635
 30
0.0
 10
810.2979370971408
 20
590.6222283248253
 30
0.0
 10
813.9982447135624
 20
591.8141949006803
 30
0.0
 10
816.5589298098153
 20
591.9815982832686
 30
0.0
 10
817.8671370178845
 20
592.0671216114115
 30
0.0
  0
LINE
  5
111
330
1F
100
AcDbEntity
  8
0
  6
Continuous
 62
     7
370
    15
100
AcDbLine
 10
798.2125948101666
 20
572.4125868542742
 30
0.0
 11
792.86713105742
 21
572.4125868542742
 31
0.0
  0
LINE
  5
112
330
1F
100
AcDbEntity
  8
0
  6
Continuous
 62
     7
370
    15
100
AcDbLine
 10
1187.521673265138
 20
572.4125868542742
 30
0.0
 11
1192.867137017884
 21
572.4125868542742
 31
0.0
  0
SPLINE
  5
113
330
1F
100
AcDbEntity
  8
0
  6
Continuous
 62
     7
370
    15
100
AcDbSpline
210
0.0
220
0.0
230
1.0
 70
     8
 71
     3
 72
    15
 73
    11
 74
     0
 42
0.000000001
 43
0.00000001
 40
0.0
 40
0.0
 40
0.0
 40
0.0
 40
0.1277194710522634
 40
0.2500001077744634
 40
0.3758255202978619
 40
0.5000006584763652
 40
0.6241725119434153
 40
0.7499976113068804
 40
0.8722780138393609
 40
0.9999999999999999
 40
0.9999999999999999
 40
0.9999999999999999
 40
0.9999999999999999
 10
1167.86713105742
 20
592.0671216114115
 30
0.0
 10
1169.175315422231
 20
591.9816012918341
 30
0.0
 10
1171.735976138228
 20
591.8142024689679
 30
0.0
 10
1175.436268020371
 20
590.6222568912025
 30
0.0
 10
1178.821238525884
 20
588.8102672557704
 30
0.0
 10
1181.804830913045
 20
586.3503042616641
 30
0.0
 10
1184.264794687787
 20
583.3667198188967
 30
0.0
 10
1186.076783359984
 20
579.9817915681842
 30
0.0
 10
1187.26872534639
 20
576.2814782674592
 30
0.0
 10
1187.436142617056
 20
573.7207960364938
 30
0.0
 10
1187.521673265138
 20
572.4125868542742
 30
0.0
  0
LINE
  5
114
330
1F
100
AcDbEntity
  8
0
  6
Continuous
 62
     7
370
    15
100
AcDbLine
 10
1167.86713105742
 20
592.0671216114115
 30
0.0
 11
1167.86713105742
 21
597.4125853641581
 31
0.0
  0
SPLINE
  5
115
330
1F
100
AcDbEntity
  8
0
  6
Continuous
 62
     7
370
    15
100
AcDbSpline
210
0.0
220
0.0
230
1.0
 70
     8
 71
     3
 72
    12
 73
     8
 74
     0
 42
0.000000001
 43
0.00000001
 40
0.0
 40
0.0
 40
0.0
 40
0.0
 40
0.2145972104168213
 40
0.42918494768606
 40
0.643814507155934
 40
0.858524333336798
 40
1.0
 40
1.0
 40
1.0
 40
1.0
 10
969.6171353489544
 20
596.916153178985
 30
0.0
 10
969.5047410753508
 20
596.9164609624825
 30
0.0
 10
969.2799574896593
 20
596.9170765158906
 30
0.0
 10
968.9803548952931
 20
596.9218028754959
 30
0.0
 10
968.7542010157604
 20
596.9287549227171
 30
0.0
 10
968.6342407586887
 20
596.9363738694287
 30
0.0
 10
968.6219966433692
 20
596.9413705744855
 30
0.0
 10
968.6171333223965
 20
596.9433552487444
 30
0.0
  0
LINE
  5
116
330
1F
100
AcDbEntity
  8
0
  6
Continuous
 62
     7
370
    15
100
AcDbLine
 10
1016.11713272635
 20
596.916153178985
 30
0.0
 11
969.6171353489544
 21
596.916153178985
 31
0.0
  0
SPLINE
  5
117
330
1F
100
AcDbEntity
  8
0
  6
Continuous
 62
     7
370
    15
100
AcDbSpline
210
0.0
220
0.0
230
1.0
 70
     8
 71
     3
 72
    12
 73
     8
 74
     0
 42
0.000000001
 43
0.00000001
 40
0.0
 40
0.0
 40
0.0
 40
0.0
 40
0.2147905829144306
 40
0.4295848908622971
 40
0.6443463646525052
 40
0.8590296726553012
 40
1.0
 40
1.0
 40
1.0
 40
1.0
 10
1017.117131027618
 20
596.9433552487444
 30
0.0
 10
1017.106071791677
 20
596.940332017321
 30
0.0
 10
1017.083953127999
 20
596.9342855020433
 30
0.0
 10
1016.911441884244
 20
596.926124232936
 30
0.0
 10
1016.657570189378
 20
596.9199201222456
 30
0.0
 10
1016.376415076565
 20
596.916623544634
 30
0.0
 10
1016.190731909093
 20
596.9162866956989
 30
0.0
 10
1016.11713272635
 20
596.916153178985
 30
0.0
  0
LINE
  5
118
330
1F
100
AcDbEntity
  8
0
  6
Continuous
 62
     7
370
    15
100
AcDbLine
 10
1017.117131027618
 20
597.3478621705126
 30
0.0
 11
1017.117131027618
 21
596.9433552487444
 31
0.0
  0
SPLINE
  5
119
330
1F
100
AcDbEntity
  8
0
  6
Continuous
 62
     7
370
    15
100
AcDbSpline
210
0.0
220
0.0
230
1.0
 70
     8
 71
     3
 72
    12
 73
     8
 74
     0
 42
0.000000001
 43
0.00000001
 40
0.0
 40
0.0
 40
0.0
 40
0.0
 40
0.2146823842542261
 40
0.4293626096324992
 40
0.6440487705989051
 40
0.8587435413443756
 40
1.0
 40
1.0
 40
1.0
 40
1.0
 10
1016.11713272635
 20
597.3574361665796
 30
0.0
 10
1016.229553316897
 20
597.3573338415783
 30
0.0
 10
1016.454393367474
 20
597.3571291926045
 30
0.0
 10
1016.754060060914
 20
597.3555348262424
 30
0.0
 10
1016.980211196851
 20
597.3531442957374
 30
0.0
 10
1017.100056358795
 20
597.3504337843672
 30
0.0
 10
1017.112280122637
 20
597.3485927647389
 30
0.0
 10
1017.117131027618
 20
597.3478621705126
 30
0.0
  0
LINE
  5
11A
330
1F
100
AcDbEntity
  8
0
  6
Continuous
 62
     7
370
    15
100
AcDbLine
 10
969.6171353489544
 20
597.3574361665796
 30
0.0
 11
1016.11713272635
 21
597.3574361665796
 31
0.0
  0
SPLINE
  5
11B
330
1F
100
AcDbEntity
  8
0
  6
Continuous
 62
     7
370
    15
100
AcDbSpline
210
0.0
220
0.0
230
1.0
 70
     8
 71
     3
 72
    12
 73
     8
 74
     0
 42
0.000000001
 43
0.00000001
 40
0.0
 40
0.0
 40
0.0
 40
0.0
 40
0.2147041094678021
 40
0.4294128793562055
 40
0.6441150108205331
 40
0.8588043581516592
 40
1.0
 40
1.0
 40
1.0
 40
1.0
 10
968.6171333223965
 20
597.3478621705126
 30
0.0
 10
968.6281871427176
 20
597.3489736701596
 30
0.0
 10
968.6502950232967
 20
597.3511966935803
 30
0.0
 10
968.8227165046904
 20
597.3540596280036
 30
0.0
 10
969.0764832919942
 20
597.3561709559755
 30
0.0
 10
969.3576538123243
 20
597.3572813153316
 30
0.0
 10
969.5434296766241
 20
597.3573921811172
 30
0.0
 10
969.6171353489544
 20
597.3574361665796
 30
0.0
  0
LINE
  5
11C
330
1F
100
AcDbEntity
  8
0
  6
Continuous
 62
     7
370
    15
100
AcDbLine
 10
968.6171333223965
 20
596.9433552487444
 30
0.0
 11
968.6171333223965
 21
597.3478621705126
 31
0.0
  0
SPLINE
  5
11D
330
1F
100
AcDbEntity
  8
0
  6
Continuous
 62
     7
370
    15
100
AcDbSpline
210
0.0
220
0.0
230
1.0
 70
     8
 71
     3
 72
    17
 73
    13
 74
     0
 42
0.000000001
 43
0.00000001
 40
0.0
 40
0.0
 40
0.0
 40
0.0
 40
0.1254783934727105
 40
0.2509556131659125
 40
0.3348150490572682
 40
0.4186802393348241
 40
0.5025343715811652
 40
0.5853258975092619
 40
0.6681279584588757
 40
0.750924537972545
 40
0.8754616986810086
 40
1.0
 40
1.0
 40
1.0
 40
1.0
 10
817.8671370178845
 20
592.0671216114115
 30
0.0
 10
832.4663474128872
 20
591.9360939332179
 30
0.0
 10
861.6646316355237
 20
591.6740398025208
 30
0.0
 10
900.7165032967977
 20
591.4144640942935
 30
0.0
 10
934.9488096291441
 20
591.2453510224601
 30
0.0
 10
964.3457138089042
 20
591.152270258278
 30
0.0
 10
993.6318884122351
 20
591.1196621107899
 30
0.0
 10
1022.793258469687
 20
591.1556158471608
 30
0.0
 10
1051.816728690889
 20
591.2497820916374
 30
0.0
 10
1085.690166756584
 20
591.4186780085176
 30
0.0
 10
1124.397985673916
 20
591.6768486083275
 30
0.0
 10
1153.377371693737
 20
591.9370302132269
 30
0.0
 10
1167.86713105742
 20
592.0671216114115
 30
0.0
  0
LINE
  5
11E
330
1F
100
AcDbEntity
  8
0
  6
Continuous
 62
     7
370
    15
100
AcDbLine
 10
1167.86713105742
 20
261.9486517174791
 30
0.0
 11
1167.86713105742
 21
257.4125892384599
 31
0.0
  0
SPLINE
  5
11F
330
1F
100
AcDbEntity
  8
0
  6
Continuous
 62
     7
370
    15
100
AcDbSpline
210
0.0
220
0.0
230
1.0
 70
     8
 71
     3
 72
    15
 73
    11
 74
     0
 42
0.000000001
 43
0.00000001
 40
0.0
 40
0.0
 40
0.0
 40
0.0
 40
0.1277210979792834
 40
0.2499996021976672
 40
0.3758232115002679
 40
0.5000003580381781
 40
0.6241745295966057
 40
0.7499979481678712
 40
0.8722765874527475
 40
1.0
 40
1.0
 40
1.0
 40
1.0
 10
1188.331074538865
 20
282.4125802977632
 30
0.0
 10
1188.243488475971
 20
281.0495153310876
 30
0.0
 10
1188.072048665101
 20
278.3814698411112
 30
0.0
 10
1186.833112542339
 20
274.5264886324377
 30
0.0
 10
1184.947547062819
 20
271.0006053586637
 30
0.0
 10
1182.386336959716
 20
267.893403984109
 30
0.0
 10
1179.279138174447
 20
265.3321976670574
 30
0.0
 10
1175.753295306348
 20
263.4466267798965
 30
0.0
 10
1171.898294402591
 20
262.2076663751324
 30
0.0
 10
1169.230221416781
 20
262.036234470285
 30
0.0
 10
1167.86713105742
 20
261.9486517174791
 30
0.0
  0
LINE
  5
120
330
1F
100
AcDbEntity
  8
0
  6
Continuous
 62
     7
370
    15
100
AcDbLine
 10
1188.331074538865
 20
282.4125802977632
 30
0.0
 11
1192.867137017884
 21
282.4125802977632
 31
0.0
  0
LINE
  5
121
330
1F
100
AcDbEntity
  8
0
  6
Continuous
 62
     7
370
    15
100
AcDbLine
 10
1167.86713105742
 20
261.9486517174791
 30
0.0
 11
1167.865029993692
 21
261.9692153199266
 31
0.0
  0
LINE
  5
122
330
1F
100
AcDbEntity
  8
0
  6
Continuous
 62
     7
370
    15
100
AcDbLine
 10
817.8671370178845
 20
261.9486517174791
 30
0.0
 11
817.8671370178845
 21
257.4125892384599
 31
0.0
  0
LINE
  5
123
330
1F
100
AcDbEntity
  8
0
  6
Continuous
 62
     7
370
    15
100
AcDbLine
 10
817.8692380816128
 20
261.9692153199266
 30
0.0
 11
817.8671370178845
 21
261.9486517174791
 31
0.0
  0
SPLINE
  5
124
330
1F
100
AcDbEntity
  8
0
  6
Continuous
 62
     7
370
    15
100
AcDbSpline
210
0.0
220
0.0
230
1.0
 70
     8
 71
     3
 72
    15
 73
    11
 74
     0
 42
0.000000001
 43
0.00000001
 40
0.0
 40
0.0
 40
0.0
 40
0.0
 40
0.1236912950490529
 40
0.2473989886492689
 40
0.3710869262285119
 40
0.4954712577770131
 40
0.6198768649289147
 40
0.7442623785785621
 40
0.8720923270051398
 40
1.0
 40
1.0
 40
1.0
 40
1.0
 10
1167.865029993692
 20
261.9692153199266
 30
0.0
 10
1153.471857615122
 20
262.0823081985571
 30
0.0
 10
1124.683604662473
 20
262.3085089492689
 30
0.0
 10
1081.397805098217
 20
262.5495667086948
 30
0.0
 10
1037.982200695797
 20
262.706300463542
 30
0.0
 10
994.4526832490852
 20
262.7595360432117
 30
0.0
 10
950.8408154228501
 20
262.7120662063234
 30
0.0
 10
906.8564089210973
 20
262.562602140888
 30
0.0
 10
862.5127321439201
 20
262.3195727467248
 30
0.0
 10
832.7534176166636
 20
262.0860247890649
 30
0.0
 10
817.8692380816128
 20
261.9692153199266
 30
0.0
  0
LINE
  5
125
330
1F
100
AcDbEntity
  8
0
  6
Continuous
 62
     7
370
    15
100
AcDbLine
 10
798.2873688370373
 20
572.3902276619028
 30
0.0
 11
798.2125948101666
 21
572.4125868542742
 31
0.0
  0
SPLINE
  5
126
330
1F
100
AcDbEntity
  8
0
  6
Continuous
 62
     7
370
    15
100
AcDbSpline
210
0.0
220
0.0
230
1.0
 70
     8
 71
     3
 72
    14
 73
    10
 74
     0
 42
0.000000001
 43
0.00000001
 40
0.0
 40
0.0
 40
0.0
 40
0.0
 40
0.1660798193190299
 40
0.3321849605420705
 40
0.4982577622039096
 40
0.6236773195904812
 40
0.749127668929645
 40
0.8745790382676216
 40
1.0
 40
1.0
 40
1.0
 40
1.0
 10
797.4031935364392
 20
282.4125802977632
 30
0.0
 10
797.5510671749635
 20
298.399691954021
 30
0.0
 10
797.8468369980511
 20
330.3763527939161
 30
0.0
 10
798.1782651181211
 20
378.4889814139991
 30
0.0
 10
798.3884352753424
 20
422.7443269943466
 30
0.0
 10
798.4844914664016
 20
463.1077638717116
 30
0.0
 10
798.4947957166197
 20
499.5496761340785
 30
0.0
 10
798.4367818275098
 20
535.9885881958921
 30
0.0
 10
798.3371691425938
 20
560.257328357594
 30
0.0
 10
798.2873688370373
 20
572.3902276619028
 30
0.0
  0
LINE
  5
127
330
1F
100
AcDbEntity
  8
0
  6
Continuous
 62
     7
370
    15
100
AcDbLine
 10
797.4031935364392
 20
282.4125802977632
 30
0.0
 11
792.86713105742
 21
282.4125802977632
 31
0.0
  0
SPLINE
  5
128
330
1F
100
AcDbEntity
  8
0
  6
Continuous
 62
     7
370
    15
100
AcDbSpline
210
0.0
220
0.0
230
1.0
 70
     8
 71
     3
 72
    15
 73
    11
 74
     0
 42
0.000000001
 43
0.00000001
 40
0.0
 40
0.0
 40
0.0
 40
0.0
 40
0.1561792428916023
 40
0.3123569616953982
 40
0.4690093984361268
 40
0.6256636604206772
 40
0.7192076727388406
 40
0.8127518957193883
 40
0.9063758590009975
 40
1.0
 40
1.0
 40
1.0
 40
1.0
 10
1187.446914139428
 20
572.3902276619028
 30
0.0
 10
1187.386524397345
 20
557.2805924100293
 30
0.0
 10
1187.265745502498
 20
527.0614693548831
 30
0.0
 10
1187.226161863756
 20
481.6394422823241
 30
0.0
 10
1187.300106719586
 20
436.1805640362919
 30
0.0
 10
1187.462958830264
 20
396.8192635522781
 30
0.0
 10
1187.659508495242
 20
363.6044908351942
 30
0.0
 10
1187.85338000798
 20
336.5103466594607
 30
0.0
 10
1188.075608448322
 20
309.4398684144812
 30
0.0
 10
1188.24591912147
 20
291.4216820370297
 30
0.0
 10
1188.331074538865
 20
282.4125802977632
 30
0.0
  0
LINE
  5
129
330
1F
100
AcDbEntity
  8
0
  6
Continuous
 62
     7
370
    15
100
AcDbLine
 10
1187.521673265138
 20
572.4125868542742
 30
0.0
 11
1187.446914139428
 21
572.3902276619028
 31
0.0
  0
SPLINE
  5
12A
330
1F
100
AcDbEntity
  8
0
  6
Continuous
 62
     7
370
    15
100
AcDbSpline
210
0.0
220
0.0
230
1.0
 70
     8
 71
     3
 72
    15
 73
    11
 74
     0
 42
0.000000001
 43
0.00000001
 40
0.0
 40
0.0
 40
0.0
 40
0.0
 40
0.1277215099474983
 40
0.2500000144938638
 40
0.3758234353853642
 40
0.5000009409742754
 40
0.6241748176528392
 40
0.749997827717011
 40
0.872277047831965
 40
1.0
 40
1.0
 40
1.0
 40
1.0
 10
817.8671370178845
 20
261.9486517174791
 30
0.0
 10
816.5040672555073
 20
262.0362317091021
 30
0.0
 10
813.8360165842417
 20
262.2076593659165
 30
0.0
 10
809.9810281954474
 20
263.4465918986622
 30
0.0
 10
806.4551638516073
 20
265.3321920695948
 30
0.0
 10
803.3479441193243
 20
267.8933771885963
 30
0.0
 10
800.7867606266035
 20
271.0005919584812
 30
0.0
 10
798.901179585221
 20
274.5264246627127
 30
0.0
 10
797.6622081773168
 20
278.3814206055826
 30
0.0
 10
797.490776046699
 20
281.0494948601864
 30
0.0
 10
797.4031935364392
 20
282.4125802977632
 30
0.0
  0
LINE
  5
12B
330
1F
100
AcDbEntity
  8
0
  6
Continuous
 62
     7
370
    15
100
AcDbLine
 10
797.4565396935132
 20
282.3741800053667
 30
0.0
 11
797.4031935364392
 21
282.4125802977632
 31
0.0
  0
SPLINE
  5
12C
330
1F
100
AcDbEntity
  8
0
  6
Continuous
 62
     7
370
    15
100
AcDbSpline
210
0.0
220
0.0
230
1.0
 70
     8
 71
     3
 72
    20
 73
    16
 74
     0
 42
0.000000001
 43
0.00000001
 40
0.0
 40
0.0
 40
0.0
 40
0.0
 40
0.0478255840104887
 40
0.0857033995209192
 40
0.125594188656627
 40
0.170431965265946
 40
0.211879574420662
 40
0.2499383691344263
 40
0.3355805589902493
 40
0.418254918732653
 40
0.4998423485370314
 40
0.624993767652966
 40
0.7499339482153387
 40
0.8737502116453673
 40
1.0
 40
1.0
 40
1.0
 40
1.0
 10
829.9558530480053
 20
558.4918773634981
 30
0.0
 10
829.2219345199516
 20
558.8404675140279
 30
0.0
 10
827.9067532393256
 20
559.4651407210158
 30
0.0
 10
825.9983743186078
 20
560.3718409720085
 30
0.0
 10
824.1524535482571
 20
561.2486052539538
 30
0.0
 10
822.276940614358
 20
562.1373499025646
 30
0.0
 10
820.4580712062988
 20
562.9968858484333
 30
0.0
 10
818.0845785215988
 20
564.1144471964973
 30
0.0
 10
815.2082809509752
 20
565.4565167358546
 30
0.0
 10
811.9204682178112
 20
566.9661408936698
 30
0.0
 10
808.384695232665
 20
568.5543763324276
 30
0.0
 10
804.7895360724955
 20
570.1105044795797
 30
0.0
 10
801.567798314144
 20
571.4093627848454
 30
0.0
 10
799.2185366092174
 20
572.2505602159329
 30
0.0
 10
798.5997652913479
 20
572.3433707836825
 30
0.0
 10
798.2873688370373
 20
572.3902276619028
 30
0.0
  0
SPLINE
  5
12D
330
1F
100
AcDbEntity
  8
0
  6
Continuous
 62
     7
370
    15
100
AcDbSpline
210
0.0
220
0.0
230
1.0
 70
     8
 71
     3
 72
    13
 73
     9
 74
     0
 42
0.000000001
 43
0.00000001
 40
0.0
 40
0.0
 40
0.0
 40
0.0
 40
0.15964668573811
 40
0.3192925854845535
 40
0.4793213633509235
 40
0.6393514141722504
 40
0.8196201702852272
 40
1.0
 40
1.0
 40
1.0
 40
1.0
 10
829.9558530480053
 20
558.4918773634981
 30
0.0
 10
829.9812770142001
 20
544.3675018738396
 30
0.0
 10
830.0321248214191
 20
516.1188204333382
 30
0.0
 10
830.0350389721975
 20
473.6832033848488
 30
0.0
 10
829.99654073596
 20
431.2247216870718
 30
0.0
 10
829.8858980580209
 20
386.9773213030888
 30
0.0
 10
829.6855190236369
 20
340.9853857405494
 30
0.0
 10
829.4628669678661
 20
309.2144400771394
 30
0.0
 10
829.3515066534665
 20
293.3240747912477
 30
0.0
  0
SPLINE
  5
12E
330
1F
100
AcDbEntity
  8
0
  6
Continuous
 62
     7
370
    15
100
AcDbSpline
210
0.0
220
0.0
230
1.0
 70
     8
 71
     3
 72
    22
 73
    18
 74
     0
 42
0.000000001
 43
0.00000001
 40
0.0
 40
0.0
 40
0.0
 40
0.0
 40
0.1040198169203327
 40
0.1872816717952758
 40
0.2497636782701209
 40
0.2953703326898377
 40
0.339389093061248
 40
0.3818249264501197
 40
0.422683914610457
 40
0.461972320258104
 40
0.4996982537115245
 40
0.5668033025420723
 40
0.6324723673902476
 40
0.69677001461721
 40
0.7597664571079812
 40
0.882017086884463
 40
0.9999999999999999
 40
0.9999999999999999
 40
0.9999999999999999
 40
0.9999999999999999
 10
829.3515066534665
 20
293.3240747912477
 30
0.0
 10
827.7481236680293
 20
292.6306947251247
 30
0.0
 10
824.8613252200877
 20
291.38230396827
 30
0.0
 10
821.1221927987184
 20
289.8070787886212
 30
0.0
 10
818.340550037753
 20
288.652085352121
 30
0.0
 10
816.1869642261919
 20
287.7860240844589
 30
0.0
 10
814.3669921710328
 20
287.0681057957024
 30
0.0
 10
812.6646509239921
 20
286.4113331625472
 30
0.0
 10
811.0796237517028
 20
285.8138684911303
 30
0.0
 10
809.6104039183933
 20
285.2744490856313
 30
0.0
 10
807.8843258694855
 20
284.6597178036169
 30
0.0
 10
805.962774839625
 20
284.0118882093361
 30
0.0
 10
803.9462993635292
 20
283.3861720061739
 30
0.0
 10
802.1884475520209
 20
282.894871469181
 30
0.0
 10
800.2298427476197
 20
282.4252201148785
 30
0.0
 10
798.3654693811675
 20
282.1185757907833
 30
0.0
 10
797.7559066560526
 20
282.2899936723957
 30
0.0
 10
797.4565396935132
 20
282.3741800053667
 30
0.0
  0
SPLINE
  5
12F
330
1F
100
AcDbEntity
  8
0
  6
Continuous
 62
     7
370
    15
100
AcDbSpline
210
0.0
220
0.0
230
1.0
 70
     8
 71
     3
 72
    20
 73
    16
 74
     0
 42
0.000000001
 43
0.00000001
 40
0.0
 40
0.0
 40
0.0
 40
0.0
 40
0.118010514634717
 40
0.2402897811201795
 40
0.3674749446018452
 40
0.5001405959611585
 40
0.5573301128079269
 40
0.6180375317518955
 40
0.6822864086478184
 40
0.7500960371583235
 40
0.785083974172714
 40
0.8275698217078824
 40
0.8775529972295147
 40
0.9350308723824248
 40
1.0
 40
1.0
 40
1.0
 40
1.0
 10
817.8692380816128
 20
261.9692153199265
 30
0.0
 10
817.817536088923
 20
262.2364080450508
 30
0.0
 10
817.7122619059796
 20
262.7804585615302
 30
0.0
 10
818.1759692970131
 20
264.9358614630201
 30
0.0
 10
819.112286786805
 20
268.095783968906
 30
0.0
 10
820.2928225935087
 20
271.4699364446862
 30
0.0
 10
821.427821239144
 20
274.4568229331171
 30
0.0
 10
822.3328328819276
 20
276.7627686181793
 30
0.0
 10
823.3698968785957
 20
279.3335948727974
 30
0.0
 10
824.3316305214348
 20
281.6643846684006
 30
0.0
 10
825.2108549287652
 20
283.7452115780101
 30
0.0
 10
826.0052215262399
 20
285.6040603877844
 30
0.0
 10
826.9633528762813
 20
287.8335101421126
 30
0.0
 10
828.090026694337
 20
290.4418646805079
 30
0.0
 10
828.9142057003309
 20
292.3249362639631
 30
0.0
 10
829.3515066534665
 20
293.3240747912477
 30
0.0
  0
SPLINE
  5
130
330
1F
100
AcDbEntity
  8
0
  6
Continuous
 62
     7
370
    15
100
AcDbSpline
210
0.0
220
0.0
230
1.0
 70
     8
 71
     3
 72
    15
 73
    11
 74
     0
 42
0.000000001
 43
0.00000001
 40
0.0
 40
0.0
 40
0.0
 40
0.0
 40
0.1166560974302096
 40
0.2333587508293965
 40
0.3608165028983403
 40
0.4882912260378463
 40
0.6157479450011947
 40
0.7438252409290399
 40
0.8719200826757804
 40
1.0
 40
1.0
 40
1.0
 40
1.0
 10
829.3515066534665
 20
293.3240747912477
 30
0.0
 10
842.041479457616
 20
293.3964827122481
 30
0.0
 10
867.4264894731186
 20
293.5413274513318
 30
0.0
 10
906.7494173742909
 20
293.6875037696408
 30
0.0
 10
947.2901214884648
 20
293.7801940895225
 30
0.0
 10
989.0303164858166
 20
293.8127635798598
 30
0.0
 10
1030.840518533552
 20
293.7892949795211
 30
0.0
 10
1072.695485716039
 20
293.7056366119925
 30
0.0
 10
1114.580943310735
 20
293.5594790618148
 30
0.0
 10
1142.44935827747
 20
293.402539833742
 30
0.0
 10
1156.382753971257
 20
293.3240747912477
 30
0.0
  0
SPLINE
  5
131
330
1F
100
AcDbEntity
  8
0
  6
Continuous
 62
     7
370
    15
100
AcDbSpline
210
0.0
220
0.0
230
1.0
 70
     8
 71
     3
 72
    23
 73
    19
 74
     0
 42
0.000000001
 43
0.00000001
 40
0.0
 40
0.0
 40
0.0
 40
0.0
 40
0.0841423291586868
 40
0.1671469370078438
 40
0.2502008663682972
 40
0.3328890690752214
 40
0.415996721839256
 40
0.5003557633657648
 40
0.561099974085741
 40
0.6246972658161651
 40
0.6852526506661022
 40
0.7501956905951936
 40
0.7882235610503311
 40
0.8296467045671948
 40
0.8744656630890573
 40
0.9143463934444722
 40
0.9519404752323505
 40
1.0
 40
1.0
 40
1.0
 40
1.0
 10
1167.865029993692
 20
261.9692153199266
 30
0.0
 10
1167.91307598219
 20
262.1389446802577
 30
0.0
 10
1168.008518310603
 20
262.4761084239202
 30
0.0
 10
1167.854237439085
 20
263.6199997846695
 30
0.0
 10
1167.489278104013
 20
265.1854258939544
 30
0.0
 10
1166.90309594864
 20
267.1884661197678
 30
0.0
 10
1166.107661668262
 20
269.5845905008915
 30
0.0
 10
1165.207943793857
 20
272.0836953427474
 30
0.0
 10
1164.260953302586
 20
274.5792988398758
 30
0.0
 10
1163.336435644425
 20
276.9325139877358
 30
0.0
 10
1162.312046158522
 20
279.4637106683157
 30
0.0
 10
1161.366780763629
 20
281.747272519658
 30
0.0
 10
1160.494399814656
 20
283.8191739403345
 30
0.0
 10
1159.721678089124
 20
285.6358433988915
 30
0.0
 10
1158.916423442679
 20
287.5113309569039
 30
0.0
 10
1158.117881494109
 20
289.3549768137116
 30
0.0
 10
1157.285566190676
 20
291.2661782432863
 30
0.0
 10
1156.707245109789
 20
292.5844202103003
 30
0.0
 10
1156.382753971257
 20
293.3240747912477
 30
0.0
  0
SPLINE
  5
132
330
1F
100
AcDbEntity
  8
0
  6
Continuous
 62
     7
370
    15
100
AcDbSpline
210
0.0
220
0.0
230
1.0
 70
     8
 71
     3
 72
    20
 73
    16
 74
     0
 42
0.000000001
 43
0.00000001
 40
0.0
 40
0.0
 40
0.0
 40
0.0
 40
0.1180126104630869
 40
0.2402936949476234
 40
0.3674785014852084
 40
0.5001392207540053
 40
0.5573307475969026
 40
0.6180395297769375
 40
0.6822885919146968
 40
0.7500973033236562
 40
0.785090547384855
 40
0.8275795273561821
 40
0.8775628838750478
 40
0.9350377015660088
 40
0.9999999999999999
 40
0.9999999999999999
 40
0.9999999999999999
 40
0.9999999999999999
 10
1188.27771348063
 20
282.3741800053667
 30
0.0
 10
1187.97791338264
 20
282.2901741680254
 30
0.0
 10
1187.367469524063
 20
282.1191240321739
 30
0.0
 10
1185.11562665704
 20
282.4876802673501
 30
0.0
 10
1181.863976995039
 20
283.3335903319303
 30
0.0
 10
1178.423480872056
 20
284.4487421347299
 30
0.0
 10
1175.390807341374
 20
285.5386277341653
 30
0.0
 10
1173.054588979032
 20
286.413924746783
 30
0.0
 10
1170.455334358937
 20
287.4230226520635
 30
0.0
 10
1168.103205696443
 20
288.3638731146997
 30
0.0
 10
1166.006135173354
 20
289.2273013832538
 30
0.0
 10
1164.134533940814
 20
290.0093389139101
 30
0.0
 10
1161.892499436867
 20
290.9551540149494
 30
0.0
 10
1159.272572545229
 20
292.0703188385299
 30
0.0
 10
1157.384514073146
 20
292.8894583408414
 30
0.0
 10
1156.382753971257
 20
293.3240747912477
 30
0.0
  0
SPLINE
  5
133
330
1F
100
AcDbEntity
  8
0
  6
Continuous
 62
     7
370
    15
100
AcDbSpline
210
0.0
220
0.0
230
1.0
 70
     8
 71
     3
 72
    13
 73
     9
 74
     0
 42
0.000000001
 43
0.00000001
 40
0.0
 40
0.0
 40
0.0
 40
0.0
 40
0.1802878459846428
 40
0.3606835410849666
 40
0.5203237468917267
 40
0.6799627036190384
 40
0.8399809573614467
 40
1.0
 40
1.0
 40
1.0
 40
1.0
 10
1156.382753971257
 20
293.3240747912477
 30
0.0
 10
1156.271445058932
 20
309.2063308139587
 30
0.0
 10
1156.048760648718
 20
340.9803437065272
 30
0.0
 10
1155.848521844289
 20
386.9409322821688
 30
0.0
 10
1155.737938144291
 20
431.1305427981582
 30
0.0
 10
1155.699274013359
 20
473.5528739394388
 30
0.0
 10
1155.702000899614
 20
516.0199576280177
 30
0.0
 10
1155.752938642496
 20
544.3345475197258
 30
0.0
 10
1155.778407576719
 20
558.4918773634981
 30
0.0
  0
SPLINE
  5
134
330
1F
100
AcDbEntity
  8
0
  6
Continuous
 62
     7
370
    15
100
AcDbSpline
210
0.0
220
0.0
230
1.0
 70
     8
 71
     3
 72
    23
 73
    19
 74
     0
 42
0.000000001
 43
0.00000001
 40
0.0
 40
0.0
 40
0.0
 40
0.0
 40
0.0840870751618063
 40
0.1670643653160848
 40
0.2501755608072225
 40
0.3328613929457693
 40
0.4159614666636497
 40
0.5003408377752967
 40
0.5610156769425259
 40
0.624692396887413
 40
0.6852261687489162
 40
0.7501799676168356
 40
0.7882162763687744
 40
0.8296443402748969
 40
0.8744652259800035
 40
0.9143296196752894
 40
0.9519872145954013
 40
1.0
 40
1.0
 40
1.0
 40
1.0
 10
1187.446914139428
 20
572.3902276619028
 30
0.0
 10
1187.264789176232
 20
572.3712200930338
 30
0.0
 10
1186.902942943312
 20
572.3334558180463
 30
0.0
 10
1185.715580426549
 20
571.9627339647102
 30
0.0
 10
1184.104494896989
 20
571.3748067597984
 30
0.0
 10
1182.055589136103
 20
570.561025736527
 30
0.0
 10
1179.616717632404
 20
569.5368471974425
 30
0.0
 10
1177.084272978878
 20
568.4323628052279
 30
0.0
 10
1174.562575026365
 20
567.3031068479818
 30
0.0
 10
1172.191007081521
 20
566.222829355054
 30
0.0
 10
1169.644622835195
 20
565.0454047502604
 30
0.0
 10
1167.352903989392
 20
563.9747483037863
 30
0.0
 10
1165.276314789273
 20
562.9969295945153
 30
0.0
 10
1163.457462560698
 20
562.137413457417
 30
0.0
 10
1161.581990153122
 20
561.2486900803007
 30
0.0
 10
1159.739168210896
 20
560.3733914475513
 30
0.0
 10
1157.830846191565
 20
559.4667038581481
 30
0.0
 10
1156.515548219919
 20
558.841989773232
 30
0.0
 10
1155.778407576719
 20
558.4918773634981
 30
0.0
  0
LINE
  5
135
330
1F
100
AcDbEntity
  8
0
  6
Continuous
 62
     7
370
    15
100
AcDbLine
 10
1188.331074538865
 20
282.4125802977632
 30
0.0
 11
1188.27771348063
 21
282.3741800053667
 31
0.0
  0
LINE
  5
136
330
1F
100
AcDbEntity
  8
0
  6
Continuous
 62
     7
370
    15
100
AcDbLine
 10
1167.970761182943
 20
591.8516880734514
 30
0.0
 11
1167.86713105742
 21
592.0671216114115
 31
0.0
  0
SPLINE
  5
137
330
1F
100
AcDbEntity
  8
0
  6
Continuous
 62
     7
370
    15
100
AcDbSpline
210
0.0
220
0.0
230
1.0
 70
     8
 71
     3
 72
    20
 73
    16
 74
     0
 42
0.000000001
 43
0.00000001
 40
0.0
 40
0.0
 40
0.0
 40
0.0
 40
0.0480189827627716
 40
0.0857082822945812
 40
0.125588854278889
 40
0.1704312186375741
 40
0.2118788054409508
 40
0.2499320628448096
 40
0.335577255800086
 40
0.4182535913445525
 40
0.4998468821232854
 40
0.6250062631469767
 40
0.7499509812383436
 40
0.8737642464032608
 40
1.0
 40
1.0
 40
1.0
 40
1.0
 10
1155.778407576719
 20
558.4918773634981
 30
0.0
 10
1156.122193524711
 20
559.2342797847914
 30
0.0
 10
1156.735811335504
 20
560.5593814974773
 30
0.0
 10
1157.618967200209
 20
562.4893850633789
 30
0.0
 10
1158.466958404821
 20
564.3581370848947
 30
0.0
 10
1159.321913306832
 20
566.265712241752
 30
0.0
 10
1160.142827876584
 20
568.1216767016601
 30
0.0
 10
1161.202584301129
 20
570.5510341959825
 30
0.0
 10
1162.459872367329
 20
573.509970643687
 30
0.0
 10
1163.846899252757
 20
576.9184310235509
 30
0.0
 10
1165.271516309303
 20
580.6161862936075
 30
0.0
 10
1166.610165566263
 20
584.4278031881439
 30
0.0
 10
1167.628318719872
 20
587.9302158743444
 30
0.0
 10
1168.160588142818
 20
590.5893347593317
 30
0.0
 10
1168.034444199352
 20
591.4281946620267
 30
0.0
 10
1167.970761182943
 20
591.8516880734514
 30
0.0
  0
SPLINE
  5
138
330
1F
100
AcDbEntity
  8
0
  6
Continuous
 62
     7
370
    15
100
AcDbSpline
210
0.0
220
0.0
230
1.0
 70
     8
 71
     3
 72
    15
 73
    11
 74
     0
 42
0.000000001
 43
0.00000001
 40
0.0
 40
0.0
 40
0.0
 40
0.0
 40
0.1255016457167459
 40
0.2510021284888797
 40
0.3767604808046316
 40
0.5025136965499207
 40
0.6267425505477534
 40
0.7509762923320437
 40
0.8754875579209058
 40
1.0
 40
1.0
 40
1.0
 40
1.0
 10
1155.778407576719
 20
558.4918773634981
 30
0.0
 10
1142.178341140089
 20
558.4034017208088
 30
0.0
 10
1114.97833429007
 20
558.2264512552783
 30
0.0
 10
1074.068381391441
 20
558.086635073937
 30
0.0
 10
1033.088499946307
 20
558.103509587192
 30
0.0
 10
992.2123960709233
 20
558.1629250553931
 30
0.0
 10
951.5029936568527
 20
558.1017278791912
 30
0.0
 10
910.9630383534409
 20
558.0884643185157
 30
0.0
 10
870.4341630816729
 20
558.2283349377377
 30
0.0
 10
843.4486655560844
 20
558.40402961156
 30
0.0
 10
829.9558530480053
 20
558.4918773634981
 30
0.0
  0
SPLINE
  5
139
330
1F
100
AcDbEntity
  8
0
  6
Continuous
 62
     7
370
    15
100
AcDbSpline
210
0.0
220
0.0
230
1.0
 70
     8
 71
     3
 72
    22
 73
    18
 74
     0
 42
0.000000001
 43
0.00000001
 40
0.0
 40
0.0
 40
0.0
 40
0.0
 40
0.1041435290703725
 40
0.1874098055454816
 40
0.2497778562921102
 40
0.2954181622693493
 40
0.3394568030344334
 40
0.3818994564411224
 40
0.4227527019448725
 40
0.4620239943373209
 40
0.4997215461628833
 40
0.5669577683832177
 40
0.6327026289352408
 40
0.6970293265855982
 40
0.7600155345396538
 40
0.8821619057581767
 40
1.0
 40
1.0
 40
1.0
 40
1.0
 10
829.9558530480053
 20
558.4918773634981
 30
0.0
 10
829.21445221056
 20
560.1026784947226
 30
0.0
 10
827.8802763091174
 20
563.0013696517243
 30
0.0
 10
826.1855602349256
 20
566.7840275488093
 30
0.0
 10
824.937748043144
 20
569.6107683940177
 30
0.0
 10
823.9975991296415
 20
571.8096505350784
 30
0.0
 10
823.2145808721343
 20
573.6768017761584
 30
0.0
 10
822.4954586132797
 20
575.429966177118
 30
0.0
 10
821.8385592230997
 20
577.0687672478243
 30
0.0
 10
821.2426896284426
 20
578.594103805671
 30
0.0
 10
820.5592501967539
 20
580.3962396247681
 30
0.0
 10
819.8321252177907
 20
582.4173061586811
 30
0.0
 10
819.1195762095307
 20
584.5597978670106
 30
0.0
 10
818.5491938088884
 20
586.4484627744021
 30
0.0
 10
817.9865567746408
 20
588.5831034686504
 30
0.0
 10
817.5814135697105
 20
590.6734040104762
 30
0.0
 10
817.7035349382267
 20
591.463655668306
 30
0.0
 10
817.7634994417813
 20
591.8516880734514
 30
0.0
  0
LINE
  5
13A
330
1F
100
AcDbEntity
  8
0
  6
Continuous
 62
     7
370
    15
100
AcDbLine
 10
817.8671370178845
 20
592.0671216114115
 30
0.0
 11
817.7634994417813
 21
591.8516880734514
 31
0.0
  0
SPLINE
  5
13B
330
1F
100
AcDbEntity
  8
0
  6
Continuous
 62
     7
370
    15
100
AcDbSpline
210
0.0
220
0.0
230
1.0
 70
     8
 71
     3
 72
    15
 73
    11
 74
     0
 42
0.000000001
 43
0.00000001
 40
0.0
 40
0.0
 40
0.0
 40
0.0
 40
0.125038444285059
 40
0.250041825729397
 40
0.3750270013401125
 40
0.5000007314330727
 40
0.6249695833547505
 40
0.749955897346976
 40
0.8749639191825306
 40
1.0
 40
1.0
 40
1.0
 40
1.0
 10
817.8692380816128
 20
261.9692153199266
 30
0.0
 10
816.5410434488609
 20
262.0549566730821
 30
0.0
 10
813.8850266310242
 20
262.2264153361046
 30
0.0
 10
810.0513405158247
 20
263.454440574874
 30
0.0
 10
806.5138999508752
 20
265.3469705000326
 30
0.0
 10
803.4091133381177
 20
267.9034339382688
 30
0.0
 10
800.8506173022472
 20
271.0080685496765
 30
0.0
 10
798.9542987561205
 20
274.5472908077271
 30
0.0
 10
797.7208415101856
 20
278.3844540089736
 30
0.0
 10
797.544646889697
 20
281.0441718521532
 30
0.0
 10
797.4565396935132
 20
282.3741800053667
 30
0.0
  0
SPLINE
  5
13C
330
1F
100
AcDbEntity
  8
0
  6
Continuous
 62
     7
370
    15
100
AcDbSpline
210
0.0
220
0.0
230
1.0
 70
     8
 71
     3
 72
    15
 73
    11
 74
     0
 42
0.000000001
 43
0.00000001
 40
0.0
 40
0.0
 40
0.0
 40
0.0
 40
0.1250360957490423
 40
0.2500441571517886
 40
0.3750306180764448
 40
0.4999993560405289
 40
0.6249727408191792
 40
0.7499580400432463
 40
0.8749615229289411
 40
1.0
 40
1.0
 40
1.0
 40
1.0
 10
1167.865029993692
 20
261.9692153199266
 30
0.0
 10
1169.193199402992
 20
262.0549537010937
 30
0.0
 10
1171.849240432695
 20
262.226411240023
 30
0.0
 10
1175.682962643336
 20
263.4544538629614
 30
0.0
 10
1179.220410214963
 20
265.346992711809
 30
0.0
 10
1182.325190071037
 20
267.9034765346392
 30
0.0
 10
1184.883657549359
 20
271.0081117657178
 30
0.0
 10
1186.779991579915
 20
274.5473133452757
 30
0.0
 10
1188.013401357486
 20
278.3844542387909
 30
0.0
 10
1188.189601219668
 20
281.0441473389421
 30
0.0
 10
1188.27771348063
 20
282.3741800053667
 30
0.0
  0
SPLINE
  5
13D
330
1F
100
AcDbEntity
  8
0
  6
Continuous
 62
     7
370
    15
100
AcDbSpline
210
0.0
220
0.0
230
1.0
 70
     8
 71
     3
 72
    15
 73
    11
 74
     0
 42
0.000000001
 43
0.00000001
 40
0.0
 40
0.0
 40
0.0
 40
0.0
 40
0.1251101542835221
 40
0.2501298485800723
 40
0.375083738675929
 40
0.4999992064995089
 40
0.624919053893208
 40
0.7498726629815965
 40
0.8748872771966991
 40
0.9999999999999999
 40
0.9999999999999999
 40
0.9999999999999999
 40
0.9999999999999999
 10
817.7634994417813
 20
591.8516880734514
 30
0.0
 10
816.4956003652711
 20
591.7582732940474
 30
0.0
 10
813.9607189574549
 20
591.571511278116
 30
0.0
 10
810.3060716208786
 20
590.3779620615197
 30
0.0
 10
806.9358715333944
 20
588.561028438722
 30
0.0
 10
803.978412395219
 20
586.1218453170752
 30
0.0
 10
801.5401393376471
 20
583.1693852001343
 30
0.0
 10
799.7301893371888
 20
579.8100096122611
 30
0.0
 10
798.5489155699355
 20
576.1713056608564
 30
0.0
 10
798.3745738756165
 20
573.650916522803
 30
0.0
 10
798.2873688370373
 20
572.3902276619028
 30
0.0
  0
SPLINE
  5
13E
330
1F
100
AcDbEntity
  8
0
  6
Continuous
 62
     7
370
    15
100
AcDbSpline
210
0.0
220
0.0
230
1.0
 70
     8
 71
     3
 72
    15
 73
    11
 74
     0
 42
0.000000001
 43
0.00000001
 40
0.0
 40
0.0
 40
0.0
 40
0.0
 40
0.1251101600650029
 40
0.2501296127344142
 40
0.3750839498660078
 40
0.499999224045599
 40
0.6249189811254443
 40
0.7498723447356154
 40
0.8748871772291399
 40
1.0
 40
1.0
 40
1.0
 40
1.0
 10
1187.446914139428
 20
572.3902276619028
 30
0.0
 10
1187.359711393058
 20
573.6508909593906
 30
0.0
 10
1187.185369124073
 20
576.1713035479867
 30
0.0
 10
1186.004089458173
 20
579.8100434634174
 30
0.0
 10
1184.194096911753
 20
583.1694100626561
 30
0.0
 10
1181.755831837783
 20
586.1218796113806
 30
0.0
 10
1178.798373175829
 20
588.5610607103291
 30
0.0
 10
1175.428164985514
 20
590.3779568689787
 30
0.0
 10
1171.773550193404
 20
591.571512671095
 30
0.0
 10
1169.238688539799
 20
591.7582718843363
 30
0.0
 10
1167.970761182943
 20
591.8516880734514
 30
0.0
  0
CIRCLE
  5
13F
330
1F
100
AcDbEntity
  8
0
  6
Continuous
 62
     7
370
    15
100
AcDbCircle
 10
992.8671328671328
 20
487.4125874125874
 30
0.0
 40
69.99999999999898
  0
CIRCLE
  5
140
330
1F
100
AcDbEntity
  8
0
  6
Continuous
 62
     7
370
    15
100
AcDbCircle
 10
992.8671328671328
 20
487.4125874125874
 30
0.0
 40
63.73194421635662
  0
CIRCLE
  5
141
330
1F
100
AcDbEntity
  8
0
  6
Continuous
 62
     7
370
    15
100
AcDbCircle
 10
992.8671328671328
 20
487.4125874125874
 30
0.0
 40
63.1124949497779
  0
CIRCLE
  5
142
330
1F
100
AcDbEntity
  8
0
  6
Continuous
 62
     7
370
    15
100
AcDbCircle
 10
992.8671328671328
 20
487.4125874125874
 30
0.0
 40
58.61177143234619
  0
CIRCLE
  5
143
330
1F
100
AcDbEntity
  8
0
  6
Continuous
 62
     7
370
    15
100
AcDbCircle
 10
992.8671328671328
 20
487.4125874125874
 30
0.0
 40
57.5
  0
CIRCLE
  5
144
330
1F
100
AcDbEntity
  8
0
  6
Continuous
 62
     7
370
    15
100
AcDbCircle
 10
992.8671328671328
 20
487.4125874125874
 30
0.0
 40
56.58715574274771
  0
CIRCLE
  5
145
330
1F
100
AcDbEntity
  8
0
  6
Continuous
 62
     7
370
    15
100
AcDbCircle
 10
992.8671328671328
 20
487.4125874125874
 30
0.0
 40
44.99999999999994
  0
LINE
  5
146
330
1F
100
AcDbEntity
  8
0
  6
Continuous
 62
     7
370
    15
100
AcDbLine
 10
1207.367129150071
 20
710.4312843545031
 30
0.0
 11
778.3671389252331
 21
710.4312843545031
 31
0.0
  0
LINE
  5
147
330
1F
100
AcDbEntity
  8
0
  6
Continuous
 62
     7
370
    15
100
AcDbLine
 10
778.3671389252331
 20
711.4125854237627
 30
0.0
 11
778.3671389252331
 21
710.4312843545031
 31
0.0
  0
LINE
  5
148
330
1F
100
AcDbEntity
  8
0
  6
Continuous
 62
     7
370
    15
100
AcDbLine
 10
778.3671389252331
 20
711.4125854237627
 30
0.0
 11
1207.367129150071
 21
711.4125854237627
 31
0.0
  0
LINE
  5
149
330
1F
100
AcDbEntity
  8
0
  6
Continuous
 62
     7
370
    15
100
AcDbLine
 10
1207.367129150071
 20
710.4312843545031
 30
0.0
 11
1207.367129150071
 21
711.4125854237627
 31
0.0
  0
ARC
  5
14A
330
1F
100
AcDbEntity
  8
0
  6
Continuous
 62
     7
370
    15
100
AcDbCircle
 10
778.3671328671327
 20
686.4125874125874
 30
0.0
 40
25.0
100
AcDbArc
 50
90.0
 51
180.0
  0
ARC
  5
14B
330
1F
100
AcDbEntity
  8
0
  6
Continuous
 62
     7
370
    15
100
AcDbCircle
 10
778.3671328671327
 20
686.4125874125874
 30
0.0
 40
24.01869474724742
100
AcDbArc
 50
90.0
 51
180.0
  0
LINE
  5
14C
330
1F
100
AcDbEntity
  8
0
  6
Continuous
 62
     7
370
    15
100
AcDbLine
 10
753.3671329647686
 20
686.4125943644594
 30
0.0
 11
754.3484340340283
 21
686.4125943644594
 31
0.0
  0
CIRCLE
  5
14D
330
1F
100
AcDbEntity
  8
0
  6
Continuous
 62
     7
370
    15
100
AcDbCircle
 10
992.8671328671328
 20
661.4125874125874
 30
0.0
 40
17.5
  0
LINE
  5
14F
330
1F
100
AcDbEntity
  8
0
  6
Continuous
 62
     7
370
    15
100
AcDbLine
 10
817.8671370178845
 20
604.0125853283953
 30
0.0
 11
1167.86713105742
 21
604.0125853283953
 31
0.0
  0
ARC
  5
150
330
1F
100
AcDbEntity
  8
0
  6
Continuous
 62
     7
370
    15
100
AcDbCircle
 10
817.8671328671328
 20
573.0125874125874
 30
0.0
 40
31.00000000000011
100
AcDbArc
 50
90.0
 51
180.0
  0
LINE
  5
151
330
1F
100
AcDbEntity
  8
0
  6
Continuous
 62
     7
370
    15
100
AcDbLine
 10
786.8671188980725
 20
283.4125823243211
 30
0.0
 11
786.8671188980725
 21
573.0125895603251
 31
0.0
  0
ARC
  5
152
330
1F
100
AcDbEntity
  8
0
  6
Continuous
 62
     7
370
    15
100
AcDbCircle
 10
817.8671328671328
 20
283.4125874125874
 30
0.0
 40
31.00000000000009
100
AcDbArc
 50
180.0
 51
270.0000000000008
  0
LINE
  5
153
330
1F
100
AcDbEntity
  8
0
  6
Continuous
 62
     7
370
    15
100
AcDbLine
 10
1167.86713105742
 20
252.4125940068315
 30
0.0
 11
817.8671370178845
 21
252.4125940068315
 31
0.0
  0
ARC
  5
154
330
1F
100
AcDbEntity
  8
0
  6
Continuous
 62
     7
370
    15
100
AcDbCircle
 10
1167.867132867133
 20
283.4125874125874
 30
0.0
 40
31.00000000000023
100
AcDbArc
 50
270.0000000000008
 51
0.0
  0
LINE
  5
155
330
1F
100
AcDbEntity
  8
0
  6
Continuous
 62
     7
370
    15
100
AcDbLine
 10
1198.867134276071
 20
573.0125895603251
 30
0.0
 11
1198.867134276071
 21
283.4125823243211
 31
0.0
  0
ARC
  5
156
330
1F
100
AcDbEntity
  8
0
  6
Continuous
 62
     7
370
    15
100
AcDbCircle
 10
1167.867132867133
 20
573.0125874125874
 30
0.0
 40
31.00000000000023
100
AcDbArc
 50
0.0
 51
90.0
  0
LINE
  5
157
330
1F
100
AcDbEntity
  8
0
  6
Continuous
 62
     7
370
    15
100
AcDbLine
 10
1231.385834041276
 20
236.4125913842271
 30
0.0
 11
1231.385834041276
 21
686.4125943644594
 31
0.0
  0
ARC
  5
158
330
1F
100
AcDbEntity
  8
0
  6
Continuous
 62
     7
370
    15
100
AcDbCircle
 10
1207.367132867133
 20
236.4125874125874
 30
0.0
 40
24.01869474724754
100
AcDbArc
 50
270.0000000000008
 51
0.0
  0
LINE
  5
159
330
1F
100
AcDbEntity
  8
0
  6
Continuous
 62
     7
370
    15
100
AcDbLine
 10
778.3671389252331
 20
212.3939013941835
 30
0.0
 11
1207.367129150071
 21
212.3939013941835
 31
0.0
  0
ARC
  5
15A
330
1F
100
AcDbEntity
  8
0
  6
Continuous
 62
     7
370
    15
100
AcDbCircle
 10
778.3671328671329
 20
236.4125874125874
 30
0.0
 40
24.01869474724765
100
AcDbArc
 50
180.0
 51
270.0000000000008
  0
LINE
  5
15B
330
1F
100
AcDbEntity
  8
0
  6
Continuous
 62
     7
370
    15
100
AcDbLine
 10
754.3484340340283
 20
686.4125943644594
 30
0.0
 11
754.3484340340283
 21
236.4125913842271
 31
0.0
  0
ARC
  5
15C
330
1F
100
AcDbEntity
  8
0
  6
Continuous
 62
     7
370
    15
100
AcDbCircle
 10
1207.367132867133
 20
686.4125874125874
 30
0.0
 40
24.01869474724742
100
AcDbArc
 50
0.0
 51
90.0
  0
LINE
  5
15D
330
1F
100
AcDbEntity
  8
0
  6
Continuous
 62
     7
370
    15
100
AcDbLine
 10
1198.867134276071
 20
573.0125895603251
 30
0.0
 11
1193.867139044442
 21
573.0125895603251
 31
0.0
  0
ARC
  5
15E
330
1F
100
AcDbEntity
  8
0
  6
Continuous
 62
     7
370
    15
100
AcDbCircle
 10
1167.867132867133
 20
573.0125874125874
 30
0.0
 40
26.0
100
AcDbArc
 50
0.0
 51
90.0
  0
LINE
  5
15F
330
1F
100
AcDbEntity
  8
0
  6
Continuous
 62
     7
370
    15
100
AcDbLine
 10
1167.86713105742
 20
604.0125853283953
 30
0.0
 11
1167.86713105742
 21
599.0125900967669
 31
0.0
  0
LINE
  5
160
330
1F
100
AcDbEntity
  8
0
  6
Continuous
 62
     7
370
    15
100
AcDbLine
 10
791.8671439320233
 20
283.4125823243211
 30
0.0
 11
791.8671439320233
 21
573.0125895603251
 31
0.0
  0
LINE
  5
161
330
1F
100
AcDbEntity
  8
0
  6
Continuous
 62
     7
370
    15
100
AcDbLine
 10
791.8671439320233
 20
283.4125823243211
 30
0.0
 11
786.8671188980725
 21
283.4125823243211
 31
0.0
  0
LINE
  5
162
330
1F
100
AcDbEntity
  8
0
  6
Continuous
 62
     7
370
    15
100
AcDbLine
 10
786.8671188980725
 20
573.0125895603251
 30
0.0
 11
791.8671439320233
 21
573.0125895603251
 31
0.0
  0
ARC
  5
163
330
1F
100
AcDbEntity
  8
0
  6
Continuous
 62
     7
370
    15
100
AcDbCircle
 10
817.8671328671328
 20
283.4125874125874
 30
0.0
 40
26.00000000000011
100
AcDbArc
 50
180.0
 51
270.0000000000008
  0
LINE
  5
164
330
1F
100
AcDbEntity
  8
0
  6
Continuous
 62
     7
370
    15
100
AcDbLine
 10
817.8671370178845
 20
257.4125892384599
 30
0.0
 11
817.8671370178845
 21
252.4125940068315
 31
0.0
  0
LINE
  5
165
330
1F
100
AcDbEntity
  8
0
  6
Continuous
 62
     7
370
    15
100
AcDbLine
 10
817.8671370178845
 20
604.0125853283953
 30
0.0
 11
817.8671370178845
 21
599.0125900967669
 31
0.0
  0
ARC
  5
166
330
1F
100
AcDbEntity
  8
0
  6
Continuous
 62
     7
370
    15
100
AcDbCircle
 10
817.8671328671328
 20
573.0125874125874
 30
0.0
 40
26.00000000000011
100
AcDbArc
 50
90.0
 51
180.0
  0
LINE
  5
167
330
1F
100
AcDbEntity
  8
0
  6
Continuous
 62
     7
370
    15
100
AcDbLine
 10
1167.86713105742
 20
257.4125892384599
 30
0.0
 11
817.8671370178845
 21
257.4125892384599
 31
0.0
  0
LINE
  5
168
330
1F
100
AcDbEntity
  8
0
  6
Continuous
 62
     7
370
    15
100
AcDbLine
 10
1167.86713105742
 20
257.4125892384599
 30
0.0
 11
1167.86713105742
 21
252.4125940068315
 31
0.0
  0
LINE
  5
169
330
1F
100
AcDbEntity
  8
0
  6
Continuous
 62
     7
370
    15
100
AcDbLine
 10
817.8671370178845
 20
599.0125900967669
 30
0.0
 11
1167.86713105742
 21
599.0125900967669
 31
0.0
  0
ARC
  5
16A
330
1F
100
AcDbEntity
  8
0
  6
Continuous
 62
     7
370
    15
100
AcDbCircle
 10
1167.867132867133
 20
283.4125874125874
 30
0.0
 40
26.0
100
AcDbArc
 50
270.0000000000008
 51
0.0
  0
LINE
  5
16B
330
1F
100
AcDbEntity
  8
0
  6
Continuous
 62
     7
370
    15
100
AcDbLine
 10
1193.867139044442
 20
283.4125823243211
 30
0.0
 11
1198.867134276071
 21
283.4125823243211
 31
0.0
  0
ARC
  5
16C
330
1F
100
AcDbEntity
  8
0
  6
Continuous
 62
     7
370
    15
100
AcDbCircle
 10
778.3671328671329
 20
236.4125874125874
 30
0.0
 40
25.00000000000011
100
AcDbArc
 50
180.0
 51
270.0000000000008
  0
LINE
  5
16D
330
1F
100
AcDbEntity
  8
0
  6
Continuous
 62
     7
370
    15
100
AcDbLine
 10
753.3671329647686
 20
236.4125913842271
 30
0.0
 11
754.3484340340283
 21
236.4125913842271
 31
0.0
  0
LINE
  5
16E
330
1F
100
AcDbEntity
  8
0
  6
Continuous
 62
     7
370
    15
100
AcDbLine
 10
778.3671389252331
 20
211.4126003249239
 30
0.0
 11
778.3671389252331
 21
212.3939013941835
 31
0.0
  0
LINE
  5
16F
330
1F
100
AcDbEntity
  8
0
  6
Continuous
 62
     7
370
    15
100
AcDbLine
 10
1193.867139044442
 20
573.0125895603251
 30
0.0
 11
1193.867139044442
 21
283.4125823243211
 31
0.0
  0
LINE
  5
170
330
1F
100
AcDbEntity
  8
0
  6
Continuous
 62
     7
370
    15
100
AcDbLine
 10
1207.367129150071
 20
212.3939013941835
 30
0.0
 11
1207.367129150071
 21
211.4126003249239
 31
0.0
  0
LINE
  5
171
330
1F
100
AcDbEntity
  8
0
  6
Continuous
 62
     7
370
    15
100
AcDbLine
 10
1207.367129150071
 20
211.4126003249239
 30
0.0
 11
778.3671389252331
 21
211.4126003249239
 31
0.0
  0
LINE
  5
172
330
1F
100
AcDbEntity
  8
0
  6
Continuous
 62
     7
370
    15
100
AcDbLine
 10
1231.385834041276
 20
236.4125913842271
 30
0.0
 11
1232.367135110536
 21
236.4125913842271
 31
0.0
  0
ARC
  5
173
330
1F
100
AcDbEntity
  8
0
  6
Continuous
 62
     7
370
    15
100
AcDbCircle
 10
1207.367132867133
 20
236.4125874125874
 30
0.0
 40
25.0
100
AcDbArc
 50
270.0000000000008
 51
0.0
  0
LINE
  5
174
330
1F
100
AcDbEntity
  8
0
  6
Continuous
 62
     7
370
    15
100
AcDbLine
 10
753.3671329647686
 20
236.4125913842271
 30
0.0
 11
753.3671329647686
 21
686.4125943644594
 31
0.0
  0
LINE
  5
175
330
1F
100
AcDbEntity
  8
0
  6
Continuous
 62
     7
370
    15
100
AcDbLine
 10
1231.385834041276
 20
686.4125943644594
 30
0.0
 11
1232.367135110536
 21
686.4125943644594
 31
0.0
  0
LINE
  5
176
330
1F
100
AcDbEntity
  8
0
  6
Continuous
 62
     7
370
    15
100
AcDbLine
 10
1232.367135110536
 20
686.4125943644594
 30
0.0
 11
1232.367135110536
 21
236.4125913842271
 31
0.0
  0
ARC
  5
177
330
1F
100
AcDbEntity
  8
0
  6
Continuous
 62
     7
370
    15
100
AcDbCircle
 10
1207.367132867133
 20
686.4125874125874
 30
0.0
 40
25.0
100
AcDbArc
 50
0.0
 51
90.0
  0
LINE
  5
178
330
1F
100
AcDbEntity
  8
0
  6
Continuous
 62
     8
370
    15
100
AcDbLine
 10
792.86713105742
 20
282.4125802977632
 30
0.0
 11
791.8863664299633
 21
282.4125802977632
 31
0.0
  0
LINE
  5
179
330
1F
100
AcDbEntity
  8
0
  6
Continuous
 62
     8
370
    15
100
AcDbLine
 10
791.8671439320233
 20
572.4125868542742
 30
0.0
 11
792.86713105742
 21
572.4125868542742
 31
0.0
  0
ARC
  5
17A
330
1F
100
AcDbEntity
  8
0
  6
Continuous
 62
     8
370
    15
100
AcDbCircle
 10
817.8671328671328
 20
572.4125874125874
 30
0.0
 40
26.5
100
AcDbArc
 50
90.0
 51
123.1970574951404
  0
ARC
  5
17B
330
1F
100
AcDbEntity
  8
0
  6
Continuous
 62
     8
370
    15
100
AcDbCircle
 10
1167.867132867133
 20
572.4125874125874
 30
0.0
 40
26.5000000000001
100
AcDbArc
 50
56.80294427440291
 51
90.0000000000005
  0
LINE
  5
17C
330
1F
100
AcDbEntity
  8
0
  6
Continuous
 62
     8
370
    15
100
AcDbLine
 10
1193.867139044442
 20
572.4125868542742
 30
0.0
 11
1192.867137017884
 21
572.4125868542742
 31
0.0
  0
LINE
  5
17D
330
1F
100
AcDbEntity
  8
0
  6
Continuous
 62
     8
370
    15
100
AcDbLine
 10
1192.867137017884
 20
282.4125802977632
 30
0.0
 11
1193.847901645341
 21
282.4125802977632
 31
0.0
  0
LINE
  5
17E
330
1F
100
AcDbEntity
  8
0
  6
Continuous
 62
     8
370
    15
100
AcDbLine
 10
1016.11713272635
 20
596.916153178985
 30
0.0
 11
1016.11713272635
 21
597.3574361665796
 31
0.0
  0
LINE
  5
17F
330
1F
100
AcDbEntity
  8
0
  6
Continuous
 62
     8
370
    15
100
AcDbLine
 10
969.6171353489544
 20
596.916153178985
 30
0.0
 11
969.6171353489544
 21
597.3574361665796
 31
0.0
  0
ENDSEC
  0
SECTION
  2
OBJECTS
  0
DICTIONARY
  5
C
330
0
100
AcDbDictionary
281
     1
  3
ACAD_GROUP
350
D
  3
ACAD_IMAGE_VARS
350
1C3
  3
ACAD_LAYOUT
350
1A
  3
ACAD_MLINESTYLE
350
17
  3
ACAD_PLOTSETTINGS
350
19
  3
ACAD_PLOTSTYLENAME
350
E
  3
ACAD_SCALELIST
350
199
  3
APPDATA
350
1C1
  3
DWGPROPS
350
1C4
  0
DICTIONARY
  5
D
102
{ACAD_REACTORS
330
C
102
}
330
C
100
AcDbDictionary
281
     1
  0
RASTERVARIABLES
  5
1C3
102
{ACAD_REACTORS
330
C
102
}
330
C
100
AcDbRasterVariables
 90
        0
 70
     1
 71
     1
 72
     1
  0
DICTIONARY
  5
1A
102
{ACAD_REACTORS
330
C
102
}
330
C
100
AcDbDictionary
281
     1
  3
Layout1
350
1E
  3
Layout2
350
26
  3
Model
350
22
  0
DICTIONARY
  5
17
102
{ACAD_REACTORS
330
C
102
}
330
C
100
AcDbDictionary
281
     1
  3
Standard
350
18
  0
DICTIONARY
  5
19
102
{ACAD_REACTORS
330
C
102
}
330
C
100
AcDbDictionary
281
     1
  0
ACDBDICTIONARYWDFLT
  5
E
102
{ACAD_REACTORS
330
C
102
}
330
C
100
AcDbDictionary
281
     1
  3
Normal
350
F
100
AcDbDictionaryWithDefault
340
F
  0
DICTIONARY
  5
199
102
{ACAD_REACTORS
330
C
102
}
330
C
100
AcDbDictionary
281
     1
  3
A0
350
19A
  3
A1
350
19B
  3
A2
350
19C
  3
A3
350
19D
  3
A4
350
19E
  3
A5
350
19F
  3
A6
350
1A0
  3
A7
350
1A1
  3
A8
350
1A2
  3
A9
350
1A3
  3
B0
350
1A4
  3
B1
350
1A5
  3
B2
350
1A6
  3
B3
350
1A7
  3
B4
350
1A8
  3
B5
350
1A9
  3
B6
350
1AA
  3
B7
350
1AB
  3
B8
350
1AC
  3
B9
350
1AD
  3
C0
350
1AE
  3
C1
350
1AF
  3
C2
350
1B0
  3
C3
350
1B1
  3
C4
350
1B2
  3
C5
350
1B3
  3
C6
350
1B4
  3
C7
350
1B5
  3
C8
350
1B6
  3
C9
350
1B7
  3
D0
350
1B8
  3
D1
350
1B9
  3
D2
350
1BA
  0
DICTIONARY
  5
1C1
102
{ACAD_REACTORS
330
C
102
}
330
C
100
AcDbDictionary
281
     1
  0
XRECORD
  5
1C4
102
{ACAD_REACTORS
330
C
102
}
330
C
100
AcDbXrecord
280
     1
  1
DWGPROPS COOKIE
  2

  3

  4

  6

  7

  8
Ismo
  9

300
=
301
=
302
=
303
=
304
=
305
=
306
=
307
=
308
=
309
=
 40
0.0
 41
2456338.464835417
 42
2457758.275530532
  1

 90
        0
  0
LAYOUT
  5
1E
102
{ACAD_REACTORS
330
1A
102
}
330
1A
100
AcDbPlotSettings
  1

  2
none_device
  4

  6

 40
0.0
 41
0.0
 42
0.0
 43
0.0
 44
0.0
 45
0.0
 46
0.0
 47
0.0
 48
0.0
 49
0.0
140
0.0
141
0.0
142
1.0
143
1.0
 70
   688
 72
     0
 73
     0
 74
     5
  7

 75
    16
147
1.0
148
0.0
149
0.0
100
AcDbLayout
  1
Layout1
 70
     1
 71
     1
 10
0.0
 20
0.0
 11
420.0
 21
297.0
 12
0.0
 22
0.0
 32
0.0
 14
1.000000000000000E+20
 24
1.000000000000000E+20
 34
1.000000000000000E+20
 15
-1.000000000000000E+20
 25
-1.000000000000000E+20
 35
-1.000000000000000E+20
146
0.0
 13
0.0
 23
0.0
 33
0.0
 16
1.0
 26
0.0
 36
0.0
 17
0.0
 27
1.0
 37
0.0
 76
     0
330
1B
  0
LAYOUT
  5
26
102
{ACAD_REACTORS
330
1A
102
}
330
1A
100
AcDbPlotSettings
  1

  2
none_device
  4

  6

 40
0.0
 41
0.0
 42
0.0
 43
0.0
 44
0.0
 45
0.0
 46
0.0
 47
0.0
 48
0.0
 49
0.0
140
0.0
141
0.0
142
1.0
143
1.0
 70
   688
 72
     0
 73
     0
 74
     5
  7

 75
    16
147
1.0
148
0.0
149
0.0
100
AcDbLayout
  1
Layout2
 70
     1
 71
     2
 10
0.0
 20
0.0
 11
0.0
 21
0.0
 12
0.0
 22
0.0
 32
0.0
 14
0.0
 24
0.0
 34
0.0
 15
0.0
 25
0.0
 35
0.0
146
0.0
 13
0.0
 23
0.0
 33
0.0
 16
1.0
 26
0.0
 36
0.0
 17
0.0
 27
1.0
 37
0.0
 76
     0
330
23
  0
LAYOUT
  5
22
102
{ACAD_REACTORS
330
1A
102
}
330
1A
100
AcDbPlotSettings
  1

  2
none_device
  4

  6

 40
0.0
 41
0.0
 42
0.0
 43
0.0
 44
0.0
 45
0.0
 46
0.0
 47
0.0
 48
0.0
 49
0.0
140
0.0
141
0.0
142
1.0
143
1.0
 70
  1712
 72
     0
 73
     0
 74
     0
  7

 75
     0
147
1.0
148
0.0
149
0.0
100
AcDbLayout
  1
Model
 70
     1
 71
     0
 10
0.0
 20
0.0
 11
2000.0
 21
900.0
 12
0.0
 22
0.0
 32
0.0
 14
0.0
 24
0.0
 34
0.0
 15
2000.0
 25
900.0
 35
0.0
146
0.0
 13
0.0
 23
0.0
 33
0.0
 16
1.0
 26
0.0
 36
0.0
 17
0.0
 27
1.0
 37
0.0
 76
     0
330
1F
331
29
  0
MLINESTYLE
  5
18
102
{ACAD_REACTORS
330
17
102
}
330
17
100
AcDbMlineStyle
  2
Standard
 70
     0
  3

 62
   256
 51
90.0
 52
90.0
 71
     2
 49
0.5
 62
   256
  6
BYLAYER
 49
-0.5
 62
   256
  6
BYLAYER
  0
ACDBPLACEHOLDER
  5
F
102
{ACAD_REACTORS
330
E
102
}
330
E
  0
SCALE
  5
19A
102
{ACAD_REACTORS
330
199
102
}
330
199
100
AcDbScale
 70
     0
300
1:1
140
1.0
141
1.0
290
     1
  0
SCALE
  5
19B
102
{ACAD_REACTORS
330
199
102
}
330
199
100
AcDbScale
 70
     0
300
1:2
140
1.0
141
2.0
290
     0
  0
SCALE
  5
19C
102
{ACAD_REACTORS
330
199
102
}
330
199
100
AcDbScale
 70
     0
300
1:4
140
1.0
141
4.0
290
     0
  0
SCALE
  5
19D
102
{ACAD_REACTORS
330
199
102
}
330
199
100
AcDbScale
 70
     0
300
1:5
140
1.0
141
5.0
290
     0
  0
SCALE
  5
19E
102
{ACAD_REACTORS
330
199
102
}
330
199
100
AcDbScale
 70
     0
300
1:8
140
1.0
141
8.0
290
     0
  0
SCALE
  5
19F
102
{ACAD_REACTORS
330
199
102
}
330
199
100
AcDbScale
 70
     0
300
1:10
140
1.0
141
10.0
290
     0
  0
SCALE
  5
1A0
102
{ACAD_REACTORS
330
199
102
}
330
199
100
AcDbScale
 70
     0
300
1:16
140
1.0
141
16.0
290
     0
  0
SCALE
  5
1A1
102
{ACAD_REACTORS
330
199
102
}
330
199
100
AcDbScale
 70
     0
300
1:20
140
1.0
141
20.0
290
     0
  0
SCALE
  5
1A2
102
{ACAD_REACTORS
330
199
102
}
330
199
100
AcDbScale
 70
     0
300
1:30
140
1.0
141
30.0
290
     0
  0
SCALE
  5
1A3
102
{ACAD_REACTORS
330
199
102
}
330
199
100
AcDbScale
 70
     0
300
1:40
140
1.0
141
40.0
290
     0
  0
SCALE
  5
1A4
102
{ACAD_REACTORS
330
199
102
}
330
199
100
AcDbScale
 70
     0
300
1:50
140
1.0
141
50.0
290
     0
  0
SCALE
  5
1A5
102
{ACAD_REACTORS
330
199
102
}
330
199
100
AcDbScale
 70
     0
300
1:100
140
1.0
141
100.0
290
     0
  0
SCALE
  5
1A6
102
{ACAD_REACTORS
330
199
102
}
330
199
100
AcDbScale
 70
     0
300
2:1
140
2.0
141
1.0
290
     0
  0
SCALE
  5
1A7
102
{ACAD_REACTORS
330
199
102
}
330
199
100
AcDbScale
 70
     0
300
4:1
140
4.0
141
1.0
290
     0
  0
SCALE
  5
1A8
102
{ACAD_REACTORS
330
199
102
}
330
199
100
AcDbScale
 70
     0
300
8:1
140
8.0
141
1.0
290
     0
  0
SCALE
  5
1A9
102
{ACAD_REACTORS
330
199
102
}
330
199
100
AcDbScale
 70
     0
300
10:1
140
10.0
141
1.0
290
     0
  0
SCALE
  5
1AA
102
{ACAD_REACTORS
330
199
102
}
330
199
100
AcDbScale
 70
     0
300
100:1
140
100.0
141
1.0
290
     0
  0
SCALE
  5
1AB
102
{ACAD_REACTORS
330
199
102
}
330
199
100
AcDbScale
 70
     0
300
1/128" = 1'-0"
140
0.0078125
141
12.0
290
     0
  0
SCALE
  5
1AC
102
{ACAD_REACTORS
330
199
102
}
330
199
100
AcDbScale
 70
     0
300
1/64" = 1'-0"
140
0.015625
141
12.0
290
     0
  0
SCALE
  5
1AD
102
{ACAD_REACTORS
330
199
102
}
330
199
100
AcDbScale
 70
     0
300
1/32" = 1'-0"
140
0.03125
141
12.0
290
     0
  0
SCALE
  5
1AE
102
{ACAD_REACTORS
330
199
102
}
330
199
100
AcDbScale
 70
     0
300
1/16" = 1'-0"
140
0.0625
141
12.0
290
     0
  0
SCALE
  5
1AF
102
{ACAD_REACTORS
330
199
102
}
330
199
100
AcDbScale
 70
     0
300
3/32" = 1'-0"
140
0.09375
141
12.0
290
     0
  0
SCALE
  5
1B0
102
{ACAD_REACTORS
330
199
102
}
330
199
100
AcDbScale
 70
     0
300
1/8" = 1'-0"
140
0.125
141
12.0
290
     0
  0
SCALE
  5
1B1
102
{ACAD_REACTORS
330
199
102
}
330
199
100
AcDbScale
 70
     0
300
3/16" = 1'-0"
140
0.1875
141
12.0
290
     0
  0
SCALE
  5
1B2
102
{ACAD_REACTORS
330
199
102
}
330
199
100
AcDbScale
 70
     0
300
1/4" = 1'-0"
140
0.25
141
12.0
290
     0
  0
SCALE
  5
1B3
102
{ACAD_REACTORS
330
199
102
}
330
199
100
AcDbScale
 70
     0
300
3/8" = 1'-0"
140
0.375
141
12.0
290
     0
  0
SCALE
  5
1B4
102
{ACAD_REACTORS
330
199
102
}
330
199
100
AcDbScale
 70
     0
300
1/2" = 1'-0"
140
0.5
141
12.0
290
     0
  0
SCALE
  5
1B5
102
{ACAD_REACTORS
330
199
102
}
330
199
100
AcDbScale
 70
     0
300
3/4" = 1'-0"
140
0.75
141
12.0
290
     0
  0
SCALE
  5
1B6
102
{ACAD_REACTORS
330
199
102
}
330
199
100
AcDbScale
 70
     0
300
1" = 1'-0"
140
1.0
141
12.0
290
     0
  0
SCALE
  5
1B7
102
{ACAD_REACTORS
330
199
102
}
330
199
100
AcDbScale
 70
     0
300
1-1/2" = 1'-0"
140
1.5
141
12.0
290
     0
  0
SCALE
  5
1B8
102
{ACAD_REACTORS
330
199
102
}
330
199
100
AcDbScale
 70
     0
300
3" = 1'-0"
140
3.0
141
12.0
290
     0
  0
SCALE
  5
1B9
102
{ACAD_REACTORS
330
199
102
}
330
199
100
AcDbScale
 70
     0
300
6" = 1'-0"
140
6.0
141
12.0
290
     0
  0
SCALE
  5
1BA
102
{ACAD_REACTORS
330
199
102
}
330
199
100
AcDbScale
 70
     0
300
1'-0" = 1'-0"
140
12.0
141
12.0
290
     0
  0
ENDSEC
  0
EOF
