  0
SECTION
  2
HEADER
  9
$ACADVER
  1
AC1015
  9
$ACADMAINTVER
 70
     6
  9
$DWGCODEPAGE
  3
ANSI_1252
  9
$INSBASE
 10
0.0
 20
0.0
 30
0.0
  9
$EXTMIN
 10
0.0
 20
0.0
 30
0.0
  9
$EXTMAX
 10
1000.0
 20
600.0
 30
0.0
  9
$LIMMIN
 10
0.0
 20
0.0
  9
$LIMMAX
 10
1000.0
 20
600.0
  9
$ORTHOMODE
 70
     0
  9
$REGENMODE
 70
     1
  9
$FILLMODE
 70
     1
  9
$QTEXTMODE
 70
     0
  9
$MIRRTEXT
 70
     1
  9
$LTSCALE
 40
1.0
  9
$ATTMODE
 70
     1
  9
$TEXTSIZE
 40
5.0
  9
$TRACEWID
 40
1.0
  9
$TEXTSTYLE
  7
Standard
  9
$CLAYER
  8
0
  9
$CELTYPE
  6
ByLayer
  9
$CECOLOR
 62
   256
  9
$CELTSCALE
 40
1.0
  9
$DISPSILH
 70
     0
  9
$DIMSCALE
 40
1.0
  9
$DIMASZ
 40
6.0
  9
$DIMEXO
 40
1.0
  9
$DIMDLI
 40
3.75
  9
$DIMRND
 40
0.0
  9
$DIMDLE
 40
0.0
  9
$DIMEXE
 40
1.0
  9
$DIMTP
 40
0.0
  9
$DIMTM
 40
0.0
  9
$DIMTXT
 40
5.0
  9
$DIMCEN
 40
2.5
  9
$DIMTSZ
 40
0.0
  9
$DIMTOL
 70
     0
  9
$DIMLIM
 70
     0
  9
$DIMTIH
 70
     1
  9
$DIMTOH
 70
     1
  9
$DIMSE1
 70
     0
  9
$DIMSE2
 70
     0
  9
$DIMTAD
 70
     1
  9
$DIMZIN
 70
     0
  9
$DIMBLK
  1

  9
$DIMASO
 70
     1
  9
$DIMSHO
 70
     1
  9
$DIMPOST
  1

  9
$DIMAPOST
  1

  9
$DIMALT
 70
     0
  9
$DIMALTD
 70
     3
  9
$DIMALTF
 40
0.0393700787
  9
$DIMLFAC
 40
1.0
  9
$DIMTOFL
 70
     1
  9
$DIMTVP
 40
0.0
  9
$DIMTIX
 70
     0
  9
$DIMSOXD
 70
     0
  9
$DIMSAH
 70
     0
  9
$DIMBLK1
  1

  9
$DIMBLK2
  1

  9
$DIMSTYLE
  2
ISO-25
  9
$DIMCLRD
 70
     0
  9
$DIMCLRE
 70
     0
  9
$DIMCLRT
 70
     0
  9
$DIMTFAC
 40
1.0
  9
$DIMGAP
 40
1.524
  9
$DIMJUST
 70
     0
  9
$DIMSD1
 70
     0
  9
$DIMSD2
 70
     0
  9
$DIMTOLJ
 70
     0
  9
$DIMTZIN
 70
     0
  9
$DIMALTZ
 70
     0
  9
$DIMALTTZ
 70
     0
  9
$DIMUPT
 70
     0
  9
$DIMDEC
 70
     2
  9
$DIMTDEC
 70
     2
  9
$DIMALTU
 70
     2
  9
$DIMALTTD
 70
     3
  9
$DIMTXSTY
  7
Standard
  9
$DIMAUNIT
 70
     0
  9
$DIMADEC
 70
     2
  9
$DIMALTRND
 40
0.0
  9
$DIMAZIN
 70
     0
  9
$DIMDSEP
 70
    44
  9
$DIMATFIT
 70
     3
  9
$DIMFRAC
 70
     0
  9
$DIMLDRBLK
  1

  9
$DIMLUNIT
 70
     2
  9
$DIMLWD
 70
    -2
  9
$DIMLWE
 70
    -2
  9
$DIMTMOVE
 70
     0
  9
$LUNITS
 70
     2
  9
$LUPREC
 70
     2
  9
$SKETCHINC
 40
1.0
  9
$FILLETRAD
 40
10.0
  9
$AUNITS
 70
     0
  9
$AUPREC
 70
     2
  9
$MENU
  1
.
  9
$ELEVATION
 40
0.0
  9
$PELEVATION
 40
0.0
  9
$THICKNESS
 40
0.0
  9
$LIMCHECK
 70
     0
  9
$CHAMFERA
 40
0.0
  9
$CHAMFERB
 40
0.0
  9
$CHAMFERC
 40
0.0
  9
$CHAMFERD
 40
0.0
  9
$SKPOLY
 70
     0
  9
$TDCREATE
 40
2458549.604737465
  9
$TDUCREATE
 40
2458549.521404132
  9
$TDUPDATE
 40
2458549.604739803
  9
$TDUUPDATE
 40
2458549.52140647
  9
$TDINDWG
 40
0.0000000116
  9
$TDUSRTIMER
 40
0.0000000116
  9
$USRTIMER
 70
     1
  9
$ANGBASE
 50
0.0
  9
$ANGDIR
 70
     0
  9
$PDMODE
 70
     0
  9
$PDSIZE
 40
-1.0
  9
$PLINEWID
 40
0.0
  9
$SPLFRAME
 70
     0
  9
$SPLINETYPE
 70
     6
  9
$SPLINESEGS
 70
     8
  9
$HANDSEED
  5
19D
  9
$SURFTAB1
 70
     6
  9
$SURFTAB2
 70
     6
  9
$SURFTYPE
 70
     6
  9
$SURFU
 70
     6
  9
$SURFV
 70
     6
  9
$UCSBASE
  2

  9
$UCSNAME
  2

  9
$UCSORG
 10
0.0
 20
0.0
 30
0.0
  9
$UCSXDIR
 10
1.0
 20
0.0
 30
0.0
  9
$UCSYDIR
 10
0.0
 20
1.0
 30
0.0
  9
$UCSORTHOREF
  2

  9
$UCSORTHOVIEW
 70
     0
  9
$UCSORGTOP
 10
0.0
 20
0.0
 30
0.0
  9
$UCSORGBOTTOM
 10
0.0
 20
0.0
 30
0.0
  9
$UCSORGLEFT
 10
0.0
 20
0.0
 30
0.0
  9
$UCSORGRIGHT
 10
0.0
 20
0.0
 30
0.0
  9
$UCSORGFRONT
 10
0.0
 20
0.0
 30
0.0
  9
$UCSORGBACK
 10
0.0
 20
0.0
 30
0.0
  9
$PUCSBASE
  2

  9
$PUCSNAME
  2

  9
$PUCSORG
 10
0.0
 20
0.0
 30
0.0
  9
$PUCSXDIR
 10
1.0
 20
0.0
 30
0.0
  9
$PUCSYDIR
 10
0.0
 20
1.0
 30
0.0
  9
$PUCSORTHOREF
  2

  9
$PUCSORTHOVIEW
 70
     0
  9
$PUCSORGTOP
 10
0.0
 20
0.0
 30
0.0
  9
$PUCSORGBOTTOM
 10
0.0
 20
0.0
 30
0.0
  9
$PUCSORGLEFT
 10
0.0
 20
0.0
 30
0.0
  9
$PUCSORGRIGHT
 10
0.0
 20
0.0
 30
0.0
  9
$PUCSORGFRONT
 10
0.0
 20
0.0
 30
0.0
  9
$PUCSORGBACK
 10
0.0
 20
0.0
 30
0.0
  9
$USERI1
 70
     0
  9
$USERI2
 70
     0
  9
$USERI3
 70
     0
  9
$USERI4
 70
     0
  9
$USERI5
 70
     0
  9
$USERR1
 40
0.0
  9
$USERR2
 40
0.0
  9
$USERR3
 40
0.0
  9
$USERR4
 40
0.0
  9
$USERR5
 40
0.0
  9
$WORLDVIEW
 70
     1
  9
$SHADEDGE
 70
     3
  9
$SHADEDIF
 70
    70
  9
$TILEMODE
 70
     1
  9
$MAXACTVP
 70
    64
  9
$PINSBASE
 10
0.0
 20
0.0
 30
0.0
  9
$PLIMCHECK
 70
     0
  9
$PEXTMIN
 10
1.0000000000E+20
 20
1.0000000000E+20
 30
1.0000000000E+20
  9
$PEXTMAX
 10
-1.0000000000E+20
 20
-1.0000000000E+20
 30
-1.0000000000E+20
  9
$PLIMMIN
 10
0.0
 20
0.0
  9
$PLIMMAX
 10
420.0
 20
297.0
  9
$UNITMODE
 70
     0
  9
$VISRETAIN
 70
     1
  9
$PLINEGEN
 70
     0
  9
$PSLTSCALE
 70
     1
  9
$TREEDEPTH
 70
  3020
  9
$CMLSTYLE
  2
Standard
  9
$CMLJUST
 70
     0
  9
$CMLSCALE
 40
20.0
  9
$PROXYGRAPHICS
 70
     1
  9
$MEASUREMENT
 70
     1
  9
$CELWEIGHT
370
    -1
  9
$ENDCAPS
280
     0
  9
$JOINSTYLE
280
     0
  9
$LWDISPLAY
290
     1
  9
$INSUNITS
 70
     4
  9
$HYPERLINKBASE
  1

  9
$STYLESHEET
  1

  9
$XEDIT
290
     1
  9
$CEPSNTYPE
380
     0
  9
$PSTYLEMODE
290
     1
  9
$FINGERPRINTGUID
  2
{AD82032E-289C-4E1E-9599-276923FCF46B}
  9
$VERSIONGUID
  2
{FAEB1C32-E019-11D5-929B-00C0DF256EC4}
  9
$EXTNAMES
290
     1
  9
$PSVPSCALE
 40
0.0
  9
$OLESTARTUP
290
     0
  0
ENDSEC
  0
SECTION
  2
CLASSES
  0
CLASS
  1
ACDBDICTIONARYWDFLT
  2
AcDbDictionaryWithDefault
  3
ObjectDBX Classes
 90
        0
280
     0
281
     0
  0
CLASS
  1
VISUALSTYLE
  2
AcDbVisualStyle
  3
ObjectDBX Classes
 90
     4095
280
     0
281
     0
  0
CLASS
  1
MATERIAL
  2
AcDbMaterial
  3
ObjectDBX Classes
 90
     1153
280
     0
281
     0
  0
CLASS
  1
SCALE
  2
AcDbScale
  3
ObjectDBX Classes
 90
     1153
280
     0
281
     0
  0
CLASS
  1
TABLESTYLE
  2
AcDbTableStyle
  3
ObjectDBX Classes
 90
     4095
280
     0
281
     0
  0
CLASS
  1
MLEADERSTYLE
  2
AcDbMLeaderStyle
  3
ACDB_MLEADERSTYLE_CLASS
 90
     4095
280
     0
281
     0
  0
CLASS
  1
SUN
  2
AcDbSun
  3
SCENEOE
 90
     1153
280
     0
281
     0
  0
CLASS
  1
ACDBPLACEHOLDER
  2
AcDbPlaceHolder
  3
ObjectDBX Classes
 90
        0
280
     0
281
     0
  0
CLASS
  1
LAYOUT
  2
AcDbLayout
  3
ObjectDBX Classes
 90
        0
280
     0
281
     0
  0
ENDSEC
  0
SECTION
  2
TABLES
  0
TABLE
  2
VPORT
  5
8
330
0
100
AcDbSymbolTable
 70
     1
  0
VPORT
  5
29
330
8
100
AcDbSymbolTableRecord
100
AcDbViewportTableRecord
  2
*Active
 70
     0
 10
0.0
 20
0.0
 11
1.0
 21
1.0
 12
500.0
 22
300.0
 13
0.0
 23
0.0
 14
10.0
 24
10.0
 15
10.0
 25
10.0
 16
0.0
 26
0.0
 36
1.0
 17
0.0
 27
0.0
 37
0.0
 40
600.0
 41
1.6666666667
 42
50.0
 43
0.0
 44
0.0
 50
0.0
 51
0.0
 71
     0
 72
  2000
 73
     1
 74
     3
 75
     0
 76
     0
 77
     0
 78
     0
281
     0
 65
     1
110
0.0
120
0.0
130
0.0
111
1.0
121
0.0
131
0.0
112
0.0
122
1.0
132
0.0
 79
     0
146
0.0
  0
ENDTAB
  0
TABLE
  2
LTYPE
  5
5
330
0
100
AcDbSymbolTable
 70
     6
  0
LTYPE
  5
14
330
5
100
AcDbSymbolTableRecord
100
AcDbLinetypeTableRecord
  2
ByBlock
 70
     0
  3

 72
    65
 73
     0
 40
0.0
  0
LTYPE
  5
15
330
5
100
AcDbSymbolTableRecord
100
AcDbLinetypeTableRecord
  2
ByLayer
 70
     0
  3

 72
    65
 73
     0
 40
0.0
  0
LTYPE
  5
16
330
5
100
AcDbSymbolTableRecord
100
AcDbLinetypeTableRecord
  2
Continuous
 70
     0
  3
Solid line
 72
    65
 73
     0
 40
0.0
  0
LTYPE
  5
6E
330
5
100
AcDbSymbolTableRecord
100
AcDbLinetypeTableRecord
  2
HIDDEN
 70
     0
  3
Hidden __ __ __ __ __ __ __ __ __ __ __ __ __ __
 72
    65
 73
     2
 40
1.905
 49
1.27
 74
     0
 49
-0.635
 74
     0
  0
LTYPE
  5
6F
330
5
100
AcDbSymbolTableRecord
100
AcDbLinetypeTableRecord
  2
PHANTOM
 70
     0
  3
Phantom ______  __  __  ______  __  __  ______
 72
    65
 73
     6
 40
12.7
 49
6.35
 74
     0
 49
-1.27
 74
     0
 49
1.27
 74
     0
 49
-1.27
 74
     0
 49
1.27
 74
     0
 49
-1.27
 74
     0
  0
LTYPE
  5
70
330
5
100
AcDbSymbolTableRecord
100
AcDbLinetypeTableRecord
  2
CENTER
 70
     0
  3
Center ____ _ ____ _ ____ _ ____ _ ____ _ ____
 72
    65
 73
     4
 40
10.16
 49
6.35
 74
     0
 49
-1.27
 74
     0
 49
1.27
 74
     0
 49
-1.27
 74
     0
  0
LTYPE
  5
71
330
5
100
AcDbSymbolTableRecord
100
AcDbLinetypeTableRecord
  2
CENTERX2
 70
     0
  3
Center (2x) ________  __  ________  __  _____
 72
    65
 73
     4
 40
20.32
 49
12.7
 74
     0
 49
-2.54
 74
     0
 49
2.54
 74
     0
 49
-2.54
 74
     0
  0
LTYPE
  5
72
330
5
100
AcDbSymbolTableRecord
100
AcDbLinetypeTableRecord
  2
DOT2
 70
     0
  3
Dot (.5x) ........................................
 72
    65
 73
     2
 40
0.635
 49
0.0
 74
     0
 49
-0.635
 74
     0
  0
ENDTAB
  0
TABLE
  2
LAYER
  5
2
330
0
100
AcDbSymbolTable
 70
     2
  0
LAYER
  5
10
330
2
100
AcDbSymbolTableRecord
100
AcDbLayerTableRecord
  2
0
 70
     0
 62
     7
  6
Continuous
370
    -3
390
F
  0
LAYER
  5
73
330
2
100
AcDbSymbolTableRecord
100
AcDbLayerTableRecord
  2
TABLE_BL1
 70
     0
 62
   179
  6
Continuous
370
    -3
390
F
  0
ENDTAB
  0
TABLE
  2
STYLE
  5
3
330
0
100
AcDbSymbolTable
 70
     1
  0
STYLE
  5
11
330
3
100
AcDbSymbolTableRecord
100
AcDbTextStyleTableRecord
  2
Standard
 70
     0
 40
0.0
 41
1.0
 50
0.0
 71
     0
 42
5.0
  3
txt
  4

  0
ENDTAB
  0
TABLE
  2
VIEW
  5
6
330
0
100
AcDbSymbolTable
 70
     0
  0
ENDTAB
  0
TABLE
  2
UCS
  5
7
330
0
100
AcDbSymbolTable
 70
     0
  0
ENDTAB
  0
TABLE
  2
APPID
  5
9
330
0
100
AcDbSymbolTable
 70
     1
  0
APPID
  5
12
330
9
100
AcDbSymbolTableRecord
100
AcDbRegAppTableRecord
  2
ACAD
 70
     0
  0
ENDTAB
  0
TABLE
  2
DIMSTYLE
  5
A
330
0
100
AcDbSymbolTable
 70
     1
100
AcDbDimStyleTable
  0
DIMSTYLE
105
27
330
A
100
AcDbSymbolTableRecord
100
AcDbDimStyleTableRecord
  2
ISO-25
 70
     0
 41
2.5
 42
0.625
 43
3.75
 44
1.25
 73
     0
 74
     0
 77
     1
 78
     8
140
2.5
141
2.5
143
0.0393700787
147
0.625
171
     3
172
     1
178
     0
271
     2
272
     2
274
     3
278
    44
283
     0
284
     8
340
11
  0
ENDTAB
  0
TABLE
  2
BLOCK_RECORD
  5
1
330
0
100
AcDbSymbolTable
 70
     1
  0
BLOCK_RECORD
  5
1F
330
1
100
AcDbSymbolTableRecord
100
AcDbBlockTableRecord
  2
*Model_Space
340
22
  0
BLOCK_RECORD
  5
1B
330
1
100
AcDbSymbolTableRecord
100
AcDbBlockTableRecord
  2
*Paper_Space
340
1E
  0
BLOCK_RECORD
  5
23
330
1
100
AcDbSymbolTableRecord
100
AcDbBlockTableRecord
  2
*Paper_Space0
340
26
  0
ENDTAB
  0
ENDSEC
  0
SECTION
  2
BLOCKS
  0
BLOCK
  5
20
330
1F
100
AcDbEntity
  8
0
100
AcDbBlockBegin
  2
*Model_Space
 70
     0
 10
0.0
 20
0.0
 30
0.0
  3
*Model_Space
  1

  0
ENDBLK
  5
21
330
1F
100
AcDbEntity
  8
0
100
AcDbBlockEnd
  0
BLOCK
  5
1C
330
1B
100
AcDbEntity
 67
     1
  8
0
100
AcDbBlockBegin
  2
*Paper_Space
 70
     0
 10
0.0
 20
0.0
 30
0.0
  3
*Paper_Space
  1

  0
ENDBLK
  5
1D
330
1B
100
AcDbEntity
 67
     1
  8
0
100
AcDbBlockEnd
  0
BLOCK
  5
24
330
23
100
AcDbEntity
  8
0
100
AcDbBlockBegin
  2
*Paper_Space0
 70
     0
 10
0.0
 20
0.0
 30
0.0
  3
*Paper_Space0
  1

  0
ENDBLK
  5
25
330
23
100
AcDbEntity
  8
0
100
AcDbBlockEnd
  0
ENDSEC
  0
SECTION
  2
ENTITIES
  0
LINE
  5
74
330
1F
100
AcDbEntity
  8
0
  6
Continuous
 62
     7
370
    25
100
AcDbLine
 10
222.917877138
 20
115.5641029685
 30
0.0
 11
222.917877138
 21
540.0601721456
 31
0.0
  0
LINE
  5
75
330
1F
100
AcDbEntity
  8
0
  6
Continuous
 62
     7
370
    25
100
AcDbLine
 10
222.917877138
 20
540.0601721456
 30
0.0
 11
224.9151362075
 21
540.0601721456
 31
0.0
  0
LINE
  5
76
330
1F
100
AcDbEntity
  8
0
  6
Continuous
 62
     7
370
    25
100
AcDbLine
 10
224.9151362075
 20
540.0601721456
 30
0.0
 11
224.9151362075
 21
115.5641029685
 31
0.0
  0
LINE
  5
77
330
1F
100
AcDbEntity
  8
0
  6
Continuous
 62
     7
370
    25
100
AcDbLine
 10
222.917877138
 20
115.5641029685
 30
0.0
 11
224.9151362075
 21
115.5641029685
 31
0.0
  0
ELLIPSE
  5
78
330
1F
100
AcDbEntity
  8
0
  6
Continuous
 62
     7
370
    25
100
AcDbEllipse
 10
232.9261149755
 20
540.0382296556
 30
0.0
 11
7.082715195423248
 21
-7.082715195422453
 31
0.0
210
0.0
220
0.0
230
1.0
 40
0.99835552
 41
2.357564018062682
 42
3.9256212891168
  0
LINE
  5
79
330
1F
100
AcDbEntity
  8
0
  6
Continuous
 62
     7
370
    25
100
AcDbLine
 10
232.9041724855
 20
550.0464674931
 30
0.0
 11
232.9041724855
 21
548.0492084236
 31
0.0
  0
ELLIPSE
  5
7A
330
1F
100
AcDbEntity
  8
0
  6
Continuous
 62
     7
370
    25
100
AcDbEllipse
 10
232.9261149755
 20
540.0382296556
 30
0.0
 11
5.672369947480547
 21
-5.672369947480547
 31
0.0
210
0.0
220
0.0
230
1.0
 40
0.9972646886
 41
2.357564018062732
 42
3.925621289116861
  0
LINE
  5
7B
330
1F
100
AcDbEntity
  8
0
  6
Continuous
 62
     7
370
    25
100
AcDbLine
 10
717.5511784535
 20
520.1631426529
 30
0.0
 11
287.7532356946
 21
520.1631426529
 31
0.0
  0
LINE
  5
7C
330
1F
100
AcDbEntity
  8
0
  6
Continuous
 62
     7
370
    25
100
AcDbLine
 10
287.7532356946
 20
520.1631426529
 30
0.0
 11
287.7532356946
 21
523.1590312572
 31
0.0
  0
LINE
  5
7D
330
1F
100
AcDbEntity
  8
0
  6
Continuous
 62
     7
370
    25
100
AcDbLine
 10
287.7532356946
 20
523.1590312572
 30
0.0
 11
717.5511784535
 21
523.1590312572
 31
0.0
  0
LINE
  5
7E
330
1F
100
AcDbEntity
  8
0
  6
Continuous
 62
     7
370
    25
100
AcDbLine
 10
717.5511784535
 20
520.1631426529
 30
0.0
 11
717.5511784535
 21
523.1590312572
 31
0.0
  0
ELLIPSE
  5
7F
330
1F
100
AcDbEntity
  8
0
  6
Continuous
 62
     7
370
    25
100
AcDbEllipse
 10
287.8574625218
 20
485.1068821093
 30
0.0
 11
26.94375725053255
 21
-26.94375725053255
 31
0.0
210
0.0
220
0.0
230
1.0
 40
0.9972646886
 41
2.357564018062741
 42
3.925621289116861
  0
ELLIPSE
  5
80
330
1F
100
AcDbEntity
  8
0
  6
Continuous
 62
     7
370
    25
100
AcDbEllipse
 10
287.8574625218
 20
485.1068821093
 30
0.0
 11
24.8282393786182
 21
-24.82823937861985
 31
0.0
210
0.0
220
0.0
230
1.0
 40
0.9967979189
 41
2.357564018062773
 42
3.925621289116895
  0
LINE
  5
81
330
1F
100
AcDbEntity
  8
0
  6
Continuous
 62
     7
370
    25
100
AcDbLine
 10
249.8053133739
 20
485.2111089365
 30
0.0
 11
252.8012019782
 21
485.2111089365
 31
0.0
  0
ELLIPSE
  5
82
330
1F
100
AcDbEntity
  8
0
  6
Continuous
 62
     7
370
    25
100
AcDbEllipse
 10
717.4469516263
 20
485.1068821093
 30
0.0
 11
24.82823937861871
 21
24.82823937861934
 31
0.0
210
0.0
220
0.0
230
1.0
 40
0.9967979189
 41
5.499156671652536
 42
7.067213942706628
  0
ELLIPSE
  5
83
330
1F
100
AcDbEntity
  8
0
  6
Continuous
 62
     7
370
    25
100
AcDbEllipse
 10
717.4469516263
 20
485.1068821093
 30
0.0
 11
-26.94375725053272
 21
-26.94375725053255
 31
0.0
210
0.0
220
0.0
230
1.0
 40
0.9972646886
 41
2.357564018062742
 42
3.925621289116867
  0
LINE
  5
84
330
1F
100
AcDbEntity
  8
0
  6
Continuous
 62
     7
370
    25
100
AcDbLine
 10
752.5032121699
 20
485.2111089365
 30
0.0
 11
755.4991007742
 21
485.2111089365
 31
0.0
  0
LINE
  5
85
330
1F
100
AcDbEntity
  8
0
  6
Continuous
 62
     7
370
    25
100
AcDbLine
 10
232.9041724855
 20
107.5750666905
 30
0.0
 11
772.4002416626
 21
107.5750666905
 31
0.0
  0
LINE
  5
86
330
1F
100
AcDbEntity
  8
0
  6
Continuous
 62
     7
370
    25
100
AcDbLine
 10
772.4002416626
 20
107.5750666905
 30
0.0
 11
772.4002416626
 21
105.577807621
 31
0.0
  0
LINE
  5
87
330
1F
100
AcDbEntity
  8
0
  6
Continuous
 62
     7
370
    25
100
AcDbLine
 10
772.4002416626
 20
105.577807621
 30
0.0
 11
232.9041724855
 21
105.577807621
 31
0.0
  0
LINE
  5
88
330
1F
100
AcDbEntity
  8
0
  6
Continuous
 62
     7
370
    25
100
AcDbLine
 10
232.9041724855
 20
107.5750666905
 30
0.0
 11
232.9041724855
 21
105.577807621
 31
0.0
  0
ELLIPSE
  5
89
330
1F
100
AcDbEntity
  8
0
  6
Continuous
 62
     7
370
    25
100
AcDbEllipse
 10
232.9261149755
 20
115.5860454584
 30
0.0
 11
5.672369947480547
 21
5.672369947480547
 31
0.0
210
0.0
220
0.0
230
1.0
 40
0.9972646886
 41
2.357564018062734
 42
3.925621289116858
  0
ELLIPSE
  5
8A
330
1F
100
AcDbEntity
  8
0
  6
Continuous
 62
     7
370
    25
100
AcDbEllipse
 10
232.9261149755
 20
115.5860454584
 30
0.0
 11
7.082715195423249
 21
7.082715195422481
 31
0.0
210
0.0
220
0.0
230
1.0
 40
0.99835552
 41
2.357564018062789
 42
3.925621289116914
  0
ELLIPSE
  5
8B
330
1F
100
AcDbEntity
  8
0
  6
Continuous
 62
     7
370
    25
100
AcDbEllipse
 10
772.3782991727
 20
115.5860454584
 30
0.0
 11
-5.672369947480662
 21
5.67236994748052
 31
0.0
210
0.0
220
0.0
230
1.0
 40
0.9972646886
 41
2.357564018062714
 42
3.925621289116852
  0
LINE
  5
8C
330
1F
100
AcDbEntity
  8
0
  6
Continuous
 62
     7
370
    25
100
AcDbLine
 10
780.3892779406
 20
115.5641029685
 30
0.0
 11
782.3865370101
 21
115.5641029685
 31
0.0
  0
ELLIPSE
  5
8D
330
1F
100
AcDbEntity
  8
0
  6
Continuous
 62
     7
370
    25
100
AcDbEllipse
 10
772.3782991727
 20
115.5860454584
 30
0.0
 11
7.082715195423361
 21
-7.082715195422467
 31
0.0
210
0.0
220
0.0
230
1.0
 40
0.99835552
 41
5.499156671652469
 42
7.067213942706584
  0
ELLIPSE
  5
8E
330
1F
100
AcDbEntity
  8
0
  6
Continuous
 62
     7
370
    25
100
AcDbEllipse
 10
287.8574625218
 20
170.5173930048
 30
0.0
 11
26.94375725053255
 21
26.94375725053255
 31
0.0
210
0.0
220
0.0
230
1.0
 40
0.9972646886
 41
2.35756401806274
 42
3.925621289116861
  0
LINE
  5
8F
330
1F
100
AcDbEntity
  8
0
  6
Continuous
 62
     7
370
    25
100
AcDbLine
 10
717.5511784535
 20
132.4652438569
 30
0.0
 11
287.7532356946
 21
132.4652438569
 31
0.0
  0
ELLIPSE
  5
90
330
1F
100
AcDbEntity
  8
0
  6
Continuous
 62
     7
370
    25
100
AcDbEllipse
 10
717.4469516263
 20
170.5173930048
 30
0.0
 11
-26.94375725053271
 21
26.94375725053251
 31
0.0
210
0.0
220
0.0
230
1.0
 40
0.9972646886
 41
2.357564018062731
 42
3.92562128911686
  0
LINE
  5
91
330
1F
100
AcDbEntity
  8
0
  6
Continuous
 62
     7
370
    25
100
AcDbLine
 10
755.4991007742
 20
485.2111089365
 30
0.0
 11
755.4991007742
 21
170.4131661776
 31
0.0
  0
LINE
  5
92
330
1F
100
AcDbEntity
  8
0
  6
Continuous
 62
     7
370
    25
100
AcDbLine
 10
249.8053133739
 20
170.4131661776
 30
0.0
 11
249.8053133739
 21
485.2111089365
 31
0.0
  0
LINE
  5
93
330
1F
100
AcDbEntity
  8
0
  6
Continuous
 62
     7
370
    25
100
AcDbLine
 10
772.4002416626
 20
548.0492084236
 30
0.0
 11
232.9041724855
 21
548.0492084236
 31
0.0
  0
ELLIPSE
  5
94
330
1F
100
AcDbEntity
  8
0
  6
Continuous
 62
     7
370
    25
100
AcDbEllipse
 10
772.3782991727
 20
540.0382296556
 30
0.0
 11
-5.672369947480547
 21
-5.672369947480547
 31
0.0
210
0.0
220
0.0
230
1.0
 40
0.9972646886
 41
2.357564018062742
 42
3.925621289116859
  0
LINE
  5
95
330
1F
100
AcDbEntity
  8
0
  6
Continuous
 62
     7
370
    25
100
AcDbLine
 10
780.3892779406
 20
115.5641029685
 30
0.0
 11
780.3892779406
 21
540.0601721456
 31
0.0
  0
LINE
  5
96
330
1F
100
AcDbEntity
  8
0
  6
Continuous
 62
     7
370
    25
100
AcDbLine
 10
780.3892779406
 20
540.0601721456
 30
0.0
 11
782.3865370101
 21
540.0601721456
 31
0.0
  0
LINE
  5
97
330
1F
100
AcDbEntity
  8
0
  6
Continuous
 62
     7
370
    25
100
AcDbLine
 10
782.3865370101
 20
540.0601721456
 30
0.0
 11
782.3865370101
 21
115.5641029685
 31
0.0
  0
LINE
  5
98
330
1F
100
AcDbEntity
  8
0
  6
Continuous
 62
     7
370
    25
100
AcDbLine
 10
232.9041724855
 20
550.0464674931
 30
0.0
 11
772.4002416626
 21
550.0464674931
 31
0.0
  0
LINE
  5
99
330
1F
100
AcDbEntity
  8
0
  6
Continuous
 62
     7
370
    25
100
AcDbLine
 10
772.4002416626
 20
550.0464674931
 30
0.0
 11
772.4002416626
 21
548.0492084236
 31
0.0
  0
ELLIPSE
  5
9A
330
1F
100
AcDbEntity
  8
0
  6
Continuous
 62
     7
370
    25
100
AcDbEllipse
 10
772.3782991727
 20
540.0382296556
 30
0.0
 11
7.08271519542336
 21
7.082715195422451
 31
0.0
210
0.0
220
0.0
230
1.0
 40
0.99835552
 41
5.499156671652606
 42
7.067213942706708
  0
LINE
  5
9B
330
1F
100
AcDbEntity
  8
0
  6
Continuous
 62
     7
370
    25
100
AcDbLine
 10
249.8053133739
 20
170.4131661776
 30
0.0
 11
252.8012019782
 21
170.4131661776
 31
0.0
  0
ELLIPSE
  5
9C
330
1F
100
AcDbEntity
  8
0
  6
Continuous
 62
     7
370
    25
100
AcDbEllipse
 10
287.8574625218
 20
170.5173930048
 30
0.0
 11
24.82823937861883
 21
24.82823937861934
 31
0.0
210
0.0
220
0.0
230
1.0
 40
0.9967979189
 41
2.35756401806273
 42
3.92562128911685
  0
LINE
  5
9D
330
1F
100
AcDbEntity
  8
0
  6
Continuous
 62
     7
370
    25
100
AcDbLine
 10
287.7532356946
 20
132.4652438569
 30
0.0
 11
287.7532356946
 21
135.4611324611
 31
0.0
  0
LINE
  5
9E
330
1F
100
AcDbEntity
  8
0
  6
Continuous
 62
     7
370
    25
100
AcDbLine
 10
252.8012019782
 20
485.2111089365
 30
0.0
 11
252.8012019782
 21
170.4131661776
 31
0.0
  0
LINE
  5
9F
330
1F
100
AcDbEntity
  8
0
  6
Continuous
 62
     7
370
    25
100
AcDbLine
 10
717.5511784535
 20
132.4652438569
 30
0.0
 11
717.5511784535
 21
135.4611324611
 31
0.0
  0
ELLIPSE
  5
A0
330
1F
100
AcDbEntity
  8
0
  6
Continuous
 62
     7
370
    25
100
AcDbEllipse
 10
717.4469516263
 20
170.5173930048
 30
0.0
 11
24.82823937861803
 21
-24.82823937861986
 31
0.0
210
0.0
220
0.0
230
1.0
 40
0.9967979189
 41
5.499156671652582
 42
7.067213942706676
  0
LINE
  5
A1
330
1F
100
AcDbEntity
  8
0
  6
Continuous
 62
     7
370
    25
100
AcDbLine
 10
752.5032121699
 20
170.4131661776
 30
0.0
 11
755.4991007742
 21
170.4131661776
 31
0.0
  0
LINE
  5
A2
330
1F
100
AcDbEntity
  8
0
  6
Continuous
 62
     7
370
    25
100
AcDbLine
 10
287.7532356946
 20
135.4611324611
 30
0.0
 11
717.5511784535
 21
135.4611324611
 31
0.0
  0
LINE
  5
A3
330
1F
100
AcDbEntity
  8
0
  6
Continuous
 62
     7
370
    25
100
AcDbLine
 10
752.5032121699
 20
170.4131661776
 30
0.0
 11
752.5032121699
 21
485.2111089365
 31
0.0
  0
LINE
  5
A4
330
1F
100
AcDbEntity
  8
0
  6
Continuous
 62
     7
370
    25
100
AcDbLine
 10
782.3865370101
 20
115.5641029685
 30
0.0
 11
782.6540615291
 21
115.2965784496
 31
0.0
  0
ELLIPSE
  5
A5
330
1F
100
AcDbEntity
  8
0
  6
Continuous
 62
     7
370
    25
100
AcDbEllipse
 10
772.6403380691
 20
115.324006562
 30
0.0
 11
-7.090462434350569
 21
7.090462434350654
 31
0.0
210
0.0
220
0.0
230
1.0
 40
0.9972646886
 41
2.357564018062755
 42
3.925621289116866
  0
LINE
  5
A6
330
1F
100
AcDbEntity
  8
0
  6
Continuous
 62
     7
370
    25
100
AcDbLine
 10
772.6677661815
 20
105.310283102
 30
0.0
 11
772.4002416626
 21
105.577807621
 31
0.0
  0
LINE
  5
A7
330
1F
100
AcDbEntity
  8
0
  6
Continuous
 62
     7
370
    25
100
AcDbLine
 10
222.917877138
 20
540.0601721456
 30
0.0
 11
222.6503526191
 21
540.3276966645
 31
0.0
  0
ELLIPSE
  5
A8
330
1F
100
AcDbEntity
  8
0
  6
Continuous
 62
     7
370
    25
100
AcDbEllipse
 10
232.6640760791
 20
540.300268552
 30
0.0
 11
7.090462434350685
 21
-7.090462434350685
 31
0.0
210
0.0
220
0.0
230
1.0
 40
0.9972646886
 41
2.357564018062728
 42
3.92562128911687
  0
LINE
  5
A9
330
1F
100
AcDbEntity
  8
0
  6
Continuous
 62
     7
370
    25
100
AcDbLine
 10
232.6366479666
 20
550.313992012
 30
0.0
 11
232.9041724855
 21
550.0464674931
 31
0.0
  0
LINE
  5
AA
330
1F
100
AcDbEntity
  8
0
  6
Continuous
 62
     7
370
    25
100
AcDbLine
 10
772.4002416626
 20
550.0464674931
 30
0.0
 11
772.6677661815
 21
550.313992012
 31
0.0
  0
ELLIPSE
  5
AB
330
1F
100
AcDbEntity
  8
0
  6
Continuous
 62
     7
370
    25
100
AcDbEllipse
 10
772.6403380691
 20
540.300268552
 30
0.0
 11
-7.090462434350683
 21
-7.090462434350798
 31
0.0
210
0.0
220
0.0
230
1.0
 40
0.9972646886
 41
2.35756401806271
 42
3.92562128911685
  0
LINE
  5
AC
330
1F
100
AcDbEntity
  8
0
  6
Continuous
 62
     7
370
    25
100
AcDbLine
 10
782.6540615291
 20
540.3276966645
 30
0.0
 11
782.3865370101
 21
540.0601721456
 31
0.0
  0
LINE
  5
AD
330
1F
100
AcDbEntity
  8
0
  6
Continuous
 62
     7
370
    25
100
AcDbLine
 10
232.9041724855
 20
105.577807621
 30
0.0
 11
232.6366479666
 21
105.310283102
 31
0.0
  0
ELLIPSE
  5
AE
330
1F
100
AcDbEntity
  8
0
  6
Continuous
 62
     7
370
    25
100
AcDbEllipse
 10
232.6640760791
 20
115.324006562
 30
0.0
 11
7.090462434350684
 21
7.090462434350656
 31
0.0
210
0.0
220
0.0
230
1.0
 40
0.9972646886
 41
2.357564018062736
 42
3.925621289116865
  0
LINE
  5
AF
330
1F
100
AcDbEntity
  8
0
  6
Continuous
 62
     7
370
    25
100
AcDbLine
 10
222.6503526191
 20
115.2965784496
 30
0.0
 11
222.917877138
 21
115.5641029685
 31
0.0
  0
LINE
  5
B0
330
1F
100
AcDbEntity
  8
0
  6
Continuous
 62
     7
370
    25
100
AcDbLine
 10
232.6366479666
 20
105.310283102
 30
0.0
 11
772.6677661815
 21
105.310283102
 31
0.0
  0
LINE
  5
B1
330
1F
100
AcDbEntity
  8
0
  6
Continuous
 62
     7
370
    25
100
AcDbLine
 10
782.6540615291
 20
115.2965784496
 30
0.0
 11
782.6540615291
 21
540.3276966645
 31
0.0
  0
LINE
  5
B2
330
1F
100
AcDbEntity
  8
0
  6
Continuous
 62
     7
370
    25
100
AcDbLine
 10
222.6503526191
 20
540.3276966645
 30
0.0
 11
222.6503526191
 21
115.2965784496
 31
0.0
  0
LINE
  5
B3
330
1F
100
AcDbEntity
  8
0
  6
Continuous
 62
     7
370
    25
100
AcDbLine
 10
772.6677661815
 20
550.313992012
 30
0.0
 11
232.6366479666
 21
550.313992012
 31
0.0
  0
LINE
  5
B4
330
1F
100
AcDbEntity
  8
0
  6
Continuous
 62
     7
370
    25
100
AcDbLine
 10
752.5032121699
 20
485.2111089365
 30
0.0
 11
745.1155868479
 21
477.8234836144
 31
0.0
  0
SPLINE
  5
B5
330
1F
100
AcDbEntity
  8
0
  6
Continuous
 62
     7
370
    25
100
AcDbSpline
210
0.0
220
0.0
230
1.0
 70
     8
 71
     3
 72
    35
 73
    31
 74
     0
 42
0.000000001
 43
0.00000001
 40
0.0
 40
0.0
 40
0.0
 40
0.0
 40
0.1249999999999967
 40
0.1249999999999967
 40
0.1562499999999971
 40
0.1562499999999971
 40
0.1874999999999976
 40
0.1874999999999976
 40
0.2499999999999966
 40
0.3124999999999956
 40
0.3124999999999956
 40
0.3437499999999951
 40
0.3437499999999951
 40
0.3749999999999946
 40
0.3749999999999946
 40
0.4999999999999959
 40
0.4999999999999959
 40
0.5624999999999971
 40
0.5624999999999971
 40
0.5937499999999972
 40
0.5937499999999972
 40
0.6249999999999972
 40
0.6249999999999972
 40
0.7499999999999994
 40
0.7499999999999994
 40
0.8124999999999997
 40
0.8124999999999997
 40
0.8749999999999998
 40
0.8749999999999998
 40
1.0
 40
1.0
 40
1.0
 40
1.0
 10
710.1422946867868
 20
512.7542588861583
 30
0.0
 10
712.4494631079615
 20
512.7529421817666
 30
0.0
 10
714.7308937824965
 20
512.5260145212942
 30
0.0
 10
717.550769331332
 20
511.9626060546387
 30
0.0
 10
718.1143822931175
 20
511.8354635381372
 30
0.0
 10
719.229672931812
 20
511.5547946385315
 30
0.0
 10
719.7818199644043
 20
511.4012481252681
 30
0.0
 10
721.4220619570076
 20
510.9016830557687
 30
0.0
 10
723.5659297617597
 20
510.1319777357419
 30
0.0
 10
725.6247808755902
 20
509.157981907709
 30
0.0
 10
727.1365783607612
 20
508.3497716383338
 30
0.0
 10
727.6351112018326
 20
508.067393124642
 30
0.0
 10
728.6211804468717
 20
507.4762122109651
 30
0.0
 10
729.1094025467378
 20
507.1668621704124
 30
0.0
 10
731.4966138002297
 20
505.5704212364528
 30
0.0
 10
733.2554683427118
 20
504.1245297394433
 30
0.0
 10
735.6728751394239
 20
501.7087315124738
 30
0.0
 10
736.4416021907069
 20
500.8620115297606
 30
0.0
 10
737.5373267216554
 20
499.5277905368839
 30
0.0
 10
737.8925866473762
 20
499.0726773042518
 30
0.0
 10
738.5761501683353
 20
498.1510894387682
 30
0.0
 10
738.9054703091338
 20
497.6834063354103
 30
0.0
 10
740.4907537705802
 20
495.3110928020241
 30
0.0
 10
741.5645085919045
 20
493.3057320742126
 30
0.0
 10
742.8810798261915
 20
490.1351259126203
 30
0.0
 10
743.2719943219557
 20
489.0451559947051
 30
0.0
 10
743.9384946678208
 20
486.8515761561138
 30
0.0
 10
744.2158658590295
 20
485.745262159492
 30
0.0
 10
744.884136177515
 20
482.3983943844815
 30
0.0
 10
745.1127937603721
 20
480.1301878715728
 30
0.0
 10
745.1155868478555
 20
477.8234836144068
 30
0.0
  0
LINE
  5
B6
330
1F
100
AcDbEntity
  8
0
  6
Continuous
 62
     7
370
    25
100
AcDbLine
 10
710.1422946868
 20
512.7542588862
 30
0.0
 11
717.5511784535
 21
520.1631426529
 31
0.0
  0
LINE
  5
B7
330
1F
100
AcDbEntity
  8
0
  6
Continuous
 62
     7
370
    25
100
AcDbLine
 10
252.8012019782
 20
170.4131661776
 30
0.0
 11
260.0768774216
 21
177.6888416209
 31
0.0
  0
SPLINE
  5
B8
330
1F
100
AcDbEntity
  8
0
  6
Continuous
 62
     7
370
    25
100
AcDbSpline
210
0.0
220
0.0
230
1.0
 70
     8
 71
     3
 72
    35
 73
    31
 74
     0
 42
0.000000001
 43
0.00000001
 40
0.0
 40
0.0
 40
0.0
 40
0.0
 40
0.1249999999999975
 40
0.1249999999999975
 40
0.1562499999999977
 40
0.1562499999999977
 40
0.187499999999998
 40
0.187499999999998
 40
0.2499999999999985
 40
0.312499999999999
 40
0.312499999999999
 40
0.3437499999999989
 40
0.3437499999999989
 40
0.3749999999999987
 40
0.3749999999999987
 40
0.4999999999999996
 40
0.4999999999999996
 40
0.5625
 40
0.5625
 40
0.5937500000000001
 40
0.5937500000000001
 40
0.6250000000000002
 40
0.6250000000000002
 40
0.7500000000000001
 40
0.7500000000000001
 40
0.8125000000000001
 40
0.8125000000000001
 40
0.8750000000000001
 40
0.8750000000000001
 40
1.0
 40
1.0
 40
1.0
 40
1.0
 10
295.0311514498613
 20
142.7390482164126
 30
0.0
 10
292.7240972599634
 20
142.7408769813275
 30
0.0
 10
290.4427165779088
 20
142.9684547398596
 30
0.0
 10
287.6228350585865
 20
143.5329487387739
 30
0.0
 10
287.0592642417993
 20
143.6603150821558
 30
0.0
 10
285.9443352827971
 20
143.9413707226783
 30
0.0
 10
285.3923571782584
 20
144.0951165479371
 30
0.0
 10
283.7525895213602
 20
144.5953034813023
 30
0.0
 10
281.6092677780774
 20
145.365901628816
 30
0.0
 10
279.5508198887396
 20
146.3409824579086
 30
0.0
 10
278.0392812138327
 20
147.1501055516545
 30
0.0
 10
277.5408273772217
 20
147.4328049178598
 30
0.0
 10
276.5549033050549
 20
148.0246660361628
 30
0.0
 10
276.0669115005471
 20
148.3342754498146
 30
0.0
 10
273.6811159843185
 20
149.9318135569501
 30
0.0
 10
271.9232429979342
 20
151.3786630301478
 30
0.0
 10
269.5072012132864
 20
153.7961442889687
 30
0.0
 10
268.7389109198484
 20
154.6434663216277
 30
0.0
 10
267.6438285739896
 20
155.9786711267493
 30
0.0
 10
267.2889255997146
 20
156.4339417041618
 30
0.0
 10
266.6060150352388
 20
157.3558918612141
 30
0.0
 10
266.2770148289306
 20
157.8237565353605
 30
0.0
 10
264.6933024981066
 20
160.1969821094845
 30
0.0
 10
263.6207143564467
 20
162.2030859380228
 30
0.0
 10
262.3058196918118
 20
165.3748630359844
 30
0.0
 10
261.9154729863604
 20
166.4651974459779
 30
0.0
 10
261.2501224321362
 20
168.6592517366198
 30
0.0
 10
260.9732981824914
 20
169.7657879221055
 30
0.0
 10
260.3065867096439
 20
173.1132783592256
 30
0.0
 10
260.0788607738506
 20
175.3818420574545
 30
0.0
 10
260.0768774215611
 20
177.6888416209325
 30
0.0
  0
LINE
  5
B9
330
1F
100
AcDbEntity
  8
0
  6
Continuous
 62
     7
370
    25
100
AcDbLine
 10
295.0311514499
 20
142.7390482164
 30
0.0
 11
287.7532356946
 21
135.4611324611
 31
0.0
  0
LINE
  5
BA
330
1F
100
AcDbEntity
  8
0
  6
Continuous
 62
     7
370
    25
100
AcDbLine
 10
287.7532356946
 20
520.1631426529
 30
0.0
 11
295.1621194614
 21
512.7542588862
 31
0.0
  0
SPLINE
  5
BB
330
1F
100
AcDbEntity
  8
0
  6
Continuous
 62
     7
370
    25
100
AcDbSpline
210
0.0
220
0.0
230
1.0
 70
     8
 71
     3
 72
    35
 73
    31
 74
     0
 42
0.000000001
 43
0.00000001
 40
0.0
 40
0.0
 40
0.0
 40
0.0
 40
0.1249999999999976
 40
0.1249999999999976
 40
0.1562499999999978
 40
0.1562499999999978
 40
0.187499999999998
 40
0.187499999999998
 40
0.2499999999999994
 40
0.3125000000000009
 40
0.3125000000000009
 40
0.3437500000000009
 40
0.3437500000000009
 40
0.375000000000001
 40
0.375000000000001
 40
0.499999999999997
 40
0.499999999999997
 40
0.5624999999999956
 40
0.5624999999999956
 40
0.5937499999999953
 40
0.5937499999999953
 40
0.6249999999999952
 40
0.6249999999999952
 40
0.7499999999999972
 40
0.7499999999999972
 40
0.8124999999999979
 40
0.8124999999999979
 40
0.8749999999999986
 40
0.8749999999999986
 40
1.0
 40
1.0
 40
1.0
 40
1.0
 10
260.188827300282
 20
477.8234836144068
 30
0.0
 10
260.1916205104957
 20
480.1302892297874
 30
0.0
 10
260.4203390780302
 20
482.4116316949976
 30
0.0
 10
260.9866788025771
 20
485.2317035843987
 30
0.0
 10
261.1144044743594
 20
485.795155424222
 30
0.0
 10
261.3960385127022
 20
486.9093173643406
 30
0.0
 10
261.5500768419279
 20
487.4609442966982
 30
0.0
 10
262.0511646595014
 20
489.0997480852419
 30
0.0
 10
262.8230267399383
 20
491.2420230932524
 30
0.0
 10
263.7996329188722
 20
493.2998374204449
 30
0.0
 10
264.6100538041886
 20
494.8110356057198
 30
0.0
 10
264.8932114459543
 20
495.3093984306582
 30
0.0
 10
265.4860510781645
 20
496.2951822638954
 30
0.0
 10
265.7959611832554
 20
496.7827689418872
 30
0.0
 10
267.3947676413453
 20
499.1663323993827
 30
0.0
 10
268.8427166214369
 20
500.922813232906
 30
0.0
 10
271.2622216649168
 20
503.3371190299656
 30
0.0
 10
272.1102805800019
 20
504.1048902971714
 30
0.0
 10
273.4467200897597
 20
505.1992568494331
 30
0.0
 10
273.9020886981515
 20
505.5536686108211
 30
0.0
 10
274.8243648490056
 20
506.235747658749
 30
0.0
 10
275.2923949929535
 20
506.5643495876258
 30
0.0
 10
277.6664651779371
 20
508.146147320504
 30
0.0
 10
279.673299624169
 20
509.217447034234
 30
0.0
 10
282.8463459441537
 20
510.5306129808127
 30
0.0
 10
283.9370557303705
 20
510.9203770123694
 30
0.0
 10
286.1314255041993
 20
511.5845344033694
 30
0.0
 10
287.2381125411463
 20
511.8608148983287
 30
0.0
 10
290.5860383648323
 20
512.526031809193
 30
0.0
 10
292.8548696487786
 20
512.7529421353163
 30
0.0
 10
295.1621194613509
 20
512.7542588861583
 30
0.0
  0
LINE
  5
BC
330
1F
100
AcDbEntity
  8
0
  6
Continuous
 62
     7
370
    25
100
AcDbLine
 10
260.1888273003
 20
477.8234836144
 30
0.0
 11
252.8012019782
 21
485.2111089365
 31
0.0
  0
LINE
  5
BD
330
1F
100
AcDbEntity
  8
0
  6
Continuous
 62
     7
370
    25
100
AcDbLine
 10
717.5511784535
 20
135.4611324611
 30
0.0
 11
710.2732626983
 21
142.7390482164
 31
0.0
  0
SPLINE
  5
BE
330
1F
100
AcDbEntity
  8
0
  6
Continuous
 62
     7
370
    25
100
AcDbSpline
210
0.0
220
0.0
230
1.0
 70
     8
 71
     3
 72
    35
 73
    31
 74
     0
 42
0.000000001
 43
0.00000001
 40
0.0
 40
0.0
 40
0.0
 40
0.0
 40
0.1249999999999976
 40
0.1249999999999976
 40
0.1562499999999979
 40
0.1562499999999979
 40
0.1874999999999982
 40
0.1874999999999982
 40
0.2499999999999988
 40
0.3124999999999993
 40
0.3124999999999993
 40
0.3437499999999993
 40
0.3437499999999993
 40
0.3749999999999992
 40
0.3749999999999992
 40
0.499999999999998
 40
0.499999999999998
 40
0.5624999999999969
 40
0.5624999999999969
 40
0.5937499999999969
 40
0.5937499999999969
 40
0.6249999999999968
 40
0.6249999999999968
 40
0.7499999999999978
 40
0.7499999999999978
 40
0.8124999999999982
 40
0.8124999999999982
 40
0.8749999999999987
 40
0.8749999999999987
 40
1.0
 40
1.0
 40
1.0
 40
1.0
 10
745.2275367265764
 20
177.6888416209326
 30
0.0
 10
745.2255533563718
 20
175.3818212189056
 30
0.0
 10
744.9977868704267
 20
173.1004436454525
 30
0.0
 10
744.432981226282
 20
170.2805316866293
 30
0.0
 10
744.305552285878
 20
169.7169741204647
 30
0.0
 10
744.0243948141117
 20
168.6021659679164
 30
0.0
 10
743.8705970680528
 20
168.0502433699166
 30
0.0
 10
743.3702492002524
 20
166.4106287180702
 30
0.0
 10
742.5994224831454
 20
164.2674750977064
 30
0.0
 10
741.6240636593155
 20
162.209133607464
 30
0.0
 10
740.8147041883071
 20
160.6976550092487
 30
0.0
 10
740.5319213909664
 20
160.1992178985933
 30
0.0
 10
739.9398823804091
 20
159.2133212146136
 30
0.0
 10
739.6302126186009
 20
158.7253956958007
 30
0.0
 10
738.0324256585169
 20
156.3399915513038
 30
0.0
 10
736.5853587883051
 20
154.5823714720441
 30
0.0
 10
734.1674829753991
 20
152.1666580605483
 30
0.0
 10
733.3200180268559
 20
151.398468584127
 30
0.0
 10
731.984575694021
 20
150.3035290195473
 30
0.0
 10
731.529278676257
 20
149.9487167496534
 30
0.0
 10
730.6072571602689
 20
149.2659651584199
 30
0.0
 10
730.1393564644027
 20
148.9370417902564
 30
0.0
 10
727.7659483093829
 20
147.353702036018
 30
0.0
 10
725.7596905357273
 20
146.2813751825475
 30
0.0
 10
722.5876567626952
 20
144.9668418394847
 30
0.0
 10
721.497244669878
 20
144.5766171853078
 30
0.0
 10
719.3031112187
 20
143.9115157064852
 30
0.0
 10
718.1965377343779
 20
143.6348071591092
 30
0.0
 10
714.8489417451356
 20
142.9684189175218
 30
0.0
 10
712.5803160517098
 20
142.7408769806646
 30
0.0
 10
710.2732626982762
 20
142.7390482164127
 30
0.0
  0
LINE
  5
BF
330
1F
100
AcDbEntity
  8
0
  6
Continuous
 62
     7
370
    25
100
AcDbLine
 10
745.2275367266
 20
177.6888416209
 30
0.0
 11
752.5032121699
 21
170.4131661776
 31
0.0
  0
SPLINE
  5
C0
330
1F
100
AcDbEntity
  8
0
  6
Continuous
 62
     7
370
    25
100
AcDbSpline
210
0.0
220
0.0
230
1.0
 70
     8
 71
     3
 72
    16
 73
    12
 74
     0
 42
0.000000001
 43
0.00000001
 40
0.0
 40
0.0
 40
0.0
 40
0.0
 40
0.1249999999999999
 40
0.1249999999999999
 40
0.2499999999999998
 40
0.2499999999999998
 40
0.4999999999999999
 40
0.4999999999999999
 40
0.7499999999999999
 40
0.7499999999999999
 40
1.0
 40
1.0
 40
1.0
 40
1.0
 10
548.6522070740688
 20
512.4918329175811
 30
0.0
 10
555.3874479080328
 20
512.4918329175811
 30
0.0
 10
562.1212903021203
 20
512.4941900456963
 30
0.0
 10
575.5864636650314
 20
512.5031374128375
 30
0.0
 10
582.3178081080192
 20
512.509704940604
 30
0.0
 10
602.5090324796356
 20
512.5341421374166
 30
0.0
 10
615.9662160541441
 20
512.5565566225915
 30
0.0
 10
642.8773788888273
 20
512.60678659697
 30
0.0
 10
656.331323352219
 20
512.634660737587
 30
0.0
 10
683.2377581864604
 20
512.6928599518004
 30
0.0
 10
696.6902159956667
 20
512.7232399093904
 30
0.0
 10
710.1422946867868
 20
512.7542588861583
 30
0.0
  0
LINE
  5
C1
330
1F
100
AcDbEntity
  8
0
  6
Continuous
 62
     7
370
    25
100
AcDbLine
 10
456.6522070741
 20
512.4918329176
 30
0.0
 11
548.6522070741
 21
512.4918329176
 31
0.0
  0
SPLINE
  5
C2
330
1F
100
AcDbEntity
  8
0
  6
Continuous
 62
     7
370
    25
100
AcDbSpline
210
0.0
220
0.0
230
1.0
 70
     8
 71
     3
 72
    16
 73
    12
 74
     0
 42
0.000000001
 43
0.00000001
 40
0.0
 40
0.0
 40
0.0
 40
0.0
 40
0.25
 40
0.25
 40
0.5
 40
0.5
 40
0.75
 40
0.75
 40
0.875
 40
0.875
 40
1.0
 40
1.0
 40
1.0
 40
1.0
 10
295.1621194613509
 20
512.7542588861583
 30
0.0
 10
308.6143521886112
 20
512.7232395542003
 30
0.0
 10
322.0670785898445
 20
512.6928589769125
 30
0.0
 10
348.9745098658568
 20
512.634657728845
 30
0.0
 10
362.4291722877814
 20
512.6067821291844
 30
0.0
 10
389.3427615579366
 20
512.5565485839554
 30
0.0
 10
402.8012237031814
 20
512.534133330342
 30
0.0
 10
422.9920433917006
 20
512.5096992286467
 30
0.0
 10
429.7229242644333
 20
512.5031332678087
 30
0.0
 10
443.1862977158183
 20
512.4941887772651
 30
0.0
 10
449.9187990199652
 20
512.491832917581
 30
0.0
 10
456.6522070740688
 20
512.491832917581
 30
0.0
  0
ARC
  5
C3
330
1F
100
AcDbEntity
  8
0
  6
Continuous
 62
     7
370
    25
100
AcDbCircle
 10
525.901522311
 20
522.2313723958
 30
0.0
 40
4.822531481003856
100
AcDbArc
 50
267.0366016998
 51
278.9551904986
  0
LINE
  5
C4
330
1F
100
AcDbEntity
  8
0
  6
Continuous
 62
     7
370
    25
100
AcDbLine
 10
526.6522070741
 20
517.4676257326
 30
0.0
 11
526.6522070741
 21
518.6190167699
 31
0.0
  0
ARC
  5
C5
330
1F
100
AcDbEntity
  8
0
  6
Continuous
 62
     7
370
    25
100
AcDbCircle
 10
525.901522311
 20
513.8552701067
 30
0.0
 40
4.822531480998855
100
AcDbArc
 50
81.0448095014
 51
92.9633983002
  0
LINE
  5
C6
330
1F
100
AcDbEntity
  8
0
  6
Continuous
 62
     7
370
    25
100
AcDbLine
 10
525.6522070741
 20
518.6713527262
 30
0.0
 11
479.6522070741
 21
518.6713527262
 31
0.0
  0
ARC
  5
C7
330
1F
100
AcDbEntity
  8
0
  6
Continuous
 62
     7
370
    25
100
AcDbCircle
 10
479.4028918371
 20
513.8552701067
 30
0.0
 40
4.822531480998167
100
AcDbArc
 50
87.0366016998
 51
98.9551904986
  0
LINE
  5
C8
330
1F
100
AcDbEntity
  8
0
  6
Continuous
 62
     7
370
    25
100
AcDbLine
 10
478.6522070741
 20
518.6190167699
 30
0.0
 11
478.6522070741
 21
517.4676257326
 31
0.0
  0
ARC
  5
C9
330
1F
100
AcDbEntity
  8
0
  6
Continuous
 62
     7
370
    25
100
AcDbCircle
 10
479.4028918372
 20
522.2313723959
 30
0.0
 40
4.822531481030635
100
AcDbArc
 50
261.0448095014
 51
272.9633983002
  0
LINE
  5
CA
330
1F
100
AcDbEntity
  8
0
  6
Continuous
 62
     7
370
    25
100
AcDbLine
 10
479.6522070741
 20
517.4152897763
 30
0.0
 11
525.6522070741
 21
517.4152897763
 31
0.0
  0
SPLINE
  5
CB
330
1F
100
AcDbEntity
  8
0
  6
Continuous
 62
     7
370
    25
100
AcDbSpline
210
0.0
220
0.0
230
1.0
 70
     8
 71
     3
 72
    12
 73
     8
 74
     0
 42
0.000000001
 43
0.00000001
 40
0.0
 40
0.0
 40
0.0
 40
0.0
 40
0.5000000000000001
 40
0.5000000000000001
 40
0.75
 40
0.75
 40
1.0
 40
1.0
 40
1.0
 40
1.0
 10
260.0768774215611
 20
177.6888416209325
 30
0.0
 10
260.1172349814073
 20
202.3701429849557
 30
0.0
 10
260.1518083511571
 20
227.0534005896832
 30
0.0
 10
260.1882839207648
 20
264.0834901030521
 30
0.0
 10
260.1978477025144
 20
276.4277308281216
 30
0.0
 10
260.2107593460992
 20
301.1183145320505
 30
0.0
 10
260.2140930023216
 20
313.4646623153157
 30
0.0
 10
260.2140930023217
 20
325.8121375570302
 30
0.0
  0
SPLINE
  5
CC
330
1F
100
AcDbEntity
  8
0
  6
Continuous
 62
     7
370
    25
100
AcDbSpline
210
0.0
220
0.0
230
1.0
 70
     8
 71
     3
 72
     8
 73
     4
 74
     0
 42
0.000000001
 43
0.00000001
 40
0.0
 40
0.0
 40
0.0
 40
0.0
 40
1.0
 40
1.0
 40
1.0
 40
1.0
 10
260.2140930023217
 20
417.8121375570302
 30
0.0
 10
260.2140930023217
 20
437.8172140932512
 30
0.0
 10
260.2052195394844
 20
457.8209267034683
 30
0.0
 10
260.188827300282
 20
477.8234836144068
 30
0.0
  0
LINE
  5
CD
330
1F
100
AcDbEntity
  8
0
  6
Continuous
 62
     7
370
    25
100
AcDbLine
 10
260.2140930023
 20
325.812137557
 30
0.0
 11
260.2140930023
 21
417.812137557
 31
0.0
  0
SPLINE
  5
CE
330
1F
100
AcDbEntity
  8
0
  6
Continuous
 62
     7
370
    25
100
AcDbSpline
210
0.0
220
0.0
230
1.0
 70
     8
 71
     3
 72
    12
 73
     8
 74
     0
 42
0.000000001
 43
0.00000001
 40
0.0
 40
0.0
 40
0.0
 40
0.0
 40
0.25
 40
0.25
 40
0.5
 40
0.5
 40
1.0
 40
1.0
 40
1.0
 40
1.0
 10
456.6522070740688
 20
142.9083944468707
 30
0.0
 10
443.1783872913214
 20
142.9083944468707
 30
0.0
 10
429.7062182663677
 20
142.9040791956028
 30
0.0
 10
402.7648952420136
 20
142.887567105054
 30
0.0
 10
389.295729078831
 20
142.8754020631546
 30
0.0
 10
348.8917483349799
 20
142.8297111870965
 30
0.0
 10
321.9603435953638
 20
142.7872716764555
 30
0.0
 10
295.0311514498613
 20
142.7390482164126
 30
0.0
  0
LINE
  5
CF
330
1F
100
AcDbEntity
  8
0
  6
Continuous
 62
     7
370
    25
100
AcDbLine
 10
548.6522070741
 20
142.9083944469
 30
0.0
 11
456.6522070741
 21
142.9083944469
 31
0.0
  0
SPLINE
  5
D0
330
1F
100
AcDbEntity
  8
0
  6
Continuous
 62
     7
370
    25
100
AcDbSpline
210
0.0
220
0.0
230
1.0
 70
     8
 71
     3
 72
    12
 73
     8
 74
     0
 42
0.000000001
 43
0.00000001
 40
0.0
 40
0.0
 40
0.0
 40
0.0
 40
0.5
 40
0.5
 40
0.75
 40
0.75
 40
1.0
 40
1.0
 40
1.0
 40
1.0
 10
710.2732626982762
 20
142.7390482164127
 30
0.0
 10
683.3440705527738
 20
142.7872716764556
 30
0.0
 10
656.4126658131576
 20
142.8297111870966
 30
0.0
 10
616.0086850693066
 20
142.8754020631547
 30
0.0
 10
602.5395189061242
 20
142.887567105054
 30
0.0
 10
575.5981958817698
 20
142.9040791956028
 30
0.0
 10
562.1260268568162
 20
142.9083944468707
 30
0.0
 10
548.6522070740688
 20
142.9083944468707
 30
0.0
  0
SPLINE
  5
D1
330
1F
100
AcDbEntity
  8
0
  6
Continuous
 62
     7
370
    25
100
AcDbSpline
210
0.0
220
0.0
230
1.0
 70
     8
 71
     3
 72
    12
 73
     8
 74
     0
 42
0.000000001
 43
0.00000001
 40
0.0
 40
0.0
 40
0.0
 40
0.0
 40
0.2500000000000001
 40
0.2500000000000001
 40
0.5000000000000001
 40
0.5000000000000001
 40
1.0
 40
1.0
 40
1.0
 40
1.0
 10
745.0903211458159
 20
325.8121375570302
 30
0.0
 10
745.0903211458159
 20
313.4646623153156
 30
0.0
 10
745.0936548020384
 20
301.1183145320504
 30
0.0
 10
745.1065664456231
 20
276.4277308281216
 30
0.0
 10
745.1161302273729
 20
264.0834901030521
 30
0.0
 10
745.1526057969807
 20
227.0534005896833
 30
0.0
 10
745.1871791667303
 20
202.3701429849558
 30
0.0
 10
745.2275367265765
 20
177.6888416209326
 30
0.0
  0
LINE
  5
D2
330
1F
100
AcDbEntity
  8
0
  6
Continuous
 62
     7
370
    25
100
AcDbLine
 10
745.0903211458
 20
417.812137557
 30
0.0
 11
745.0903211458
 21
325.812137557
 31
0.0
  0
SPLINE
  5
D3
330
1F
100
AcDbEntity
  8
0
  6
Continuous
 62
     7
370
    25
100
AcDbSpline
210
0.0
220
0.0
230
1.0
 70
     8
 71
     3
 72
     8
 73
     4
 74
     0
 42
0.000000001
 43
0.00000001
 40
0.0
 40
0.0
 40
0.0
 40
0.0
 40
1.0
 40
1.0
 40
1.0
 40
1.0
 10
745.1155868478555
 20
477.8234836144068
 30
0.0
 10
745.0991946086532
 20
457.8209267034684
 30
0.0
 10
745.0903211458159
 20
437.8172140932512
 30
0.0
 10
745.0903211458159
 20
417.8121375570302
 30
0.0
  0
LINE
  5
D4
330
1F
100
AcDbEntity
  8
0
  6
Continuous
 62
     7
370
    25
100
AcDbLine
 10
548.6522070741
 20
142.9083944469
 30
0.0
 11
548.6522070741
 21
161.912978003
 31
0.0
  0
SPLINE
  5
D5
330
1F
100
AcDbEntity
  8
0
  6
Continuous
 62
     7
370
    25
100
AcDbSpline
210
0.0
220
0.0
230
1.0
 70
     8
 71
     3
 72
    12
 73
     8
 74
     0
 42
0.000000001
 43
0.00000001
 40
0.0
 40
0.0
 40
0.0
 40
0.0
 40
0.25
 40
0.25
 40
0.5
 40
0.5
 40
1.0
 40
1.0
 40
1.0
 40
1.0
 10
548.6522070740688
 20
161.9129780029822
 30
0.0
 10
562.1814672188931
 20
161.9129780029821
 30
0.0
 10
575.71028786781
 20
161.9189633633489
 30
0.0
 10
602.7668946890849
 20
161.938699039096
 30
0.0
 10
616.2933681469214
 20
161.9521743206999
 30
0.0
 10
656.8684701206889
 20
161.9920091421015
 30
0.0
 10
683.9129095368257
 20
162.0155885640311
 30
0.0
 10
710.9546215034068
 20
162.0240431001532
 30
0.0
  0
ARC
  5
D6
330
1F
100
AcDbEntity
  8
0
  6
Continuous
 62
     7
370
    25
100
AcDbCircle
 10
552.8497605878
 20
157.9555172801
 30
0.0
 40
158.1572001126922
100
AcDbArc
 50
354.4789732665
 51
1.4740718474
  0
ARC
  5
D7
330
1F
100
AcDbEntity
  8
0
  6
Continuous
 62
     7
370
    25
100
AcDbCircle
 10
452.4546535603
 20
157.9555172801
 30
0.0
 40
158.1572001126723
100
AcDbArc
 50
178.5259281526
 51
185.5210267335
  0
SPLINE
  5
D8
330
1F
100
AcDbEntity
  8
0
  6
Continuous
 62
     7
370
    25
100
AcDbSpline
210
0.0
220
0.0
230
1.0
 70
     8
 71
     3
 72
    12
 73
     8
 74
     0
 42
0.000000001
 43
0.00000001
 40
0.0
 40
0.0
 40
0.0
 40
0.0
 40
0.5
 40
0.5
 40
0.75
 40
0.75
 40
1.0
 40
1.0
 40
1.0
 40
1.0
 10
294.3497926447308
 20
162.0240431001532
 30
0.0
 10
321.3921570303751
 20
162.0155883600536
 30
0.0
 10
348.4389427514713
 20
161.9920062394289
 30
0.0
 10
389.0139476131921
 20
161.9521714513533
 30
0.0
 10
402.53989221945
 20
161.9386970928742
 30
0.0
 10
429.5941800555952
 20
161.9189635396223
 30
0.0
 10
443.1225327347614
 20
161.9129780029821
 30
0.0
 10
456.6522070740688
 20
161.9129780029821
 30
0.0
  0
LINE
  5
D9
330
1F
100
AcDbEntity
  8
0
  6
Continuous
 62
     7
370
    25
100
AcDbLine
 10
456.6522070741
 20
142.9083944469
 30
0.0
 11
456.6522070741
 21
161.912978003
 31
0.0
  0
LINE
  5
DA
330
1F
100
AcDbEntity
  8
0
  6
Continuous
 62
     7
370
    25
100
AcDbLine
 10
260.2140930023
 20
325.812137557
 30
0.0
 11
279.2186765584
 21
325.812137557
 31
0.0
  0
SPLINE
  5
DB
330
1F
100
AcDbEntity
  8
0
  6
Continuous
 62
     7
370
    25
100
AcDbSpline
210
0.0
220
0.0
230
1.0
 70
     8
 71
     3
 72
    12
 73
     8
 74
     0
 42
0.000000001
 43
0.00000001
 40
0.0
 40
0.0
 40
0.0
 40
0.0
 40
0.25
 40
0.25
 40
0.5000000000000001
 40
0.5000000000000001
 40
1.0
 40
1.0
 40
1.0
 40
1.0
 10
279.2186765584331
 20
325.8121375570302
 30
0.0
 10
279.218676558433
 20
313.413777227976
 30
0.0
 10
279.2226512304418
 20
301.015759328648
 30
0.0
 10
279.2363568485648
 20
276.2203656247731
 30
0.0
 10
279.2459692911586
 20
263.8237005752413
 30
0.0
 10
279.2762785979864
 20
226.6373906326332
 30
0.0
 10
279.2971736818471
 20
201.8508558119575
 30
0.0
 10
279.3077993025497
 20
177.0667763580352
 30
0.0
  0
ARC
  5
DC
330
1F
100
AcDbEntity
  8
0
  6
Continuous
 62
     7
370
    25
100
AcDbCircle
 10
275.2598162666
 20
349.4943682032
 30
0.0
 40
172.4751013803893
100
AcDbArc
 50
264.9497302554
 51
271.3448529081
  0
SPLINE
  5
DD
330
1F
100
AcDbEntity
  8
0
  6
Continuous
 62
     7
370
    25
100
AcDbSpline
210
0.0
220
0.0
230
1.0
 70
     8
 71
     3
 72
    12
 73
     8
 74
     0
 42
0.000000001
 43
0.00000001
 40
0.0
 40
0.0
 40
0.0
 40
0.0
 40
0.5
 40
0.5
 40
0.75
 40
0.75
 40
1.0
 40
1.0
 40
1.0
 40
1.0
 10
725.9966148455878
 20
177.0667763580352
 30
0.0
 10
726.0072406474332
 20
201.8512783247688
 30
0.0
 10
726.0281375823724
 20
226.6397375139845
 30
0.0
 10
726.0584466440687
 20
263.8259663748982
 30
0.0
 10
726.0680583626864
 20
276.2220536223551
 30
0.0
 10
726.0817628366831
 20
301.0158481068984
 30
0.0
 10
726.0857375897045
 20
313.4135589292603
 30
0.0
 10
726.0857375897045
 20
325.8121375570302
 30
0.0
  0
LINE
  5
DE
330
1F
100
AcDbEntity
  8
0
  6
Continuous
 62
     7
370
    25
100
AcDbLine
 10
726.0857375897
 20
325.812137557
 30
0.0
 11
745.0903211458
 21
325.812137557
 31
0.0
  0
ARC
  5
DF
330
1F
100
AcDbEntity
  8
0
  6
Continuous
 62
     7
370
    25
100
AcDbCircle
 10
730.0445978815
 20
349.4943682032
 30
0.0
 40
172.4751013803694
100
AcDbArc
 50
268.6551470919
 51
275.0502697446
  0
SPLINE
  5
E0
330
1F
100
AcDbEntity
  8
0
  6
Continuous
 62
     7
370
    25
100
AcDbSpline
210
0.0
220
0.0
230
1.0
 70
     8
 71
     3
 72
    16
 73
    12
 74
     0
 42
0.000000001
 43
0.00000001
 40
0.0
 40
0.0
 40
0.0
 40
0.0
 40
0.25
 40
0.25
 40
0.5
 40
0.5
 40
0.75
 40
0.75
 40
0.875
 40
0.875
 40
1.0
 40
1.0
 40
1.0
 40
1.0
 10
711.0203024759226
 20
493.1892711146741
 30
0.0
 10
697.4948664866015
 20
493.186032098517
 30
0.0
 10
683.9688867938498
 20
493.1885233732206
 30
0.0
 10
656.9148433717852
 20
493.2120759303828
 30
0.0
 10
643.3871972722675
 20
493.2335263081685
 30
0.0
 10
616.3290585972785
 20
493.3014484460227
 30
0.0
 10
602.7985949087061
 20
493.3500637411896
 30
0.0
 10
582.498135021107
 20
493.4214894461298
 30
0.0
 10
575.7304966034927
 20
493.4443337263684
 30
0.0
 10
562.1930539912788
 20
493.47742438623
 30
0.0
 10
555.423238526117
 20
493.4872493614695
 30
0.0
 10
548.6522070740688
 20
493.4872493614696
 30
0.0
  0
LINE
  5
E1
330
1F
100
AcDbEntity
  8
0
  6
Continuous
 62
     7
370
    25
100
AcDbLine
 10
548.6522070741
 20
493.4872493615
 30
0.0
 11
548.6522070741
 21
512.4918329176
 31
0.0
  0
LWPOLYLINE
  5
E2
330
1F
100
AcDbEntity
  8
0
  6
Continuous
 62
     7
370
    25
100
AcDbPolyline
 90
       21
 70
   128
 43
0.0
 10
711.0203024759
 20
493.1892711147
 10
711.0130558151
 20
494.6845182841
 10
711.0009257716
 20
496.169093933
 10
710.9839803727
 20
497.634672298
 10
710.9623146514
 20
499.0730341558
 10
710.9360501127
 20
500.4761129182
 10
710.9053340529
 20
501.8360398709
 10
710.8703387332
 20
503.1451883024
 10
710.8312604134
 20
504.3962162764
 10
710.7883182516
 20
505.5821078062
 10
710.7417530753
 20
506.696212202
 10
710.69182603
 20
507.7322813688
 10
710.6388171156
 20
508.6845048472
 10
710.5830236154
 20
509.5475423991
 10
710.5247584293
 20
510.3165539569
 10
710.4643483187
 20
510.9872267675
 10
710.4021320742
 20
511.555799579
 10
710.3384586156
 20
512.0190837342
 10
710.273685035
 20
512.3744810535
 10
710.208174594
 20
512.6199984058
 10
710.1422946868
 20
512.7542588862
  0
SPLINE
  5
E3
330
1F
100
AcDbEntity
  8
0
  6
Continuous
 62
     7
370
    25
100
AcDbSpline
210
0.0
220
0.0
230
1.0
 70
     8
 71
     3
 72
    29
 73
    25
 74
     0
 42
0.000000001
 43
0.00000001
 40
0.0
 40
0.0
 40
0.0
 40
0.0
 40
0.1250000000000033
 40
0.1250000000000033
 40
0.1875000000000046
 40
0.1875000000000046
 40
0.2500000000000059
 40
0.2500000000000059
 40
0.3750000000000053
 40
0.3750000000000053
 40
0.437500000000005
 40
0.437500000000005
 40
0.5000000000000047
 40
0.5000000000000047
 40
0.6250000000000041
 40
0.6250000000000041
 40
0.6875000000000029
 40
0.6875000000000029
 40
0.7500000000000016
 40
0.8125000000000003
 40
0.8125000000000003
 40
0.8749999999999991
 40
0.8749999999999991
 40
1.0
 40
1.0
 40
1.0
 40
1.0
 10
710.9546215034068
 20
162.0240431001532
 30
0.0
 10
711.9473893719472
 20
162.0243534870035
 30
0.0
 10
712.9237647869353
 20
162.1217238938736
 30
0.0
 10
714.3646864182227
 20
162.407740624655
 30
0.0
 10
714.8410244040492
 20
162.5265779848127
 30
0.0
 10
715.7855728973371
 20
162.8123655171706
 30
0.0
 10
716.2550261162568
 20
162.9801094934056
 30
0.0
 10
717.6206961794443
 20
163.5453589417686
 30
0.0
 10
718.484488531179
 20
164.0066619762318
 30
0.0
 10
719.7107283235304
 20
164.8243547948712
 30
0.0
 10
720.1091573933079
 20
165.1191351306715
 30
0.0
 10
720.875767442456
 20
165.7476269138056
 30
0.0
 10
721.2406005895849
 20
166.0783563739723
 30
0.0
 10
722.2814017667607
 20
167.1184629535468
 30
0.0
 10
722.904177915685
 20
167.8753063973538
 30
0.0
 10
723.7291482729381
 20
169.1080118263131
 30
0.0
 10
723.9851689884928
 20
169.5349257334919
 30
0.0
 10
724.4492921024871
 20
170.4027494907352
 30
0.0
 10
724.868673483494
 20
171.2890774056024
 30
0.0
 10
725.1999242650443
 20
172.2118537597422
 30
0.0
 10
725.4865159654694
 20
173.1530996701695
 30
0.0
 10
725.6078784891547
 20
173.6351965370848
 30
0.0
 10
725.8987248173268
 20
175.0919226430955
 30
0.0
 10
725.9961891729546
 20
176.0739021852951
 30
0.0
 10
725.9966148455878
 20
177.0667763580352
 30
0.0
  0
SPLINE
  5
E4
330
1F
100
AcDbEntity
  8
0
  6
Continuous
 62
     7
370
    25
100
AcDbSpline
210
0.0
220
0.0
230
1.0
 70
     8
 71
     3
 72
    29
 73
    25
 74
     0
 42
0.000000001
 43
0.00000001
 40
0.0
 40
0.0
 40
0.0
 40
0.0
 40
0.1250000000000037
 40
0.1250000000000037
 40
0.1875000000000034
 40
0.1875000000000034
 40
0.2500000000000031
 40
0.2500000000000031
 40
0.3750000000000011
 40
0.3750000000000011
 40
0.4374999999999997
 40
0.4374999999999997
 40
0.4999999999999982
 40
0.4999999999999982
 40
0.6249999999999978
 40
0.6249999999999978
 40
0.687499999999998
 40
0.687499999999998
 40
0.7499999999999983
 40
0.8124999999999986
 40
0.8124999999999986
 40
0.8749999999999989
 40
0.8749999999999989
 40
1.0
 40
1.0
 40
1.0
 40
1.0
 10
279.3077993025497
 20
177.0667763580352
 30
0.0
 10
279.3082249677642
 20
176.0739194895152
 30
0.0
 10
279.4056737862826
 20
175.0974568587066
 30
0.0
 10
279.6917692518587
 20
173.6564088140805
 30
0.0
 10
279.810626234161
 20
173.180029414511
 30
0.0
 10
280.0964412065575
 20
172.2353997606926
 30
0.0
 10
280.2641889828644
 20
171.7659181144043
 30
0.0
 10
280.8294326291957
 20
170.4001593414895
 30
0.0
 10
281.2907157832148
 20
169.5362925833889
 30
0.0
 10
282.1083761125402
 20
168.3099296181073
 30
0.0
 10
282.4031606914141
 20
167.9114391249118
 30
0.0
 10
283.0315813049829
 20
167.1448018650146
 30
0.0
 10
283.3622764117212
 20
166.779948883962
 30
0.0
 10
284.4022895832584
 20
165.739076903438
 30
0.0
 10
285.1590832868429
 20
165.1162383022837
 30
0.0
 10
286.3917577608231
 20
164.2911783926305
 30
0.0
 10
286.818608462602
 20
164.0351658535627
 30
0.0
 10
287.6863310912421
 20
163.571044068451
 30
0.0
 10
288.5725718334656
 20
163.1516608374319
 30
0.0
 10
289.4952933882812
 20
162.8204142273919
 30
0.0
 10
290.4365037989953
 20
162.5338369955153
 30
0.0
 10
290.9186033475721
 20
162.4124865133607
 30
0.0
 10
292.3751480913173
 20
162.1217370344298
 30
0.0
 10
293.3570170415683
 20
162.0243534894218
 30
0.0
 10
294.3497926447308
 20
162.0240431001532
 30
0.0
  0
SPLINE
  5
E5
330
1F
100
AcDbEntity
  8
0
  6
Continuous
 62
     7
370
    25
100
AcDbSpline
210
0.0
220
0.0
230
1.0
 70
     8
 71
     3
 72
    29
 73
    25
 74
     0
 42
0.000000001
 43
0.00000001
 40
0.0
 40
0.0
 40
0.0
 40
0.0
 40
0.125000000000001
 40
0.125000000000001
 40
0.1875000000000015
 40
0.1875000000000015
 40
0.2500000000000021
 40
0.2500000000000021
 40
0.3750000000000031
 40
0.3750000000000031
 40
0.4375000000000034
 40
0.4375000000000034
 40
0.5000000000000039
 40
0.5000000000000039
 40
0.6250000000000073
 40
0.6250000000000073
 40
0.6875000000000066
 40
0.6875000000000066
 40
0.7500000000000058
 40
0.8125000000000051
 40
0.8125000000000051
 40
0.8750000000000043
 40
0.8750000000000043
 40
1.0
 40
1.0
 40
1.0
 40
1.0
 10
294.284111672215
 20
493.189271114674
 30
0.0
 10
293.2912516100658
 20
493.1895088807457
 30
0.0
 10
292.3148425835577
 20
493.0923909402582
 30
0.0
 10
290.8739388145945
 20
492.8064355681493
 30
0.0
 10
290.3976183692075
 20
492.6875647169912
 30
0.0
 10
289.4531268524532
 20
492.4016137485462
 30
0.0
 10
288.9836626750141
 20
492.2337209516528
 30
0.0
 10
287.6180497784975
 20
491.6679120334581
 30
0.0
 10
286.754450851872
 20
491.2061123575226
 30
0.0
 10
285.5286613228726
 20
490.3876260104442
 30
0.0
 10
285.1304916125079
 20
490.0926412694699
 30
0.0
 10
284.3640167119207
 20
489.4633894581198
 30
0.0
 10
283.9992954085816
 20
489.1322861506964
 30
0.0
 10
282.9589214417215
 20
488.0911095431038
 30
0.0
 10
282.336552974622
 20
487.3336196420025
 30
0.0
 10
281.5122344254895
 20
486.100181299061
 30
0.0
 10
281.2562665164439
 20
485.6727874394434
 30
0.0
 10
280.7923185353372
 20
484.8041201555111
 30
0.0
 10
280.373139104724
 20
483.9170274831509
 30
0.0
 10
280.0420770752867
 20
482.993668353282
 30
0.0
 10
279.7556316595128
 20
482.0519463739149
 30
0.0
 10
279.6343262692318
 20
481.5697357923647
 30
0.0
 10
279.3433307283771
 20
480.1116256535448
 30
0.0
 10
279.245696708211
 20
479.1287812412182
 30
0.0
 10
279.2449423061229
 20
478.1351086007751
 30
0.0
  0
ARC
  5
E6
330
1F
100
AcDbEntity
  8
0
  6
Continuous
 62
     7
370
    25
100
AcDbCircle
 10
275.2622816875
 20
138.8738796552
 30
0.0
 40
339.2846047955633
100
AcDbArc
 50
89.3274234016
 51
92.5463273788
  0
LWPOLYLINE
  5
E7
330
1F
100
AcDbEntity
  8
0
  6
Continuous
 62
     7
370
    25
100
AcDbPolyline
 90
       21
 70
   128
 43
0.0
 10
294.2841116722
 20
493.1892711147
 10
294.291358333
 20
494.6845182841
 10
294.3034883766
 20
496.169093933
 10
294.3204337754
 20
497.634672298
 10
294.3420994968
 20
499.0730341558
 10
294.3683640354
 20
500.4761129182
 10
294.3990800952
 20
501.8360398709
 10
294.434075415
 20
503.1451883024
 10
294.4731537348
 20
504.3962162764
 10
294.5160958965
 20
505.5821078062
 10
294.5626610729
 20
506.696212202
 10
294.6125881181
 20
507.7322813688
 10
294.6655970325
 20
508.6845048472
 10
294.7213905327
 20
509.5475423991
 10
294.7796557189
 20
510.3165539569
 10
294.8400658295
 20
510.9872267675
 10
294.9022820739
 20
511.555799579
 10
294.9659555325
 20
512.0190837342
 10
295.0307291131
 20
512.3744810535
 10
295.0962395541
 20
512.6199984058
 10
295.1621194614
 20
512.7542588862
  0
SPLINE
  5
E8
330
1F
100
AcDbEntity
  8
0
  6
Continuous
 62
     7
370
    25
100
AcDbSpline
210
0.0
220
0.0
230
1.0
 70
     8
 71
     3
 72
    29
 73
    25
 74
     0
 42
0.000000001
 43
0.00000001
 40
0.0
 40
0.0
 40
0.0
 40
0.0
 40
0.1250000000000014
 40
0.1250000000000014
 40
0.1875000000000021
 40
0.1875000000000021
 40
0.2500000000000028
 40
0.2500000000000028
 40
0.3750000000000075
 40
0.3750000000000075
 40
0.4375000000000083
 40
0.4375000000000083
 40
0.5000000000000092
 40
0.5000000000000092
 40
0.6250000000000084
 40
0.6250000000000084
 40
0.6875000000000066
 40
0.6875000000000066
 40
0.7500000000000047
 40
0.8125000000000029
 40
0.8125000000000029
 40
0.875000000000001
 40
0.875000000000001
 40
1.0
 40
1.0
 40
1.0
 40
1.0
 10
726.0594718420145
 20
478.1351086007752
 30
0.0
 10
726.0587174834128
 20
479.128723962457
 30
0.0
 10
725.9611082110056
 20
480.1059241744262
 30
0.0
 10
725.6749598586432
 20
481.548041475664
 30
0.0
 10
725.5561172959648
 20
482.0247711464276
 30
0.0
 10
725.270391896566
 20
482.9700883078444
 30
0.0
 10
725.1027289050535
 20
483.4398845183214
 30
0.0
 10
724.5377918466579
 20
484.8066309924375
 30
0.0
 10
724.0767767823355
 20
485.6712143139912
 30
0.0
 10
723.2595288953097
 20
486.8986923522125
 30
0.0
 10
722.9648450116299
 20
487.2976085996077
 30
0.0
 10
722.3368252789605
 20
488.064849185189
 30
0.0
 10
722.0063184370149
 20
488.4300229541782
 30
0.0
 10
720.9668093975554
 20
489.4718838794859
 30
0.0
 10
720.2102726488981
 20
490.0954183347271
 30
0.0
 10
718.9777586810133
 20
490.921458781818
 30
0.0
 10
718.5510896791807
 20
491.1776835289161
 30
0.0
 10
717.6836259407788
 20
491.6422312182615
 30
0.0
 10
716.7975746033393
 20
492.0620110185283
 30
0.0
 10
715.8748849633859
 20
492.3935436844146
 30
0.0
 10
714.9336153877654
 20
492.6803223434057
 30
0.0
 10
714.4514118056027
 20
492.8017320899991
 30
0.0
 10
712.9949805182209
 20
493.0923882593795
 30
0.0
 10
712.0131283707706
 20
493.1895088725635
 30
0.0
 10
711.0203024759226
 20
493.1892711146741
 30
0.0
  0
ARC
  5
E9
330
1F
100
AcDbEntity
  8
0
  6
Continuous
 62
     7
370
    25
100
AcDbCircle
 10
730.0421324607
 20
138.8738796552
 30
0.0
 40
339.2846047955225
100
AcDbArc
 50
87.4536726212
 51
90.6725765984
  0
SPLINE
  5
EA
330
1F
100
AcDbEntity
  8
0
  6
Continuous
 62
     7
370
    25
100
AcDbSpline
210
0.0
220
0.0
230
1.0
 70
     8
 71
     3
 72
    16
 73
    12
 74
     0
 42
0.000000001
 43
0.00000001
 40
0.0
 40
0.0
 40
0.0
 40
0.0
 40
0.1249999999999998
 40
0.1249999999999998
 40
0.2499999999999997
 40
0.2499999999999997
 40
0.4999999999999994
 40
0.4999999999999994
 40
0.7499999999999998
 40
0.7499999999999998
 40
1.0
 40
1.0
 40
1.0
 40
1.0
 10
456.6522070740688
 20
493.4872493614696
 30
0.0
 10
449.8822146199194
 20
493.4872493614696
 30
0.0
 10
443.1131307984348
 20
493.4774273288633
 30
0.0
 10
429.5765946819718
 20
493.4443416553437
 30
0.0
 10
422.8091336501142
 20
493.4214991920606
 30
0.0
 10
402.5085697757138
 20
493.3500740135735
 30
0.0
 10
388.9769370848894
 20
493.3014528049498
 30
0.0
 10
361.9169554810742
 20
493.2335252631128
 30
0.0
 10
348.3891226208129
 20
493.2120754002889
 30
0.0
 10
321.3353701314497
 20
493.1885233762906
 30
0.0
 10
307.8094928932408
 20
493.1860321116325
 30
0.0
 10
294.284111672215
 20
493.1892711146739
 30
0.0
  0
LINE
  5
EB
330
1F
100
AcDbEntity
  8
0
  6
Continuous
 62
     7
370
    25
100
AcDbLine
 10
456.6522070741
 20
493.4872493615
 30
0.0
 11
456.6522070741
 21
512.4918329176
 31
0.0
  0
SPLINE
  5
EC
330
1F
100
AcDbEntity
  8
0
  6
Continuous
 62
     7
370
    25
100
AcDbSpline
210
0.0
220
0.0
230
1.0
 70
     8
 71
     3
 72
     8
 73
     4
 74
     0
 42
0.000000001
 43
0.00000001
 40
0.0
 40
0.0
 40
0.0
 40
0.0
 40
1.0
 40
1.0
 40
1.0
 40
1.0
 10
726.0857375897045
 20
417.8121375570301
 30
0.0
 10
726.0857375897045
 20
437.920793543224
 30
0.0
 10
726.0747365846267
 20
458.028911472714
 30
0.0
 10
726.0594718420145
 20
478.1351086007752
 30
0.0
  0
LINE
  5
ED
330
1F
100
AcDbEntity
  8
0
  6
Continuous
 62
     7
370
    25
100
AcDbLine
 10
726.0857375897
 20
417.812137557
 30
0.0
 11
745.0903211458
 21
417.812137557
 31
0.0
  0
SPLINE
  5
EE
330
1F
100
AcDbEntity
  8
0
  6
Continuous
 62
     7
370
    25
100
AcDbSpline
210
0.0
220
0.0
230
1.0
 70
     8
 71
     3
 72
     8
 73
     4
 74
     0
 42
0.000000001
 43
0.00000001
 40
0.0
 40
0.0
 40
0.0
 40
0.0
 40
1.0
 40
1.0
 40
1.0
 40
1.0
 10
279.2449423061229
 20
478.1351086007751
 30
0.0
 10
279.2296775775434
 20
458.0289299558833
 30
0.0
 10
279.2186765584331
 20
437.9207827989941
 30
0.0
 10
279.2186765584331
 20
417.8121375570302
 30
0.0
  0
LINE
  5
EF
330
1F
100
AcDbEntity
  8
0
  6
Continuous
 62
     7
370
    25
100
AcDbLine
 10
260.2140930023
 20
417.812137557
 30
0.0
 11
279.2186765584
 21
417.812137557
 31
0.0
  0
LINE
  5
F0
330
1F
100
AcDbEntity
  8
0
  6
Continuous
 62
     7
370
    25
100
AcDbLine
 10
279.2186765584
 20
417.812137557
 30
0.0
 11
279.2186765584
 21
325.812137557
 31
0.0
  0
LINE
  5
F1
330
1F
100
AcDbEntity
  8
0
  6
Continuous
 62
     7
370
    25
100
AcDbLine
 10
726.0857375897
 20
325.812137557
 30
0.0
 11
726.0857375897
 21
417.812137557
 31
0.0
  0
LINE
  5
F2
330
1F
100
AcDbEntity
  8
0
  6
Continuous
 62
     7
370
    25
100
AcDbLine
 10
456.6522070741
 20
161.912978003
 30
0.0
 11
548.6522070741
 21
161.912978003
 31
0.0
  0
LINE
  5
F3
330
1F
100
AcDbEntity
  8
0
  6
Continuous
 62
     7
370
    25
100
AcDbLine
 10
548.6522070741
 20
493.4872493615
 30
0.0
 11
456.6522070741
 21
493.4872493615
 31
0.0
  0
LINE
  5
F4
330
1F
100
AcDbEntity
  8
0
  6
Continuous
 62
     7
370
    25
100
AcDbLine
 10
418.9630074727
 20
325.812137557
 30
0.0
 11
279.2186765584
 21
325.812137557
 31
0.0
  0
ARC
  5
F5
330
1F
100
AcDbEntity
  8
0
  6
Continuous
 62
     7
370
    25
100
AcDbCircle
 10
456.6522070741
 20
325.812137557
 30
0.0
 40
37.68919960139988
100
AcDbArc
 50
180.0
 51
270.0
  0
LINE
  5
F6
330
1F
100
AcDbEntity
  8
0
  6
Continuous
 62
     7
370
    25
100
AcDbLine
 10
456.6522070741
 20
288.1229379556
 30
0.0
 11
456.6522070741
 21
161.912978003
 31
0.0
  0
LINE
  5
F7
330
1F
100
AcDbEntity
  8
0
  6
Continuous
 62
     7
370
    25
100
AcDbLine
 10
548.6522070741
 20
288.1229379556
 30
0.0
 11
548.6522070741
 21
161.912978003
 31
0.0
  0
ARC
  5
F8
330
1F
100
AcDbEntity
  8
0
  6
Continuous
 62
     7
370
    25
100
AcDbCircle
 10
548.6522070741
 20
325.812137557
 30
0.0
 40
37.68919960139982
100
AcDbArc
 50
270.0
 51
0.0
  0
LINE
  5
F9
330
1F
100
AcDbEntity
  8
0
  6
Continuous
 62
     7
370
    25
100
AcDbLine
 10
586.3414066755
 20
325.812137557
 30
0.0
 11
726.0857375897
 21
325.812137557
 31
0.0
  0
LINE
  5
FA
330
1F
100
AcDbEntity
  8
0
  6
Continuous
 62
     7
370
    25
100
AcDbLine
 10
586.3414066755
 20
417.812137557
 30
0.0
 11
726.0857375897
 21
417.812137557
 31
0.0
  0
ARC
  5
FB
330
1F
100
AcDbEntity
  8
0
  6
Continuous
 62
     7
370
    25
100
AcDbCircle
 10
548.6522070741
 20
417.812137557
 30
0.0
 40
37.68919960139988
100
AcDbArc
 50
0.0
 51
90.0
  0
LINE
  5
FC
330
1F
100
AcDbEntity
  8
0
  6
Continuous
 62
     7
370
    25
100
AcDbLine
 10
548.6522070741
 20
455.5013371584
 30
0.0
 11
548.6522070741
 21
493.4872493615
 31
0.0
  0
LINE
  5
FD
330
1F
100
AcDbEntity
  8
0
  6
Continuous
 62
     7
370
    25
100
AcDbLine
 10
456.6522070741
 20
455.5013371584
 30
0.0
 11
456.6522070741
 21
493.4872493615
 31
0.0
  0
ARC
  5
FE
330
1F
100
AcDbEntity
  8
0
  6
Continuous
 62
     7
370
    25
100
AcDbCircle
 10
456.6522070741
 20
417.812137557
 30
0.0
 40
37.68919960139982
100
AcDbArc
 50
90.0
 51
180.0
  0
LINE
  5
FF
330
1F
100
AcDbEntity
  8
0
  6
Continuous
 62
     7
370
    25
100
AcDbLine
 10
418.9630074727
 20
417.812137557
 30
0.0
 11
279.2186765584
 21
417.812137557
 31
0.0
  0
LINE
  5
100
330
1F
100
AcDbEntity
  8
0
  6
Continuous
 62
     7
370
    25
100
AcDbLine
 10
418.9630074727
 20
325.812137557
 30
0.0
 11
418.9630074727
 21
417.812137557
 31
0.0
  0
LINE
  5
101
330
1F
100
AcDbEntity
  8
0
  6
Continuous
 62
     7
370
    25
100
AcDbLine
 10
586.3414066755
 20
417.812137557
 30
0.0
 11
586.3414066755
 21
325.812137557
 31
0.0
  0
LINE
  5
102
330
1F
100
AcDbEntity
  8
0
  6
Continuous
 62
     7
370
    25
100
AcDbLine
 10
548.6522070741
 20
288.1229379556
 30
0.0
 11
456.6522070741
 21
288.1229379556
 31
0.0
  0
LINE
  5
103
330
1F
100
AcDbEntity
  8
0
  6
Continuous
 62
     7
370
    25
100
AcDbLine
 10
456.6522070741
 20
455.5013371584
 30
0.0
 11
548.6522070741
 21
455.5013371584
 31
0.0
  0
LINE
  5
104
330
1F
100
AcDbEntity
  8
0
  6
Continuous
 62
     7
370
    25
100
AcDbLine
 10
548.6522070741
 20
455.1255936963
 30
0.0
 11
456.6522070741
 21
455.1255936963
 31
0.0
  0
LINE
  5
105
330
1F
100
AcDbEntity
  8
0
  6
Continuous
 62
     7
370
    25
100
AcDbLine
 10
456.6522070741
 20
455.1255936963
 30
0.0
 11
456.6522070741
 21
455.5013371584
 31
0.0
  0
LINE
  5
106
330
1F
100
AcDbEntity
  8
0
  6
Continuous
 62
     7
370
    25
100
AcDbLine
 10
548.6522070741
 20
455.1255936963
 30
0.0
 11
548.6522070741
 21
455.5013371584
 31
0.0
  0
LINE
  5
107
330
1F
100
AcDbEntity
  8
0
  6
Continuous
 62
     7
370
    25
100
AcDbLine
 10
418.9630074727
 20
325.812137557
 30
0.0
 11
419.3387509348
 21
325.812137557
 31
0.0
  0
ARC
  5
108
330
1F
100
AcDbEntity
  8
0
  6
Continuous
 62
     7
370
    25
100
AcDbCircle
 10
456.6522070741
 20
325.812137557
 30
0.0
 40
37.31345613924617
100
AcDbArc
 50
180.0
 51
270.0
  0
LINE
  5
109
330
1F
100
AcDbEntity
  8
0
  6
Continuous
 62
     7
370
    25
100
AcDbLine
 10
456.6522070741
 20
288.1229379556
 30
0.0
 11
456.6522070741
 21
288.4986814178
 31
0.0
  0
ARC
  5
10A
330
1F
100
AcDbEntity
  8
0
  6
Continuous
 62
     7
370
    25
100
AcDbCircle
 10
456.6522070741
 20
417.812137557
 30
0.0
 40
37.31345613924611
100
AcDbArc
 50
90.0
 51
180.0
  0
LINE
  5
10B
330
1F
100
AcDbEntity
  8
0
  6
Continuous
 62
     7
370
    25
100
AcDbLine
 10
418.9630074727
 20
417.812137557
 30
0.0
 11
419.3387509348
 21
417.812137557
 31
0.0
  0
LINE
  5
10C
330
1F
100
AcDbEntity
  8
0
  6
Continuous
 62
     7
370
    25
100
AcDbLine
 10
456.6522070741
 20
288.4986814178
 30
0.0
 11
548.6522070741
 21
288.4986814178
 31
0.0
  0
LINE
  5
10D
330
1F
100
AcDbEntity
  8
0
  6
Continuous
 62
     7
370
    25
100
AcDbLine
 10
548.6522070741
 20
288.1229379556
 30
0.0
 11
548.6522070741
 21
288.4986814178
 31
0.0
  0
ARC
  5
10E
330
1F
100
AcDbEntity
  8
0
  6
Continuous
 62
     7
370
    25
100
AcDbCircle
 10
548.6522070741
 20
325.812137557
 30
0.0
 40
37.31345613924611
100
AcDbArc
 50
270.0
 51
0.0
  0
LINE
  5
10F
330
1F
100
AcDbEntity
  8
0
  6
Continuous
 62
     7
370
    25
100
AcDbLine
 10
585.9656632133
 20
325.812137557
 30
0.0
 11
586.3414066755
 21
325.812137557
 31
0.0
  0
LINE
  5
110
330
1F
100
AcDbEntity
  8
0
  6
Continuous
 62
     7
370
    25
100
AcDbLine
 10
585.9656632133
 20
325.812137557
 30
0.0
 11
585.9656632133
 21
417.812137557
 31
0.0
  0
LINE
  5
111
330
1F
100
AcDbEntity
  8
0
  6
Continuous
 62
     7
370
    25
100
AcDbLine
 10
585.9656632133
 20
417.812137557
 30
0.0
 11
586.3414066755
 21
417.812137557
 31
0.0
  0
ARC
  5
112
330
1F
100
AcDbEntity
  8
0
  6
Continuous
 62
     7
370
    25
100
AcDbCircle
 10
548.6522070741
 20
417.812137557
 30
0.0
 40
37.31345613924623
100
AcDbArc
 50
0.0
 51
90.0
  0
LINE
  5
113
330
1F
100
AcDbEntity
  8
0
  6
Continuous
 62
     7
370
    25
100
AcDbLine
 10
419.3387509348
 20
417.812137557
 30
0.0
 11
419.3387509348
 21
325.812137557
 31
0.0
  0
LINE
  5
114
330
1F
100
AcDbEntity
  8
0
  6
Continuous
 62
     7
370
    25
100
AcDbLine
 10
585.9656632133
 20
417.812137557
 30
0.0
 11
577.579899308
 21
417.812137557
 31
0.0
  0
ARC
  5
115
330
1F
100
AcDbEntity
  8
0
  6
Continuous
 62
     7
370
    25
100
AcDbCircle
 10
548.6522070741
 20
417.812137557
 30
0.0
 40
28.92769223394612
100
AcDbArc
 50
0.0
 51
90.0
  0
LINE
  5
116
330
1F
100
AcDbEntity
  8
0
  6
Continuous
 62
     7
370
    25
100
AcDbLine
 10
548.6522070741
 20
455.1255936963
 30
0.0
 11
548.6522070741
 21
446.739829791
 31
0.0
  0
LINE
  5
117
330
1F
100
AcDbEntity
  8
0
  6
Continuous
 62
     7
370
    25
100
AcDbLine
 10
456.6522070741
 20
296.8844453231
 30
0.0
 11
456.6522070741
 21
288.4986814178
 31
0.0
  0
LINE
  5
118
330
1F
100
AcDbEntity
  8
0
  6
Continuous
 62
     7
370
    25
100
AcDbLine
 10
548.6522070741
 20
296.8844453231
 30
0.0
 11
456.6522070741
 21
296.8844453231
 31
0.0
  0
LINE
  5
119
330
1F
100
AcDbEntity
  8
0
  6
Continuous
 62
     7
370
    25
100
AcDbLine
 10
548.6522070741
 20
296.8844453231
 30
0.0
 11
548.6522070741
 21
288.4986814178
 31
0.0
  0
LINE
  5
11A
330
1F
100
AcDbEntity
  8
0
  6
Continuous
 62
     7
370
    25
100
AcDbLine
 10
427.7245148401
 20
325.812137557
 30
0.0
 11
419.3387509348
 21
325.812137557
 31
0.0
  0
ARC
  5
11B
330
1F
100
AcDbEntity
  8
0
  6
Continuous
 62
     7
370
    25
100
AcDbCircle
 10
456.6522070741
 20
325.812137557
 30
0.0
 40
28.92769223394612
100
AcDbArc
 50
180.0
 51
270.0
  0
LINE
  5
11C
330
1F
100
AcDbEntity
  8
0
  6
Continuous
 62
     7
370
    25
100
AcDbLine
 10
456.6522070741
 20
455.1255936963
 30
0.0
 11
456.6522070741
 21
446.739829791
 31
0.0
  0
ARC
  5
11D
330
1F
100
AcDbEntity
  8
0
  6
Continuous
 62
     7
370
    25
100
AcDbCircle
 10
456.6522070741
 20
417.812137557
 30
0.0
 40
28.92769223394606
100
AcDbArc
 50
90.0
 51
180.0
  0
LINE
  5
11E
330
1F
100
AcDbEntity
  8
0
  6
Continuous
 62
     7
370
    25
100
AcDbLine
 10
419.3387509348
 20
417.812137557
 30
0.0
 11
427.7245148401
 21
417.812137557
 31
0.0
  0
LINE
  5
11F
330
1F
100
AcDbEntity
  8
0
  6
Continuous
 62
     7
370
    25
100
AcDbLine
 10
456.6522070741
 20
446.739829791
 30
0.0
 11
548.6522070741
 21
446.739829791
 31
0.0
  0
LINE
  5
120
330
1F
100
AcDbEntity
  8
0
  6
Continuous
 62
     7
370
    25
100
AcDbLine
 10
427.7245148401
 20
325.812137557
 30
0.0
 11
427.7245148401
 21
417.812137557
 31
0.0
  0
LINE
  5
121
330
1F
100
AcDbEntity
  8
0
  6
Continuous
 62
     7
370
    25
100
AcDbLine
 10
577.579899308
 20
325.812137557
 30
0.0
 11
585.9656632133
 21
325.812137557
 31
0.0
  0
LINE
  5
122
330
1F
100
AcDbEntity
  8
0
  6
Continuous
 62
     7
370
    25
100
AcDbLine
 10
577.579899308
 20
417.812137557
 30
0.0
 11
577.579899308
 21
325.812137557
 31
0.0
  0
ARC
  5
123
330
1F
100
AcDbEntity
  8
0
  6
Continuous
 62
     7
370
    25
100
AcDbCircle
 10
548.6522070741
 20
325.812137557
 30
0.0
 40
28.92769223394612
100
AcDbArc
 50
270.0
 51
0.0
  0
ARC
  5
124
330
1F
100
AcDbEntity
  8
0
  6
Continuous
 62
     7
370
    25
100
AcDbCircle
 10
548.6522070741
 20
417.812137557
 30
0.0
 40
28.43270341969355
100
AcDbArc
 50
0.0
 51
90.0
  0
LINE
  5
125
330
1F
100
AcDbEntity
  8
0
  6
Continuous
 62
     7
370
    25
100
AcDbLine
 10
548.6522070741
 20
446.2448409767
 30
0.0
 11
548.6522070741
 21
446.739829791
 31
0.0
  0
LINE
  5
126
330
1F
100
AcDbEntity
  8
0
  6
Continuous
 62
     7
370
    25
100
AcDbLine
 10
577.0849104938
 20
417.812137557
 30
0.0
 11
577.579899308
 21
417.812137557
 31
0.0
  0
LINE
  5
127
330
1F
100
AcDbEntity
  8
0
  6
Continuous
 62
     7
370
    25
100
AcDbLine
 10
427.7245148401
 20
417.812137557
 30
0.0
 11
428.2195036544
 21
417.812137557
 31
0.0
  0
LINE
  5
128
330
1F
100
AcDbEntity
  8
0
  6
Continuous
 62
     7
370
    25
100
AcDbLine
 10
428.2195036544
 20
417.812137557
 30
0.0
 11
428.2195036544
 21
325.812137557
 31
0.0
  0
LINE
  5
129
330
1F
100
AcDbEntity
  8
0
  6
Continuous
 62
     7
370
    25
100
AcDbLine
 10
427.7245148401
 20
325.812137557
 30
0.0
 11
428.2195036544
 21
325.812137557
 31
0.0
  0
ARC
  5
12A
330
1F
100
AcDbEntity
  8
0
  6
Continuous
 62
     7
370
    25
100
AcDbCircle
 10
548.6522070741
 20
325.812137557
 30
0.0
 40
28.43270341969355
100
AcDbArc
 50
270.0
 51
0.0
  0
LINE
  5
12B
330
1F
100
AcDbEntity
  8
0
  6
Continuous
 62
     7
370
    25
100
AcDbLine
 10
577.0849104938
 20
325.812137557
 30
0.0
 11
577.579899308
 21
325.812137557
 31
0.0
  0
LINE
  5
12C
330
1F
100
AcDbEntity
  8
0
  6
Continuous
 62
     7
370
    25
100
AcDbLine
 10
548.6522070741
 20
296.8844453231
 30
0.0
 11
548.6522070741
 21
297.3794341373
 31
0.0
  0
LINE
  5
12D
330
1F
100
AcDbEntity
  8
0
  6
Continuous
 62
     7
370
    25
100
AcDbLine
 10
577.0849104938
 20
325.812137557
 30
0.0
 11
577.0849104938
 21
417.812137557
 31
0.0
  0
LINE
  5
12E
330
1F
100
AcDbEntity
  8
0
  6
Continuous
 62
     7
370
    25
100
AcDbLine
 10
548.6522070741
 20
446.2448409767
 30
0.0
 11
456.6522070741
 21
446.2448409767
 31
0.0
  0
LINE
  5
12F
330
1F
100
AcDbEntity
  8
0
  6
Continuous
 62
     7
370
    25
100
AcDbLine
 10
456.6522070741
 20
446.2448409767
 30
0.0
 11
456.6522070741
 21
446.739829791
 31
0.0
  0
ARC
  5
130
330
1F
100
AcDbEntity
  8
0
  6
Continuous
 62
     7
370
    25
100
AcDbCircle
 10
456.6522070741
 20
417.812137557
 30
0.0
 40
28.4327034196935
100
AcDbArc
 50
90.0
 51
180.0
  0
LINE
  5
131
330
1F
100
AcDbEntity
  8
0
  6
Continuous
 62
     7
370
    25
100
AcDbLine
 10
456.6522070741
 20
296.8844453231
 30
0.0
 11
456.6522070741
 21
297.3794341373
 31
0.0
  0
LINE
  5
132
330
1F
100
AcDbEntity
  8
0
  6
Continuous
 62
     7
370
    25
100
AcDbLine
 10
456.6522070741
 20
297.3794341373
 30
0.0
 11
548.6522070741
 21
297.3794341373
 31
0.0
  0
ARC
  5
133
330
1F
100
AcDbEntity
  8
0
  6
Continuous
 62
     7
370
    25
100
AcDbCircle
 10
456.6522070741
 20
325.812137557
 30
0.0
 40
28.4327034196935
100
AcDbArc
 50
180.0
 51
270.0
  0
ARC
  5
134
330
1F
100
AcDbEntity
  8
0
  6
Continuous
 62
     7
370
    25
100
AcDbCircle
 10
456.6522070741
 20
417.812137557
 30
0.0
 40
28.42891012910513
100
AcDbArc
 50
90.0
 51
180.0
  0
LINE
  5
135
330
1F
100
AcDbEntity
  8
0
  6
Continuous
 62
     7
370
    25
100
AcDbLine
 10
428.223296945
 20
417.812137557
 30
0.0
 11
428.2195036544
 21
417.812137557
 31
0.0
  0
LINE
  5
136
330
1F
100
AcDbEntity
  8
0
  6
Continuous
 62
     7
370
    25
100
AcDbLine
 10
456.6522070741
 20
446.2410476861
 30
0.0
 11
456.6522070741
 21
446.2448409767
 31
0.0
  0
ARC
  5
137
330
1F
100
AcDbEntity
  8
0
  6
Continuous
 62
     7
370
    25
100
AcDbCircle
 10
548.6522070741
 20
417.812137557
 30
0.0
 40
28.42891012910513
100
AcDbArc
 50
0.0
 51
90.0
  0
LINE
  5
138
330
1F
100
AcDbEntity
  8
0
  6
Continuous
 62
     7
370
    25
100
AcDbLine
 10
548.6522070741
 20
446.2410476861
 30
0.0
 11
548.6522070741
 21
446.2448409767
 31
0.0
  0
LINE
  5
139
330
1F
100
AcDbEntity
  8
0
  6
Continuous
 62
     7
370
    25
100
AcDbLine
 10
577.0811172032
 20
417.812137557
 30
0.0
 11
577.0849104938
 21
417.812137557
 31
0.0
  0
ARC
  5
13A
330
1F
100
AcDbEntity
  8
0
  6
Continuous
 62
     7
370
    25
100
AcDbCircle
 10
548.6522070741
 20
325.812137557
 30
0.0
 40
28.42891012910513
100
AcDbArc
 50
270.0
 51
0.0
  0
LINE
  5
13B
330
1F
100
AcDbEntity
  8
0
  6
Continuous
 62
     7
370
    25
100
AcDbLine
 10
577.0811172032
 20
325.812137557
 30
0.0
 11
577.0849104938
 21
325.812137557
 31
0.0
  0
LINE
  5
13C
330
1F
100
AcDbEntity
  8
0
  6
Continuous
 62
     7
370
    25
100
AcDbLine
 10
548.6522070741
 20
297.3832274279
 30
0.0
 11
548.6522070741
 21
297.3794341373
 31
0.0
  0
LINE
  5
13D
330
1F
100
AcDbEntity
  8
0
  6
Continuous
 62
     7
370
    25
100
AcDbLine
 10
548.6522070741
 20
297.3832274279
 30
0.0
 11
456.6522070741
 21
297.3832274279
 31
0.0
  0
LINE
  5
13E
330
1F
100
AcDbEntity
  8
0
  6
Continuous
 62
     7
370
    25
100
AcDbLine
 10
456.6522070741
 20
297.3832274279
 30
0.0
 11
456.6522070741
 21
297.3794341373
 31
0.0
  0
ARC
  5
13F
330
1F
100
AcDbEntity
  8
0
  6
Continuous
 62
     7
370
    25
100
AcDbCircle
 10
456.6522070741
 20
325.812137557
 30
0.0
 40
28.42891012910513
100
AcDbArc
 50
180.0
 51
270.0
  0
LINE
  5
140
330
1F
100
AcDbEntity
  8
0
  6
Continuous
 62
     7
370
    25
100
AcDbLine
 10
428.223296945
 20
325.812137557
 30
0.0
 11
428.2195036544
 21
325.812137557
 31
0.0
  0
LINE
  5
141
330
1F
100
AcDbEntity
  8
0
  6
Continuous
 62
     7
370
    25
100
AcDbLine
 10
577.0811172032
 20
417.812137557
 30
0.0
 11
577.0811172032
 21
325.812137557
 31
0.0
  0
LINE
  5
142
330
1F
100
AcDbEntity
  8
0
  6
Continuous
 62
     7
370
    25
100
AcDbLine
 10
456.6522070741
 20
446.2410476861
 30
0.0
 11
548.6522070741
 21
446.2410476861
 31
0.0
  0
LINE
  5
143
330
1F
100
AcDbEntity
  8
0
  6
Continuous
 62
     7
370
    25
100
AcDbLine
 10
428.223296945
 20
325.812137557
 30
0.0
 11
428.223296945
 21
417.812137557
 31
0.0
  0
ARC
  5
144
330
1F
100
AcDbEntity
  8
0
  6
Continuous
 62
     7
370
    25
100
AcDbCircle
 10
456.6522070741
 20
417.812137557
 30
0.0
 40
27.93392131485257
100
AcDbArc
 50
90.0
 51
180.0
  0
LINE
  5
145
330
1F
100
AcDbEntity
  8
0
  6
Continuous
 62
     7
370
    25
100
AcDbLine
 10
428.223296945
 20
417.812137557
 30
0.0
 11
428.7182857592
 21
417.812137557
 31
0.0
  0
LINE
  5
146
330
1F
100
AcDbEntity
  8
0
  6
Continuous
 62
     7
370
    25
100
AcDbLine
 10
456.6522070741
 20
445.7460588719
 30
0.0
 11
456.6522070741
 21
446.2410476861
 31
0.0
  0
ARC
  5
147
330
1F
100
AcDbEntity
  8
0
  6
Continuous
 62
     7
370
    25
100
AcDbCircle
 10
548.6522070741
 20
325.812137557
 30
0.0
 40
27.93392131485257
100
AcDbArc
 50
270.0
 51
0.0
  0
LINE
  5
148
330
1F
100
AcDbEntity
  8
0
  6
Continuous
 62
     7
370
    25
100
AcDbLine
 10
576.5861283889
 20
325.812137557
 30
0.0
 11
577.0811172032
 21
325.812137557
 31
0.0
  0
LINE
  5
149
330
1F
100
AcDbEntity
  8
0
  6
Continuous
 62
     7
370
    25
100
AcDbLine
 10
548.6522070741
 20
297.3832274279
 30
0.0
 11
548.6522070741
 21
297.8782162422
 31
0.0
  0
LINE
  5
14A
330
1F
100
AcDbEntity
  8
0
  6
Continuous
 62
     7
370
    25
100
AcDbLine
 10
456.6522070741
 20
297.3832274279
 30
0.0
 11
456.6522070741
 21
297.8782162422
 31
0.0
  0
LINE
  5
14B
330
1F
100
AcDbEntity
  8
0
  6
Continuous
 62
     7
370
    25
100
AcDbLine
 10
456.6522070741
 20
297.8782162422
 30
0.0
 11
548.6522070741
 21
297.8782162422
 31
0.0
  0
LINE
  5
14C
330
1F
100
AcDbEntity
  8
0
  6
Continuous
 62
     7
370
    25
100
AcDbLine
 10
428.7182857592
 20
417.812137557
 30
0.0
 11
428.7182857592
 21
325.812137557
 31
0.0
  0
LINE
  5
14D
330
1F
100
AcDbEntity
  8
0
  6
Continuous
 62
     7
370
    25
100
AcDbLine
 10
428.223296945
 20
325.812137557
 30
0.0
 11
428.7182857592
 21
325.812137557
 31
0.0
  0
LINE
  5
14E
330
1F
100
AcDbEntity
  8
0
  6
Continuous
 62
     7
370
    25
100
AcDbLine
 10
576.5861283889
 20
325.812137557
 30
0.0
 11
576.5861283889
 21
417.812137557
 31
0.0
  0
LINE
  5
14F
330
1F
100
AcDbEntity
  8
0
  6
Continuous
 62
     7
370
    25
100
AcDbLine
 10
576.5861283889
 20
417.812137557
 30
0.0
 11
577.0811172032
 21
417.812137557
 31
0.0
  0
ARC
  5
150
330
1F
100
AcDbEntity
  8
0
  6
Continuous
 62
     7
370
    25
100
AcDbCircle
 10
456.6522070741
 20
325.812137557
 30
0.0
 40
27.93392131485257
100
AcDbArc
 50
180.0
 51
270.0
  0
LINE
  5
151
330
1F
100
AcDbEntity
  8
0
  6
Continuous
 62
     7
370
    25
100
AcDbLine
 10
548.6522070741
 20
445.7460588719
 30
0.0
 11
456.6522070741
 21
445.7460588719
 31
0.0
  0
LINE
  5
152
330
1F
100
AcDbEntity
  8
0
  6
Continuous
 62
     7
370
    25
100
AcDbLine
 10
548.6522070741
 20
445.7460588719
 30
0.0
 11
548.6522070741
 21
446.2410476861
 31
0.0
  0
ARC
  5
153
330
1F
100
AcDbEntity
  8
0
  6
Continuous
 62
     7
370
    25
100
AcDbCircle
 10
548.6522070741
 20
417.812137557
 30
0.0
 40
27.93392131485257
100
AcDbArc
 50
0.0
 51
90.0
  0
LINE
  5
154
330
1F
100
AcDbEntity
  8
0
  6
Continuous
 62
     7
370
    25
100
AcDbLine
 10
429.9771541225
 20
325.812137557
 30
0.0
 11
429.9771541225
 21
417.812137557
 31
0.0
  0
LINE
  5
155
330
1F
100
AcDbEntity
  8
0
  6
Continuous
 62
     7
370
    25
100
AcDbLine
 10
429.9771541225
 20
325.812137557
 30
0.0
 11
428.7182857592
 21
325.812137557
 31
0.0
  0
LINE
  5
156
330
1F
100
AcDbEntity
  8
0
  6
Continuous
 62
     7
370
    25
100
AcDbLine
 10
429.9771541225
 20
417.812137557
 30
0.0
 11
428.7182857592
 21
417.812137557
 31
0.0
  0
LINE
  5
157
330
1F
100
AcDbEntity
  8
0
  6
Continuous
 62
     7
370
    25
100
AcDbLine
 10
548.6522070741
 20
299.1370846055
 30
0.0
 11
456.6522070741
 21
299.1370846055
 31
0.0
  0
LINE
  5
158
330
1F
100
AcDbEntity
  8
0
  6
Continuous
 62
     7
370
    25
100
AcDbLine
 10
548.6522070741
 20
299.1370846055
 30
0.0
 11
548.6522070741
 21
297.8782162422
 31
0.0
  0
LINE
  5
159
330
1F
100
AcDbEntity
  8
0
  6
Continuous
 62
     7
370
    25
100
AcDbLine
 10
456.6522070741
 20
299.1370846055
 30
0.0
 11
456.6522070741
 21
297.8782162422
 31
0.0
  0
ARC
  5
15A
330
1F
100
AcDbEntity
  8
0
  6
Continuous
 62
     7
370
    25
100
AcDbCircle
 10
548.6522070741
 20
417.812137557
 30
0.0
 40
26.67505295156764
100
AcDbArc
 50
0.0
 51
90.0
  0
LINE
  5
15B
330
1F
100
AcDbEntity
  8
0
  6
Continuous
 62
     7
370
    25
100
AcDbLine
 10
548.6522070741
 20
444.4871905086
 30
0.0
 11
548.6522070741
 21
445.7460588719
 31
0.0
  0
LINE
  5
15C
330
1F
100
AcDbEntity
  8
0
  6
Continuous
 62
     7
370
    25
100
AcDbLine
 10
575.3272600256
 20
417.812137557
 30
0.0
 11
576.5861283889
 21
417.812137557
 31
0.0
  0
LINE
  5
15D
330
1F
100
AcDbEntity
  8
0
  6
Continuous
 62
     7
370
    25
100
AcDbLine
 10
456.6522070741
 20
444.4871905086
 30
0.0
 11
548.6522070741
 21
444.4871905086
 31
0.0
  0
LINE
  5
15E
330
1F
100
AcDbEntity
  8
0
  6
Continuous
 62
     7
370
    25
100
AcDbLine
 10
456.6522070741
 20
444.4871905086
 30
0.0
 11
456.6522070741
 21
445.7460588719
 31
0.0
  0
ARC
  5
15F
330
1F
100
AcDbEntity
  8
0
  6
Continuous
 62
     7
370
    25
100
AcDbCircle
 10
548.6522070741
 20
325.812137557
 30
0.0
 40
26.67505295156764
100
AcDbArc
 50
270.0
 51
0.0
  0
LINE
  5
160
330
1F
100
AcDbEntity
  8
0
  6
Continuous
 62
     7
370
    25
100
AcDbLine
 10
575.3272600256
 20
325.812137557
 30
0.0
 11
576.5861283889
 21
325.812137557
 31
0.0
  0
ARC
  5
161
330
1F
100
AcDbEntity
  8
0
  6
Continuous
 62
     7
370
    25
100
AcDbCircle
 10
456.6522070741
 20
417.812137557
 30
0.0
 40
26.67505295156758
100
AcDbArc
 50
90.0
 51
180.0
  0
ARC
  5
162
330
1F
100
AcDbEntity
  8
0
  6
Continuous
 62
     7
370
    25
100
AcDbCircle
 10
456.6522070741
 20
325.812137557
 30
0.0
 40
26.67505295156758
100
AcDbArc
 50
180.0
 51
270.0
  0
LINE
  5
163
330
1F
100
AcDbEntity
  8
0
  6
Continuous
 62
     7
370
    25
100
AcDbLine
 10
575.3272600256
 20
417.812137557
 30
0.0
 11
575.3272600256
 21
325.812137557
 31
0.0
  0
ARC
  5
164
330
1F
100
AcDbEntity
  8
0
  6
Continuous
 62
     7
370
    25
100
AcDbCircle
 10
548.6522070741
 20
417.812137557
 30
0.0
 40
24.2001088803047
100
AcDbArc
 50
0.0
 51
90.0
  0
LINE
  5
165
330
1F
100
AcDbEntity
  8
0
  6
Continuous
 62
     7
370
    25
100
AcDbLine
 10
548.6522070741
 20
442.0122464373
 30
0.0
 11
548.6522070741
 21
444.4871905086
 31
0.0
  0
LINE
  5
166
330
1F
100
AcDbEntity
  8
0
  6
Continuous
 62
     7
370
    25
100
AcDbLine
 10
572.8523159544
 20
417.812137557
 30
0.0
 11
575.3272600256
 21
417.812137557
 31
0.0
  0
ARC
  5
167
330
1F
100
AcDbEntity
  8
0
  6
Continuous
 62
     7
370
    25
100
AcDbCircle
 10
548.6522070741
 20
325.812137557
 30
0.0
 40
24.2001088803047
100
AcDbArc
 50
270.0
 51
0.0
  0
LINE
  5
168
330
1F
100
AcDbEntity
  8
0
  6
Continuous
 62
     7
370
    25
100
AcDbLine
 10
572.8523159544
 20
325.812137557
 30
0.0
 11
575.3272600256
 21
325.812137557
 31
0.0
  0
LINE
  5
169
330
1F
100
AcDbEntity
  8
0
  6
Continuous
 62
     7
370
    25
100
AcDbLine
 10
548.6522070741
 20
299.1370846055
 30
0.0
 11
548.6522070741
 21
301.6120286767
 31
0.0
  0
LINE
  5
16A
330
1F
100
AcDbEntity
  8
0
  6
Continuous
 62
     7
370
    25
100
AcDbLine
 10
429.9771541225
 20
417.812137557
 30
0.0
 11
432.4520981938
 21
417.812137557
 31
0.0
  0
LINE
  5
16B
330
1F
100
AcDbEntity
  8
0
  6
Continuous
 62
     7
370
    25
100
AcDbLine
 10
432.4520981938
 20
417.812137557
 30
0.0
 11
432.4520981938
 21
325.812137557
 31
0.0
  0
LINE
  5
16C
330
1F
100
AcDbEntity
  8
0
  6
Continuous
 62
     7
370
    25
100
AcDbLine
 10
429.9771541225
 20
325.812137557
 30
0.0
 11
432.4520981938
 21
325.812137557
 31
0.0
  0
LINE
  5
16D
330
1F
100
AcDbEntity
  8
0
  6
Continuous
 62
     7
370
    25
100
AcDbLine
 10
456.6522070741
 20
299.1370846055
 30
0.0
 11
456.6522070741
 21
301.6120286767
 31
0.0
  0
LINE
  5
16E
330
1F
100
AcDbEntity
  8
0
  6
Continuous
 62
     7
370
    25
100
AcDbLine
 10
456.6522070741
 20
301.6120286767
 30
0.0
 11
548.6522070741
 21
301.6120286767
 31
0.0
  0
ARC
  5
16F
330
1F
100
AcDbEntity
  8
0
  6
Continuous
 62
     7
370
    25
100
AcDbCircle
 10
456.6522070741
 20
417.812137557
 30
0.0
 40
24.20010888030464
100
AcDbArc
 50
90.0
 51
180.0
  0
LINE
  5
170
330
1F
100
AcDbEntity
  8
0
  6
Continuous
 62
     7
370
    25
100
AcDbLine
 10
456.6522070741
 20
442.0122464373
 30
0.0
 11
456.6522070741
 21
444.4871905086
 31
0.0
  0
LINE
  5
171
330
1F
100
AcDbEntity
  8
0
  6
Continuous
 62
     7
370
    25
100
AcDbLine
 10
548.6522070741
 20
442.0122464373
 30
0.0
 11
456.6522070741
 21
442.0122464373
 31
0.0
  0
ARC
  5
172
330
1F
100
AcDbEntity
  8
0
  6
Continuous
 62
     7
370
    25
100
AcDbCircle
 10
456.6522070741
 20
325.812137557
 30
0.0
 40
24.20010888030464
100
AcDbArc
 50
180.0
 51
270.0
  0
LINE
  5
173
330
1F
100
AcDbEntity
  8
0
  6
Continuous
 62
     7
370
    25
100
AcDbLine
 10
572.8523159544
 20
325.812137557
 30
0.0
 11
572.8523159544
 21
417.812137557
 31
0.0
  0
SPLINE
  5
174
330
1F
100
AcDbEntity
  8
0
  6
Continuous
 62
     7
370
    25
100
AcDbSpline
210
0.0
220
0.0
230
1.0
 70
     8
 71
     3
 72
    82
 73
    78
 74
     0
 42
0.000000001
 43
0.00000001
 40
0.0
 40
0.0
 40
0.0
 40
0.0
 40
0.0133327274613898
 40
0.0266655068544504
 40
0.0399983367179804
 40
0.0533312155907713
 40
0.0666641420116152
 40
0.0799971145192988
 40
0.093330131652606
 40
0.1066631919503179
 40
0.1199962939512124
 40
0.1333294361940652
 40
0.1466626172176491
 40
0.159995835560732
 40
0.1733290897620832
 40
0.1866623783604677
 40
0.1999956998946473
 40
0.213329052903384
 40
0.2266624359254355
 40
0.2399958474995583
 40
0.253329286164509
 40
0.2666627504590394
 40
0.2799962389219023
 40
0.2933297500918468
 40
0.3066632825076234
 40
0.3199968347079793
 40
0.3333304052316602
 40
0.3466639926174136
 40
0.3599975954039835
 40
0.3733312121301126
 40
0.3866648413345479
 40
0.3999984815560286
 40
0.4133321313332997
 40
0.4266657892051023
 40
0.4399994537101785
 40
0.4533331233872701
 40
0.4666667967751206
 40
0.4800004724124701
 40
0.4933341488380634
 40
0.506667824590641
 40
0.5200014982089478
 40
0.5333351682317274
 40
0.5466688331977251
 40
0.5600024916456853
 40
0.5733361421143551
 40
0.5866697831424832
 40
0.6000034132688175
 40
0.6133370310321076
 40
0.6266706349711064
 40
0.640004223624566
 40
0.6533377955312415
 40
0.66667134922989
 40
0.680004883259269
 40
0.6933383961581395
 40
0.7066718864652642
 40
0.7200053527194079
 40
0.7333387934593373
 40
0.746672207223822
 40
0.7600055925516349
 40
0.7733389479815501
 40
0.7866722720523457
 40
0.8000055633028018
 40
0.8133388202717022
 40
0.826672041497834
 40
0.8400052255199871
 40
0.8533383708769549
 40
0.866671476107534
 40
0.8800045397505253
 40
0.8933375603447326
 40
0.906670536428964
 40
0.9200034665420317
 40
0.933336349222752
 40
0.946669183009945
 40
0.9600019664424346
 40
0.9733346980590507
 40
0.9866673763986263
 40
1.0
 40
1.0
 40
1.0
 40
1.0
 10
572.0342042627254
 20
325.8121375570267
 30
0.0
 10
572.0332526632268
 20
325.6488992159642
 30
0.0
 10
572.0313494605232
 20
325.3224218980174
 30
0.0
 10
572.015487860116
 20
324.8329167899807
 30
0.0
 10
571.9901118258772
 20
324.34383731409
 30
0.0
 10
571.9542984736713
 20
323.8553979570858
 30
0.0
 10
571.9083136939519
 20
323.3678132110409
 30
0.0
 10
571.8521105405566
 20
322.8812971179623
 30
0.0
 10
571.7857315778145
 20
322.3960632724837
 30
0.0
 10
571.7092010582444
 20
321.912324702061
 30
0.0
 10
571.6225537979722
 20
321.4302937802927
 30
0.0
 10
571.5258274214262
 20
320.9501821317176
 30
0.0
 10
571.4190644187768
 20
320.4722005393018
 30
0.0
 10
571.3023115715727
 20
319.9965588516635
 30
0.0
 10
571.1756200811116
 20
319.5234658908765
 30
0.0
 10
571.0390455060632
 20
319.05312936068
 30
0.0
 10
570.892647748766
 20
318.5857557551913
 30
0.0
 10
570.7364910260576
 20
318.1215502681472
 30
0.0
 10
570.570643841842
 20
317.6607167027176
 30
0.0
 10
570.3951789567952
 20
317.203457381929
 30
0.0
 10
570.2101733564634
 20
316.7499730597402
 30
0.0
 10
570.015708217429
 20
316.3004628328061
 30
0.0
 10
569.811868871657
 20
315.855124052971
 30
0.0
 10
569.5987447690046
 20
315.4141522405278
 30
0.0
 10
569.3764294379247
 20
314.9777409982835
 30
0.0
 10
569.1450204443732
 20
314.5460819264666
 30
0.0
 10
568.9046193489419
 20
314.1193645385154
 30
0.0
 10
568.6553316622347
 20
313.6977761777836
 30
0.0
 10
568.3972667985062
 20
313.2815019351997
 30
0.0
 10
568.1305380275844
 20
312.8707245679175
 30
0.0
 10
567.8552624250967
 20
312.4656244189913
 30
0.0
 10
567.5715608210243
 20
312.0663793381138
 30
0.0
 10
567.2795577466029
 20
311.67316460345
 30
0.0
 10
566.9793813795987
 20
311.2861528446011
 30
0.0
 10
566.6711634879789
 20
310.9055139667338
 30
0.0
 10
566.3550393720036
 20
310.5314150759072
 30
0.0
 10
566.0311478047653
 20
310.1640204056308
 30
0.0
 10
565.699630971201
 20
309.803491244685
 30
0.0
 10
565.3606344056033
 20
309.4499858662373
 30
0.0
 10
565.0143069276596
 20
309.1036594582841
 30
0.0
 10
564.6608005770464
 20
308.7646640554489
 30
0.0
 10
564.3002705466071
 20
308.4331484721681
 30
0.0
 10
563.9328751141445
 20
308.1092582372921
 30
0.0
 10
563.5587755728558
 20
307.7931355301312
 30
0.0
 10
563.1781361604427
 20
307.4849191179754
 30
0.0
 10
562.7911239869252
 20
307.1847442951134
 30
0.0
 10
562.3979089611951
 20
306.8927428233801
 30
0.0
 10
561.9986637163361
 20
306.6090428742563
 30
0.0
 10
561.5935635337487
 20
306.3337689725489
 30
0.0
 10
561.1827862661087
 20
306.067041941673
 30
0.0
 10
560.7665122591965
 20
305.8089788505637
 30
0.0
 10
560.3449242726301
 20
305.559692962237
 30
0.0
 10
559.9182073995371
 20
305.319293684026
 30
0.0
 10
559.4865489852002
 20
305.0878865195123
 30
0.0
 10
559.0501385447135
 20
304.8655730221736
 30
0.0
 10
558.6091676796844
 20
304.6524507507694
 30
0.0
 10
558.1638299940194
 20
304.4486132264826
 30
0.0
 10
557.714321008828
 20
304.2541498918374
 30
0.0
 10
557.260838076486
 20
304.0691460714107
 30
0.0
 10
556.8035802938927
 20
303.8936829343535
 30
0.0
 10
556.3427484149618
 20
303.7278374587444
 30
0.0
 10
555.8785447623844
 20
303.571682397768
 30
0.0
 10
555.4111731387021
 20
303.4252862478207
 30
0.0
 10
554.9408387367309
 20
303.2887132182278
 30
0.0
 10
554.4677480493732
 20
303.1620232038197
 30
0.0
 10
553.9921087788589
 20
303.0452717557725
 30
0.0
 10
553.5141297454584
 20
302.9385100679148
 30
0.0
 10
553.0340207956921
 20
302.8417849143611
 30
0.0
 10
552.5519927101351
 20
302.7551387778899
 30
0.0
 10
552.0682571106421
 20
302.6786092755987
 30
0.0
 10
551.583026367836
 20
302.6122312163241
 30
0.0
 10
551.096513505907
 20
302.5560288454548
 30
0.0
 10
550.608932115934
 20
302.510044719951
 30
0.0
 10
550.1204962360848
 20
302.4742318876058
 30
0.0
 10
549.6314203543037
 20
302.4488562282435
 30
0.0
 10
549.1419189529407
 20
302.432994865083
 30
0.0
 10
548.8154441436294
 20
302.4310916881833
 30
0.0
 10
548.6522070740654
 20
302.4301401016868
 30
0.0
  0
LINE
  5
175
330
1F
100
AcDbEntity
  8
0
  6
Continuous
 62
     7
370
    25
100
AcDbLine
 10
572.0342042627
 20
325.812137557
 30
0.0
 11
572.8523159544
 21
325.812137557
 31
0.0
  0
LINE
  5
176
330
1F
100
AcDbEntity
  8
0
  6
Continuous
 62
     7
370
    25
100
AcDbLine
 10
548.6522070741
 20
302.4298150224
 30
0.0
 11
548.6522070741
 21
301.6120286767
 31
0.0
  0
SPLINE
  5
177
330
1F
100
AcDbEntity
  8
0
  6
Continuous
 62
     7
370
    25
100
AcDbSpline
210
0.0
220
0.0
230
1.0
 70
     8
 71
     3
 72
    23
 73
    19
 74
     0
 42
0.000000001
 43
0.00000001
 40
0.0
 40
0.0
 40
0.0
 40
0.0
 40
0.0334665523651176
 40
0.0654550439400902
 40
0.0959660203310885
 40
0.1250001104404245
 40
0.1484983692109312
 40
0.190165328967803
 40
0.2500010355201216
 40
0.3840547580670309
 40
0.5000016014082994
 40
0.6159370743761704
 40
0.7499930059897455
 40
0.8329156696419777
 40
0.8749885682148438
 40
0.9140263490734905
 40
0.955696362838162
 40
0.9999999999999999
 40
0.9999999999999999
 40
0.9999999999999999
 40
0.9999999999999999
 10
433.2702096187255
 20
325.8121375570316
 30
0.0
 10
433.2716917036921
 20
326.8381238883294
 30
0.0
 10
433.2745904168775
 20
328.8447835425528
 30
0.0
 10
433.2780939948872
 20
331.7871888046197
 30
0.0
 10
433.2808226632351
 20
334.5939258169394
 30
0.0
 10
433.282710519269
 20
337.1405187297484
 30
0.0
 10
433.2839112430441
 20
340.0294055427603
 30
0.0
 10
433.285299862598
 20
343.8629282188771
 30
0.0
 10
433.2877365668292
 20
351.086989817744
 30
0.0
 10
433.2903514167328
 20
360.589144271433
 30
0.0
 10
433.2916223651476
 20
371.811933017384
 30
0.0
 10
433.2903461126521
 20
383.0347856368702
 30
0.0
 10
433.2875690100423
 20
393.2447089485766
 30
0.0
 10
433.2847608239114
 20
401.1892881049718
 30
0.0
 10
433.2830020845469
 20
406.2198917349681
 30
0.0
 10
433.2800481158068
 20
409.9850280153308
 30
0.0
 10
433.2759147880159
 20
413.818178715529
 30
0.0
 10
433.2721499621416
 20
416.4539046221145
 30
0.0
 10
433.2702098854122
 20
417.8121375570312
 30
0.0
  0
LINE
  5
178
330
1F
100
AcDbEntity
  8
0
  6
Continuous
 62
     7
370
    25
100
AcDbLine
 10
433.2698845394
 20
325.812137557
 30
0.0
 11
432.4520981938
 21
325.812137557
 31
0.0
  0
LINE
  5
179
330
1F
100
AcDbEntity
  8
0
  6
Continuous
 62
     7
370
    25
100
AcDbLine
 10
433.2702098854
 20
417.812137557
 30
0.0
 11
432.4520981938
 21
417.812137557
 31
0.0
  0
SPLINE
  5
17A
330
1F
100
AcDbEntity
  8
0
  6
Continuous
 62
     7
370
    25
100
AcDbSpline
210
0.0
220
0.0
230
1.0
 70
     8
 71
     3
 72
    23
 73
    19
 74
     0
 42
0.000000001
 43
0.00000001
 40
0.0
 40
0.0
 40
0.0
 40
0.0
 40
0.0334699574097478
 40
0.0654614828664146
 40
0.0959751221555904
 40
0.1250115044007402
 40
0.148509104480341
 40
0.1901742807117754
 40
0.2500070788647588
 40
0.3840554610412577
 40
0.4999984862569413
 40
0.6159377795008354
 40
0.7499990533906956
 40
0.8329256602540103
 40
0.8749999669485354
 40
0.9140346085894547
 40
0.9557008229340719
 40
1.0
 40
1.0
 40
1.0
 40
1.0
 10
548.6522070740679
 20
302.4301401016868
 30
0.0
 10
547.6261163512503
 20
302.4316223327701
 30
0.0
 10
545.6192592928797
 20
302.4345213219584
 30
0.0
 10
542.6765749162898
 20
302.4380251341059
 30
0.0
 10
539.8695928788846
 20
302.4407538924661
 30
0.0
 10
537.3228681371221
 20
302.4426415557065
 30
0.0
 10
534.4339859096219
 20
302.4438421330916
 30
0.0
 10
530.6006273166355
 20
302.4452306341326
 30
0.0
 10
523.3768733838846
 20
302.4476671859201
 30
0.0
 10
513.8750889989577
 20
302.4502819100225
 30
0.0
 10
502.6524639708884
 20
302.451552847736
 30
0.0
 10
491.4294474436464
 20
302.4502765863842
 30
0.0
 10
481.2191221984547
 20
302.4474993428981
 30
0.0
 10
473.2742151050821
 20
302.4446909951434
 30
0.0
 10
468.2435436375422
 20
302.4429320851822
 30
0.0
 10
464.4785770691267
 20
302.4399778395219
 30
0.0
 10
460.6457759497418
 20
302.4358447444715
 30
0.0
 10
458.0103032687402
 20
302.4320802601628
 30
0.0
 10
456.6522070740688
 20
302.4301403683735
 30
0.0
  0
LINE
  5
17B
330
1F
100
AcDbEntity
  8
0
  6
Continuous
 62
     7
370
    25
100
AcDbLine
 10
456.6522070741
 20
302.4301403684
 30
0.0
 11
456.6522070741
 21
301.6120286767
 31
0.0
  0
SPLINE
  5
17C
330
1F
100
AcDbEntity
  8
0
  6
Continuous
 62
     7
370
    25
100
AcDbSpline
210
0.0
220
0.0
230
1.0
 70
     8
 71
     3
 72
    82
 73
    78
 74
     0
 42
0.000000001
 43
0.00000001
 40
0.0
 40
0.0
 40
0.0
 40
0.0
 40
0.0133327274615953
 40
0.0266655068548564
 40
0.0399983367185803
 40
0.0533312155915606
 40
0.0666641420125878
 40
0.0799971145204489
 40
0.093330131653929
 40
0.1066631919518075
 40
0.1199962939528635
 40
0.1333294361958719
 40
0.1466626172196055
 40
0.1599958355628331
 40
0.1733290897643236
 40
0.1866623783628411
 40
0.1999956998971487
 40
0.2133290529060081
 40
0.2266624359281762
 40
0.2399958475024106
 40
0.2533292861674671
 40
0.266662750462097
 40
0.2799962389250549
 40
0.2933297500950888
 40
0.3066632825109487
 40
0.3199968347113822
 40
0.3333304052351358
 40
0.346663992620956
 40
0.359997595407587
 40
0.3733312121337721
 40
0.3866648413382568
 40
0.3999984815597827
 40
0.413332131337092
 40
0.4266657892089283
 40
0.4399994537140319
 40
0.453333123391147
 40
0.4666667967790132
 40
0.4800004724163747
 40
0.4933341488419728
 40
0.5066678245945507
 40
0.5200014982128522
 40
0.5333351682356207
 40
0.5466688332016014
 40
0.5600024916495396
 40
0.5733361421181823
 40
0.5866697831462767
 40
0.600003413272572
 40
0.6133370310358179
 40
0.6266706349747662
 40
0.6400042236281703
 40
0.6533377955347852
 40
0.6666713492333666
 40
0.6800048832626736
 40
0.6933383961614662
 40
0.7066718864685075
 40
0.7200053527225622
 40
0.7333387934623969
 40
0.7466722072267818
 40
0.760005592554489
 40
0.7733389479842928
 40
0.7866722720549716
 40
0.8000055633053053
 40
0.813338820274078
 40
0.8266720415000764
 40
0.8400052255220904
 40
0.8533383708789133
 40
0.8666714761093424
 40
0.8800045397521775
 40
0.8933375603462236
 40
0.9066705364302884
 40
0.9200034665431837
 40
0.9333363492237259
 40
0.9466691830107351
 40
0.9600019664430359
 40
0.9733346980594572
 40
0.9866673763988326
 40
1.0
 40
1.0
 40
1.0
 40
1.0
 10
456.6522070740685
 20
302.4301403683735
 30
0.0
 10
456.4889687330035
 20
302.4310919678721
 30
0.0
 10
456.1624914150516
 20
302.4329951705758
 30
0.0
 10
455.6729863070076
 20
302.4488567709835
 30
0.0
 10
455.1839068311098
 20
302.4742328052228
 30
0.0
 10
454.6954674740986
 20
302.5100461574297
 30
0.0
 10
454.2078827280469
 20
302.5560309371504
 30
0.0
 10
453.7213666349619
 20
302.6122340905471
 30
0.0
 10
453.2361327894771
 20
302.6786130532909
 30
0.0
 10
452.7523942190485
 20
302.7551435728629
 30
0.0
 10
452.2703632972746
 20
302.8417908331375
 30
0.0
 10
451.790251648694
 20
302.9385172096858
 30
0.0
 10
451.3122700562731
 20
303.0452802123377
 30
0.0
 10
450.8366283686299
 20
303.1620330595446
 30
0.0
 10
450.3635354078384
 20
303.2887245500085
 30
0.0
 10
449.8931988776376
 20
303.4252991250598
 30
0.0
 10
449.4258252721449
 20
303.5716968823603
 30
0.0
 10
448.9616197850972
 20
303.7278536050719
 30
0.0
 10
448.5007862196641
 20
303.8937007892909
 30
0.0
 10
448.0435268988724
 20
304.0691656743409
 30
0.0
 10
447.5900425766808
 20
304.2541712746764
 30
0.0
 10
447.1405323497441
 20
304.4486364137142
 30
0.0
 10
446.6951935699068
 20
304.6524757594899
 30
0.0
 10
446.2542217574617
 20
304.8655998621459
 30
0.0
 10
445.8178105152157
 20
305.0879151932295
 30
0.0
 10
445.3861514433974
 20
305.3193241867846
 30
0.0
 10
444.9594340554451
 20
305.5597252822195
 30
0.0
 10
444.5378456947125
 20
305.8090129689302
 30
0.0
 10
444.1215714521281
 20
306.0670778326621
 30
0.0
 10
443.7107940848457
 20
306.3338066035874
 30
0.0
 10
443.3056939359195
 20
306.6090822060785
 30
0.0
 10
442.9064488550422
 20
306.8927838101543
 30
0.0
 10
442.513234120379
 20
307.1847868845788
 30
0.0
 10
442.1262223615308
 20
307.484963251586
 30
0.0
 10
441.7455834836645
 20
307.7931811432088
 30
0.0
 10
441.3714845928391
 20
308.1093052591869
 30
0.0
 10
441.0040899225642
 20
308.4331968264278
 30
0.0
 10
440.6435607616201
 20
308.7647136599946
 30
0.0
 10
440.2900553831743
 20
309.1037102255946
 30
0.0
 10
439.9437289752231
 20
309.4500377035404
 30
0.0
 10
439.6047335723902
 20
309.8035440541557
 30
0.0
 10
439.2732179891118
 20
310.1640740845967
 30
0.0
 10
438.9493277542383
 20
310.5314695170608
 30
0.0
 10
438.6332050470803
 20
310.9055690583507
 30
0.0
 10
438.3249886349273
 20
311.2862084707651
 30
0.0
 10
438.0248138120684
 20
311.6732206442834
 30
0.0
 10
437.7328123403381
 20
312.0664356700142
 30
0.0
 10
437.4491123912176
 20
312.4656809148735
 30
0.0
 10
437.1738384895135
 20
312.870781097461
 30
0.0
 10
436.9071114586411
 20
313.2815583651009
 30
0.0
 10
436.6490483675352
 20
313.6978323720127
 30
0.0
 10
436.399762479212
 20
314.1194203585783
 30
0.0
 10
436.1593632010046
 20
314.5461372316702
 30
0.0
 10
435.9279560364945
 20
314.9777956460059
 30
0.0
 10
435.7056425391594
 20
315.414206086491
 30
0.0
 10
435.4925202677589
 20
315.8551769515183
 30
0.0
 10
435.2886827434757
 20
316.3005146371812
 30
0.0
 10
435.094219408834
 20
316.7500236223702
 30
0.0
 10
434.9092155884109
 20
317.2035065547095
 30
0.0
 10
434.7337524513571
 20
317.6607643372998
 30
0.0
 10
434.5679069757514
 20
318.1215962162274
 30
0.0
 10
434.4117519147783
 20
318.5857998688012
 30
0.0
 10
434.2653557648341
 20
319.0531714924796
 30
0.0
 10
434.1287827352443
 20
319.5235058944466
 30
0.0
 10
434.0020927208392
 20
319.9965965818
 30
0.0
 10
433.8853412727948
 20
320.4722358523095
 30
0.0
 10
433.7785795849397
 20
320.950214885705
 30
0.0
 10
433.6818544313884
 20
321.430323835466
 30
0.0
 10
433.5952082949194
 20
321.9123519210174
 30
0.0
 10
433.5186787926302
 20
322.3960875205045
 30
0.0
 10
433.4523007333575
 20
322.8813182633045
 30
0.0
 10
433.3960983624897
 20
323.3678311252273
 30
0.0
 10
433.3501142369872
 20
323.8554125151936
 30
0.0
 10
433.3143014046431
 20
324.3438483950359
 30
0.0
 10
433.2889257452816
 20
324.83292427681
 30
0.0
 10
433.2730643821216
 20
325.3224256781656
 30
0.0
 10
433.2711612052219
 20
325.6489004874721
 30
0.0
 10
433.2702096187255
 20
325.8121375570336
 30
0.0
  0
SPLINE
  5
17D
330
1F
100
AcDbEntity
  8
0
  6
Continuous
 62
     7
370
    25
100
AcDbSpline
210
0.0
220
0.0
230
1.0
 70
     8
 71
     3
 72
    82
 73
    78
 74
     0
 42
0.000000001
 43
0.00000001
 40
0.0
 40
0.0
 40
0.0
 40
0.0
 40
0.0133327275223415
 40
0.0266655069747066
 40
0.0399983368958938
 40
0.0533312158246961
 40
0.0666641422999022
 40
0.0799971148603021
 40
0.0933301320446796
 40
0.1066631923918129
 40
0.119996294440483
 40
0.133329436729463
 40
0.1466626177975275
 40
0.1599958361834439
 40
0.1733290904259807
 40
0.1866623790639038
 40
0.1999957006359747
 40
0.2133290536809562
 40
0.2266624367376039
 40
0.2399958483446768
 40
0.2533292870409301
 40
0.2666627513651143
 40
0.2799962398559839
 40
0.293329751052289
 40
0.3066632834927785
 40
0.3199968357161998
 40
0.3333304062612985
 40
0.3466639936668218
 40
0.3599975964715141
 40
0.3733312132141193
 40
0.3866648424333818
 40
0.3999984826680433
 40
0.4133321324568474
 40
0.4266657903385358
 40
0.4399994548518485
 40
0.4533331245355314
 40
0.4666667979283247
 40
0.4800004735689698
 40
0.4933341499962108
 40
0.5066678257487889
 40
0.5200014993654483
 40
0.5333351693849335
 40
0.5466688343459885
 40
0.56000249278736
 40
0.5733361432477926
 40
0.5866697842660357
 40
0.6000034143808373
 40
0.6133370321309483
 40
0.6266706360551195
 40
0.6400042246921043
 40
0.6533377965806584
 40
0.6666713502595366
 40
0.6800048842674987
 40
0.6933383971433046
 40
0.7066718874257174
 40
0.7200053536535013
 40
0.7333387943654234
 40
0.7466722081002543
 40
0.7600055933967651
 40
0.7733389487937306
 40
0.7866722728299292
 40
0.8000055640441412
 40
0.8133388209751506
 40
0.826672042161744
 40
0.8400052261427098
 40
0.8533383714568444
 40
0.866671476642942
 40
0.8800045402398055
 40
0.893337560786237
 40
0.906670536821046
 40
0.9200034668830438
 40
0.9333363495110463
 40
0.9466691832438747
 40
0.9600019666203533
 40
0.973334698179311
 40
0.9866673764595798
 40
1.0
 40
1.0
 40
1.0
 40
1.0
 10
548.6522070740688
 20
441.1941347456868
 30
0.0
 10
548.8154454158775
 20
441.1931831461793
 30
0.0
 10
549.1419227352968
 20
441.1912799434578
 30
0.0
 10
549.6314278455092
 20
441.1754183429074
 30
0.0
 10
550.1205073235092
 20
441.1500423084449
 30
0.0
 10
550.6089466825541
 20
441.1142289559301
 30
0.0
 10
551.0965314305686
 20
441.068244175823
 30
0.0
 10
551.5830475255432
 20
441.0120410219649
 30
0.0
 10
552.0682813728424
 20
440.9456620586889
 30
0.0
 10
552.5520199450085
 20
440.8691315385183
 30
0.0
 10
553.0340508684408
 20
440.7824842775827
 30
0.0
 10
553.5141625185994
 20
440.6857579003158
 30
0.0
 10
553.9921441125165
 20
440.5789948968912
 30
0.0
 10
554.4677858015729
 20
440.4622420488627
 30
0.0
 10
554.9408787636934
 20
440.335550557532
 30
0.0
 10
555.4112152951383
 20
440.1989759815735
 30
0.0
 10
555.8785889017892
 20
440.0525782233296
 30
0.0
 10
556.3427943899089
 20
439.8964214996429
 30
0.0
 10
556.8036279563275
 20
439.7305743144214
 30
0.0
 10
557.2608872780179
 20
439.5551094283459
 30
0.0
 10
557.7143716010214
 20
439.3701038269663
 30
0.0
 10
558.1638818286832
 20
439.1756386868702
 30
0.0
 10
558.6092206091593
 20
438.9717993400261
 30
0.0
 10
559.0501924221572
 20
438.7586752362962
 30
0.0
 10
559.4866036648709
 20
438.5363599041373
 30
0.0
 10
559.9182627370725
 20
438.3049509095096
 30
0.0
 10
560.3449801253244
 20
438.0645498130091
 30
0.0
 10
560.7665684862744
 20
437.8152621252437
 30
0.0
 10
561.1828427289951
 20
437.5571972604724
 30
0.0
 10
561.5936200963342
 20
437.2904684885268
 30
0.0
 10
561.9987202452392
 20
437.0151928850385
 30
0.0
 10
562.3979653260187
 20
436.7314912799922
 30
0.0
 10
562.7911800605101
 20
436.4394882046279
 30
0.0
 10
563.1781918191139
 20
436.1393118367152
 30
0.0
 10
563.5588306966658
 20
435.8310939442247
 30
0.0
 10
563.9329295871087
 20
435.5149698274202
 30
0.0
 10
564.3003242569359
 20
435.1910782593978
 30
0.0
 10
564.6608534173695
 20
434.8595614250975
 30
0.0
 10
565.0143587952447
 20
434.5205648588153
 30
0.0
 10
565.3606852025679
 20
434.1742373802415
 30
0.0
 10
565.6996806047187
 20
433.8207310290557
 30
0.0
 10
566.0311961872635
 20
433.4602009981041
 30
0.0
 10
566.3550864213555
 20
433.0928055651922
 30
0.0
 10
566.6712091276872
 20
432.7187060235199
 30
0.0
 10
566.9794255389725
 20
432.3380666107911
 30
0.0
 10
567.2796003609259
 20
431.9510544370284
 30
0.0
 10
567.5716018317163
 20
431.5578394111257
 30
0.0
 10
567.8553017798663
 20
431.1585941661688
 30
0.0
 10
568.130575680573
 20
430.7534939835599
 30
0.0
 10
568.3973027104253
 20
430.3427167159768
 30
0.0
 10
568.6553658004916
 20
429.9264427092012
 30
0.0
 10
568.9046516877602
 20
429.504854722853
 30
0.0
 10
569.1450509649019
 20
429.0781378500607
 30
0.0
 10
569.3764581283393
 20
428.6464794361082
 30
0.0
 10
569.598771624599
 20
428.2100689960906
 30
0.0
 10
569.8118938949254
 20
427.7690981316163
 30
0.0
 10
570.0157314181404
 20
427.3237604465921
 30
0.0
 10
570.2101947517235
 20
426.8742514621283
 30
0.0
 10
570.3951985711026
 20
426.4207685306008
 30
0.0
 10
570.5706617071307
 20
425.9635107489091
 30
0.0
 10
570.7365071817338
 20
425.502678870967
 30
0.0
 10
570.8926622417317
 20
425.0384752194652
 30
0.0
 10
571.0390583907324
 20
424.5711035969452
 30
0.0
 10
571.1756314194148
 20
424.1007691962222
 30
0.0
 10
571.3023214329532
 20
423.6276785101979
 30
0.0
 10
571.4190728801758
 20
423.1520392411015
 30
0.0
 10
571.5258345672582
 20
422.6740602092022
 30
0.0
 10
571.6225597200905
 20
422.1939512610193
 30
0.0
 10
571.7092058558985
 20
421.7119231771264
 30
0.0
 10
571.785735357589
 20
421.2281875793767
 30
0.0
 10
571.8521134163294
 20
420.7429568383911
 30
0.0
 10
571.9083157867358
 20
420.2564439783581
 30
0.0
 10
571.9542999118514
 20
419.7688625903546
 30
0.0
 10
571.9901127438877
 20
419.2804267125462
 30
0.0
 10
572.0154884030259
 20
418.7913508328743
 30
0.0
 10
572.0313497660429
 20
418.301849433687
 30
0.0
 10
572.0332529429247
 20
417.975374625848
 30
0.0
 10
572.0342045294121
 20
417.8121375570302
 30
0.0
  0
LINE
  5
17E
330
1F
100
AcDbEntity
  8
0
  6
Continuous
 62
     7
370
    25
100
AcDbLine
 10
548.6522070741
 20
441.1941347457
 30
0.0
 11
548.6522070741
 21
442.0122464373
 31
0.0
  0
LINE
  5
17F
330
1F
100
AcDbEntity
  8
0
  6
Continuous
 62
     7
370
    25
100
AcDbLine
 10
572.034529609
 20
417.812137557
 30
0.0
 11
572.8523159544
 21
417.812137557
 31
0.0
  0
SPLINE
  5
180
330
1F
100
AcDbEntity
  8
0
  6
Continuous
 62
     7
370
    25
100
AcDbSpline
210
0.0
220
0.0
230
1.0
 70
     8
 71
     3
 72
    23
 73
    19
 74
     0
 42
0.000000001
 43
0.00000001
 40
0.0
 40
0.0
 40
0.0
 40
0.0
 40
0.033466552595785
 40
0.0654550442476548
 40
0.0959660205617635
 40
0.1250001104404135
 40
0.1484983693331878
 40
0.1901653290900563
 40
0.2500010355201014
 40
0.3840547581238484
 40
0.5000016014082859
 40
0.6159370743892827
 40
0.7499930059897386
 40
0.8329156697994381
 40
0.8749885682148295
 40
0.9140263491439413
 40
0.9556963629086169
 40
1.0
 40
1.0
 40
1.0
 40
1.0
 10
572.0342045294121
 20
417.8121375570306
 30
0.0
 10
572.0327224444424
 20
416.7861512186575
 30
0.0
 10
572.0298237312572
 20
414.7794915549979
 30
0.0
 10
572.0263201532417
 20
411.8370862858579
 30
0.0
 10
572.0235914848954
 20
409.0303492806134
 30
0.0
 10
572.0217036288626
 20
406.483756373488
 30
0.0
 10
572.0205029050876
 20
403.5948695638012
 30
0.0
 10
572.0191142855334
 20
399.7613468876849
 30
0.0
 10
572.0166775813086
 20
392.5372852908242
 30
0.0
 10
572.0140627314112
 20
383.0351308408846
 30
0.0
 10
572.0127917829899
 20
371.8123420945315
 30
0.0
 10
572.01406803548
 20
360.5894894767879
 30
0.0
 10
572.0168451380957
 20
350.3795661602525
 30
0.0
 10
572.0196533242316
 20
342.4349870042608
 30
0.0
 10
572.0214120635941
 20
337.4043833721033
 30
0.0
 10
572.0243660323353
 20
333.6392470944095
 30
0.0
 10
572.028499360124
 20
329.8060963942101
 30
0.0
 10
572.0322641859977
 20
327.1703704897858
 30
0.0
 10
572.0342042627254
 20
325.8121375570297
 30
0.0
  0
SPLINE
  5
181
330
1F
100
AcDbEntity
  8
0
  6
Continuous
 62
     7
370
    25
100
AcDbSpline
210
0.0
220
0.0
230
1.0
 70
     8
 71
     3
 72
    82
 73
    78
 74
     0
 42
0.000000001
 43
0.00000001
 40
0.0
 40
0.0
 40
0.0
 40
0.0
 40
0.013332727473763
 40
0.0266655068788624
 40
0.039998336754096
 40
0.053331215638257
 40
0.0666641420701364
 40
0.0799971145885212
 40
0.0933301317321956
 40
0.1066631920399403
 40
0.1199962940505332
 40
0.1333294363027499
 40
0.1466626173353623
 40
0.1599958356871412
 40
0.1733290898968531
 40
0.1866623785032637
 40
0.1999957000451354
 40
0.2133290530612293
 40
0.2266624360903041
 40
0.2399958476711161
 40
0.2533292863424209
 40
0.2666627506429713
 40
0.2799962391115193
 40
0.2933297502868156
 40
0.3066632827076084
 40
0.3199968349126465
 40
0.3333304054406757
 40
0.3466639928304423
 40
0.3599975956206909
 40
0.3733312123501651
 40
0.3866648415576095
 40
0.3999984817817667
 40
0.4133321315613784
 40
0.4266657894351878
 40
0.4399994539419365
 40
0.4533331236203667
 40
0.46666679700922
 40
0.4800004726472389
 40
0.493334149073166
 40
0.5066678248257442
 40
0.5200014984437166
 40
0.5333351684658277
 40
0.5466688334308217
 40
0.5600024918774447
 40
0.5733361423444426
 40
0.5866697833705639
 40
0.6000034134945571
 40
0.6133370312551718
 40
0.6266706351911605
 40
0.6400042238412761
 40
0.6533377957442728
 40
0.666671349438908
 40
0.6800048834639397
 40
0.6933383963581281
 40
0.7066718866602363
 40
0.720005352909029
 40
0.733338793643273
 40
0.7466722074017381
 40
0.7600055927231963
 40
0.773338948146423
 40
0.7866722722101953
 40
0.8000055634532941
 40
0.8133388204145027
 40
0.8266720416326083
 40
0.8400052256464005
 40
0.853338370994673
 40
0.8666714762162224
 40
0.8800045398498494
 40
0.8933375604343584
 40
0.9066705365085572
 40
0.9200034666112578
 40
0.9333363492812763
 40
0.9466691830574332
 40
0.9600019664785526
 40
0.9733346980834637
 40
0.9866673764110001
 40
1.0
 40
1.0
 40
1.0
 40
1.0
 10
433.2702098854122
 20
417.8121375570407
 30
0.0
 10
433.2711614849126
 20
417.9753758982546
 30
0.0
 10
433.27306468762
 20
418.3018532165003
 30
0.0
 10
433.2889262880565
 20
418.7913583249784
 30
0.0
 10
433.3143023223407
 20
419.2804378012972
 30
0.0
 10
433.3501156746095
 20
419.7688771587155
 30
0.0
 10
433.3961004544077
 20
420.2564619051601
 30
0.0
 10
433.452303607897
 20
420.7429779986235
 30
0.0
 10
433.5186825707476
 20
421.2282118444714
 30
0.0
 10
433.5952130904397
 20
421.7119504152479
 30
0.0
 10
433.6818603508468
 20
422.1939813373538
 30
0.0
 10
433.7785867275391
 20
422.6740929862502
 30
0.0
 10
433.885349730346
 20
423.1520745789707
 30
0.0
 10
434.0021025777176
 20
423.6277162668966
 30
0.0
 10
434.1287940683552
 20
424.1008092279542
 30
0.0
 10
434.2653686435883
 20
424.571145758404
 30
0.0
 10
434.4117664010779
 20
425.0385193641284
 30
0.0
 10
434.5679231239849
 20
425.5027248513906
 30
0.0
 10
434.7337703084048
 20
425.9635584170209
 30
0.0
 10
434.9092351936603
 20
426.4208177379925
 30
0.0
 10
435.094240794205
 20
426.8743020603465
 30
0.0
 10
435.2887059334548
 20
427.323812287428
 30
0.0
 10
435.4925452794446
 20
427.7691510673932
 30
0.0
 10
435.7056693823157
 20
428.2101228799489
 30
0.0
 10
435.9279847136147
 20
428.6465341222882
 30
0.0
 10
436.1593937073848
 20
429.078193194183
 30
0.0
 10
436.399794803033
 20
429.5049105821952
 30
0.0
 10
436.649082489955
 20
429.9264989429712
 30
0.0
 10
436.9071473538952
 20
430.3427731855826
 30
0.0
 10
437.1738761250249
 20
430.7535505528762
 30
0.0
 10
437.4491517277156
 20
431.1586507017979
 30
0.0
 10
437.7328533319858
 20
431.5578957826554
 30
0.0
 10
438.0248564065985
 20
431.9511105172841
 30
0.0
 10
438.3250327737871
 20
432.338122276083
 30
0.0
 10
438.6332506655836
 20
432.7187611538862
 30
0.0
 10
438.9493747817272
 20
433.0928600446348
 30
0.0
 10
439.2732663491247
 20
433.4602547148199
 30
0.0
 10
439.6047831828383
 20
433.8207838756615
 30
0.0
 10
439.943779748575
 20
434.1742892539928
 30
0.0
 10
440.2901072266464
 20
434.5206156618181
 30
0.0
 10
440.6436135773759
 20
434.8596110645141
 30
0.0
 10
441.0041436079191
 20
435.1911266476455
 30
0.0
 10
441.3715390404728
 20
435.5150168823622
 30
0.0
 10
441.7456385818393
 20
435.8311395893546
 30
0.0
 10
442.1262779943165
 20
436.1393560013336
 30
0.0
 10
442.5132901678837
 20
436.439530824011
 30
0.0
 10
442.9065051936488
 20
436.7315322955528
 30
0.0
 10
443.3057504385275
 20
437.0152322444789
 30
0.0
 10
443.7108506211192
 20
437.2905061459831
 30
0.0
 10
444.1216278887476
 20
437.557233176651
 30
0.0
 10
444.5379018956319
 20
437.8152962675485
 30
0.0
 10
444.9594898821539
 20
438.0645821556603
 30
0.0
 10
445.3862067551857
 20
438.3049814336542
 30
0.0
 10
445.8178651694444
 20
438.5363885979494
 30
0.0
 10
446.2542756098359
 20
438.7587020950688
 30
0.0
 10
446.6952464747521
 20
438.9718243662543
 30
0.0
 10
447.140584160287
 20
439.1756618903234
 30
0.0
 10
447.5900931453306
 20
439.3701252247529
 30
0.0
 10
448.0435760775072
 20
439.5551290449669
 30
0.0
 10
448.5008338599173
 20
439.7305921818152
 30
0.0
 10
448.9616657386473
 20
439.89643765722
 30
0.0
 10
449.4258693910062
 20
440.0525927179977
 30
0.0
 10
449.8932410144524
 20
440.1989888677527
 30
0.0
 10
450.3635754161701
 20
440.3355618971609
 30
0.0
 10
450.8366661032571
 20
440.4622519113923
 30
0.0
 10
451.3123053734834
 20
440.5790033592721
 30
0.0
 10
451.790284406579
 20
440.6857650469724
 30
0.0
 10
452.2703933560238
 20
440.7824902003796
 30
0.0
 10
452.7524214412428
 20
440.8691363367162
 30
0.0
 10
453.2361570403817
 20
440.9456658388855
 30
0.0
 10
453.7213877828181
 20
441.0120438980517
 30
0.0
 10
454.2079006443622
 20
441.068246268827
 30
0.0
 10
454.6954820339351
 20
441.114230394252
 30
0.0
 10
455.18391791337
 20
441.1500432265344
 30
0.0
 10
455.6729937947227
 20
441.1754188858514
 30
0.0
 10
456.1624951956439
 20
441.1912802489827
 30
0.0
 10
456.4889700046564
 20
441.1931834258789
 30
0.0
 10
456.6522070740688
 20
441.1941350123735
 30
0.0
  0
LINE
  5
182
330
1F
100
AcDbEntity
  8
0
  6
Continuous
 62
     7
370
    25
100
AcDbLine
 10
456.6522070741
 20
441.1944600917
 30
0.0
 11
456.6522070741
 21
442.0122464373
 31
0.0
  0
SPLINE
  5
183
330
1F
100
AcDbEntity
  8
0
  6
Continuous
 62
     7
370
    25
100
AcDbSpline
210
0.0
220
0.0
230
1.0
 70
     8
 71
     3
 72
    23
 73
    19
 74
     0
 42
0.000000001
 43
0.00000001
 40
0.0
 40
0.0
 40
0.0
 40
0.0
 40
0.0334665256126183
 40
0.065455006857146
 40
0.0959659893439649
 40
0.1250001019792505
 40
0.1485572244164746
 40
0.1902241806937318
 40
0.2500010170912731
 40
0.3840779474693541
 40
0.5000015862619654
 40
0.6159140589222929
 40
0.7499929979480152
 40
0.83284926865627
 40
0.8749885643070402
 40
0.914026814465966
 40
0.9556968295382753
 40
0.9999999999999999
 40
0.9999999999999999
 40
0.9999999999999999
 40
0.9999999999999999
 10
456.6522070740702
 20
441.1941350123735
 30
0.0
 10
457.6781925824628
 20
441.1926529250875
 30
0.0
 10
459.6848510944489
 20
441.1897542066907
 30
0.0
 10
462.6272554115162
 20
441.1862506876029
 30
0.0
 10
465.4339929472991
 20
441.183521836481
 30
0.0
 10
467.9823919488265
 20
441.1816332731422
 30
0.0
 10
470.873084353096
 20
441.1804305202802
 30
0.0
 10
474.7066067368948
 20
441.179041912626
 30
0.0
 10
481.9295747300815
 20
441.1766073359348
 30
0.0
 10
491.4299239949152
 20
441.1739950175653
 30
0.0
 10
502.652007393457
 20
441.1727240239389
 30
0.0
 10
513.8741485418366
 20
441.1740002300642
 30
0.0
 10
524.0820360206569
 20
441.1767748851062
 30
0.0
 10
532.0273212571675
 20
441.179580706692
 30
0.0
 10
537.0579390894202
 20
441.1813415851944
 30
0.0
 10
540.8251260160333
 20
441.1842964335374
 30
0.0
 10
544.6582768044901
 20
441.1884299365148
 30
0.0
 10
547.2939884457318
 20
441.1921947072871
 30
0.0
 10
548.6522070740698
 20
441.1941347456868
 30
0.0
  0
SPLINE
  5
184
330
1F
100
AcDbEntity
  8
0
  6
Continuous
 62
     7
370
    25
100
AcDbSpline
210
0.0
220
0.0
230
1.0
 70
     8
 71
     3
 72
    22
 73
    18
 74
     0
 42
0.000000001
 43
0.00000001
 40
0.0
 40
0.0
 40
0.0
 40
0.0
 40
0.0351997889164377
 40
0.0703787509700863
 40
0.1056253049748818
 40
0.1410288887501859
 40
0.1766793474494612
 40
0.2126663206526418
 40
0.2490786506013296
 40
0.374113334411892
 40
0.5002585501698235
 40
0.6262959234685356
 40
0.751324711279419
 40
0.8146400441546858
 40
0.8768720169283984
 40
0.9384994627973399
 40
1.0
 40
1.0
 40
1.0
 40
1.0
 10
552.7870250853498
 20
418.3820585748325
 30
0.0
 10
552.7846353049839
 20
418.4471849627446
 30
0.0
 10
552.779857158227
 20
418.577399204862
 30
0.0
 10
552.7590982703498
 20
418.7719669161938
 30
0.0
 10
552.7282729399336
 20
418.965513601096
 30
0.0
 10
552.6863216226279
 20
419.1578925518274
 30
0.0
 10
552.6334190367535
 20
419.3489673176181
 30
0.0
 10
552.5693891802896
 20
419.5386072244443
 30
0.0
 10
552.4336526936738
 20
419.8781052753387
 30
0.0
 10
552.1764795639625
 20
420.3485429811383
 30
0.0
 10
551.7273357940115
 20
420.8887247413455
 30
0.0
 10
551.1868466170052
 20
421.3376018238222
 30
0.0
 10
550.6725679784919
 20
421.6182847764068
 30
0.0
 10
550.2378593892457
 20
421.782070639288
 30
0.0
 10
549.9027100565471
 20
421.8718908831788
 30
0.0
 10
549.5637727789451
 20
421.9303711039779
 30
0.0
 10
549.3359536453485
 20
421.9414136427703
 30
0.0
 10
549.2221614857459
 20
421.9469292213647
 30
0.0
  0
SPLINE
  5
185
330
1F
100
AcDbEntity
  8
0
  6
Continuous
 62
     7
370
    25
100
AcDbSpline
210
0.0
220
0.0
230
1.0
 70
     8
 71
     3
 72
    22
 73
    18
 74
     0
 42
0.000000001
 43
0.00000001
 40
0.0
 40
0.0
 40
0.0
 40
0.0
 40
0.125
 40
0.125
 40
0.25
 40
0.25
 40
0.375
 40
0.375
 40
0.5
 40
0.5
 40
0.625
 40
0.625
 40
0.75
 40
0.75
 40
0.875
 40
0.875
 40
1.0
 40
1.0
 40
1.0
 40
1.0
 10
548.6522070740652
 20
441.1941347456874
 30
0.0
 10
548.6814712980924
 20
441.1406239019586
 30
0.0
 10
548.7124872175389
 20
440.9885304441247
 30
0.0
 10
548.776685512426
 20
440.4488265510803
 30
0.0
 10
548.8098632527265
 20
440.0607548393959
 30
0.0
 10
548.876321993937
 20
439.0331635773263
 30
0.0
 10
548.9095884193603
 20
438.393388095928
 30
0.0
 10
548.9737138809223
 20
436.8814744905877
 30
0.0
 10
549.0045525349445
 20
436.0094973296522
 30
0.0
 10
549.0614115264857
 20
434.0893846440229
 30
0.0
 10
549.0874150199735
 20
433.0418179376819
 30
0.0
 10
549.1328892151943
 20
430.8525809312183
 30
0.0
 10
549.1523545832946
 20
429.7116180819519
 30
0.0
 10
549.1840924969306
 20
427.4231350073798
 30
0.0
 10
549.1963718165582
 20
426.2761341640667
 30
0.0
 10
549.214104874395
 20
424.0490385509689
 30
0.0
 10
549.2195716076284
 20
422.9691227466462
 30
0.0
 10
549.2221614857465
 20
421.9469292213647
 30
0.0
  0
SPLINE
  5
186
330
1F
100
AcDbEntity
  8
0
  6
Continuous
 62
     7
370
    25
100
AcDbSpline
210
0.0
220
0.0
230
1.0
 70
     8
 71
     3
 72
    22
 73
    18
 74
     0
 42
0.000000001
 43
0.00000001
 40
0.0
 40
0.0
 40
0.0
 40
0.0
 40
0.1249999999999998
 40
0.1249999999999998
 40
0.2499999999999996
 40
0.2499999999999996
 40
0.3749999999999993
 40
0.3749999999999993
 40
0.4999999999999991
 40
0.4999999999999991
 40
0.6249999999999993
 40
0.6249999999999993
 40
0.7499999999999996
 40
0.7499999999999996
 40
0.8749999999999998
 40
0.8749999999999998
 40
1.0
 40
1.0
 40
1.0
 40
1.0
 10
572.0342045294121
 20
417.8121375570306
 30
0.0
 10
571.980693721345
 20
417.8414000489499
 30
0.0
 10
571.8286004399079
 20
417.8724141313836
 30
0.0
 10
571.2888972927153
 20
417.9366086229226
 30
0.0
 10
570.9008261523709
 20
417.9697843971666
 30
0.0
 10
569.873236482797
 20
418.0362392020335
 30
0.0
 10
569.2334620237605
 20
418.0695036580725
 30
0.0
 10
567.721550860689
 20
418.1336253292311
 30
0.0
 10
566.8495751189766
 20
418.1644621635022
 30
0.0
 10
564.9294654962088
 20
418.2213178099973
 30
0.0
 10
563.8819004309604
 20
418.2473197792295
 30
0.0
 10
561.6926666874031
 20
418.2927913229286
 30
0.0
 10
560.5517054571058
 20
418.3122555640711
 30
0.0
 10
558.2632253747477
 20
418.3439916579599
 30
0.0
 10
557.1162259032084
 20
418.3562702843498
 30
0.0
 10
554.8891326490487
 20
418.3740023642177
 30
0.0
 10
553.8092178321629
 20
418.379468811899
 30
0.0
 10
552.7870250853504
 20
418.3820585748325
 30
0.0
  0
SPLINE
  5
187
330
1F
100
AcDbEntity
  8
0
  6
Continuous
 62
     7
370
    25
100
AcDbSpline
210
0.0
220
0.0
230
1.0
 70
     8
 71
     3
 72
    22
 73
    18
 74
     0
 42
0.000000001
 43
0.00000001
 40
0.0
 40
0.0
 40
0.0
 40
0.0
 40
0.0351997889446744
 40
0.0703787510171959
 40
0.1056253050314375
 40
0.1410288888067905
 40
0.1766793474968547
 40
0.2126663206817072
 40
0.2490786506031806
 40
0.374113334459625
 40
0.5002585501716746
 40
0.626295923460634
 40
0.7513247112819571
 40
0.8146400440749465
 40
0.876872016821258
 40
0.938499462717308
 40
1.0
 40
1.0
 40
1.0
 40
1.0
 10
456.0822860562682
 20
421.9469555683129
 30
0.0
 10
456.0171596683043
 20
421.9445657879407
 30
0.0
 10
455.8869454261005
 20
421.9397876411721
 30
0.0
 10
455.6923777146656
 20
421.9190287532826
 30
0.0
 10
455.4988310297121
 20
421.8882034228589
 30
0.0
 10
455.3064520789809
 20
421.8462521055527
 30
0.0
 10
455.115377313242
 20
421.7933495196841
 30
0.0
 10
454.9257374065174
 20
421.7293196632375
 30
0.0
 10
454.5862393556522
 20
421.5935831765499
 30
0.0
 10
454.1158016499219
 20
421.3364100468347
 30
0.0
 10
453.5756198896999
 20
420.8872662769336
 30
0.0
 10
453.1267428073116
 20
420.3467770999663
 30
0.0
 10
452.846059854764
 20
419.8324984616097
 30
0.0
 10
452.6822739919396
 20
419.3977898725398
 30
0.0
 10
452.5924537481086
 20
419.0626405399839
 30
0.0
 10
452.5339735272728
 20
418.7237032622438
 30
0.0
 10
452.52293098838
 20
418.4958841284552
 30
0.0
 10
452.517415409733
 20
418.3820919687075
 30
0.0
  0
SPLINE
  5
188
330
1F
100
AcDbEntity
  8
0
  6
Continuous
 62
     7
370
    25
100
AcDbSpline
210
0.0
220
0.0
230
1.0
 70
     8
 71
     3
 72
    22
 73
    18
 74
     0
 42
0.000000001
 43
0.00000001
 40
0.0
 40
0.0
 40
0.0
 40
0.0
 40
0.125
 40
0.125
 40
0.25
 40
0.25
 40
0.375
 40
0.375
 40
0.5
 40
0.5
 40
0.625
 40
0.625
 40
0.75
 40
0.75
 40
0.875
 40
0.875
 40
1.0
 40
1.0
 40
1.0
 40
1.0
 10
433.2702098854129
 20
417.8121375570393
 30
0.0
 10
433.3237207291418
 20
417.8414017810663
 30
0.0
 10
433.4758141869756
 20
417.8724177005124
 30
0.0
 10
434.01551808002
 20
417.936615995399
 30
0.0
 10
434.4035897917043
 20
417.9697937356992
 30
0.0
 10
435.4311810537739
 20
418.0362524769088
 30
0.0
 10
436.0709565351719
 20
418.0695189023315
 30
0.0
 10
437.5828701405121
 20
418.1336443638924
 30
0.0
 10
438.4548473014474
 20
418.1644830179141
 30
0.0
 10
440.3749599870764
 20
418.2213420094539
 30
0.0
 10
441.4225266934172
 20
418.2473455029411
 30
0.0
 10
443.6117636998805
 20
418.2928196981604
 30
0.0
 10
444.7527265491466
 20
418.31228506626
 30
0.0
 10
447.0412096237184
 20
418.3440229798946
 30
0.0
 10
448.1882104670314
 20
418.3563022995216
 30
0.0
 10
450.415306080129
 20
418.3740353573572
 30
0.0
 10
451.4952218844516
 20
418.3795020905898
 30
0.0
 10
452.517415409733
 20
418.3820919687073
 30
0.0
  0
SPLINE
  5
189
330
1F
100
AcDbEntity
  8
0
  6
Continuous
 62
     7
370
    25
100
AcDbSpline
210
0.0
220
0.0
230
1.0
 70
     8
 71
     3
 72
    22
 73
    18
 74
     0
 42
0.000000001
 43
0.00000001
 40
0.0
 40
0.0
 40
0.0
 40
0.0
 40
0.125
 40
0.125
 40
0.25
 40
0.25
 40
0.375
 40
0.375
 40
0.5
 40
0.5
 40
0.625
 40
0.625
 40
0.75
 40
0.75
 40
0.875
 40
0.875
 40
1.0
 40
1.0
 40
1.0
 40
1.0
 10
456.6522070740703
 20
441.1941350123748
 30
0.0
 10
456.622944582151
 20
441.1406242043076
 30
0.0
 10
456.5919304997175
 20
440.9885309228707
 30
0.0
 10
456.5277360081784
 20
440.4488277756781
 30
0.0
 10
456.4945602339345
 20
440.0607566353337
 30
0.0
 10
456.4281054290677
 20
439.0331669657597
 30
0.0
 10
456.3948409730288
 20
438.3933925067232
 30
0.0
 10
456.3307193018703
 20
436.8814813436517
 30
0.0
 10
456.2998824675992
 20
436.0095056019394
 30
0.0
 10
456.2430268211042
 20
434.0893959791717
 30
0.0
 10
456.217024851872
 20
433.0418309139233
 30
0.0
 10
456.1715533081729
 20
430.8525971703659
 30
0.0
 10
456.1520890670305
 20
429.7116359400686
 30
0.0
 10
456.1203529731418
 20
427.4231558577107
 30
0.0
 10
456.1080743467519
 20
426.2761563861714
 30
0.0
 10
456.090342266884
 20
424.0490631320118
 30
0.0
 10
456.0848758192027
 20
422.9691483151259
 30
0.0
 10
456.0822860562692
 20
421.9469555683134
 30
0.0
  0
SPLINE
  5
18A
330
1F
100
AcDbEntity
  8
0
  6
Continuous
 62
     7
370
    25
100
AcDbSpline
210
0.0
220
0.0
230
1.0
 70
     8
 71
     3
 72
    22
 73
    18
 74
     0
 42
0.000000001
 43
0.00000001
 40
0.0
 40
0.0
 40
0.0
 40
0.0
 40
0.125
 40
0.125
 40
0.25
 40
0.25
 40
0.375
 40
0.375
 40
0.5
 40
0.5
 40
0.625
 40
0.625
 40
0.75
 40
0.75
 40
0.875
 40
0.875
 40
1.0
 40
1.0
 40
1.0
 40
1.0
 10
433.2702096187241
 20
325.812137557032
 30
0.0
 10
433.3237204267912
 20
325.7828750651128
 30
0.0
 10
433.4758137082283
 20
325.7518609826791
 30
0.0
 10
434.0155168554209
 20
325.6876664911401
 30
0.0
 10
434.4035879957652
 20
325.6544907168962
 30
0.0
 10
435.4311776653392
 20
325.5880359120294
 30
0.0
 10
436.0709521243757
 20
325.5547714559905
 30
0.0
 10
437.5828632874473
 20
325.490649784832
 30
0.0
 10
438.4548390291596
 20
325.4598129505609
 30
0.0
 10
440.3749486519273
 20
325.4029573040659
 30
0.0
 10
441.4225137171758
 20
325.3769553348336
 30
0.0
 10
443.6117474607331
 20
325.3314837911346
 30
0.0
 10
444.7527086910305
 20
325.3120195499922
 30
0.0
 10
447.0411887733885
 20
325.2802834561035
 30
0.0
 10
448.1881882449278
 20
325.2680048297136
 30
0.0
 10
450.4152814990874
 20
325.2502727498456
 30
0.0
 10
451.4951963159733
 20
325.2448063021644
 30
0.0
 10
452.5173890627858
 20
325.2422165392308
 30
0.0
  0
SPLINE
  5
18B
330
1F
100
AcDbEntity
  8
0
  6
Continuous
 62
     7
370
    25
100
AcDbSpline
210
0.0
220
0.0
230
1.0
 70
     8
 71
     3
 72
    22
 73
    18
 74
     0
 42
0.000000001
 43
0.00000001
 40
0.0
 40
0.0
 40
0.0
 40
0.0
 40
0.0351997889982141
 40
0.0703787511067131
 40
0.1056253051390304
 40
0.1410288889143643
 40
0.1766793475862422
 40
0.2126663207348
 40
0.2490786506020495
 40
0.3741133344903048
 40
0.5002585501696643
 40
0.6262959234548114
 40
0.7513247112805639
 40
0.8146400440915892
 40
0.8768720168439647
 40
0.9384994627343086
 40
0.9999999999999999
 40
0.9999999999999999
 40
0.9999999999999999
 40
0.9999999999999999
 10
452.5173890627859
 20
325.2422165392299
 30
0.0
 10
452.5197788431854
 20
325.177090151168
 30
0.0
 10
452.5245569900075
 20
325.0468759088008
 30
0.0
 10
452.545315877949
 20
324.8523081971721
 30
0.0
 10
452.5761412084019
 20
324.6587615121225
 30
0.0
 10
452.6180925257096
 20
324.4663825613924
 30
0.0
 10
452.6709951115518
 20
324.2753077957514
 30
0.0
 10
452.735024967938
 20
324.0856678892189
 30
0.0
 10
452.8707614546394
 20
323.7461698384768
 30
0.0
 10
453.1279345843391
 20
323.2757321328609
 30
0.0
 10
453.5770783541971
 20
322.7355503726202
 30
0.0
 10
454.1175675311269
 20
322.2866732902766
 30
0.0
 10
454.631846169513
 20
322.0059903377168
 30
0.0
 10
455.0665547586291
 20
321.8422044748673
 30
0.0
 10
455.4017040912157
 20
321.7523842310221
 30
0.0
 10
455.7406413689266
 20
321.6939040101961
 30
0.0
 10
455.9684605026741
 20
321.6828614713293
 30
0.0
 10
456.0822526623908
 20
321.6773458926958
 30
0.0
  0
SPLINE
  5
18C
330
1F
100
AcDbEntity
  8
0
  6
Continuous
 62
     7
370
    25
100
AcDbSpline
210
0.0
220
0.0
230
1.0
 70
     8
 71
     3
 72
    22
 73
    18
 74
     0
 42
0.000000001
 43
0.00000001
 40
0.0
 40
0.0
 40
0.0
 40
0.0
 40
0.125
 40
0.125
 40
0.25
 40
0.25
 40
0.375
 40
0.375
 40
0.5
 40
0.5
 40
0.625
 40
0.625
 40
0.75
 40
0.75
 40
0.875
 40
0.875
 40
1.0
 40
1.0
 40
1.0
 40
1.0
 10
456.6522070718148
 20
302.430140368373
 30
0.0
 10
456.622942847796
 20
302.4836512121047
 30
0.0
 10
456.5919269283677
 20
302.6357446699411
 30
0.0
 10
456.5277286335399
 20
303.1754485629904
 30
0.0
 10
456.4945508932805
 20
303.5635202746769
 30
0.0
 10
456.4280921521765
 20
304.5911115367501
 30
0.0
 10
456.3948257268188
 20
305.2308870181497
 30
0.0
 10
456.3307002654098
 20
306.7428006234917
 30
0.0
 10
456.2998616114752
 20
307.6147777844275
 30
0.0
 10
456.2430026201256
 20
309.5348904700568
 30
0.0
 10
456.2169991267417
 20
310.5824571763972
 30
0.0
 10
456.1715249317373
 20
312.7716941828592
 30
0.0
 10
456.1520595637493
 20
313.9126570321244
 30
0.0
 10
456.1203216503376
 20
316.2011401066941
 30
0.0
 10
456.1080423308219
 20
317.3481409500059
 30
0.0
 10
456.090309273202
 20
319.5752365631011
 30
0.0
 10
456.0848425400735
 20
320.6551523674225
 30
0.0
 10
456.0822526620544
 20
321.6773458927028
 30
0.0
  0
SPLINE
  5
18D
330
1F
100
AcDbEntity
  8
0
  6
Continuous
 62
     7
370
    25
100
AcDbSpline
210
0.0
220
0.0
230
1.0
 70
     8
 71
     3
 72
    22
 73
    18
 74
     0
 42
0.000000001
 43
0.00000001
 40
0.0
 40
0.0
 40
0.0
 40
0.0
 40
0.0351997889360872
 40
0.0703787510027841
 40
0.1056253050139839
 40
0.1410288887890608
 40
0.1766793474815636
 40
0.2126663206715195
 40
0.2490786506006971
 40
0.3741133344420746
 40
0.5002585501670651
 40
0.6262959234739524
 40
0.7513247112755377
 40
0.8146400442585311
 40
0.8768720170680276
 40
0.9384994629015829
 40
1.0
 40
1.0
 40
1.0
 40
1.0
 10
549.2221280918695
 20
321.6773195457476
 30
0.0
 10
549.2872544798182
 20
321.6797093261183
 30
0.0
 10
549.4174687219964
 20
321.6844874728843
 30
0.0
 10
549.612036433401
 20
321.7052463607708
 30
0.0
 10
549.8055831183394
 20
321.7360716911926
 30
0.0
 10
549.9979620690707
 20
321.7780230084988
 30
0.0
 10
550.189036834825
 20
321.8309255943688
 30
0.0
 10
550.3786767415796
 20
321.8949554508199
 30
0.0
 10
550.7181747924529
 20
322.0306919374842
 30
0.0
 10
551.1886124982061
 20
322.2878650671955
 30
0.0
 10
551.7287942584366
 20
322.7370088371374
 30
0.0
 10
552.1776713408782
 20
323.277498014102
 30
0.0
 10
552.4583542935308
 20
323.7917766528038
 30
0.0
 10
552.6221401565086
 20
324.2264852422819
 30
0.0
 10
552.7119604004821
 20
324.5616345751668
 30
0.0
 10
552.7704406212301
 20
324.9005718525901
 30
0.0
 10
552.7814831598818
 20
325.128390985937
 30
0.0
 10
552.7869987384028
 20
325.2421831453512
 30
0.0
  0
SPLINE
  5
18E
330
1F
100
AcDbEntity
  8
0
  6
Continuous
 62
     7
370
    25
100
AcDbSpline
210
0.0
220
0.0
230
1.0
 70
     8
 71
     3
 72
    22
 73
    18
 74
     0
 42
0.000000001
 43
0.00000001
 40
0.0
 40
0.0
 40
0.0
 40
0.0
 40
0.1249999999999996
 40
0.1249999999999996
 40
0.2499999999999991
 40
0.2499999999999991
 40
0.3749999999999987
 40
0.3749999999999987
 40
0.4999999999999982
 40
0.4999999999999982
 40
0.6249999999999987
 40
0.6249999999999987
 40
0.7499999999999991
 40
0.7499999999999991
 40
0.8749999999999996
 40
0.8749999999999996
 40
1.0
 40
1.0
 40
1.0
 40
1.0
 10
572.0342042627253
 20
325.8121375570271
 30
0.0
 10
571.9806934189965
 20
325.782873333
 30
0.0
 10
571.8285999611627
 20
325.7518574135536
 30
0.0
 10
571.2888960681182
 20
325.6876591186667
 30
0.0
 10
570.9008243564339
 20
325.6544813783661
 30
0.0
 10
569.8732330943641
 20
325.5880226371559
 30
0.0
 10
569.2334576129659
 20
325.5547562117329
 30
0.0
 10
567.7215440076257
 20
325.4906307501712
 30
0.0
 10
566.8495668466902
 20
325.4597920961493
 30
0.0
 10
564.9294541610608
 20
325.4029331046086
 30
0.0
 10
563.8818874547198
 20
325.376929611121
 30
0.0
 10
561.6926504482562
 20
325.3314554159009
 30
0.0
 10
560.55168759899
 20
325.3119900478009
 30
0.0
 10
558.2632045244178
 20
325.2802521341656
 30
0.0
 10
557.1162036811047
 20
325.2679728145382
 30
0.0
 10
554.8891080680069
 20
325.250239756702
 30
0.0
 10
553.8091922636843
 20
325.2447730234691
 30
0.0
 10
552.7869987384028
 20
325.2421831453512
 30
0.0
  0
SPLINE
  5
18F
330
1F
100
AcDbEntity
  8
0
  6
Continuous
 62
     7
370
    25
100
AcDbSpline
210
0.0
220
0.0
230
1.0
 70
     8
 71
     3
 72
    22
 73
    18
 74
     0
 42
0.000000001
 43
0.00000001
 40
0.0
 40
0.0
 40
0.0
 40
0.0
 40
0.125
 40
0.125
 40
0.25
 40
0.25
 40
0.375
 40
0.375
 40
0.5
 40
0.5
 40
0.625
 40
0.625
 40
0.75
 40
0.75
 40
0.875
 40
0.875
 40
1.0
 40
1.0
 40
1.0
 40
1.0
 10
548.6522070785209
 20
302.4301401016797
 30
0.0
 10
548.6814695704459
 20
302.483650909747
 30
0.0
 10
548.7124836528853
 20
302.6357441911847
 30
0.0
 10
548.7766781444371
 20
303.1754473383802
 30
0.0
 10
548.8098539186876
 20
303.5635184787268
 30
0.0
 10
548.8763087235674
 20
304.5911081483072
 30
0.0
 10
548.9095731796128
 20
305.2308826073476
 30
0.0
 10
548.973694850784
 20
306.7427937704288
 30
0.0
 10
549.0045316850611
 20
307.6147695121467
 30
0.0
 10
549.0613873315673
 20
309.5348791349264
 30
0.0
 10
549.0873893008046
 20
310.5824442001814
 30
0.0
 10
549.1328608445124
 20
312.7716779437515
 30
0.0
 10
549.1523250856586
 20
313.9126391740551
 30
0.0
 10
549.1840611795533
 20
316.2011192564249
 30
0.0
 10
549.1963398059455
 20
317.3481187279695
 30
0.0
 10
549.2140718858167
 20
319.5752119821383
 30
0.0
 10
549.219538333499
 20
320.6551267990279
 30
0.0
 10
549.2221280964329
 20
321.6773195458434
 30
0.0
  0
SPLINE
  5
190
330
1F
100
AcDbEntity
  8
0
  6
Continuous
 62
     7
370
    25
100
AcDbSpline
210
0.0
220
0.0
230
1.0
 70
     8
 71
     3
 72
    64
 73
    60
 74
     0
 42
0.000000001
 43
0.00000001
 40
0.0
 40
0.0
 40
0.0
 40
0.0
 40
0.0139047526117017
 40
0.0275568748284785
 40
0.0409499877782489
 40
0.0540792436342594
 40
0.0669419326525812
 40
0.0795368153491282
 40
0.0918631707196154
 40
0.103921365805127
 40
0.1157127697542242
 40
0.1272413491415638
 40
0.1306111877677052
 40
0.1358690476737478
 40
0.1430039716308201
 40
0.1519992237132323
 40
0.1628322977912911
 40
0.1754800294719786
 40
0.1899171222306998
 40
0.2115031990805851
 40
0.2321093314414659
 40
0.2517682977064997
 40
0.3828867874218873
 40
0.4999989125881139
 40
0.6171083138861675
 40
0.7482384754277663
 40
0.778076119010714
 40
0.8100925641084767
 40
0.8298043092734058
 40
0.8459893810318058
 40
0.8585816384757492
 40
0.8675216942361924
 40
0.8727699421946872
 40
0.8771724385796861
 40
0.8816133240184304
 40
0.8860929270387796
 40
0.8906115766123109
 40
0.8951695774424201
 40
0.899767083703751
 40
0.9044041803997314
 40
0.9090809402116595
 40
0.9137974199196797
 40
0.9185536567265489
 40
0.9233496647097239
 40
0.928185431414979
 40
0.9330609146025827
 40
0.937976042963545
 40
0.9429307622219362
 40
0.947925018843673
 40
0.9529587201940452
 40
0.9580317312964712
 40
0.9631438725993345
 40
0.9682949178833347
 40
0.9734845923114671
 40
0.9787125706225304
 40
0.9839784754911132
 40
0.9892819126987494
 40
0.9946225447134375
 40
0.9999999999999999
 40
0.9999999999999999
 40
0.9999999999999999
 40
0.9999999999999999
 10
552.7869987384023
 20
325.2421831453512
 30
0.0
 10
552.7960199439513
 20
325.6737094391747
 30
0.0
 10
552.8138984520452
 20
326.528921782477
 30
0.0
 10
552.8403751801151
 20
327.7998507920199
 30
0.0
 10
552.8671806911938
 20
329.0467400675023
 30
0.0
 10
552.8949154307422
 20
330.2691441174488
 30
0.0
 10
552.9239534482953
 20
331.4667735533025
 30
0.0
 10
552.9543624969783
 20
332.6394762944205
 30
0.0
 10
552.9867916798189
 20
333.7871735010472
 30
0.0
 10
553.0202824109323
 20
334.909925726326
 30
0.0
 10
553.0579323815537
 20
336.00777004373
 30
0.0
 10
553.0801182331669
 20
336.8362843370239
 30
0.0
 10
553.1113293173468
 20
337.461405967601
 30
0.0
 10
553.1377296270067
 20
337.9501522077563
 30
0.0
 10
553.1614719082678
 20
338.6139606821899
 30
0.0
 10
553.1663018345465
 20
339.4512676300359
 30
0.0
 10
553.1769544684371
 20
340.4596471318747
 30
0.0
 10
553.1892127916418
 20
341.6370227103108
 30
0.0
 10
553.2045471679002
 20
343.1482816336894
 30
0.0
 10
553.2213595801989
 20
344.9066675345598
 30
0.0
 10
553.2401147776231
 20
346.8271945034604
 30
0.0
 10
553.2906388804337
 20
352.1488059830481
 30
0.0
 10
553.3788068424707
 20
360.4670373714675
 30
0.0
 10
553.402634271036
 20
371.8119249528484
 30
0.0
 10
553.378677232591
 20
383.1571754061245
 30
0.0
 10
553.287612636696
 20
391.7917410491936
 30
0.0
 10
553.2305518596778
 20
397.7840725305126
 30
0.0
 10
553.2059836280291
 20
400.3167440044774
 30
0.0
 10
553.1851068985649
 20
402.4255215867467
 30
0.0
 10
553.1674761758462
 20
403.9310495632204
 30
0.0
 10
553.1623554210238
 20
405.1024238234875
 30
0.0
 10
553.1250826460614
 20
405.93330029138
 30
0.0
 10
553.0923567798945
 20
406.5096743372166
 30
0.0
 10
553.0795259238546
 20
406.9470766975783
 30
0.0
 10
553.0649261582751
 20
407.3605066822609
 30
0.0
 10
553.0512037342157
 20
407.7775783470605
 30
0.0
 10
553.0374482149659
 20
408.1982811484723
 30
0.0
 10
553.0239189639243
 20
408.6226503387526
 30
0.0
 10
553.0105796320411
 20
409.0507003584045
 30
0.0
 10
552.9974788533102
 20
409.4824421118791
 30
0.0
 10
552.9846316768894
 20
409.9178820933077
 30
0.0
 10
552.9720518788142
 20
410.3570253351508
 30
0.0
 10
552.9597434227212
 20
410.7998747312413
 30
0.0
 10
552.9477031435827
 20
411.246430843207
 30
0.0
 10
552.9359199189627
 20
411.6966915768134
 30
0.0
 10
552.9243765366962
 20
412.1506520687574
 30
0.0
 10
552.9130441782788
 20
412.6083059218427
 30
0.0
 10
552.901911869766
 20
413.0696468915169
 30
0.0
 10
552.8909763886605
 20
413.5346682786916
 30
0.0
 10
552.8802246966329
 20
414.0033606655994
 30
0.0
 10
552.8696385880195
 20
414.4757106357741
 30
0.0
 10
552.8591937567318
 20
414.9517005254839
 30
0.0
 10
552.8488603653874
 20
415.4313082468047
 30
0.0
 10
552.8386031864887
 20
415.9145071167006
 30
0.0
 10
552.8283819061428
 20
416.4012656721183
 30
0.0
 10
552.8181511539269
 20
416.8915487316202
 30
0.0
 10
552.8078613242184
 20
417.3853204166969
 30
0.0
 10
552.7974957143907
 20
417.8825466574019
 30
0.0
 10
552.7905232799081
 20
418.2151736757101
 30
0.0
 10
552.7870250853504
 20
418.3820585748326
 30
0.0
  0
SPLINE
  5
191
330
1F
100
AcDbEntity
  8
0
  6
Continuous
 62
     7
370
    25
100
AcDbSpline
210
0.0
220
0.0
230
1.0
 70
     8
 71
     3
 72
    67
 73
    63
 74
     0
 42
0.000000001
 43
0.00000001
 40
0.0
 40
0.0
 40
0.0
 40
0.0
 40
0.0139043805765168
 40
0.0275561807825714
 40
0.0409490231393413
 40
0.0540780605532745
 40
0.0669405834435262
 40
0.0795353710886971
 40
0.091861771073409
 40
0.1039202284570971
 40
0.1157121685736189
 40
0.1272412576295567
 40
0.1306103253805582
 40
0.1358680543839819
 40
0.1430031697056589
 40
0.1519984301679501
 40
0.1628314671994716
 40
0.175479168860311
 40
0.1899163406060584
 40
0.2115107838113448
 40
0.2321171443469579
 40
0.2517692939330177
 40
0.3409855025871588
 40
0.4232919551278571
 40
0.499973964529366
 40
0.4999989352264855
 40
0.5766842206878139
 40
0.6590036961160178
 40
0.7482374991093015
 40
0.7780666697708761
 40
0.810093358119077
 40
0.8298066120997012
 40
0.8459924644472653
 40
0.8585848354147444
 40
0.8675239252781748
 40
0.8727700030576363
 40
0.8771725332887884
 40
0.8816134539791657
 40
0.8860930917395273
 40
0.8906117735784529
 40
0.8951698023830149
 40
0.8997673319151522
 40
0.9044044473741872
 40
0.9090812216433526
 40
0.9137977117114859
 40
0.9185539549995602
 40
0.9233499658153665
 40
0.9281857319496053
 40
0.9330612114243858
 40
0.9379763332002804
 40
0.9429310431223882
 40
0.9479252876596209
 40
0.9529589741814133
 40
0.9580319677197001
 40
0.9631440887358731
 40
0.9682951110282911
 40
0.9734847597823869
 40
0.9787127097643087
 40
0.9839785836810608
 40
0.9892819873529437
 40
0.9946225832893684
 40
1.0
 40
1.0
 40
1.0
 40
1.0
 10
549.2221614857475
 20
421.9469292213637
 30
0.0
 10
548.7906465231661
 20
421.9559503257104
 30
0.0
 10
547.935455293766
 20
421.9738286613089
 30
0.0
 10
546.6645556185023
 20
422.0003065071485
 30
0.0
 10
545.4176909320888
 20
422.0271135628345
 30
0.0
 10
544.1953066487989
 20
422.0548499182719
 30
0.0
 10
542.9976915370079
 20
422.083889184014
 30
0.0
 10
541.8249949460501
 20
422.1142986996417
 30
0.0
 10
540.6772905806412
 20
422.1467277785918
 30
0.0
 10
539.5545115564103
 20
422.1802171498881
 30
0.0
 10
538.4566260563223
 20
422.2178672598441
 30
0.0
 10
537.628102506261
 20
422.2400446455214
 30
0.0
 10
537.0029927727003
 20
422.2712563293567
 30
0.0
 10
536.514268335806
 20
422.2976556616948
 30
0.0
 10
535.8504571555983
 20
422.321394189659
 30
0.0
 10
535.0131445488456
 20
422.3262025264156
 30
0.0
 10
534.0047662668482
 20
422.3368442366562
 30
0.0
 10
532.8273897690242
 20
422.349105240381
 30
0.0
 10
531.3158689134008
 20
422.3644511334272
 30
0.0
 10
529.557213016556
 20
422.3812916232036
 30
0.0
 10
527.6366305976981
 20
422.4000998408752
 30
0.0
 10
523.6163225799883
 20
422.4382597738765
 30
0.0
 10
517.6801987442742
 20
422.5002210215093
 30
0.0
 10
509.972908654269
 20
422.5509906172049
 30
0.0
 10
505.0350763564603
 20
422.5548750765693
 30
0.0
 10
500.2718140351386
 20
422.5548755382328
 30
0.0
 10
495.3334755327523
 20
422.5510455283983
 30
0.0
 10
487.6251331975726
 20
422.5001392163333
 30
0.0
 10
481.3720541135702
 20
422.4351993117288
 30
0.0
 10
476.6805812793949
 20
422.3905188759358
 30
0.0
 10
474.1478078271127
 20
422.3658854971289
 30
0.0
 10
472.0386401117943
 20
422.3449946238558
 30
0.0
 10
470.533036739601
 20
422.3273669375732
 30
0.0
 10
469.3616639958614
 20
422.3222659882525
 30
0.0
 10
468.5308804650618
 20
422.2850052622986
 30
0.0
 10
467.9546022876406
 20
422.2522852037091
 30
0.0
 10
467.5172648472615
 20
422.239458362147
 30
0.0
 10
467.103831393774
 20
422.224859641846
 30
0.0
 10
466.6867562976119
 20
422.2111385310355
 30
0.0
 10
466.2660502976505
 20
422.1973841072304
 30
0.0
 10
465.8416782729797
 20
422.1838556690954
 30
0.0
 10
465.4136258464127
 20
422.1705168558654
 30
0.0
 10
464.981882112004
 20
422.157416349022
 30
0.0
 10
464.5464405554893
 20
422.1445692275632
 30
0.0
 10
464.107296123506
 20
422.1319893012466
 30
0.0
 10
463.6644459005808
 20
422.119680565613
 30
0.0
 10
463.2178893024225
 20
422.1076398871625
 30
0.0
 10
462.7676283993623
 20
422.0958561743809
 30
0.0
 10
462.3136680297097
 20
422.0843122446578
 30
0.0
 10
461.8560145695613
 20
422.0729793109513
 30
0.0
 10
461.3946742507794
 20
422.0618464177247
 30
0.0
 10
460.9296537682678
 20
422.0509103509542
 30
0.0
 10
460.4609625390733
 20
422.0401580833397
 30
0.0
 10
459.9886139786695
 20
422.0295714197463
 30
0.0
 10
459.5126257493928
 20
422.0191260649219
 30
0.0
 10
459.0330199373549
 20
422.0087921924432
 30
0.0
 10
458.5498232233449
 20
421.9985345858678
 30
0.0
 10
458.0630670677057
 20
421.9883129428044
 30
0.0
 10
457.5727866486741
 20
421.9780819034341
 30
0.0
 10
457.079017841016
 20
421.9677918769714
 30
0.0
 10
456.5817947108035
 20
421.9574261618217
 30
0.0
 10
456.2491698421134
 20
421.9504537505148
 30
0.0
 10
456.0822860562692
 20
421.9469555683135
 30
0.0
  0
SPLINE
  5
192
330
1F
100
AcDbEntity
  8
0
  6
Continuous
 62
     7
370
    25
100
AcDbSpline
210
0.0
220
0.0
230
1.0
 70
     8
 71
     3
 72
    64
 73
    60
 74
     0
 42
0.000000001
 43
0.00000001
 40
0.0
 40
0.0
 40
0.0
 40
0.0
 40
0.0139047526101414
 40
0.027556874825519
 40
0.0409499877741358
 40
0.0540792436293108
 40
0.066941932647185
 40
0.0795368153437337
 40
0.0918631707147239
 40
0.1039213658012854
 40
0.1157127697520119
 40
0.1272413491415864
 40
0.1306111877814788
 40
0.1358690476966507
 40
0.1430039716582283
 40
0.1519992237405416
 40
0.1628322978139473
 40
0.1754800294855067
 40
0.1899171222307129
 40
0.2115031991546967
 40
0.2321093315150339
 40
0.2517682977065078
 40
0.3828867874668573
 40
0.4999989125880489
 40
0.6171083139029439
 40
0.7482384754276254
 40
0.7780761189928547
 40
0.8100925641083283
 40
0.8298043092541834
 40
0.8459893810028466
 40
0.8585816384466408
 40
0.8675216942166695
 40
0.87276994219452
 40
0.8771724385902484
 40
0.8816133240388679
 40
0.8860929270682345
 40
0.8906115766499157
 40
0.8951695774873036
 40
0.8997670837550353
 40
0.9044041804565351
 40
0.9090809402730989
 40
0.9137974199848701
 40
0.9185536567946055
 40
0.9233496647797642
 40
0.9281854314861243
 40
0.9330609146739587
 40
0.9379760430342856
 40
0.9429307622911828
 40
0.947925018910578
 40
0.9529587202577695
 40
0.9580317313561915
 40
0.9631438726542384
 40
0.968294917932627
 40
0.97348459235437
 40
0.9787125706582837
 40
0.9839784755189775
 40
0.9892819127180104
 40
0.9946225447234016
 40
1.0
 40
1.0
 40
1.0
 40
1.0
 10
452.517415409733
 20
418.3820919687064
 30
0.0
 10
452.5083942043416
 20
417.9505656749281
 30
0.0
 10
452.4905156965599
 20
417.0953533317113
 30
0.0
 10
452.4640389688021
 20
415.8244243222896
 30
0.0
 10
452.4372334579269
 20
414.5775350469078
 30
0.0
 10
452.4094987184728
 20
413.3551309970346
 30
0.0
 10
452.380460700918
 20
412.1575015612204
 30
0.0
 10
452.3500516521467
 20
410.9847988201024
 30
0.0
 10
452.3176224691467
 20
409.8371016134315
 30
0.0
 10
452.2841317377982
 20
408.7143493880603
 30
0.0
 10
452.2464817669359
 20
407.6165050705112
 30
0.0
 10
452.22429591497
 20
406.7879907766809
 30
0.0
 10
452.1930848307029
 20
406.1628691453274
 30
0.0
 10
452.1666845210421
 20
405.6741229043204
 30
0.0
 10
452.1429422398373
 20
405.0103144294641
 30
0.0
 10
452.1381123136052
 20
404.1730074816255
 30
0.0
 10
452.1274596797019
 20
403.1646279802173
 30
0.0
 10
452.1152013565043
 20
401.9872524026285
 30
0.0
 10
452.0998669802031
 20
400.475993477652
 30
0.0
 10
452.0830545678913
 20
398.7176075749167
 30
0.0
 10
452.0642993705214
 20
396.7970806060151
 30
0.0
 10
452.0137752675697
 20
391.4754691273321
 30
0.0
 10
451.9256073054162
 20
383.1572377411973
 30
0.0
 10
451.9017798771595
 20
371.8123501592913
 30
0.0
 10
451.9257369155548
 20
360.4670997074128
 30
0.0
 10
452.0168015114983
 20
351.832534064894
 30
0.0
 10
452.0738622884097
 20
345.8402025840979
 30
0.0
 10
452.0984305200878
 20
343.307531110725
 30
0.0
 10
452.1193072495938
 20
341.1987535288004
 30
0.0
 10
452.1369379723371
 20
339.6932255532252
 30
0.0
 10
452.1420587271003
 20
338.5218512929679
 30
0.0
 10
452.1793315020046
 20
337.6909748241771
 30
0.0
 10
452.2120573682034
 20
337.1146007771093
 30
0.0
 10
452.2248882244384
 20
336.6771984155125
 30
0.0
 10
452.2394879901864
 20
336.2637684299151
 30
0.0
 10
452.2532104144406
 20
335.8466967642817
 30
0.0
 10
452.2669659338962
 20
335.4259939621169
 30
0.0
 10
452.2804951851536
 20
335.0016247711652
 30
0.0
 10
452.2938345172574
 20
334.5735747509235
 30
0.0
 10
452.3069352962093
 20
334.141832996941
 30
0.0
 10
452.3197824728475
 20
333.7063930150867
 30
0.0
 10
452.3323622711324
 20
333.2672497729
 30
0.0
 10
452.3446707274231
 20
332.8244003765475
 30
0.0
 10
452.3567110067433
 20
332.3778442644016
 30
0.0
 10
452.3684942315245
 20
331.9275835306962
 30
0.0
 10
452.3800376139276
 20
331.4736230387337
 30
0.0
 10
452.3913699724525
 20
331.0159691857099
 30
0.0
 10
452.4025022810393
 20
330.5546282161763
 30
0.0
 10
452.4134377621805
 20
330.0896068292202
 30
0.0
 10
452.4241894542018
 20
329.6209144426082
 30
0.0
 10
452.4347755627621
 20
329.1485644728049
 30
0.0
 10
452.4452203939456
 20
328.672574583541
 30
0.0
 10
452.4555537851305
 20
328.192966862739
 30
0.0
 10
452.4658109638098
 20
327.7097679934333
 30
0.0
 10
452.4760322438722
 20
327.223009438675
 30
0.0
 10
452.486262995736
 20
326.7327263799003
 30
0.0
 10
452.4965528250178
 20
326.2389546956157
 30
0.0
 10
452.5069184343465
 20
325.7417284557658
 30
0.0
 10
452.5138908684289
 20
325.4091014380475
 30
0.0
 10
452.5173890627858
 20
325.2422165392304
 30
0.0
  0
SPLINE
  5
193
330
1F
100
AcDbEntity
  8
0
  6
Continuous
 62
     7
370
    25
100
AcDbSpline
210
0.0
220
0.0
230
1.0
 70
     8
 71
     3
 72
    64
 73
    60
 74
     0
 42
0.000000001
 43
0.00000001
 40
0.0
 40
0.0
 40
0.0
 40
0.0
 40
0.0139032899807948
 40
0.0275540117493354
 40
0.040945788542981
 40
0.0540737736163022
 40
0.0669352573897729
 40
0.0795290004277482
 40
0.0918542812900231
 40
0.1039114659508492
 40
0.1157019216902883
 40
0.1272296107047828
 40
0.1306004714433979
 40
0.1358591446598785
 40
0.1429946743521589
 40
0.1519903257049034
 40
0.162823590608425
 40
0.1754713045847487
 40
0.1899081748857039
 40
0.2114953606949104
 40
0.2321024792417072
 40
0.2517623142531085
 40
0.3828859453689908
 40
0.5000020166901894
 40
0.6171074735684782
 40
0.748232495774344
 40
0.7780687930040975
 40
0.8100836214125205
 40
0.8297956175515513
 40
0.8459805375785615
 40
0.8585722365607444
 40
0.8675113297622882
 40
0.8727582087320612
 40
0.8771610407436602
 40
0.8816022701243034
 40
0.886082225521285
 40
0.890601236034069
 40
0.8951596066660399
 40
0.8997574920069537
 40
0.904394977136334
 40
0.9090721348047431
 40
0.9137890218606861
 40
0.9185456755721554
 40
0.9233421100765496
 40
0.9281783129722005
 40
0.9330542420625327
 40
0.9379698260472912
 40
0.9429250105931735
 40
0.9479197421894283
 40
0.9529539282181833
 40
0.9580274337023689
 40
0.9631400790711744
 40
0.9682916380661262
 40
0.9734818357898632
 40
0.9787103468985489
 40
0.9839767939606078
 40
0.9892807826067053
 40
0.994621975173826
 40
1.0
 40
1.0
 40
1.0
 40
1.0
 10
456.0822526623908
 20
321.6773458926958
 30
0.0
 10
456.5137335631865
 20
321.6683255997787
 30
0.0
 10
457.3688570502577
 20
321.6504488772646
 30
0.0
 10
458.6396557163035
 20
321.6239744816078
 30
0.0
 10
459.8864205982404
 20
321.5971714088614
 30
0.0
 10
461.1087063139096
 20
321.5694394218069
 30
0.0
 10
462.3062235185024
 20
321.5404045193181
 30
0.0
 10
463.4788201343929
 20
321.5099992271868
 30
0.0
 10
464.6264172827574
 20
321.4775745075507
 30
0.0
 10
465.7490754201949
 20
321.4440890050474
 30
0.0
 10
466.8468313576177
 20
321.4064438582429
 30
0.0
 10
467.6753204337577
 20
321.3842629303491
 30
0.0
 10
468.3004712670179
 20
321.3530479414578
 30
0.0
 10
468.7892927322658
 20
321.3266354362351
 30
0.0
 10
469.4531570512267
 20
321.3028737540732
 30
0.0
 10
470.2905012012495
 20
321.2980372879084
 30
0.0
 10
471.29889853001
 20
321.2873951238602
 30
0.0
 10
472.4762726134721
 20
321.2751386891684
 30
0.0
 10
473.9875585223943
 20
321.2598056005676
 30
0.0
 10
475.7460025687617
 20
321.2429920510028
 30
0.0
 10
477.6666215693844
 20
321.2242360812844
 30
0.0
 10
482.9884502894706
 20
321.173709678108
 30
0.0
 10
491.3069908118241
 20
321.085536086487
 30
0.0
 10
502.6520381266162
 20
321.0617103662981
 30
0.0
 10
513.9971290274827
 20
321.0856690645049
 30
0.0
 10
522.631370838875
 20
321.1767279229851
 30
0.0
 10
528.6234507334847
 20
321.2337859840379
 30
0.0
 10
531.1560380125876
 20
321.2583538118943
 30
0.0
 10
533.2647684447356
 20
321.2792291442553
 30
0.0
 10
534.7702821415564
 20
321.2968730183537
 30
0.0
 10
535.9416042424057
 20
321.301986656781
 30
0.0
 10
536.7723920253293
 20
321.3392333466062
 30
0.0
 10
537.3487044419729
 20
321.3719510114735
 30
0.0
 10
537.786085339417
 20
321.3847831022197
 30
0.0
 10
538.1995473261563
 20
321.3993849705019
 30
0.0
 10
538.6166517741927
 20
321.4131095939011
 30
0.0
 10
539.0373881673148
 20
321.4268671969469
 30
0.0
 10
539.4617917809697
 20
321.4403984716026
 30
0.0
 10
539.889877079135
 20
321.453739806457
 30
0.0
 10
540.3216549846444
 20
321.4668425300795
 30
0.0
 10
540.7571319985075
 20
321.4796915793632
 30
0.0
 10
541.1963131597055
 20
321.4922731627406
 30
0.0
 10
541.6392013681107
 20
321.504583306256
 30
0.0
 10
542.0857971907831
 20
321.5166251678151
 30
0.0
 10
542.5360985381234
 20
321.5284098664723
 30
0.0
 10
542.990100549804
 20
321.5399546139657
 30
0.0
 10
543.4477968280744
 20
321.5512882332308
 30
0.0
 10
543.9091811261594
 20
321.5624217482692
 30
0.0
 10
544.3742467445257
 20
321.5733583716273
 30
0.0
 10
544.8429842663577
 20
321.584111146671
 30
0.0
 10
545.3153802748525
 20
321.5946982837255
 30
0.0
 10
545.791417104139
 20
321.6051440971258
 30
0.0
 10
546.2710726622661
 20
321.6154784349114
 30
0.0
 10
546.7543202601747
 20
321.6257365375682
 30
0.0
 10
547.2411284266612
 20
321.6359587350798
 30
0.0
 10
547.7314619693716
 20
321.6461904132803
 30
0.0
 10
548.2252849970541
 20
321.6564812065341
 30
0.0
 10
548.7225634269469
 20
321.6668478279396
 30
0.0
 10
549.0552255172789
 20
321.6738209863313
 30
0.0
 10
549.2221280918691
 20
321.6773195457477
 30
0.0
  0
SPLINE
  5
194
330
1F
100
AcDbEntity
  8
0
  6
Continuous
 62
     7
370
    25
100
AcDbSpline
210
0.0
220
0.0
230
1.0
 70
    11
 71
     3
 72
   127
 73
   123
 74
     0
 42
0.000000001
 43
0.00000001
 40
0.0
 40
0.0
 40
0.0
 40
0.0
 40
0.0312499999999998
 40
0.0312499999999998
 40
0.0390624999999998
 40
0.0390624999999998
 40
0.0468749999999998
 40
0.0468749999999998
 40
0.0624999999999997
 40
0.0624999999999997
 40
0.0781249999999996
 40
0.0781249999999996
 40
0.0859374999999995
 40
0.0859374999999995
 40
0.0937499999999994
 40
0.0937499999999994
 40
0.124999999999999
 40
0.124999999999999
 40
0.1406249999999988
 40
0.1406249999999988
 40
0.1484374999999988
 40
0.1484374999999988
 40
0.1562499999999987
 40
0.1562499999999987
 40
0.1874999999999984
 40
0.1874999999999984
 40
0.1953124999999984
 40
0.1953124999999984
 40
0.2031249999999984
 40
0.2031249999999984
 40
0.2187499999999984
 40
0.2187499999999984
 40
0.2499999999999983
 40
0.2499999999999983
 40
0.2578124999999982
 40
0.2578124999999982
 40
0.2656249999999983
 40
0.2656249999999983
 40
0.2812499999999982
 40
0.2812499999999982
 40
0.2968749999999982
 40
0.2968749999999982
 40
0.3124999999999982
 40
0.3124999999999982
 40
0.3437499999999982
 40
0.3437499999999982
 40
0.3593749999999982
 40
0.3593749999999982
 40
0.3749999999999982
 40
0.3749999999999982
 40
0.4062499999999982
 40
0.4062499999999982
 40
0.4218749999999982
 40
0.4218749999999982
 40
0.4374999999999981
 40
0.4374999999999981
 40
0.4531249999999981
 40
0.4531249999999981
 40
0.4609374999999981
 40
0.4609374999999981
 40
0.4687499999999982
 40
0.4687499999999982
 40
0.4999999999999982
 40
0.4999999999999982
 40
0.5312499999999983
 40
0.5312499999999983
 40
0.5468749999999983
 40
0.5468749999999983
 40
0.5624999999999983
 40
0.5624999999999983
 40
0.5937499999999984
 40
0.5937499999999984
 40
0.6015624999999984
 40
0.6015624999999984
 40
0.6093749999999983
 40
0.6093749999999983
 40
0.6249999999999983
 40
0.6249999999999983
 40
0.6562499999999984
 40
0.6562499999999984
 40
0.6640624999999984
 40
0.6640624999999984
 40
0.6718749999999983
 40
0.6718749999999983
 40
0.6874999999999983
 40
0.7031249999999982
 40
0.7031249999999982
 40
0.7109374999999982
 40
0.7109374999999982
 40
0.7187499999999981
 40
0.7187499999999981
 40
0.7499999999999982
 40
0.7499999999999982
 40
0.7656249999999982
 40
0.7656249999999982
 40
0.7734374999999983
 40
0.7734374999999983
 40
0.7812499999999984
 40
0.7812499999999984
 40
0.8124999999999987
 40
0.8124999999999987
 40
0.8203124999999988
 40
0.8203124999999988
 40
0.8281249999999989
 40
0.8281249999999989
 40
0.8437499999999991
 40
0.8437499999999991
 40
0.8749999999999993
 40
0.8749999999999993
 40
0.8906249999999994
 40
0.8906249999999994
 40
0.9062499999999994
 40
0.9062499999999994
 40
0.9218749999999994
 40
0.9218749999999994
 40
0.9374999999999996
 40
0.9374999999999996
 40
0.9687499999999997
 40
0.9687499999999997
 40
0.9843749999999999
 40
0.9843749999999999
 40
1.0
 40
1.0
 40
1.0
 40
1.0
 10
502.6522070740689
 20
403.0625057405813
 30
0.0
 10
504.7164307368113
 20
403.0625060297067
 30
0.0
 10
506.7571642231269
 20
402.8604950225374
 30
0.0
 10
509.2790050640905
 20
402.3579321994394
 30
0.0
 10
509.783066033874
 20
402.2444946785758
 30
0.0
 10
510.7817292679885
 20
401.9936695699999
 30
0.0
 10
511.2760591291429
 20
401.85642772617
 30
0.0
 10
512.7443250098805
 20
401.4098802081575
 30
0.0
 10
513.7035716717417
 20
401.0658337855505
 30
0.0
 10
515.5834888875311
 20
400.286507262234
 30
0.0
 10
516.5041594904462
 20
399.8512272525752
 30
0.0
 10
517.8558619269046
 20
399.12900356866
 30
0.0
 10
518.301536879569
 20
398.8766913573407
 30
0.0
 10
519.1829314299925
 20
398.3485221905173
 30
0.0
 10
519.6197734765082
 20
398.0718919888411
 30
0.0
 10
521.7576404418697
 20
396.64240852211
 30
0.0
 10
523.3305411175743
 20
395.3477205283641
 30
0.0
 10
525.4900430962047
 20
393.1858996985191
 30
0.0
 10
526.1763216044405
 20
392.4283892929637
 30
0.0
 10
527.1539210184943
 20
391.2351351893931
 30
0.0
 10
527.471617136136
 20
390.8271082443989
 30
0.0
 10
528.0827416099853
 20
390.0007451831937
 30
0.0
 10
528.3769998224424
 20
389.5814673783902
 30
0.0
 10
529.7927224500878
 20
387.4551102443683
 30
0.0
 10
530.7495643658084
 20
385.659249508862
 30
0.0
 10
531.7259369837718
 20
383.2959490266711
 30
0.0
 10
531.910121940804
 20
382.8173082710138
 30
0.0
 10
532.255895974551
 20
381.8478406914568
 30
0.0
 10
532.4174070829456
 20
381.3569479911272
 30
0.0
 10
532.8626581261309
 20
379.8823403834758
 30
0.0
 10
533.1092467362395
 20
378.8912861697155
 30
0.0
 10
533.7021400011176
 20
375.8947898326739
 30
0.0
 10
533.902992420216
 20
373.8662396306497
 30
0.0
 10
533.9024646956289
 20
371.2905812365432
 30
0.0
 10
533.8895929126895
 20
370.7746549235411
 30
0.0
 10
533.8388383629248
 20
369.7498409170228
 30
0.0
 10
533.8009645019163
 20
369.2396955324342
 30
0.0
 10
533.6504241833176
 20
367.7159408990335
 30
0.0
 10
533.50092559139
 20
366.7089974996115
 30
0.0
 10
533.1045266743354
 20
364.7127383743677
 30
0.0
 10
532.8576288578989
 20
363.7234221941055
 30
0.0
 10
532.2644927327017
 20
361.7627683098823
 30
0.0
 10
531.9160085606541
 20
360.7869016332483
 30
0.0
 10
530.7399829966367
 20
357.94483386622
 30
0.0
 10
529.7810618885906
 20
356.149356663413
 30
0.0
 10
528.0835244173753
 20
353.6031763274596
 30
0.0
 10
527.4736894348698
 20
352.7787386416506
 30
0.0
 10
526.1651667878649
 20
351.1829851295307
 30
0.0
 10
525.4768480866666
 20
350.4242218968479
 30
0.0
 10
523.3132760850741
 20
348.2611885663526
 30
0.0
 10
521.7403539934068
 20
346.9690871138569
 30
0.0
 10
519.1815359480096
 20
345.2599779288553
 30
0.0
 10
518.2924839360361
 20
344.7278914356174
 30
0.0
 10
516.4858513406505
 20
343.7639500558626
 30
0.0
 10
515.5638787281237
 20
343.3288857396848
 30
0.0
 10
513.6833185369136
 20
342.550815692124
 30
0.0
 10
512.7247301872134
 20
342.2078118989544
 30
0.0
 10
511.2591181580389
 20
341.7630247566578
 30
0.0
 10
510.7659512634531
 20
341.6264021707864
 30
0.0
 10
509.7702108775742
 20
341.3768073746752
 30
0.0
 10
509.2665140648294
 20
341.2636250819293
 30
0.0
 10
506.739222291817
 20
340.761129714916
 30
0.0
 10
504.6958035046173
 20
340.5604382821182
 30
0.0
 10
500.5678516869012
 20
340.5631224321423
 30
0.0
 10
498.5381786067752
 20
340.7663703963747
 30
0.0
 10
495.5430796466742
 20
341.3620719352123
 30
0.0
 10
494.5530094035245
 20
341.6094696124982
 30
0.0
 10
492.5898480068239
 20
342.2042038551748
 30
0.0
 10
491.6142409629687
 20
342.5531704260113
 30
0.0
 10
488.7762553778466
 20
343.7288145639906
 30
0.0
 10
486.9812329458181
 20
344.6878620994983
 30
0.0
 10
484.857980098211
 20
346.1045408537461
 30
0.0
 10
484.4394266749633
 20
346.3988982473286
 30
0.0
 10
483.614704703693
 20
347.0100008201156
 30
0.0
 10
483.2074679297325
 20
347.3276411591443
 30
0.0
 10
482.0132700455683
 20
348.3078436033331
 30
0.0
 10
481.2556726432129
 20
348.9956042098584
 30
0.0
 10
479.0948416242815
 20
351.15852157879
 30
0.0
 10
477.8024807978716
 20
352.7323453189334
 30
0.0
 10
476.3769582750776
 20
354.8686445140439
 30
0.0
 10
476.1007414122462
 20
355.3056739578979
 30
0.0
 10
475.5726261288688
 20
356.1888542674623
 30
0.0
 10
475.3204446934773
 20
356.6353166290285
 30
0.0
 10
474.5988685802506
 20
357.9890494102512
 30
0.0
 10
473.7298512387935
 20
359.8322142137175
 30
0.0
 10
473.0441260093926
 20
361.7505746493725
 30
0.0
 10
472.599463296952
 20
363.2179111592758
 30
0.0
 10
472.4628676425276
 20
363.7117925825635
 30
0.0
 10
472.2133372126875
 20
364.7092623135655
 30
0.0
 10
472.1002504454003
 20
365.2138976471727
 30
0.0
 10
471.6002371826527
 20
367.7350756370181
 30
0.0
 10
471.4025975118617
 20
369.7626531239825
 30
0.0
 10
471.4014693199529
 20
372.8195397050551
 30
0.0
 10
471.4506690913284
 20
373.8411072220501
 30
0.0
 10
471.6011062895079
 20
375.3774859888825
 30
0.0
 10
471.6641753170222
 20
375.8905572827996
 30
0.0
 10
471.8145592597282
 20
376.9067018864455
 30
0.0
 10
471.9019853069129
 20
377.4112014695307
 30
0.0
 10
472.3992871875449
 20
379.9161274646596
 30
0.0
 10
472.9879551053405
 20
381.8643413059708
 30
0.0
 10
473.9639240580729
 20
384.2294825057418
 30
0.0
 10
474.1712323392649
 20
384.6989729595477
 30
0.0
 10
474.6105633610184
 20
385.6307365220587
 30
0.0
 10
474.8422755225437
 20
386.0921660588821
 30
0.0
 10
475.5667872159472
 20
387.4505470725684
 30
0.0
 10
476.0910850275457
 20
388.3265617131903
 30
0.0
 10
477.7853963205558
 20
390.8676442128488
 30
0.0
 10
479.0758384457711
 20
392.4464592453568
 30
0.0
 10
481.2620759221547
 20
394.6352164717311
 30
0.0
 10
482.0234945226856
 20
395.3249836207169
 30
0.0
 10
483.60118969164
 20
396.6196387321092
 30
0.0
 10
484.4188122729389
 20
397.2258676277822
 30
0.0
 10
486.111190541119
 20
398.3567234620754
 30
0.0
 10
486.9859084342306
 20
398.8814044357137
 30
0.0
 10
488.7933426397136
 20
399.8479289899212
 30
0.0
 10
489.7302844968239
 20
400.2910045953167
 30
0.0
 10
492.5709886442235
 20
401.4667520305414
 30
0.0
 10
494.5190439285151
 20
402.0571132864696
 30
0.0
 10
497.5214069659399
 20
402.6563680922809
 30
0.0
 10
498.5369658016165
 20
402.8081959450982
 30
0.0
 10
500.5905782739924
 20
403.0116275344315
 30
0.0
 10
501.6200952426976
 20
403.0625055960185
 30
0.0
 10
502.6522070740689
 20
403.0625057405813
 30
0.0
  0
SPLINE
  5
195
330
1F
100
AcDbEntity
  8
0
  6
Continuous
 62
     7
370
    25
100
AcDbSpline
210
0.0
220
0.0
230
1.0
 70
    11
 71
     3
 72
   127
 73
   123
 74
     0
 42
0.000000001
 43
0.00000001
 40
0.0
 40
0.0
 40
0.0
 40
0.0
 40
0.0156249999999998
 40
0.0156249999999998
 40
0.0312499999999997
 40
0.0312499999999997
 40
0.0624999999999993
 40
0.0624999999999993
 40
0.0781249999999992
 40
0.0781249999999992
 40
0.093749999999999
 40
0.093749999999999
 40
0.1093749999999988
 40
0.1093749999999988
 40
0.1249999999999987
 40
0.1249999999999987
 40
0.1562499999999981
 40
0.1562499999999981
 40
0.1718749999999979
 40
0.1718749999999979
 40
0.1796874999999978
 40
0.1796874999999978
 40
0.1874999999999977
 40
0.1874999999999977
 40
0.2187499999999977
 40
0.2187499999999977
 40
0.2265624999999977
 40
0.2265624999999977
 40
0.2343749999999977
 40
0.2343749999999977
 40
0.2499999999999977
 40
0.2499999999999977
 40
0.2812499999999978
 40
0.2812499999999978
 40
0.2890624999999978
 40
0.2890624999999978
 40
0.2968749999999978
 40
0.2968749999999978
 40
0.312499999999998
 40
0.3281249999999981
 40
0.3281249999999981
 40
0.3359374999999981
 40
0.3359374999999981
 40
0.3437499999999981
 40
0.3437499999999981
 40
0.3749999999999981
 40
0.3749999999999981
 40
0.3906249999999981
 40
0.3906249999999981
 40
0.3984374999999981
 40
0.3984374999999981
 40
0.4062499999999981
 40
0.4062499999999981
 40
0.4374999999999981
 40
0.4374999999999981
 40
0.4531249999999981
 40
0.4531249999999981
 40
0.4687499999999981
 40
0.4687499999999981
 40
0.4999999999999981
 40
0.4999999999999981
 40
0.5312499999999981
 40
0.5312499999999981
 40
0.5390624999999981
 40
0.5390624999999981
 40
0.5468749999999981
 40
0.5468749999999981
 40
0.5624999999999981
 40
0.5624999999999981
 40
0.578124999999998
 40
0.578124999999998
 40
0.593749999999998
 40
0.593749999999998
 40
0.624999999999998
 40
0.624999999999998
 40
0.640624999999998
 40
0.640624999999998
 40
0.6562499999999981
 40
0.6562499999999981
 40
0.6874999999999981
 40
0.6874999999999981
 40
0.703124999999998
 40
0.703124999999998
 40
0.718749999999998
 40
0.718749999999998
 40
0.7343749999999979
 40
0.7343749999999979
 40
0.742187499999998
 40
0.742187499999998
 40
0.749999999999998
 40
0.749999999999998
 40
0.7812499999999982
 40
0.7812499999999982
 40
0.7968749999999982
 40
0.7968749999999982
 40
0.8046874999999983
 40
0.8046874999999983
 40
0.8124999999999983
 40
0.8124999999999983
 40
0.8437499999999984
 40
0.8437499999999984
 40
0.8515624999999984
 40
0.8515624999999984
 40
0.8593749999999986
 40
0.8593749999999986
 40
0.8749999999999989
 40
0.8749999999999989
 40
0.9062499999999993
 40
0.9062499999999993
 40
0.9140624999999994
 40
0.9140624999999994
 40
0.9218749999999996
 40
0.9218749999999996
 40
0.9374999999999998
 40
0.9374999999999998
 40
0.9531249999999999
 40
0.9531249999999999
 40
0.9609375
 40
0.9609375
 40
0.96875
 40
0.96875
 40
1.0
 40
1.0
 40
1.0
 40
1.0
 10
502.6522069941673
 20
402.5039581751572
 30
0.0
 10
501.6387278168033
 20
402.5039581799043
 30
0.0
 10
500.6278873945862
 20
402.4538746995204
 30
0.0
 10
498.6114790800029
 20
402.2536352565851
 30
0.0
 10
497.6143620768781
 20
402.104195511599
 30
0.0
 10
494.666707514491
 20
401.5144663984917
 30
0.0
 10
492.7543647813554
 20
400.9335885414473
 30
0.0
 10
489.9659869856552
 20
399.7771401882317
 30
0.0
 10
489.0463409283082
 20
399.3413863529564
 30
0.0
 10
487.2723500828847
 20
398.3909650497441
 30
0.0
 10
486.4138965968475
 20
397.8750355276398
 30
0.0
 10
484.7528863839772
 20
396.7634319152339
 30
0.0
 10
483.9503293875444
 20
396.1677581468857
 30
0.0
 10
482.4015634166348
 20
394.8960222079304
 30
0.0
 10
481.654038593517
 20
394.2186498015764
 30
0.0
 10
479.5074197722161
 20
392.0697045275723
 30
0.0
 10
478.2397415506234
 20
390.5199041781987
 30
0.0
 10
476.5741132585557
 20
388.0260545621975
 30
0.0
 10
476.0585102529972
 20
387.1663707243596
 30
0.0
 10
475.345989048976
 20
385.8331870747906
 30
0.0
 10
475.1180947475169
 20
385.3803056949113
 30
0.0
 10
474.685968284942
 20
384.4657727657861
 30
0.0
 10
474.4820437663751
 20
384.0049534260867
 30
0.0
 10
473.5219349397678
 20
381.6834376629102
 30
0.0
 10
472.9425935146119
 20
379.7709812214575
 30
0.0
 10
472.4530344199197
 20
377.3117404102241
 30
0.0
 10
472.3669592874803
 20
376.8164277631942
 30
0.0
 10
472.218881805753
 20
375.81875659001
 30
0.0
 10
472.1567692429353
 20
375.3149904149033
 30
0.0
 10
472.008590418207
 20
373.8064669293196
 30
0.0
 10
471.9600924132183
 20
372.8034339471183
 30
0.0
 10
471.9609887961474
 20
369.8020473306688
 30
0.0
 10
472.1553844172331
 20
367.8113328525012
 30
0.0
 10
472.6472458616693
 20
365.3360509403943
 30
0.0
 10
472.7584930870969
 20
364.8405917215029
 30
0.0
 10
473.003959082801
 20
363.8612815488902
 30
0.0
 10
473.1383253869175
 20
363.3764091492997
 30
0.0
 10
473.5757071817675
 20
361.9358863021615
 30
0.0
 10
474.2501437423261
 20
360.0527082714462
 30
0.0
 10
475.1046362167537
 20
358.2435548172767
 30
0.0
 10
475.8140538013843
 20
356.9148712445521
 30
0.0
 10
476.0619712520923
 20
356.4766819512175
 30
0.0
 10
476.5811239115512
 20
355.6098897380727
 30
0.0
 10
476.852661830402
 20
355.1809772655926
 30
0.0
 10
478.2537521289792
 20
353.0841525083333
 30
0.0
 10
479.5231577899046
 20
351.5389328278421
 30
0.0
 10
481.6448213926612
 20
349.414793900096
 30
0.0
 10
482.3885606782842
 20
348.7392598541834
 30
0.0
 10
483.560700962958
 20
347.7762889760347
 30
0.0
 10
483.9603982637378
 20
347.4641833856204
 30
0.0
 10
484.7698343008636
 20
346.8636102984511
 30
0.0
 10
485.180616812683
 20
346.5742669912244
 30
0.0
 10
487.2643717819536
 20
345.1814004203451
 30
0.0
 10
489.0260318802554
 20
344.2379113659635
 30
0.0
 10
491.8117644166143
 20
343.0811528777916
 30
0.0
 10
492.7694889826615
 20
342.7377155012931
 30
0.0
 10
494.6967569264981
 20
342.1523166427917
 30
0.0
 10
495.668759474468
 20
341.908755099963
 30
0.0
 10
498.6093105688199
 20
341.3221819415785
 30
0.0
 10
500.6021622632332
 20
341.1218705967138
 30
0.0
 10
504.6555700851671
 20
341.1187877987318
 30
0.0
 10
506.6621025477704
 20
341.316161690892
 30
0.0
 10
509.1435772550286
 20
341.8104574959534
 30
0.0
 10
509.6381560971021
 20
341.9217999725038
 30
0.0
 10
510.6158229149437
 20
342.1673282135415
 30
0.0
 10
511.1000209824629
 20
342.3017218004276
 30
0.0
 10
512.5389318787734
 20
342.7392322693212
 30
0.0
 10
513.479993355987
 20
343.0765986681576
 30
0.0
 10
515.3260649930212
 20
343.8417795600633
 30
0.0
 10
516.2310758578028
 20
344.2695922848025
 30
0.0
 10
518.0043783034931
 20
345.2173417565023
 30
0.0
 10
518.876944091996
 20
345.7404825963155
 30
0.0
 10
521.3886234266478
 20
347.420405976216
 30
0.0
 10
522.9330219706123
 20
348.6896388780981
 30
0.0
 10
525.0578692728621
 20
350.8135905786935
 30
0.0
 10
525.733967781649
 20
351.5585170553252
 30
0.0
 10
527.0195099476816
 20
353.1248803222176
 30
0.0
 10
527.6188608274433
 20
353.9341129815134
 30
0.0
 10
529.2878980311168
 20
356.4331030921669
 30
0.0
 10
530.231258588839
 20
358.1953341228819
 30
0.0
 10
531.388360792976
 20
360.9852785298335
 30
0.0
 10
531.7313053633709
 20
361.9433248688889
 30
0.0
 10
532.3150777578674
 20
363.8682376233689
 30
0.0
 10
532.5581170057533
 20
364.8395556553165
 30
0.0
 10
532.9483725091366
 20
366.7995756934416
 30
0.0
 10
533.0955863939569
 20
367.7882781301698
 30
0.0
 10
533.2438607613599
 20
369.2844929982771
 30
0.0
 10
533.2811731803267
 20
369.7854286856076
 30
0.0
 10
533.3311939090999
 20
370.7917636749972
 30
0.0
 10
533.3438935527215
 20
371.2984012046117
 30
0.0
 10
533.3445422883368
 20
373.8277258995711
 30
0.0
 10
533.1468794592529
 20
375.819623638101
 30
0.0
 10
532.5634763440131
 20
378.7617776161931
 30
0.0
 10
532.3208414053546
 20
379.7348245841051
 30
0.0
 10
531.8827693123047
 20
381.1825909253997
 30
0.0
 10
531.7238672160283
 20
381.6645435816289
 30
0.0
 10
531.3836929600401
 20
382.6163455897552
 30
0.0
 10
531.202501918783
 20
383.0862473149418
 30
0.0
 10
530.2420681035379
 20
385.4063219505398
 30
0.0
 10
529.3009315258381
 20
387.1690258870428
 30
0.0
 10
527.909205188452
 20
389.2560799002195
 30
0.0
 10
527.6199993779987
 20
389.6676229634101
 30
0.0
 10
527.0194851770606
 20
390.4787674895992
 30
0.0
 10
526.7073653460695
 20
390.8792895147345
 30
0.0
 10
525.7470095236149
 20
392.0507195879105
 30
0.0
 10
525.07296619017
 20
392.7945072453747
 30
0.0
 10
522.9522812289425
 20
394.9175210066104
 30
0.0
 10
521.4080266421823
 20
396.1894335231102
 30
0.0
 10
519.3097468240825
 20
397.5946707537851
 30
0.0
 10
518.8810365579029
 20
397.8666669327264
 30
0.0
 10
518.015997619425
 20
398.3859955794574
 30
0.0
 10
517.5785807206248
 20
398.634101629819
 30
0.0
 10
516.2518865228599
 20
399.3443321280816
 30
0.0
 10
515.3481998599308
 20
399.7724494783853
 30
0.0
 10
513.5028478986345
 20
400.5390520264276
 30
0.0
 10
512.5611826749728
 20
400.877537427385
 30
0.0
 10
511.1197272726307
 20
401.3169238221993
 30
0.0
 10
510.6344073415856
 20
401.4519755213577
 30
0.0
 10
509.6539096845734
 20
401.6988139090749
 30
0.0
 10
509.1590051629586
 20
401.8104555715579
 30
0.0
 10
506.6829577847553
 20
402.3050779420606
 30
0.0
 10
504.6791653488953
 20
402.5039581656627
 30
0.0
 10
502.6522069941673
 20
402.5039581751571
 30
0.0
  0
CIRCLE
  5
196
330
1F
100
AcDbEntity
  8
0
  6
Continuous
 62
     7
370
    25
100
AcDbCircle
 10
502.6522070741
 20
371.812137557
 30
0.0
 40
30.68081863721613
  0
CIRCLE
  5
197
330
1F
100
AcDbEntity
  8
0
  6
Continuous
 62
     7
370
    25
100
AcDbCircle
 10
502.6522070741
 20
371.812137557
 30
0.0
 40
30.51582236579861
  0
CIRCLE
  5
198
330
1F
100
AcDbEntity
  8
0
  6
Continuous
 62
     7
370
    25
100
AcDbCircle
 10
502.6522070741
 20
371.812137557
 30
0.0
 40
25.78335145775873
  0
CIRCLE
  5
199
330
1F
100
AcDbEntity
  8
0
  6
Continuous
 62
     7
370
    25
100
AcDbCircle
 10
502.6522070741
 20
371.812137557
 30
0.0
 40
24.95837010067112
  0
CIRCLE
  5
19A
330
1F
100
AcDbEntity
  8
0
  6
Continuous
 62
     7
370
    25
100
AcDbCircle
 10
502.6522070741
 20
371.812137557
 30
0.0
 40
24.51789136569749
  0
LINE
  5
19B
330
1F
100
AcDbEntity
  8
0
  6
Continuous
 62
     8
370
    25
100
AcDbLine
 10
479.6522070741
 20
518.6713527262
 30
0.0
 11
479.6522070741
 21
517.4152897763
 31
0.0
  0
LINE
  5
19C
330
1F
100
AcDbEntity
  8
0
  6
Continuous
 62
     8
370
    25
100
AcDbLine
 10
525.6522070741
 20
518.6713527262
 30
0.0
 11
525.6522070741
 21
517.4152897763
 31
0.0
  0
ENDSEC
  0
SECTION
  2
OBJECTS
  0
DICTIONARY
  5
C
330
0
100
AcDbDictionary
281
     1
  3
ACAD_GROUP
350
D
  3
ACAD_LAYOUT
350
1A
  3
ACAD_MLINESTYLE
350
17
  3
ACAD_PLOTSETTINGS
350
19
  3
ACAD_PLOTSTYLENAME
350
E
  3
ACAD_SCALELIST
350
47
  0
DICTIONARY
  5
D
102
{ACAD_REACTORS
330
C
102
}
330
C
100
AcDbDictionary
281
     1
  0
DICTIONARY
  5
1A
102
{ACAD_REACTORS
330
C
102
}
330
C
100
AcDbDictionary
281
     1
  3
Layout1
350
1E
  3
Layout2
350
26
  3
Model
350
22
  0
DICTIONARY
  5
17
102
{ACAD_REACTORS
330
C
102
}
330
C
100
AcDbDictionary
281
     1
  3
Standard
350
18
  0
DICTIONARY
  5
19
102
{ACAD_REACTORS
330
C
102
}
330
C
100
AcDbDictionary
281
     1
  0
ACDBDICTIONARYWDFLT
  5
E
102
{ACAD_REACTORS
330
C
102
}
330
C
100
AcDbDictionary
281
     1
  3
Normal
350
F
100
AcDbDictionaryWithDefault
340
F
  0
DICTIONARY
  5
47
102
{ACAD_REACTORS
330
C
102
}
330
C
100
AcDbDictionary
281
     1
  3
A0
350
48
  3
A1
350
49
  3
A2
350
4A
  3
A3
350
4B
  3
A4
350
4C
  3
A5
350
4D
  3
A6
350
4E
  3
A7
350
4F
  3
A8
350
50
  3
A9
350
51
  3
B0
350
52
  3
B1
350
53
  3
B2
350
54
  3
B3
350
55
  3
B4
350
56
  3
B5
350
57
  3
B6
350
58
  3
B7
350
59
  3
B8
350
5A
  3
B9
350
5B
  3
C0
350
5C
  3
C1
350
5D
  3
C2
350
5E
  3
C3
350
5F
  3
C4
350
60
  3
C5
350
61
  3
C6
350
62
  3
C7
350
63
  3
C8
350
64
  3
C9
350
65
  3
D0
350
66
  3
D1
350
67
  3
D2
350
68
  0
LAYOUT
  5
1E
102
{ACAD_REACTORS
330
1A
102
}
330
1A
100
AcDbPlotSettings
  1

  2
none_device
  4

  6

 40
0.0
 41
0.0
 42
0.0
 43
0.0
 44
0.0
 45
0.0
 46
0.0
 47
0.0
 48
0.0
 49
0.0
140
0.0
141
0.0
142
1.0
143
1.0
 70
   688
 72
     1
 73
     0
 74
     5
  7

 75
    16
147
1.0
148
0.0
149
0.0
100
AcDbLayout
  1
Layout1
 70
     1
 71
     1
 10
0.0
 20
0.0
 11
420.0
 21
297.0
 12
0.0
 22
0.0
 32
0.0
 14
1.0000000000E+20
 24
1.0000000000E+20
 34
1.0000000000E+20
 15
-1.0000000000E+20
 25
-1.0000000000E+20
 35
-1.0000000000E+20
146
0.0
 13
0.0
 23
0.0
 33
0.0
 16
1.0
 26
0.0
 36
0.0
 17
0.0
 27
1.0
 37
0.0
 76
     0
330
1B
  0
LAYOUT
  5
26
102
{ACAD_REACTORS
330
1A
102
}
330
1A
100
AcDbPlotSettings
  1

  2
none_device
  4

  6

 40
0.0
 41
0.0
 42
0.0
 43
0.0
 44
0.0
 45
0.0
 46
0.0
 47
0.0
 48
0.0
 49
0.0
140
0.0
141
0.0
142
1.0
143
1.0
 70
   688
 72
     1
 73
     0
 74
     5
  7

 75
    16
147
1.0
148
0.0
149
0.0
100
AcDbLayout
  1
Layout2
 70
     1
 71
     2
 10
0.0
 20
0.0
 11
0.0
 21
0.0
 12
0.0
 22
0.0
 32
0.0
 14
0.0
 24
0.0
 34
0.0
 15
0.0
 25
0.0
 35
0.0
146
0.0
 13
0.0
 23
0.0
 33
0.0
 16
1.0
 26
0.0
 36
0.0
 17
0.0
 27
1.0
 37
0.0
 76
     0
330
23
  0
LAYOUT
  5
22
102
{ACAD_REACTORS
330
1A
102
}
330
1A
100
AcDbPlotSettings
  1

  2
none_device
  4
Letter_(8.50_x_11.00_Inches)
  6

 40
6.35
 41
6.35
 42
6.35000508
 43
6.35000508
 44
215.9
 45
279.4
 46
0.0
 47
0.0
 48
0.0
 49
0.0
140
0.0
141
0.0
142
1.0
143
1.0
 70
  1712
 72
     1
 73
     0
 74
     0
  7

 75
     0
147
1.0
148
0.0
149
0.0
100
AcDbLayout
  1
Model
 70
     1
 71
     0
 10
0.0
 20
0.0
 11
1000.0
 21
600.0
 12
0.0
 22
0.0
 32
0.0
 14
0.0
 24
0.0
 34
0.0
 15
1000.0
 25
600.0
 35
0.0
146
0.0
 13
0.0
 23
0.0
 33
0.0
 16
1.0
 26
0.0
 36
0.0
 17
0.0
 27
1.0
 37
0.0
 76
     0
330
1F
331
29
  0
MLINESTYLE
  5
18
102
{ACAD_REACTORS
330
17
102
}
330
17
100
AcDbMlineStyle
  2
Standard
 70
     0
  3

 62
   256
 51
90.0
 52
90.0
 71
     2
 49
0.5
 62
   256
  6
BYLAYER
 49
-0.5
 62
   256
  6
BYLAYER
  0
ACDBPLACEHOLDER
  5
F
102
{ACAD_REACTORS
330
E
102
}
330
E
  0
SCALE
  5
48
102
{ACAD_REACTORS
330
47
102
}
330
47
100
AcDbScale
 70
     0
300
1:1
140
1.0
141
1.0
290
     1
  0
SCALE
  5
49
102
{ACAD_REACTORS
330
47
102
}
330
47
100
AcDbScale
 70
     0
300
1:2
140
1.0
141
2.0
290
     0
  0
SCALE
  5
4A
102
{ACAD_REACTORS
330
47
102
}
330
47
100
AcDbScale
 70
     0
300
1:4
140
1.0
141
4.0
290
     0
  0
SCALE
  5
4B
102
{ACAD_REACTORS
330
47
102
}
330
47
100
AcDbScale
 70
     0
300
1:5
140
1.0
141
5.0
290
     0
  0
SCALE
  5
4C
102
{ACAD_REACTORS
330
47
102
}
330
47
100
AcDbScale
 70
     0
300
1:8
140
1.0
141
8.0
290
     0
  0
SCALE
  5
4D
102
{ACAD_REACTORS
330
47
102
}
330
47
100
AcDbScale
 70
     0
300
1:10
140
1.0
141
10.0
290
     0
  0
SCALE
  5
4E
102
{ACAD_REACTORS
330
47
102
}
330
47
100
AcDbScale
 70
     0
300
1:16
140
1.0
141
16.0
290
     0
  0
SCALE
  5
4F
102
{ACAD_REACTORS
330
47
102
}
330
47
100
AcDbScale
 70
     0
300
1:20
140
1.0
141
20.0
290
     0
  0
SCALE
  5
50
102
{ACAD_REACTORS
330
47
102
}
330
47
100
AcDbScale
 70
     0
300
1:30
140
1.0
141
30.0
290
     0
  0
SCALE
  5
51
102
{ACAD_REACTORS
330
47
102
}
330
47
100
AcDbScale
 70
     0
300
1:40
140
1.0
141
40.0
290
     0
  0
SCALE
  5
52
102
{ACAD_REACTORS
330
47
102
}
330
47
100
AcDbScale
 70
     0
300
1:50
140
1.0
141
50.0
290
     0
  0
SCALE
  5
53
102
{ACAD_REACTORS
330
47
102
}
330
47
100
AcDbScale
 70
     0
300
1:100
140
1.0
141
100.0
290
     0
  0
SCALE
  5
54
102
{ACAD_REACTORS
330
47
102
}
330
47
100
AcDbScale
 70
     0
300
2:1
140
2.0
141
1.0
290
     0
  0
SCALE
  5
55
102
{ACAD_REACTORS
330
47
102
}
330
47
100
AcDbScale
 70
     0
300
4:1
140
4.0
141
1.0
290
     0
  0
SCALE
  5
56
102
{ACAD_REACTORS
330
47
102
}
330
47
100
AcDbScale
 70
     0
300
8:1
140
8.0
141
1.0
290
     0
  0
SCALE
  5
57
102
{ACAD_REACTORS
330
47
102
}
330
47
100
AcDbScale
 70
     0
300
10:1
140
10.0
141
1.0
290
     0
  0
SCALE
  5
58
102
{ACAD_REACTORS
330
47
102
}
330
47
100
AcDbScale
 70
     0
300
100:1
140
100.0
141
1.0
290
     0
  0
SCALE
  5
59
102
{ACAD_REACTORS
330
47
102
}
330
47
100
AcDbScale
 70
     0
300
1/128" = 1'-0"
140
0.0078125
141
12.0
290
     0
  0
SCALE
  5
5A
102
{ACAD_REACTORS
330
47
102
}
330
47
100
AcDbScale
 70
     0
300
1/64" = 1'-0"
140
0.015625
141
12.0
290
     0
  0
SCALE
  5
5B
102
{ACAD_REACTORS
330
47
102
}
330
47
100
AcDbScale
 70
     0
300
1/32" = 1'-0"
140
0.03125
141
12.0
290
     0
  0
SCALE
  5
5C
102
{ACAD_REACTORS
330
47
102
}
330
47
100
AcDbScale
 70
     0
300
1/16" = 1'-0"
140
0.0625
141
12.0
290
     0
  0
SCALE
  5
5D
102
{ACAD_REACTORS
330
47
102
}
330
47
100
AcDbScale
 70
     0
300
3/32" = 1'-0"
140
0.09375
141
12.0
290
     0
  0
SCALE
  5
5E
102
{ACAD_REACTORS
330
47
102
}
330
47
100
AcDbScale
 70
     0
300
1/8" = 1'-0"
140
0.125
141
12.0
290
     0
  0
SCALE
  5
5F
102
{ACAD_REACTORS
330
47
102
}
330
47
100
AcDbScale
 70
     0
300
3/16" = 1'-0"
140
0.1875
141
12.0
290
     0
  0
SCALE
  5
60
102
{ACAD_REACTORS
330
47
102
}
330
47
100
AcDbScale
 70
     0
300
1/4" = 1'-0"
140
0.25
141
12.0
290
     0
  0
SCALE
  5
61
102
{ACAD_REACTORS
330
47
102
}
330
47
100
AcDbScale
 70
     0
300
3/8" = 1'-0"
140
0.375
141
12.0
290
     0
  0
SCALE
  5
62
102
{ACAD_REACTORS
330
47
102
}
330
47
100
AcDbScale
 70
     0
300
1/2" = 1'-0"
140
0.5
141
12.0
290
     0
  0
SCALE
  5
63
102
{ACAD_REACTORS
330
47
102
}
330
47
100
AcDbScale
 70
     0
300
3/4" = 1'-0"
140
0.75
141
12.0
290
     0
  0
SCALE
  5
64
102
{ACAD_REACTORS
330
47
102
}
330
47
100
AcDbScale
 70
     0
300
1" = 1'-0"
140
1.0
141
12.0
290
     0
  0
SCALE
  5
65
102
{ACAD_REACTORS
330
47
102
}
330
47
100
AcDbScale
 70
     0
300
1-1/2" = 1'-0"
140
1.5
141
12.0
290
     0
  0
SCALE
  5
66
102
{ACAD_REACTORS
330
47
102
}
330
47
100
AcDbScale
 70
     0
300
3" = 1'-0"
140
3.0
141
12.0
290
     0
  0
SCALE
  5
67
102
{ACAD_REACTORS
330
47
102
}
330
47
100
AcDbScale
 70
     0
300
6" = 1'-0"
140
6.0
141
12.0
290
     0
  0
SCALE
  5
68
102
{ACAD_REACTORS
330
47
102
}
330
47
100
AcDbScale
 70
     0
300
1'-0" = 1'-0"
140
12.0
141
12.0
290
     0
  0
ENDSEC
  0
EOF
