  0
SECTION
  2
HEADER
  9
$ACADVER
  1
AC1015
  9
$ACADMAINTVER
 70
     6
  9
$DWGCODEPAGE
  3
ANSI_1252
  9
$INSBASE
 10
0.0
 20
0.0
 30
0.0
  9
$EXTMIN
 10
0.0
 20
0.0
 30
0.0
  9
$EXTMAX
 10
700.0
 20
700.0
 30
0.0
  9
$LIMMIN
 10
0.0
 20
0.0
  9
$LIMMAX
 10
700.0
 20
700.0
  9
$ORTHOMODE
 70
     0
  9
$REGENMODE
 70
     1
  9
$FILLMODE
 70
     1
  9
$QTEXTMODE
 70
     0
  9
$MIRRTEXT
 70
     1
  9
$LTSCALE
 40
1.0
  9
$ATTMODE
 70
     1
  9
$TEXTSIZE
 40
5.0
  9
$TRACEWID
 40
1.0
  9
$TEXTSTYLE
  7
Standard
  9
$CLAYER
  8
0
  9
$CELTYPE
  6
ByLayer
  9
$CECOLOR
 62
   256
  9
$CELTSCALE
 40
1.0
  9
$DISPSILH
 70
     0
  9
$DIMSCALE
 40
1.0
  9
$DIMASZ
 40
6.0
  9
$DIMEXO
 40
1.0
  9
$DIMDLI
 40
3.75
  9
$DIMRND
 40
0.0
  9
$DIMDLE
 40
0.0
  9
$DIMEXE
 40
1.0
  9
$DIMTP
 40
0.0
  9
$DIMTM
 40
0.0
  9
$DIMTXT
 40
5.0
  9
$DIMCEN
 40
2.5
  9
$DIMTSZ
 40
0.0
  9
$DIMTOL
 70
     0
  9
$DIMLIM
 70
     0
  9
$DIMTIH
 70
     1
  9
$DIMTOH
 70
     1
  9
$DIMSE1
 70
     0
  9
$DIMSE2
 70
     0
  9
$DIMTAD
 70
     1
  9
$DIMZIN
 70
     0
  9
$DIMBLK
  1

  9
$DIMASO
 70
     1
  9
$DIMSHO
 70
     1
  9
$DIMPOST
  1

  9
$DIMAPOST
  1

  9
$DIMALT
 70
     0
  9
$DIMALTD
 70
     3
  9
$DIMALTF
 40
0.0393700787
  9
$DIMLFAC
 40
1.0
  9
$DIMTOFL
 70
     1
  9
$DIMTVP
 40
0.0
  9
$DIMTIX
 70
     0
  9
$DIMSOXD
 70
     0
  9
$DIMSAH
 70
     0
  9
$DIMBLK1
  1

  9
$DIMBLK2
  1

  9
$DIMSTYLE
  2
ISO-25
  9
$DIMCLRD
 70
     0
  9
$DIMCLRE
 70
     0
  9
$DIMCLRT
 70
     0
  9
$DIMTFAC
 40
1.0
  9
$DIMGAP
 40
1.524
  9
$DIMJUST
 70
     0
  9
$DIMSD1
 70
     0
  9
$DIMSD2
 70
     0
  9
$DIMTOLJ
 70
     0
  9
$DIMTZIN
 70
     0
  9
$DIMALTZ
 70
     0
  9
$DIMALTTZ
 70
     0
  9
$DIMUPT
 70
     0
  9
$DIMDEC
 70
     2
  9
$DIMTDEC
 70
     2
  9
$DIMALTU
 70
     2
  9
$DIMALTTD
 70
     3
  9
$DIMTXSTY
  7
Standard
  9
$DIMAUNIT
 70
     0
  9
$DIMADEC
 70
     2
  9
$DIMALTRND
 40
0.0
  9
$DIMAZIN
 70
     0
  9
$DIMDSEP
 70
    44
  9
$DIMATFIT
 70
     3
  9
$DIMFRAC
 70
     0
  9
$DIMLDRBLK
  1

  9
$DIMLUNIT
 70
     2
  9
$DIMLWD
 70
    -2
  9
$DIMLWE
 70
    -2
  9
$DIMTMOVE
 70
     0
  9
$LUNITS
 70
     2
  9
$LUPREC
 70
     2
  9
$SKETCHINC
 40
1.0
  9
$FILLETRAD
 40
10.0
  9
$AUNITS
 70
     0
  9
$AUPREC
 70
     2
  9
$MENU
  1
.
  9
$ELEVATION
 40
0.0
  9
$PELEVATION
 40
0.0
  9
$THICKNESS
 40
0.0
  9
$LIMCHECK
 70
     0
  9
$CHAMFERA
 40
0.0
  9
$CHAMFERB
 40
0.0
  9
$CHAMFERC
 40
0.0
  9
$CHAMFERD
 40
0.0
  9
$SKPOLY
 70
     0
  9
$TDCREATE
 40
2458582.554761991
  9
$TDUCREATE
 40
2458582.429761991
  9
$TDUPDATE
 40
2458582.554762512
  9
$TDUUPDATE
 40
2458582.429762512
  9
$TDINDWG
 40
0.0000000116
  9
$TDUSRTIMER
 40
0.0000000116
  9
$USRTIMER
 70
     1
  9
$ANGBASE
 50
0.0
  9
$ANGDIR
 70
     0
  9
$PDMODE
 70
     0
  9
$PDSIZE
 40
-1.0
  9
$PLINEWID
 40
0.0
  9
$SPLFRAME
 70
     0
  9
$SPLINETYPE
 70
     6
  9
$SPLINESEGS
 70
     8
  9
$HANDSEED
  5
C5
  9
$SURFTAB1
 70
     6
  9
$SURFTAB2
 70
     6
  9
$SURFTYPE
 70
     6
  9
$SURFU
 70
     6
  9
$SURFV
 70
     6
  9
$UCSBASE
  2

  9
$UCSNAME
  2

  9
$UCSORG
 10
0.0
 20
0.0
 30
0.0
  9
$UCSXDIR
 10
1.0
 20
0.0
 30
0.0
  9
$UCSYDIR
 10
0.0
 20
1.0
 30
0.0
  9
$UCSORTHOREF
  2

  9
$UCSORTHOVIEW
 70
     0
  9
$UCSORGTOP
 10
0.0
 20
0.0
 30
0.0
  9
$UCSORGBOTTOM
 10
0.0
 20
0.0
 30
0.0
  9
$UCSORGLEFT
 10
0.0
 20
0.0
 30
0.0
  9
$UCSORGRIGHT
 10
0.0
 20
0.0
 30
0.0
  9
$UCSORGFRONT
 10
0.0
 20
0.0
 30
0.0
  9
$UCSORGBACK
 10
0.0
 20
0.0
 30
0.0
  9
$PUCSBASE
  2

  9
$PUCSNAME
  2

  9
$PUCSORG
 10
0.0
 20
0.0
 30
0.0
  9
$PUCSXDIR
 10
1.0
 20
0.0
 30
0.0
  9
$PUCSYDIR
 10
0.0
 20
1.0
 30
0.0
  9
$PUCSORTHOREF
  2

  9
$PUCSORTHOVIEW
 70
     0
  9
$PUCSORGTOP
 10
0.0
 20
0.0
 30
0.0
  9
$PUCSORGBOTTOM
 10
0.0
 20
0.0
 30
0.0
  9
$PUCSORGLEFT
 10
0.0
 20
0.0
 30
0.0
  9
$PUCSORGRIGHT
 10
0.0
 20
0.0
 30
0.0
  9
$PUCSORGFRONT
 10
0.0
 20
0.0
 30
0.0
  9
$PUCSORGBACK
 10
0.0
 20
0.0
 30
0.0
  9
$USERI1
 70
     0
  9
$USERI2
 70
     0
  9
$USERI3
 70
     0
  9
$USERI4
 70
     0
  9
$USERI5
 70
     0
  9
$USERR1
 40
0.0
  9
$USERR2
 40
0.0
  9
$USERR3
 40
0.0
  9
$USERR4
 40
0.0
  9
$USERR5
 40
0.0
  9
$WORLDVIEW
 70
     1
  9
$SHADEDGE
 70
     3
  9
$SHADEDIF
 70
    70
  9
$TILEMODE
 70
     1
  9
$MAXACTVP
 70
    64
  9
$PINSBASE
 10
0.0
 20
0.0
 30
0.0
  9
$PLIMCHECK
 70
     0
  9
$PEXTMIN
 10
1.0000000000E+20
 20
1.0000000000E+20
 30
1.0000000000E+20
  9
$PEXTMAX
 10
-1.0000000000E+20
 20
-1.0000000000E+20
 30
-1.0000000000E+20
  9
$PLIMMIN
 10
0.0
 20
0.0
  9
$PLIMMAX
 10
420.0
 20
297.0
  9
$UNITMODE
 70
     0
  9
$VISRETAIN
 70
     1
  9
$PLINEGEN
 70
     0
  9
$PSLTSCALE
 70
     1
  9
$TREEDEPTH
 70
  3020
  9
$CMLSTYLE
  2
Standard
  9
$CMLJUST
 70
     0
  9
$CMLSCALE
 40
20.0
  9
$PROXYGRAPHICS
 70
     1
  9
$MEASUREMENT
 70
     1
  9
$CELWEIGHT
370
    -1
  9
$ENDCAPS
280
     0
  9
$JOINSTYLE
280
     0
  9
$LWDISPLAY
290
     1
  9
$INSUNITS
 70
     4
  9
$HYPERLINKBASE
  1

  9
$STYLESHEET
  1

  9
$XEDIT
290
     1
  9
$CEPSNTYPE
380
     0
  9
$PSTYLEMODE
290
     1
  9
$FINGERPRINTGUID
  2
{6CB744A8-A5F1-4174-9C14-BCF291BE9BE8}
  9
$VERSIONGUID
  2
{FAEB1C32-E019-11D5-929B-00C0DF256EC4}
  9
$EXTNAMES
290
     1
  9
$PSVPSCALE
 40
0.0
  9
$OLESTARTUP
290
     0
  0
ENDSEC
  0
SECTION
  2
CLASSES
  0
CLASS
  1
ACDBDICTIONARYWDFLT
  2
AcDbDictionaryWithDefault
  3
ObjectDBX Classes
 90
        0
280
     0
281
     0
  0
CLASS
  1
VISUALSTYLE
  2
AcDbVisualStyle
  3
ObjectDBX Classes
 90
     4095
280
     0
281
     0
  0
CLASS
  1
MATERIAL
  2
AcDbMaterial
  3
ObjectDBX Classes
 90
     1153
280
     0
281
     0
  0
CLASS
  1
SCALE
  2
AcDbScale
  3
ObjectDBX Classes
 90
     1153
280
     0
281
     0
  0
CLASS
  1
TABLESTYLE
  2
AcDbTableStyle
  3
ObjectDBX Classes
 90
     4095
280
     0
281
     0
  0
CLASS
  1
MLEADERSTYLE
  2
AcDbMLeaderStyle
  3
ACDB_MLEADERSTYLE_CLASS
 90
     4095
280
     0
281
     0
  0
CLASS
  1
SUN
  2
AcDbSun
  3
SCENEOE
 90
     1153
280
     0
281
     0
  0
CLASS
  1
ACDBPLACEHOLDER
  2
AcDbPlaceHolder
  3
ObjectDBX Classes
 90
        0
280
     0
281
     0
  0
CLASS
  1
LAYOUT
  2
AcDbLayout
  3
ObjectDBX Classes
 90
        0
280
     0
281
     0
  0
ENDSEC
  0
SECTION
  2
TABLES
  0
TABLE
  2
VPORT
  5
8
330
0
100
AcDbSymbolTable
 70
     1
  0
VPORT
  5
29
330
8
100
AcDbSymbolTableRecord
100
AcDbViewportTableRecord
  2
*Active
 70
     0
 10
0.0
 20
0.0
 11
1.0
 21
1.0
 12
350.0
 22
350.0
 13
0.0
 23
0.0
 14
10.0
 24
10.0
 15
10.0
 25
10.0
 16
0.0
 26
0.0
 36
1.0
 17
0.0
 27
0.0
 37
0.0
 40
700.0
 41
1.0
 42
50.0
 43
0.0
 44
0.0
 50
0.0
 51
0.0
 71
     0
 72
  2000
 73
     1
 74
     3
 75
     0
 76
     0
 77
     0
 78
     0
281
     0
 65
     1
110
0.0
120
0.0
130
0.0
111
1.0
121
0.0
131
0.0
112
0.0
122
1.0
132
0.0
 79
     0
146
0.0
  0
ENDTAB
  0
TABLE
  2
LTYPE
  5
5
330
0
100
AcDbSymbolTable
 70
     6
  0
LTYPE
  5
14
330
5
100
AcDbSymbolTableRecord
100
AcDbLinetypeTableRecord
  2
ByBlock
 70
     0
  3

 72
    65
 73
     0
 40
0.0
  0
LTYPE
  5
15
330
5
100
AcDbSymbolTableRecord
100
AcDbLinetypeTableRecord
  2
ByLayer
 70
     0
  3

 72
    65
 73
     0
 40
0.0
  0
LTYPE
  5
16
330
5
100
AcDbSymbolTableRecord
100
AcDbLinetypeTableRecord
  2
Continuous
 70
     0
  3
Solid line
 72
    65
 73
     0
 40
0.0
  0
LTYPE
  5
6E
330
5
100
AcDbSymbolTableRecord
100
AcDbLinetypeTableRecord
  2
HIDDEN
 70
     0
  3
Hidden __ __ __ __ __ __ __ __ __ __ __ __ __ __
 72
    65
 73
     2
 40
1.905
 49
1.27
 74
     0
 49
-0.635
 74
     0
  0
LTYPE
  5
6F
330
5
100
AcDbSymbolTableRecord
100
AcDbLinetypeTableRecord
  2
PHANTOM
 70
     0
  3
Phantom ______  __  __  ______  __  __  ______
 72
    65
 73
     6
 40
12.7
 49
6.35
 74
     0
 49
-1.27
 74
     0
 49
1.27
 74
     0
 49
-1.27
 74
     0
 49
1.27
 74
     0
 49
-1.27
 74
     0
  0
LTYPE
  5
70
330
5
100
AcDbSymbolTableRecord
100
AcDbLinetypeTableRecord
  2
CENTER
 70
     0
  3
Center ____ _ ____ _ ____ _ ____ _ ____ _ ____
 72
    65
 73
     4
 40
10.16
 49
6.35
 74
     0
 49
-1.27
 74
     0
 49
1.27
 74
     0
 49
-1.27
 74
     0
  0
LTYPE
  5
71
330
5
100
AcDbSymbolTableRecord
100
AcDbLinetypeTableRecord
  2
CENTERX2
 70
     0
  3
Center (2x) ________  __  ________  __  _____
 72
    65
 73
     4
 40
20.32
 49
12.7
 74
     0
 49
-2.54
 74
     0
 49
2.54
 74
     0
 49
-2.54
 74
     0
  0
LTYPE
  5
72
330
5
100
AcDbSymbolTableRecord
100
AcDbLinetypeTableRecord
  2
DOT2
 70
     0
  3
Dot (.5x) ........................................
 72
    65
 73
     2
 40
0.635
 49
0.0
 74
     0
 49
-0.635
 74
     0
  0
ENDTAB
  0
TABLE
  2
LAYER
  5
2
330
0
100
AcDbSymbolTable
 70
     2
  0
LAYER
  5
10
330
2
100
AcDbSymbolTableRecord
100
AcDbLayerTableRecord
  2
0
 70
     0
 62
     7
  6
Continuous
370
    -3
390
F
  0
LAYER
  5
73
330
2
100
AcDbSymbolTableRecord
100
AcDbLayerTableRecord
  2
TABLE_BL1
 70
     0
 62
   179
  6
Continuous
370
    -3
390
F
  0
ENDTAB
  0
TABLE
  2
STYLE
  5
3
330
0
100
AcDbSymbolTable
 70
     1
  0
STYLE
  5
11
330
3
100
AcDbSymbolTableRecord
100
AcDbTextStyleTableRecord
  2
Standard
 70
     0
 40
0.0
 41
1.0
 50
0.0
 71
     0
 42
5.0
  3
txt
  4

  0
ENDTAB
  0
TABLE
  2
VIEW
  5
6
330
0
100
AcDbSymbolTable
 70
     0
  0
ENDTAB
  0
TABLE
  2
UCS
  5
7
330
0
100
AcDbSymbolTable
 70
     0
  0
ENDTAB
  0
TABLE
  2
APPID
  5
9
330
0
100
AcDbSymbolTable
 70
     1
  0
APPID
  5
12
330
9
100
AcDbSymbolTableRecord
100
AcDbRegAppTableRecord
  2
ACAD
 70
     0
  0
ENDTAB
  0
TABLE
  2
DIMSTYLE
  5
A
330
0
100
AcDbSymbolTable
 70
     1
100
AcDbDimStyleTable
  0
DIMSTYLE
105
27
330
A
100
AcDbSymbolTableRecord
100
AcDbDimStyleTableRecord
  2
ISO-25
 70
     0
 41
2.5
 42
0.625
 43
3.75
 44
1.25
 73
     0
 74
     0
 77
     1
 78
     8
140
2.5
141
2.5
143
0.0393700787
147
0.625
171
     3
172
     1
178
     0
271
     2
272
     2
274
     3
278
    44
283
     0
284
     8
340
11
  0
ENDTAB
  0
TABLE
  2
BLOCK_RECORD
  5
1
330
0
100
AcDbSymbolTable
 70
     1
  0
BLOCK_RECORD
  5
1F
330
1
100
AcDbSymbolTableRecord
100
AcDbBlockTableRecord
  2
*Model_Space
340
22
  0
BLOCK_RECORD
  5
1B
330
1
100
AcDbSymbolTableRecord
100
AcDbBlockTableRecord
  2
*Paper_Space
340
1E
  0
BLOCK_RECORD
  5
23
330
1
100
AcDbSymbolTableRecord
100
AcDbBlockTableRecord
  2
*Paper_Space0
340
26
  0
ENDTAB
  0
ENDSEC
  0
SECTION
  2
BLOCKS
  0
BLOCK
  5
20
330
1F
100
AcDbEntity
  8
0
100
AcDbBlockBegin
  2
*Model_Space
 70
     0
 10
0.0
 20
0.0
 30
0.0
  3
*Model_Space
  1

  0
ENDBLK
  5
21
330
1F
100
AcDbEntity
  8
0
100
AcDbBlockEnd
  0
BLOCK
  5
1C
330
1B
100
AcDbEntity
 67
     1
  8
0
100
AcDbBlockBegin
  2
*Paper_Space
 70
     0
 10
0.0
 20
0.0
 30
0.0
  3
*Paper_Space
  1

  0
ENDBLK
  5
1D
330
1B
100
AcDbEntity
 67
     1
  8
0
100
AcDbBlockEnd
  0
BLOCK
  5
24
330
23
100
AcDbEntity
  8
0
100
AcDbBlockBegin
  2
*Paper_Space0
 70
     0
 10
0.0
 20
0.0
 30
0.0
  3
*Paper_Space0
  1

  0
ENDBLK
  5
25
330
23
100
AcDbEntity
  8
0
100
AcDbBlockEnd
  0
ENDSEC
  0
SECTION
  2
ENTITIES
  0
SPLINE
  5
74
330
1F
100
AcDbEntity
  8
0
  6
Continuous
 62
     7
370
    25
100
AcDbSpline
210
0.0
220
0.0
230
1.0
 70
     8
 71
     3
 72
    29
 73
    25
 74
     0
 42
0.000000001
 43
0.00000001
 40
0.0
 40
0.0
 40
0.0
 40
0.0
 40
0.0349321406882635
 40
0.0633980643159913
 40
0.0838985515737897
 40
0.1410481598295769
 40
0.1993926718331195
 40
0.2579538570990187
 40
0.3167358876867432
 40
0.3756685440136577
 40
0.4347110736298805
 40
0.493836819204054
 40
0.5530116495173847
 40
0.6120983013386021
 40
0.6710428299972752
 40
0.7298261731686605
 40
0.7884258360426925
 40
0.8467958145206176
 40
0.8655669647427028
 40
0.8834823951604174
 40
0.9012873219477363
 40
0.9267778521638326
 40
0.9604934909203238
 40
1.0
 40
1.0
 40
1.0
 40
1.0
 10
382.636194922319
 20
411.1483527607412
 30
0.0
 10
383.1692422509288
 20
412.4021658162583
 30
0.0
 10
384.1366656082393
 20
414.6777011590038
 30
0.0
 10
385.0204926675789
 20
417.8326768514547
 30
0.0
 10
385.8545569936596
 20
421.8830596448115
 30
0.0
 10
386.2788729093855
 20
427.1975273066725
 30
0.0
 10
385.5888512548334
 20
433.9808240743645
 30
0.0
 10
383.6524616490382
 20
440.5872826317364
 30
0.0
 10
380.5274497388904
 20
446.7471632569902
 30
0.0
 10
376.3112535385497
 20
452.2425326618475
 30
0.0
 10
371.1443432725932
 20
456.8757571055186
 30
0.0
 10
365.2027123629726
 20
460.4805084966478
 30
0.0
 10
358.6955543444201
 20
462.9257381895395
 30
0.0
 10
351.8557582646879
 20
464.1254161456518
 30
0.0
 10
344.9276498834322
 20
464.0435898463678
 30
0.0
 10
338.1513984807267
 20
462.6924039633126
 30
0.0
 10
331.7601199540063
 20
460.1310403453234
 30
0.0
 10
327.2654579420579
 20
457.2809408202797
 30
0.0
 10
324.3990477923048
 20
454.9334312839837
 30
0.0
 10
322.8357663439091
 20
453.4950867799452
 30
0.0
 10
321.1723055993811
 20
451.7841003440898
 30
0.0
 10
319.2343749622453
 20
449.4907011510233
 30
0.0
 10
317.0030635667096
 20
446.34349787083
 30
0.0
 10
315.7130092157833
 20
443.7947397737825
 30
0.0
 10
315.0169692137586
 20
442.4195747741406
 30
0.0
  0
SPLINE
  5
75
330
1F
100
AcDbEntity
  8
0
  6
Continuous
 62
     7
370
    25
100
AcDbSpline
210
0.0
220
0.0
230
1.0
 70
     8
 71
     3
 72
    29
 73
    25
 74
     0
 42
0.000000001
 43
0.00000001
 40
0.0
 40
0.0
 40
0.0
 40
0.0
 40
0.0349321406882635
 40
0.0633980643159913
 40
0.0838985515737894
 40
0.1410481598295769
 40
0.1993926718331194
 40
0.257953857099019
 40
0.3167358876867429
 40
0.3756685440136575
 40
0.4347110736298803
 40
0.4938368192040538
 40
0.5530116495173846
 40
0.612098301338602
 40
0.6710428299972759
 40
0.7298261731686604
 40
0.7884258360426923
 40
0.8467958145206175
 40
0.8655669647427028
 40
0.8834823951604173
 40
0.9012873219477361
 40
0.9267778521638325
 40
0.9604934909203238
 40
1.0
 40
1.0
 40
1.0
 40
1.0
 10
315.0169692137587
 20
442.4195747741406
 30
0.0
 10
314.483921885149
 20
441.1657617186235
 30
0.0
 10
313.5164985278386
 20
438.8902263758779
 30
0.0
 10
312.6326714684988
 20
435.7352506834272
 30
0.0
 10
311.7986071424184
 20
431.6848678900703
 30
0.0
 10
311.3742912266921
 20
426.3704002282093
 30
0.0
 10
312.0643128812439
 20
419.5871034605172
 30
0.0
 10
314.0007024870397
 20
412.9806449031454
 30
0.0
 10
317.1257143971873
 20
406.8207642778916
 30
0.0
 10
321.3419105975282
 20
401.3253948730344
 30
0.0
 10
326.5088208634843
 20
396.6921704293631
 30
0.0
 10
332.450451773105
 20
393.087419038234
 30
0.0
 10
338.9576097916576
 20
390.6421893453423
 30
0.0
 10
345.7974058713899
 20
389.44251138923
 30
0.0
 10
352.7255142526452
 20
389.524337688514
 30
0.0
 10
359.5017656553512
 20
390.8755235715693
 30
0.0
 10
365.8930441820712
 20
393.4368871895584
 30
0.0
 10
370.38770619402
 20
396.2869867146021
 30
0.0
 10
373.2541163437728
 20
398.6344962508981
 30
0.0
 10
374.8173977921683
 20
400.0728407549366
 30
0.0
 10
376.4808585366968
 20
401.783827190792
 30
0.0
 10
378.4187891738321
 20
404.0772263838585
 30
0.0
 10
380.6501005693682
 20
407.2244296640517
 30
0.0
 10
381.9401549202942
 20
409.7731877610992
 30
0.0
 10
382.6361949223189
 20
411.1483527607412
 30
0.0
  0
ARC
  5
76
330
1F
100
AcDbEntity
  8
0
  6
Continuous
 62
     7
370
    25
100
AcDbCircle
 10
348.826582068
 20
426.7839637674
 30
0.0
 40
36.31056399417598
100
AcDbArc
 50
155.1813223123
 51
335.1813223292
  0
ARC
  5
77
330
1F
100
AcDbEntity
  8
0
  6
Continuous
 62
     7
370
    25
100
AcDbCircle
 10
348.826582068
 20
426.7839637674
 30
0.0
 40
36.31056399417598
100
AcDbArc
 50
335.1813223292
 51
155.1813223123
  0
SPLINE
  5
78
330
1F
100
AcDbEntity
  8
0
  6
Continuous
 62
     7
370
    25
100
AcDbSpline
210
0.0
220
0.0
230
1.0
 70
    24
 71
     3
 72
     9
 73
     5
 74
     0
 42
0.000000001
 43
0.00000001
 40
0.0
 40
0.0
 40
0.0
 40
0.0
 40
0.5599999999871763
 40
1.0
 40
1.0
 40
1.0
 40
1.0
 10
318.3425004970123
 20
403.5991837816605
 30
0.0
 10
318.1876392469306
 20
403.4814034902287
 30
0.0
 10
317.91110130035
 20
403.2710815412385
 30
0.0
 10
317.5468387217027
 20
402.9940403017539
 30
0.0
 10
317.3865631870932
 20
402.8721421563771
 30
0.0
  0
SPLINE
  5
79
330
1F
100
AcDbEntity
  8
0
  6
Continuous
 62
     7
370
    25
100
AcDbSpline
210
0.0
220
0.0
230
1.0
 70
    24
 71
     3
 72
     9
 73
     5
 74
     0
 42
0.000000001
 43
0.00000001
 40
0.0
 40
0.0
 40
0.0
 40
0.0
 40
0.5600000000054325
 40
1.0
 40
1.0
 40
1.0
 40
1.0
 10
380.2666009489844
 20
450.6957853785046
 30
0.0
 10
380.0617169536746
 20
450.5399601048187
 30
0.0
 10
379.6958526763389
 20
450.2617006875251
 30
0.0
 10
379.4283602889421
 20
450.0582583717311
 30
0.0
 10
379.3106636384891
 20
449.9687437527828
 30
0.0
  0
ARC
  5
7A
330
1F
100
AcDbEntity
  8
0
  6
Continuous
 62
     7
370
    25
100
AcDbCircle
 10
348.826582068
 20
426.7839637674
 30
0.0
 40
38.29899805700013
100
AcDbArc
 50
37.2549368278
 51
217.2549368278
  0
ARC
  5
7B
330
1F
100
AcDbEntity
  8
0
  6
Continuous
 62
     7
370
    25
100
AcDbCircle
 10
348.826582068
 20
426.7839637674
 30
0.0
 40
39.50000000000013
100
AcDbArc
 50
37.2549368278
 51
217.2549368513
  0
ARC
  5
7C
330
1F
100
AcDbEntity
  8
0
  6
Continuous
 62
     7
370
    25
100
AcDbCircle
 10
348.826582068
 20
426.7839637674
 30
0.0
 40
38.29899805700013
100
AcDbArc
 50
217.2549368278
 51
37.2549368278
  0
ARC
  5
7D
330
1F
100
AcDbEntity
  8
0
  6
Continuous
 62
     7
370
    25
100
AcDbCircle
 10
348.826582068
 20
426.7839637674
 30
0.0
 40
39.50000000000007
100
AcDbArc
 50
217.2549368513
 51
37.2549368176
  0
CIRCLE
  5
7E
330
1F
100
AcDbEntity
  8
0
  6
Continuous
 62
     7
370
    25
100
AcDbCircle
 10
348.826582068
 20
426.7839637674
 30
0.0
 40
57.00000000000001
  0
SPLINE
  5
7F
330
1F
100
AcDbEntity
  8
0
  6
Continuous
 62
     7
370
    25
100
AcDbSpline
210
0.0
220
0.0
230
1.0
 70
     8
 71
     3
 72
    35
 73
    31
 74
     0
 42
0.000000001
 43
0.00000001
 40
0.0
 40
0.0
 40
0.0
 40
0.0
 40
0.0282546077220527
 40
0.058383442663794
 40
0.0903495399278271
 40
0.1258616479012822
 40
0.1640104750491879
 40
0.2048405213069454
 40
0.237462481584744
 40
0.2716127104071189
 40
0.3071914351681353
 40
0.3440550017625775
 40
0.3820151215667333
 40
0.4208413631481728
 40
0.4602672732901851
 40
0.5000000044809549
 40
0.5397327356717242
 40
0.5791586458137361
 40
0.617984887395176
 40
0.6559450071993321
 40
0.6928085737937738
 40
0.7283872985547899
 40
0.7625375273771648
 40
0.7951594876549635
 40
0.835992837618201
 40
0.8741415922595378
 40
0.9096504660940498
 40
0.9416198397637138
 40
0.9717470283705448
 40
1.0
 40
1.0
 40
1.0
 40
1.0
 10
392.8344429727981
 20
422.1383322403881
 30
0.0
 10
392.9383645325926
 20
423.443690829581
 30
0.0
 10
393.153101133698
 20
426.1409970211071
 30
0.0
 10
393.0023045573998
 20
430.3321785603686
 30
0.0
 10
392.4285513832929
 20
434.8224810314224
 30
0.0
 10
391.2880681359196
 20
439.5911102953002
 30
0.0
 10
389.4656008240533
 20
444.5839125318242
 30
0.0
 10
387.0983699954746
 20
449.1957106323575
 30
0.0
 10
384.3228319561714
 20
453.344885600804
 30
0.0
 10
381.2832611716574
 20
456.9946502841349
 30
0.0
 10
377.7207243480149
 20
460.4272907442615
 30
0.0
 10
373.6503689463275
 20
463.5411766522379
 30
0.0
 10
369.112688990073
 20
466.2335359840874
 30
0.0
 10
364.1745927691317
 20
468.408495584336
 30
0.0
 10
358.9278391052158
 20
469.9853396467192
 30
0.0
 10
353.4842959865512
 20
470.9062806302941
 30
0.0
 10
347.9684451225613
 20
471.1422535513413
 30
0.0
 10
342.5080932084112
 20
470.6956909037511
 30
0.0
 10
337.2247085458765
 20
469.5997483856609
 30
0.0
 10
332.2248808992624
 20
467.914203421702
 30
0.0
 10
327.5940622789905
 20
465.7188453678078
 30
0.0
 10
323.393312542914
 20
463.1057261536075
 30
0.0
 10
319.6586673654771
 20
460.1710719485105
 30
0.0
 10
316.0778433621134
 20
456.6927820284387
 30
0.0
 10
312.7997862110699
 20
452.6767673597644
 30
0.0
 10
309.975005813728
 20
448.1745361965382
 30
0.0
 10
307.8640198441267
 20
443.7491301806976
 30
0.0
 10
306.3653417971461
 20
439.4776750097187
 30
0.0
 10
305.3428459521742
 20
435.4103382419151
 30
0.0
 10
304.9896497961481
 20
432.7278032102822
 30
0.0
 10
304.8187211632795
 20
431.4295952944937
 30
0.0
  0
SPLINE
  5
80
330
1F
100
AcDbEntity
  8
0
  6
Continuous
 62
     7
370
    25
100
AcDbSpline
210
0.0
220
0.0
230
1.0
 70
     8
 71
     3
 72
    35
 73
    31
 74
     0
 42
0.000000001
 43
0.00000001
 40
0.0
 40
0.0
 40
0.0
 40
0.0
 40
0.028254607722473
 40
0.0583834426636161
 40
0.0903495399278292
 40
0.1258616479030815
 40
0.1640104750499177
 40
0.2048405213069401
 40
0.2374624815847382
 40
0.2716127104071133
 40
0.3071914351681304
 40
0.3440550017625721
 40
0.3820151215667281
 40
0.4208413631481677
 40
0.4602672732901801
 40
0.50000000448095
 40
0.5397327356717203
 40
0.5791586458137317
 40
0.6179848873951717
 40
0.6559450071993279
 40
0.6928085737937697
 40
0.7283872985547867
 40
0.7625375273771616
 40
0.7951594876549599
 40
0.8359928376182579
 40
0.8741415922594717
 40
0.9096504660940465
 40
0.9416198397647851
 40
0.9717470283710187
 40
1.0
 40
1.0
 40
1.0
 40
1.0
 10
304.8187211632795
 20
431.4295952944937
 30
0.0
 10
304.7147996034801
 20
430.1242367052814
 30
0.0
 10
304.5000630023685
 20
427.4269305137635
 30
0.0
 10
304.6508595786986
 20
423.2357489745033
 30
0.0
 10
305.2246127527902
 20
418.7454465033845
 30
0.0
 10
306.3650960001805
 20
413.9768172394638
 30
0.0
 10
308.1875633120988
 20
408.9840150029614
 30
0.0
 10
310.5547941406177
 20
404.372216902493
 30
0.0
 10
313.3303321799074
 20
400.2230419340776
 30
0.0
 10
316.3699029644202
 20
396.5732772507459
 30
0.0
 10
319.9324397880631
 20
393.1406367906197
 30
0.0
 10
324.0027951897502
 20
390.0267508826431
 30
0.0
 10
328.5404751460048
 20
387.3343915507937
 30
0.0
 10
333.4785713669461
 20
385.159431950545
 30
0.0
 10
338.7253250308621
 20
383.5825878881619
 30
0.0
 10
344.1688681495262
 20
382.661646904587
 30
0.0
 10
349.6847190135165
 20
382.4256739835398
 30
0.0
 10
355.1450709276669
 20
382.87223663113
 30
0.0
 10
360.4284555902008
 20
383.9681791492202
 30
0.0
 10
365.4282832368155
 20
385.6537241131791
 30
0.0
 10
370.0591018570873
 20
387.8490821670733
 30
0.0
 10
374.2598515931638
 20
390.4622013812736
 30
0.0
 10
377.994496770601
 20
393.3968555863704
 30
0.0
 10
381.5753207739658
 20
396.8751455064451
 30
0.0
 10
384.8533779250121
 20
400.8911601751136
 30
0.0
 10
387.6781583223448
 20
405.3933913383457
 30
0.0
 10
389.7891442919708
 20
409.8187973542255
 30
0.0
 10
391.2878223389599
 20
414.0902525252296
 30
0.0
 10
392.3103181839047
 20
418.1575892930393
 30
0.0
 10
392.6635143399298
 20
420.8401243246219
 30
0.0
 10
392.8344429727979
 20
422.1383322403881
 30
0.0
  0
ARC
  5
81
330
1F
100
AcDbEntity
  8
0
  6
Continuous
 62
     7
370
    25
100
AcDbCircle
 10
348.826582068
 20
426.7839637674
 30
0.0
 40
40.35476230894876
100
AcDbArc
 50
353.973964907
 51
173.973964907
  0
ARC
  5
82
330
1F
100
AcDbEntity
  8
0
  6
Continuous
 62
     7
370
    25
100
AcDbCircle
 10
348.826582068
 20
426.7839637674
 30
0.0
 40
40.35476230894876
100
AcDbArc
 50
173.973964907
 51
353.973964907
  0
CIRCLE
  5
83
330
1F
100
AcDbEntity
  8
0
  6
Continuous
 62
     7
370
    25
100
AcDbCircle
 10
348.826582068
 20
426.7839637674
 30
0.0
 40
39.93812333100001
  0
SPLINE
  5
84
330
1F
100
AcDbEntity
  8
0
  6
Continuous
 62
     7
370
    25
100
AcDbSpline
210
0.0
220
0.0
230
1.0
 70
     8
 71
     3
 72
    15
 73
    11
 74
     0
 42
0.000000001
 43
0.00000001
 40
0.0
 40
0.0
 40
0.0
 40
0.0
 40
0.1165160324218028
 40
0.2400113297291923
 40
0.3686408137627745
 40
0.5000000000000003
 40
0.6313591862372232
 40
0.7599886702708082
 40
0.8834839675781971
 40
1.0
 40
1.0
 40
1.0
 40
1.0
 10
550.8265820686938
 20
531.7839637641521
 30
0.0
 10
550.7714297648137
 20
532.8208242938483
 30
0.0
 10
550.6578215555669
 20
534.9566528944587
 30
0.0
 10
549.7119998253548
 20
538.1249782537215
 30
0.0
 10
548.1436508926485
 20
541.1718674667403
 30
0.0
 10
545.932445526761
 20
543.8898272222192
 30
0.0
 10
543.2144857712822
 20
546.1010325881066
 30
0.0
 10
540.1675965582632
 20
547.6693815208131
 30
0.0
 10
536.9992711990005
 20
548.6152032510249
 30
0.0
 10
534.8634425983901
 20
548.7288114602717
 30
0.0
 10
533.8265820686938
 20
548.7839637641521
 30
0.0
  0
LINE
  5
85
330
1F
100
AcDbEntity
  8
0
  6
Continuous
 62
     7
370
    25
100
AcDbLine
 10
533.8265820687
 20
548.7839637642
 30
0.0
 11
163.8265820687
 21
548.7839637642
 31
0.0
  0
SPLINE
  5
86
330
1F
100
AcDbEntity
  8
0
  6
Continuous
 62
     7
370
    25
100
AcDbSpline
210
0.0
220
0.0
230
1.0
 70
     8
 71
     3
 72
    15
 73
    11
 74
     0
 42
0.000000001
 43
0.00000001
 40
0.0
 40
0.0
 40
0.0
 40
0.0
 40
0.1165160324218069
 40
0.2400113297291941
 40
0.3686408137627779
 40
0.5000000000000006
 40
0.6313591862372262
 40
0.7599886702708082
 40
0.8834839675781974
 40
1.0
 40
1.0
 40
1.0
 40
1.0
 10
163.8265820686939
 20
548.7839637641521
 30
0.0
 10
162.7897215389976
 20
548.7288114602718
 30
0.0
 10
160.6538929383871
 20
548.615203251025
 30
0.0
 10
157.4855675791243
 20
547.669381520813
 30
0.0
 10
154.4386783661058
 20
546.1010325881066
 30
0.0
 10
151.7207186106267
 20
543.8898272222191
 30
0.0
 10
149.5095132447392
 20
541.1718674667403
 30
0.0
 10
147.9411643120328
 20
538.1249782537215
 30
0.0
 10
146.9953425818205
 20
534.9566528944587
 30
0.0
 10
146.8817343725741
 20
532.8208242938483
 30
0.0
 10
146.8265820686938
 20
531.7839637641521
 30
0.0
  0
LINE
  5
87
330
1F
100
AcDbEntity
  8
0
  6
Continuous
 62
     7
370
    25
100
AcDbLine
 10
146.8265820687
 20
531.7839637642
 30
0.0
 11
146.8265820687
 21
161.7839637642
 31
0.0
  0
SPLINE
  5
88
330
1F
100
AcDbEntity
  8
0
  6
Continuous
 62
     7
370
    25
100
AcDbSpline
210
0.0
220
0.0
230
1.0
 70
     8
 71
     3
 72
    15
 73
    11
 74
     0
 42
0.000000001
 43
0.00000001
 40
0.0
 40
0.0
 40
0.0
 40
0.0
 40
0.1165160324218047
 40
0.2400113297291917
 40
0.3686408137627752
 40
0.499999999999999
 40
0.6313591862372228
 40
0.7599886702708064
 40
0.8834839675781934
 40
1.0
 40
1.0
 40
1.0
 40
1.0
 10
146.8265820686938
 20
161.783963764152
 30
0.0
 10
146.8817343725742
 20
160.7471032344557
 30
0.0
 10
146.9953425818207
 20
158.6112746338454
 30
0.0
 10
147.9411643120327
 20
155.4429492745825
 30
0.0
 10
149.5095132447394
 20
152.3960600615638
 30
0.0
 10
151.7207186106265
 20
149.6781003060849
 30
0.0
 10
154.4386783661054
 20
147.4668949401974
 30
0.0
 10
157.4855675791243
 20
145.898546007491
 30
0.0
 10
160.653892938387
 20
144.9527242772788
 30
0.0
 10
162.7897215389975
 20
144.8391160680324
 30
0.0
 10
163.8265820686939
 20
144.783963764152
 30
0.0
  0
LINE
  5
89
330
1F
100
AcDbEntity
  8
0
  6
Continuous
 62
     7
370
    25
100
AcDbLine
 10
163.8265820687
 20
144.7839637642
 30
0.0
 11
533.8265820687
 21
144.7839637642
 31
0.0
  0
SPLINE
  5
8A
330
1F
100
AcDbEntity
  8
0
  6
Continuous
 62
     7
370
    25
100
AcDbSpline
210
0.0
220
0.0
230
1.0
 70
     8
 71
     3
 72
    15
 73
    11
 74
     0
 42
0.000000001
 43
0.00000001
 40
0.0
 40
0.0
 40
0.0
 40
0.0
 40
0.1165160324218048
 40
0.240011329729192
 40
0.3686408137627759
 40
0.5
 40
0.6313591862372241
 40
0.7599886702708062
 40
0.8834839675781974
 40
1.0
 40
1.0
 40
1.0
 40
1.0
 10
533.8265820686938
 20
144.783963764152
 30
0.0
 10
534.8634425983902
 20
144.8391160680324
 30
0.0
 10
536.9992711990006
 20
144.952724277279
 30
0.0
 10
540.1675965582631
 20
145.8985460074909
 30
0.0
 10
543.2144857712824
 20
147.4668949401975
 30
0.0
 10
545.932445526761
 20
149.6781003060849
 30
0.0
 10
548.1436508926485
 20
152.3960600615638
 30
0.0
 10
549.7119998253551
 20
155.4429492745826
 30
0.0
 10
550.6578215555669
 20
158.6112746338453
 30
0.0
 10
550.7714297648134
 20
160.7471032344557
 30
0.0
 10
550.8265820686938
 20
161.783963764152
 30
0.0
  0
LINE
  5
8B
330
1F
100
AcDbEntity
  8
0
  6
Continuous
 62
     7
370
    25
100
AcDbLine
 10
550.8265820687
 20
161.7839637642
 30
0.0
 11
550.8265820687
 21
531.7839637642
 31
0.0
  0
ARC
  5
8C
330
1F
100
AcDbEntity
  8
0
  6
Continuous
 62
     7
370
    25
100
AcDbCircle
 10
558.8265820677
 20
136.7839637682
 30
0.0
 40
9.500000003500006
100
AcDbArc
 50
270.000000006
 51
359.9999999759
  0
LINE
  5
8D
330
1F
100
AcDbEntity
  8
0
  6
Continuous
 62
     7
370
    25
100
AcDbLine
 10
138.8265820698
 20
127.2839637642
 30
0.0
 11
558.8265820687
 21
127.2839637647
 31
0.0
  0
ARC
  5
8E
330
1F
100
AcDbEntity
  8
0
  6
Continuous
 62
     7
370
    25
100
AcDbCircle
 10
138.8265820727
 20
136.7839637652
 30
0.0
 40
9.500000003500048
100
AcDbArc
 50
180.000000006
 51
269.9999999828
  0
LINE
  5
8F
330
1F
100
AcDbEntity
  8
0
  6
Continuous
 62
     7
370
    25
100
AcDbLine
 10
129.3265820687
 20
556.783963764
 30
0.0
 11
129.3265820692
 21
136.7839637642
 31
0.0
  0
ARC
  5
90
330
1F
100
AcDbEntity
  8
0
  6
Continuous
 62
     7
370
    25
100
AcDbCircle
 10
138.8265820697
 20
556.7839637602
 30
0.0
 40
9.500000003500077
100
AcDbArc
 50
90.000000006
 51
179.9999999771
  0
LINE
  5
91
330
1F
100
AcDbEntity
  8
0
  6
Continuous
 62
     7
370
    25
100
AcDbLine
 10
558.8265820685
 20
566.2839637642
 30
0.0
 11
138.8265820687
 21
566.2839637637
 31
0.0
  0
ARC
  5
92
330
1F
100
AcDbEntity
  8
0
  6
Continuous
 62
     7
370
    25
100
AcDbCircle
 10
558.8265820647
 20
556.7839637632
 30
0.0
 40
9.500000003999958
100
AcDbArc
 50
0.0000000057
 51
89.9999999771
  0
LINE
  5
93
330
1F
100
AcDbEntity
  8
0
  6
Continuous
 62
     7
370
    25
100
AcDbLine
 10
568.3265820712
 20
136.7839637642
 30
0.0
 11
568.3265820687
 21
556.7839637641
 31
0.0
  0
LINE
  5
94
330
1F
100
AcDbEntity
  8
0
  6
Continuous
 62
     7
370
    25
100
AcDbLine
 10
533.8265820687
 20
548.7839637642
 30
0.0
 11
533.8265820687
 21
546.7839637642
 31
0.0
  0
LINE
  5
95
330
1F
100
AcDbEntity
  8
0
  6
Continuous
 62
     7
370
    25
100
AcDbLine
 10
163.8265820687
 20
546.7839637642
 30
0.0
 11
533.8265820687
 21
546.7839637642
 31
0.0
  0
LINE
  5
96
330
1F
100
AcDbEntity
  8
0
  6
Continuous
 62
     7
370
    25
100
AcDbLine
 10
163.8265820687
 20
546.7839637642
 30
0.0
 11
163.8265820687
 21
548.7839637642
 31
0.0
  0
LINE
  5
97
330
1F
100
AcDbEntity
  8
0
  6
Continuous
 62
     7
370
    25
100
AcDbLine
 10
148.8265820687
 20
161.7839637642
 30
0.0
 11
146.8265820687
 21
161.7839637642
 31
0.0
  0
LINE
  5
98
330
1F
100
AcDbEntity
  8
0
  6
Continuous
 62
     7
370
    25
100
AcDbLine
 10
148.8265820687
 20
531.7839637642
 30
0.0
 11
146.8265820687
 21
531.7839637642
 31
0.0
  0
LINE
  5
99
330
1F
100
AcDbEntity
  8
0
  6
Continuous
 62
     7
370
    25
100
AcDbLine
 10
148.8265820687
 20
161.7839637642
 30
0.0
 11
148.8265820687
 21
531.7839637642
 31
0.0
  0
LINE
  5
9A
330
1F
100
AcDbEntity
  8
0
  6
Continuous
 62
     7
370
    25
100
AcDbLine
 10
548.8265820687
 20
531.7839637642
 30
0.0
 11
550.8265820687
 21
531.7839637642
 31
0.0
  0
LINE
  5
9B
330
1F
100
AcDbEntity
  8
0
  6
Continuous
 62
     7
370
    25
100
AcDbLine
 10
548.8265820687
 20
161.7839637642
 30
0.0
 11
550.8265820687
 21
161.7839637642
 31
0.0
  0
LINE
  5
9C
330
1F
100
AcDbEntity
  8
0
  6
Continuous
 62
     7
370
    25
100
AcDbLine
 10
548.8265820687
 20
531.7839637642
 30
0.0
 11
548.8265820687
 21
161.7839637642
 31
0.0
  0
LINE
  5
9D
330
1F
100
AcDbEntity
  8
0
  6
Continuous
 62
     7
370
    25
100
AcDbLine
 10
533.8265820687
 20
146.7839637642
 30
0.0
 11
533.8265820687
 21
144.7839637642
 31
0.0
  0
LINE
  5
9E
330
1F
100
AcDbEntity
  8
0
  6
Continuous
 62
     7
370
    25
100
AcDbLine
 10
163.8265820687
 20
146.7839637642
 30
0.0
 11
163.8265820687
 21
144.7839637642
 31
0.0
  0
LINE
  5
9F
330
1F
100
AcDbEntity
  8
0
  6
Continuous
 62
     7
370
    25
100
AcDbLine
 10
533.8265820687
 20
146.7839637642
 30
0.0
 11
163.8265820687
 21
146.7839637642
 31
0.0
  0
ARC
  5
A0
330
1F
100
AcDbEntity
  8
0
  6
Continuous
 62
     7
370
    25
100
AcDbCircle
 10
163.8265820687
 20
531.7839637642
 30
0.0
 40
15.00000000000011
100
AcDbArc
 50
90.0
 51
180.0
  0
ARC
  5
A1
330
1F
100
AcDbEntity
  8
0
  6
Continuous
 62
     7
370
    25
100
AcDbCircle
 10
533.8265820687
 20
531.7839637642
 30
0.0
 40
15.0
100
AcDbArc
 50
0.0
 51
90.0
  0
ARC
  5
A2
330
1F
100
AcDbEntity
  8
0
  6
Continuous
 62
     7
370
    25
100
AcDbCircle
 10
163.8265820687
 20
161.7839637642
 30
0.0
 40
15.00000000000011
100
AcDbArc
 50
180.0
 51
270.0
  0
ARC
  5
A3
330
1F
100
AcDbEntity
  8
0
  6
Continuous
 62
     7
370
    25
100
AcDbCircle
 10
533.8265820687
 20
161.7839637642
 30
0.0
 40
15.0
100
AcDbArc
 50
270.0
 51
0.0
  0
LINE
  5
A4
330
1F
100
AcDbEntity
  8
0
  6
Continuous
 62
     7
370
    25
100
AcDbLine
 10
128.8265820692
 20
136.7839637642
 30
0.0
 11
128.8265820692
 21
556.7839637642
 31
0.0
  0
LINE
  5
A5
330
1F
100
AcDbEntity
  8
0
  6
Continuous
 62
     7
370
    25
100
AcDbLine
 10
128.8265820692
 20
556.7839637642
 30
0.0
 11
129.3265820687
 21
556.783963764
 31
0.0
  0
LINE
  5
A6
330
1F
100
AcDbEntity
  8
0
  6
Continuous
 62
     7
370
    25
100
AcDbLine
 10
128.8265820692
 20
136.7839637642
 30
0.0
 11
129.3265820692
 21
136.7839637642
 31
0.0
  0
ARC
  5
A7
330
1F
100
AcDbEntity
  8
0
  6
Continuous
 62
     7
370
    25
100
AcDbCircle
 10
558.8265820647
 20
556.7839637632
 30
0.0
 40
10.00000000399984
100
AcDbArc
 50
0.0000000057
 51
89.9999999771
  0
LINE
  5
A8
330
1F
100
AcDbEntity
  8
0
  6
Continuous
 62
     7
370
    25
100
AcDbLine
 10
568.3265820687
 20
556.7839637641
 30
0.0
 11
568.8265820687
 21
556.7839637642
 31
0.0
  0
LINE
  5
A9
330
1F
100
AcDbEntity
  8
0
  6
Continuous
 62
     7
370
    25
100
AcDbLine
 10
558.8265820687
 20
566.7839637637
 30
0.0
 11
558.8265820685
 21
566.2839637642
 31
0.0
  0
LINE
  5
AA
330
1F
100
AcDbEntity
  8
0
  6
Continuous
 62
     7
370
    25
100
AcDbLine
 10
568.8265820687
 20
556.7839637642
 30
0.0
 11
568.8265820682
 21
136.7839637642
 31
0.0
  0
LINE
  5
AB
330
1F
100
AcDbEntity
  8
0
  6
Continuous
 62
     7
370
    25
100
AcDbLine
 10
568.3265820712
 20
136.7839637642
 30
0.0
 11
568.8265820682
 21
136.7839637642
 31
0.0
  0
LINE
  5
AC
330
1F
100
AcDbEntity
  8
0
  6
Continuous
 62
     7
370
    25
100
AcDbLine
 10
138.8265820687
 20
566.7839637642
 30
0.0
 11
558.8265820687
 21
566.7839637637
 31
0.0
  0
LINE
  5
AD
330
1F
100
AcDbEntity
  8
0
  6
Continuous
 62
     7
370
    25
100
AcDbLine
 10
138.8265820687
 20
566.7839637642
 30
0.0
 11
138.8265820687
 21
566.2839637637
 31
0.0
  0
ARC
  5
AE
330
1F
100
AcDbEntity
  8
0
  6
Continuous
 62
     7
370
    25
100
AcDbCircle
 10
138.8265820697
 20
556.7839637602
 30
0.0
 40
10.00000000400007
100
AcDbArc
 50
90.0000000057
 51
179.9999999771
  0
ARC
  5
AF
330
1F
100
AcDbEntity
  8
0
  6
Continuous
 62
     7
370
    25
100
AcDbCircle
 10
138.8265820727
 20
136.7839637652
 30
0.0
 40
10.00000000349999
100
AcDbArc
 50
180.0000000057
 51
269.9999999828
  0
LINE
  5
B0
330
1F
100
AcDbEntity
  8
0
  6
Continuous
 62
     7
370
    25
100
AcDbLine
 10
138.8265820698
 20
127.2839637642
 30
0.0
 11
138.8265820697
 21
126.7839637647
 31
0.0
  0
ARC
  5
B1
330
1F
100
AcDbEntity
  8
0
  6
Continuous
 62
     7
370
    25
100
AcDbCircle
 10
558.8265820677
 20
136.7839637682
 30
0.0
 40
10.00000000400004
100
AcDbArc
 50
270.0000000057
 51
359.9999999771
  0
LINE
  5
B2
330
1F
100
AcDbEntity
  8
0
  6
Continuous
 62
     7
370
    25
100
AcDbLine
 10
558.8265820687
 20
127.2839637647
 30
0.0
 11
558.8265820687
 21
126.7839637642
 31
0.0
  0
LINE
  5
B3
330
1F
100
AcDbEntity
  8
0
  6
Continuous
 62
     7
370
    25
100
AcDbLine
 10
558.8265820687
 20
126.7839637642
 30
0.0
 11
138.8265820697
 21
126.7839637647
 31
0.0
  0
SPLINE
  5
B4
330
1F
100
AcDbEntity
  8
0
  6
Continuous
 62
     7
370
    25
100
AcDbSpline
210
0.0
220
0.0
230
1.0
 70
     8
 71
     3
 72
    15
 73
    11
 74
     0
 42
0.000000001
 43
0.00000001
 40
0.0
 40
0.0
 40
0.0
 40
0.0
 40
0.1538085154978649
 40
0.299397136133037
 40
0.4367598835228789
 40
0.5658911181946673
 40
0.6867855395315173
 40
0.7994381857506477
 40
0.9038444339173322
 40
0.9999999999999999
 40
0.9999999999999999
 40
0.9999999999999999
 40
0.9999999999999999
 10
148.8265820686939
 20
161.783963764152
 30
0.0
 10
148.908888068166
 20
161.749181669486
 30
0.0
 10
149.0691014376843
 20
161.6814763184656
 30
0.0
 10
150.2887972036349
 20
161.5888500923686
 30
0.0
 10
152.0153446544811
 20
161.5109866953181
 30
0.0
 10
154.1365171376702
 20
161.4494678288133
 30
0.0
 10
156.4679758717858
 20
161.4042360849717
 30
0.0
 10
158.8712278804196
 20
161.3745739629356
 30
0.0
 10
161.2303960512691
 20
161.3576576366737
 30
0.0
 10
162.7826999356504
 20
161.355670554892
 30
0.0
 10
163.5269226546844
 20
161.3547178861386
 30
0.0
  0
SPLINE
  5
B5
330
1F
100
AcDbEntity
  8
0
  6
Continuous
 62
     7
370
    25
100
AcDbSpline
210
0.0
220
0.0
230
1.0
 70
     8
 71
     3
 72
    15
 73
    11
 74
     0
 42
0.000000001
 43
0.00000001
 40
0.0
 40
0.0
 40
0.0
 40
0.0
 40
0.1249999999999988
 40
0.2499999999999975
 40
0.3749999999999994
 40
0.4999999999999998
 40
0.6249999999999991
 40
0.7499999999999988
 40
0.8749999999999997
 40
1.0
 40
1.0
 40
1.0
 40
1.0
 10
163.8265820687798
 20
146.783963764152
 30
0.0
 10
163.8073189559842
 20
146.8377673377841
 30
0.0
 10
163.7687927303925
 20
146.945374485048
 30
0.0
 10
163.7131452839751
 20
147.8053957922827
 30
0.0
 10
163.6616961417292
 20
149.143365940709
 30
0.0
 10
163.6163707090596
 20
150.9603333242343
 30
0.0
 10
163.5787755666092
 20
153.1753277443156
 30
0.0
 10
163.5505742544032
 20
155.7103117996887
 30
0.0
 10
163.5318009265234
 20
158.4689547253948
 30
0.0
 10
163.5285487452974
 20
160.3927968325573
 30
0.0
 10
163.5269226546844
 20
161.3547178861386
 30
0.0
  0
SPLINE
  5
B6
330
1F
100
AcDbEntity
  8
0
  6
Continuous
 62
     7
370
    25
100
AcDbSpline
210
0.0
220
0.0
230
1.0
 70
     8
 71
     3
 72
    15
 73
    11
 74
     0
 42
0.000000001
 43
0.00000001
 40
0.0
 40
0.0
 40
0.0
 40
0.0
 40
0.1533626519446999
 40
0.2986323241979508
 40
0.4358032994111648
 40
0.5648701800973136
 40
0.6858278885606717
 40
0.7986716668594549
 40
0.9033970768046106
 40
1.0
 40
1.0
 40
1.0
 40
1.0
 10
533.8265820686938
 20
146.783963764152
 30
0.0
 10
533.8508493666874
 20
146.8648780859896
 30
0.0
 10
533.8981033722088
 20
147.0224368637289
 30
0.0
 10
533.9626433945643
 20
148.2229634192429
 30
0.0
 10
534.0169270505895
 20
149.9252851258217
 30
0.0
 10
534.0598618930379
 20
152.0208682086565
 30
0.0
 10
534.0914872091083
 20
154.3293881827703
 30
0.0
 10
534.1122759661745
 20
156.7149935486363
 30
0.0
 10
534.1241686951352
 20
159.062940120449
 30
0.0
 10
534.1255693916349
 20
160.6116215535365
 30
0.0
 10
534.1262414846994
 20
161.3547218971441
 30
0.0
  0
SPLINE
  5
B7
330
1F
100
AcDbEntity
  8
0
  6
Continuous
 62
     7
370
    25
100
AcDbSpline
210
0.0
220
0.0
230
1.0
 70
     8
 71
     3
 72
    15
 73
    11
 74
     0
 42
0.000000001
 43
0.00000001
 40
0.0
 40
0.0
 40
0.0
 40
0.0
 40
0.1250000000000011
 40
0.2500000000000018
 40
0.3750000000000009
 40
0.4999999999999997
 40
0.6249999999999993
 40
0.7499999999999997
 40
0.8749999999999994
 40
0.9999999999999999
 40
0.9999999999999999
 40
0.9999999999999999
 40
0.9999999999999999
 10
548.8265820686937
 20
161.7839637642384
 30
0.0
 10
548.7721719051864
 20
161.756221868479
 30
0.0
 10
548.6633515781718
 20
161.7007380769606
 30
0.0
 10
547.793752372033
 20
161.6206315995751
 30
0.0
 10
546.4412749009299
 20
161.5466378121478
 30
0.0
 10
544.6054109763809
 20
161.481556728952
 30
0.0
 10
542.3687140912367
 20
161.4277212744105
 30
0.0
 10
539.8110273350514
 20
161.3875404150685
 30
0.0
 10
537.0301692412073
 20
161.3610555452509
 30
0.0
 10
535.0942174035354
 20
161.3568331131796
 30
0.0
 10
534.1262414846994
 20
161.3547218971441
 30
0.0
  0
SPLINE
  5
B8
330
1F
100
AcDbEntity
  8
0
  6
Continuous
 62
     7
370
    25
100
AcDbSpline
210
0.0
220
0.0
230
1.0
 70
     8
 71
     3
 72
    22
 73
    18
 74
     0
 42
0.000000001
 43
0.00000001
 40
0.0
 40
0.0
 40
0.0
 40
0.0
 40
0.0694039092085099
 40
0.136458714280494
 40
0.2016382808022397
 40
0.2656747094053478
 40
0.3294534178696328
 40
0.3938758414365714
 40
0.4597684956929128
 40
0.5277789276666797
 40
0.5909597220941716
 40
0.6560732728042278
 40
0.7228753517260038
 40
0.7910250259678494
 40
0.8601512928640866
 40
0.9299124773036838
 40
1.0
 40
1.0
 40
1.0
 40
1.0
 10
163.371307451729
 20
532.0423621602672
 30
0.0
 10
163.3624344133004
 20
523.46641079898
 30
0.0
 10
163.3449886608992
 20
506.6047770691347
 30
0.0
 10
163.3237437505931
 20
481.6875214078111
 30
0.0
 10
163.3090992967552
 20
457.4326504000747
 30
0.0
 10
163.3024331067975
 20
433.5820136037508
 30
0.0
 10
163.3042459819344
 20
409.8248151381258
 30
0.0
 10
163.3144087624455
 20
385.8385598468116
 30
0.0
 10
163.3320923087704
 20
361.3301380917687
 30
0.0
 10
163.3549533846422
 20
336.9762754128065
 30
0.0
 10
163.3805348950926
 20
312.7199393162123
 30
0.0
 10
163.4068761877107
 20
288.6141402394171
 30
0.0
 10
163.4335274507125
 20
263.8956262299328
 30
0.0
 10
163.4594431373561
 20
238.6824928822721
 30
0.0
 10
163.4838839381019
 20
213.1048409432018
 30
0.0
 10
163.5066491600047
 20
187.2886650857053
 30
0.0
 10
163.5201543238988
 20
170.0128073845638
 30
0.0
 10
163.5269226630586
 20
161.3547218468097
 30
0.0
  0
SPLINE
  5
B9
330
1F
100
AcDbEntity
  8
0
  6
Continuous
 62
     7
370
    25
100
AcDbSpline
210
0.0
220
0.0
230
1.0
 70
     8
 71
     3
 72
    15
 73
    11
 74
     0
 42
0.000000001
 43
0.00000001
 40
0.0
 40
0.0
 40
0.0
 40
0.0
 40
0.1250000000000008
 40
0.2500000000000013
 40
0.3750000000000016
 40
0.4999999999999997
 40
0.6250000000000013
 40
0.7500000000000006
 40
0.8750000000000003
 40
1.0
 40
1.0
 40
1.0
 40
1.0
 10
148.8265820686938
 20
531.7839637640891
 30
0.0
 10
148.8802641841158
 20
531.8005566530012
 30
0.0
 10
148.9876284149595
 20
531.8337424308255
 30
0.0
 10
149.84573161331
 20
531.881680249624
 30
0.0
 10
151.1807954162744
 20
531.9260096907624
 30
0.0
 10
152.9939749758251
 20
531.965075501139
 30
0.0
 10
155.2046154660831
 20
531.9974961116179
 30
0.0
 10
157.7350389634418
 20
532.0218401818553
 30
0.0
 10
160.4892117912505
 20
532.0380773711476
 30
0.0
 10
162.4106066195438
 20
532.0409341404851
 30
0.0
 10
163.3713040336905
 20
532.0423625251539
 30
0.0
  0
SPLINE
  5
BA
330
1F
100
AcDbEntity
  8
0
  6
Continuous
 62
     7
370
    25
100
AcDbSpline
210
0.0
220
0.0
230
1.0
 70
     8
 71
     3
 72
    12
 73
     8
 74
     0
 42
0.000000001
 43
0.00000001
 40
0.0
 40
0.0
 40
0.0
 40
0.0
 40
0.2047940528932523
 40
0.4063361181937751
 40
0.6061273807077453
 40
0.8037251591767107
 40
1.0
 40
1.0
 40
1.0
 40
1.0
 10
163.5269226274653
 20
161.3547218593924
 30
0.0
 10
176.1749965381614
 20
161.3451380973047
 30
0.0
 10
201.2703017137428
 20
161.3261227566277
 30
0.0
 10
238.7073852564395
 20
161.2996596559145
 30
0.0
 10
275.7017846900368
 20
161.2781933179198
 30
0.0
 10
312.3723808841347
 20
161.263583993074
 30
0.0
 10
336.7024215522038
 20
161.2615076210932
 30
0.0
 10
348.8265820686935
 20
161.2604729221575
 30
0.0
  0
SPLINE
  5
BB
330
1F
100
AcDbEntity
  8
0
  6
Continuous
 62
     7
370
    25
100
AcDbSpline
210
0.0
220
0.0
230
1.0
 70
     8
 71
     3
 72
    21
 73
    17
 74
     0
 42
0.000000001
 43
0.00000001
 40
0.0
 40
0.0
 40
0.0
 40
0.0
 40
0.0781882938808084
 40
0.155836766261504
 40
0.2325397317310185
 40
0.307814281028095
 40
0.3811899569969111
 40
0.4522971347667423
 40
0.5209946257855327
 40
0.5874844303743066
 40
0.6552906925932664
 40
0.7221737942900435
 40
0.7891745164054946
 40
0.8572767715778252
 40
0.9273524580654674
 40
1.0
 40
1.0
 40
1.0
 40
1.0
 10
534.1262414816206
 20
161.3547219073919
 30
0.0
 10
534.1338199806667
 20
171.0135238458746
 30
0.0
 10
534.1489246558785
 20
190.2644421783303
 30
0.0
 10
534.1747293021726
 20
218.9919085448485
 30
0.0
 10
534.2025044679837
 20
247.3605332233478
 30
0.0
 10
534.2317751218372
 20
275.2026345962786
 30
0.0
 10
534.261376068962
 20
302.3548315724179
 30
0.0
 10
534.2897016677106
 20
328.6958902328568
 30
0.0
 10
534.3147764841059
 20
354.1875319256581
 30
0.0
 10
534.3348940183703
 20
379.2725127042168
 30
0.0
 10
534.3476687666247
 20
404.134220267978
 30
0.0
 10
534.3512885141373
 20
429.0595574497913
 30
0.0
 10
534.3455879215966
 20
454.0214307060959
 30
0.0
 10
534.3311312350191
 20
479.377226066086
 30
0.0
 10
534.3093494026006
 20
505.4298751899045
 30
0.0
 10
534.2911299580675
 20
523.0656021867752
 30
0.0
 10
534.281856079699
 20
532.0423625271549
 30
0.0
  0
SPLINE
  5
BC
330
1F
100
AcDbEntity
  8
0
  6
Continuous
 62
     7
370
    25
100
AcDbSpline
210
0.0
220
0.0
230
1.0
 70
     8
 71
     3
 72
    15
 73
    11
 74
     0
 42
0.000000001
 43
0.00000001
 40
0.0
 40
0.0
 40
0.0
 40
0.0
 40
0.1532791138211993
 40
0.2984890264776985
 40
0.435624070007582
 40
0.564678892573025
 40
0.6856484584332342
 40
0.7985280479428859
 40
0.9033132575789307
 40
1.0
 40
1.0
 40
1.0
 40
1.0
 10
548.8265820686938
 20
531.7839637641521
 30
0.0
 10
548.7459389070707
 20
531.8048879094453
 30
0.0
 10
548.5888979495332
 20
531.8456346726715
 30
0.0
 10
547.3921194151042
 20
531.901268244393
 30
0.0
 10
545.6945594627962
 20
531.9480652153268
 30
0.0
 10
543.6040427962021
 20
531.9850857468626
 30
0.0
 10
541.3001131122026
 20
532.0123638990874
 30
0.0
 10
538.9181021597624
 20
532.0303031144333
 30
0.0
 10
536.5725253047393
 20
532.040571746401
 30
0.0
 10
535.0246730742584
 20
532.0417818137286
 30
0.0
 10
534.2818560797025
 20
532.042362527157
 30
0.0
  0
SPLINE
  5
BD
330
1F
100
AcDbEntity
  8
0
  6
Continuous
 62
     7
370
    25
100
AcDbSpline
210
0.0
220
0.0
230
1.0
 70
     8
 71
     3
 72
    13
 73
     9
 74
     0
 42
0.000000001
 43
0.00000001
 40
0.0
 40
0.0
 40
0.0
 40
0.0
 40
0.1635129362720628
 40
0.3277878870817196
 40
0.4935106914697429
 40
0.6603356069412128
 40
0.828787346874694
 40
0.9999999999999999
 40
0.9999999999999999
 40
0.9999999999999999
 40
0.9999999999999999
 10
348.8265877160727
 20
161.260471496953
 30
0.0
 10
358.9270009373194
 20
161.2611825846778
 30
0.0
 10
379.1748980390877
 20
161.2626080739886
 30
0.0
 10
409.6592332032439
 20
161.2730709661501
 30
0.0
 10
440.3472556392142
 20
161.2880163839501
 30
0.0
 10
471.292025504348
 20
161.3093286025745
 30
0.0
 10
502.574573277497
 20
161.3305427016262
 30
0.0
 10
523.5521809284171
 20
161.3466185846744
 30
0.0
 10
534.1262414879948
 20
161.3547218614506
 30
0.0
  0
SPLINE
  5
BE
330
1F
100
AcDbEntity
  8
0
  6
Continuous
 62
     7
370
    25
100
AcDbSpline
210
0.0
220
0.0
230
1.0
 70
     8
 71
     3
 72
    15
 73
    11
 74
     0
 42
0.000000001
 43
0.00000001
 40
0.0
 40
0.0
 40
0.0
 40
0.0
 40
0.1539457447062364
 40
0.299632535890266
 40
0.4370543129540841
 40
0.5662053600690589
 40
0.6870803061740143
 40
0.799674124997842
 40
0.9039821351094934
 40
1.0
 40
1.0
 40
1.0
 40
1.0
 10
163.8265820686938
 20
546.7839637641521
 30
0.0
 10
163.7896848207782
 20
546.7012161045177
 30
0.0
 10
163.7178698058102
 20
546.5401600705069
 30
0.0
 10
163.6195678566817
 20
545.3143792810167
 30
0.0
 10
163.5369467658063
 20
543.5801397742448
 30
0.0
 10
163.4716903081352
 20
541.4508386471175
 30
0.0
 10
163.4237377150485
 20
539.1120862372601
 30
0.0
 10
163.3923148681902
 20
536.7032103662651
 30
0.0
 10
163.3744120888258
 20
534.3404425183076
 30
0.0
 10
163.3723110697026
 20
532.7869597768797
 30
0.0
 10
163.3713040336904
 20
532.042362525154
 30
0.0
  0
SPLINE
  5
BF
330
1F
100
AcDbEntity
  8
0
  6
Continuous
 62
     7
370
    25
100
AcDbSpline
210
0.0
220
0.0
230
1.0
 70
     8
 71
     3
 72
    15
 73
    11
 74
     0
 42
0.000000001
 43
0.00000001
 40
0.0
 40
0.0
 40
0.0
 40
0.0
 40
0.1249999999999998
 40
0.25
 40
0.3749999999999991
 40
0.4999999999999997
 40
0.6250000000000013
 40
0.75
 40
0.874999999999999
 40
1.0
 40
1.0
 40
1.0
 40
1.0
 10
534.2818560797025
 20
532.042362527157
 30
0.0
 10
534.2796910066139
 20
533.0122535566084
 30
0.0
 10
534.2753608604366
 20
534.952035615511
 30
0.0
 10
534.2474082839881
 20
537.7399541533407
 30
0.0
 10
534.2048641019383
 20
540.3048696797761
 30
0.0
 10
534.1477696106642
 20
542.5484868322368
 30
0.0
 10
534.0786886955835
 20
544.3903818793598
 30
0.0
 10
534.0001065126687
 20
545.7474924913786
 30
0.0
 10
533.9150071949141
 20
546.6201517657945
 30
0.0
 10
533.8560571107233
 20
546.7293597646996
 30
0.0
 10
533.8265820686279
 20
546.7839637641521
 30
0.0
  0
SPLINE
  5
C0
330
1F
100
AcDbEntity
  8
0
  6
Continuous
 62
     7
370
    25
100
AcDbSpline
210
0.0
220
0.0
230
1.0
 70
     8
 71
     3
 72
    19
 73
    15
 74
     0
 42
0.000000001
 43
0.00000001
 40
0.0
 40
0.0
 40
0.0
 40
0.0
 40
0.0594422775986192
 40
0.1198759648529212
 40
0.1822187267714504
 40
0.2482705589370664
 40
0.3174156266008061
 40
0.3916137042919595
 40
0.4714818084401149
 40
0.5654969637925644
 40
0.6666540349156374
 40
0.773590207967712
 40
0.8849430204642974
 40
1.0
 40
1.0
 40
1.0
 40
1.0
 10
348.8265820686937
 20
532.3074561990886
 30
0.0
 10
345.1510531717964
 20
532.3068914640331
 30
0.0
 10
337.7386929685833
 20
532.3057525749731
 30
0.0
 10
326.4716079516072
 20
532.29674266658
 30
0.0
 10
314.7961385725312
 20
532.2830699503904
 30
0.0
 10
302.582486328877
 20
532.2631702210698
 30
0.0
 10
289.6364172556937
 20
532.2409575923667
 30
0.0
 10
275.8368387215477
 20
532.2141895824744
 30
0.0
 10
260.5005235567355
 20
532.185711096081
 30
0.0
 10
243.4985383044084
 20
532.1535681513967
 30
0.0
 10
224.8242823000966
 20
532.1223601659589
 30
0.0
 10
205.079254249665
 20
532.0927257918136
 30
0.0
 10
184.475834850814
 20
532.0656433862719
 30
0.0
 10
170.4824621848364
 20
532.0502072435395
 30
0.0
 10
163.3713068853551
 20
532.04236290102
 30
0.0
  0
SPLINE
  5
C1
330
1F
100
AcDbEntity
  8
0
  6
Continuous
 62
     7
370
    25
100
AcDbSpline
210
0.0
220
0.0
230
1.0
 70
     8
 71
     3
 72
    19
 73
    15
 74
     0
 42
0.000000001
 43
0.00000001
 40
0.0
 40
0.0
 40
0.0
 40
0.0
 40
0.104631224230572
 40
0.2064172999767718
 40
0.3045663507267163
 40
0.398327971011998
 40
0.4865439793133083
 40
0.5692702213984215
 40
0.6457410092689312
 40
0.72472084776511
 40
0.7982392862893452
 40
0.8678301138061676
 40
0.9345326448444036
 40
1.0
 40
1.0
 40
1.0
 40
1.0
 10
534.2818560375136
 20
532.0423623932661
 30
0.0
 10
527.8150743718328
 20
532.0494606723488
 30
0.0
 10
515.0573567709415
 20
532.063464213008
 30
0.0
 10
496.2328348331038
 20
532.0878202077832
 30
0.0
 10
478.0795458068691
 20
532.1141729818036
 30
0.0
 10
460.7643134170269
 20
532.14226328768
 30
0.0
 10
444.4016501693666
 20
532.1717137318838
 30
0.0
 10
429.1070495050226
 20
532.2004501902478
 30
0.0
 10
414.3826405827652
 20
532.2287204856885
 30
0.0
 10
400.226698900414
 20
532.2548272210524
 30
0.0
 10
386.4953863567499
 20
532.2776954639814
 30
0.0
 10
373.5225869103798
 20
532.2945851724635
 30
0.0
 10
361.0472014606565
 20
532.3053370723584
 30
0.0
 10
352.8746634145596
 20
532.3067542868365
 30
0.0
 10
348.8265820686938
 20
532.3074562718821
 30
0.0
  0
CIRCLE
  5
C2
330
1F
100
AcDbEntity
  8
0
  6
Continuous
 62
     7
370
    25
100
AcDbCircle
 10
348.8265820687
 20
426.7839637642
 30
0.0
 40
59.99999999999995
  0
SPLINE
  5
C3
330
1F
100
AcDbEntity
  8
0
  6
Continuous
 62
     8
370
    25
100
AcDbSpline
210
0.0
220
0.0
230
1.0
 70
     8
 71
     3
 72
    12
 73
     8
 74
     0
 42
0.000000001
 43
0.00000001
 40
0.0
 40
0.0
 40
0.0
 40
0.0
 40
0.263600534560967
 40
0.4531130705265048
 40
0.6509913616037273
 40
0.848869652656537
 40
1.0
 40
1.0
 40
1.0
 40
1.0
 10
381.7835275871517
 20
411.542677744753
 30
0.0
 10
381.9030167221653
 20
411.48741873414
 30
0.0
 10
382.1084111799224
 20
411.3924319010717
 30
0.0
 10
382.3553512968089
 20
411.2782318490798
 30
0.0
 10
382.5227551558011
 20
411.2008141736006
 30
0.0
 10
382.622479161587
 20
411.154695758545
 30
0.0
 10
382.6278974980227
 20
411.1521899918683
 30
0.0
 10
382.6302437868461
 20
411.1511049259228
 30
0.0
  0
SPLINE
  5
C4
330
1F
100
AcDbEntity
  8
0
  6
Continuous
 62
     8
370
    25
100
AcDbSpline
210
0.0
220
0.0
230
1.0
 70
     8
 71
     3
 72
    12
 73
     8
 74
     0
 42
0.000000001
 43
0.00000001
 40
0.0
 40
0.0
 40
0.0
 40
0.0
 40
0.1511297784501243
 40
0.3490077426240083
 40
0.5468857068223042
 40
0.7363979297284873
 40
1.0
 40
1.0
 40
1.0
 40
1.0
 10
315.0229203871617
 20
442.4168225914178
 30
0.0
 10
315.0252666750961
 20
442.4157375258914
 30
0.0
 10
315.0306850159677
 20
442.4132317571815
 30
0.0
 10
315.1304089855603
 20
442.3671133586931
 30
0.0
 10
315.2978128368613
 20
442.2896956874431
 30
0.0
 10
315.5447537091248
 20
442.1754952834059
 30
0.0
 10
315.7501491865
 20
442.0805079876446
 30
0.0
 10
315.8696392883918
 20
442.0252485350316
 30
0.0
  0
ENDSEC
  0
SECTION
  2
OBJECTS
  0
DICTIONARY
  5
C
330
0
100
AcDbDictionary
281
     1
  3
ACAD_GROUP
350
D
  3
ACAD_LAYOUT
350
1A
  3
ACAD_MLINESTYLE
350
17
  3
ACAD_PLOTSETTINGS
350
19
  3
ACAD_PLOTSTYLENAME
350
E
  3
ACAD_SCALELIST
350
47
  0
DICTIONARY
  5
D
102
{ACAD_REACTORS
330
C
102
}
330
C
100
AcDbDictionary
281
     1
  0
DICTIONARY
  5
1A
102
{ACAD_REACTORS
330
C
102
}
330
C
100
AcDbDictionary
281
     1
  3
Layout1
350
1E
  3
Layout2
350
26
  3
Model
350
22
  0
DICTIONARY
  5
17
102
{ACAD_REACTORS
330
C
102
}
330
C
100
AcDbDictionary
281
     1
  3
Standard
350
18
  0
DICTIONARY
  5
19
102
{ACAD_REACTORS
330
C
102
}
330
C
100
AcDbDictionary
281
     1
  0
ACDBDICTIONARYWDFLT
  5
E
102
{ACAD_REACTORS
330
C
102
}
330
C
100
AcDbDictionary
281
     1
  3
Normal
350
F
100
AcDbDictionaryWithDefault
340
F
  0
DICTIONARY
  5
47
102
{ACAD_REACTORS
330
C
102
}
330
C
100
AcDbDictionary
281
     1
  3
A0
350
48
  3
A1
350
49
  3
A2
350
4A
  3
A3
350
4B
  3
A4
350
4C
  3
A5
350
4D
  3
A6
350
4E
  3
A7
350
4F
  3
A8
350
50
  3
A9
350
51
  3
B0
350
52
  3
B1
350
53
  3
B2
350
54
  3
B3
350
55
  3
B4
350
56
  3
B5
350
57
  3
B6
350
58
  3
B7
350
59
  3
B8
350
5A
  3
B9
350
5B
  3
C0
350
5C
  3
C1
350
5D
  3
C2
350
5E
  3
C3
350
5F
  3
C4
350
60
  3
C5
350
61
  3
C6
350
62
  3
C7
350
63
  3
C8
350
64
  3
C9
350
65
  3
D0
350
66
  3
D1
350
67
  3
D2
350
68
  0
LAYOUT
  5
1E
102
{ACAD_REACTORS
330
1A
102
}
330
1A
100
AcDbPlotSettings
  1

  2
none_device
  4

  6

 40
0.0
 41
0.0
 42
0.0
 43
0.0
 44
0.0
 45
0.0
 46
0.0
 47
0.0
 48
0.0
 49
0.0
140
0.0
141
0.0
142
1.0
143
1.0
 70
   688
 72
     1
 73
     0
 74
     5
  7

 75
    16
147
1.0
148
0.0
149
0.0
100
AcDbLayout
  1
Layout1
 70
     1
 71
     1
 10
0.0
 20
0.0
 11
420.0
 21
297.0
 12
0.0
 22
0.0
 32
0.0
 14
1.0000000000E+20
 24
1.0000000000E+20
 34
1.0000000000E+20
 15
-1.0000000000E+20
 25
-1.0000000000E+20
 35
-1.0000000000E+20
146
0.0
 13
0.0
 23
0.0
 33
0.0
 16
1.0
 26
0.0
 36
0.0
 17
0.0
 27
1.0
 37
0.0
 76
     0
330
1B
  0
LAYOUT
  5
26
102
{ACAD_REACTORS
330
1A
102
}
330
1A
100
AcDbPlotSettings
  1

  2
none_device
  4

  6

 40
0.0
 41
0.0
 42
0.0
 43
0.0
 44
0.0
 45
0.0
 46
0.0
 47
0.0
 48
0.0
 49
0.0
140
0.0
141
0.0
142
1.0
143
1.0
 70
   688
 72
     1
 73
     0
 74
     5
  7

 75
    16
147
1.0
148
0.0
149
0.0
100
AcDbLayout
  1
Layout2
 70
     1
 71
     2
 10
0.0
 20
0.0
 11
0.0
 21
0.0
 12
0.0
 22
0.0
 32
0.0
 14
0.0
 24
0.0
 34
0.0
 15
0.0
 25
0.0
 35
0.0
146
0.0
 13
0.0
 23
0.0
 33
0.0
 16
1.0
 26
0.0
 36
0.0
 17
0.0
 27
1.0
 37
0.0
 76
     0
330
23
  0
LAYOUT
  5
22
102
{ACAD_REACTORS
330
1A
102
}
330
1A
100
AcDbPlotSettings
  1

  2
none_device
  4
Letter_(8.50_x_11.00_Inches)
  6

 40
6.35
 41
6.35
 42
6.35000508
 43
6.35000508
 44
215.9
 45
279.4
 46
0.0
 47
0.0
 48
0.0
 49
0.0
140
0.0
141
0.0
142
1.0
143
1.0
 70
  1712
 72
     1
 73
     0
 74
     0
  7

 75
     0
147
1.0
148
0.0
149
0.0
100
AcDbLayout
  1
Model
 70
     1
 71
     0
 10
0.0
 20
0.0
 11
700.0
 21
700.0
 12
0.0
 22
0.0
 32
0.0
 14
0.0
 24
0.0
 34
0.0
 15
700.0
 25
700.0
 35
0.0
146
0.0
 13
0.0
 23
0.0
 33
0.0
 16
1.0
 26
0.0
 36
0.0
 17
0.0
 27
1.0
 37
0.0
 76
     0
330
1F
331
29
  0
MLINESTYLE
  5
18
102
{ACAD_REACTORS
330
17
102
}
330
17
100
AcDbMlineStyle
  2
Standard
 70
     0
  3

 62
   256
 51
90.0
 52
90.0
 71
     2
 49
0.5
 62
   256
  6
BYLAYER
 49
-0.5
 62
   256
  6
BYLAYER
  0
ACDBPLACEHOLDER
  5
F
102
{ACAD_REACTORS
330
E
102
}
330
E
  0
SCALE
  5
48
102
{ACAD_REACTORS
330
47
102
}
330
47
100
AcDbScale
 70
     0
300
1:1
140
1.0
141
1.0
290
     1
  0
SCALE
  5
49
102
{ACAD_REACTORS
330
47
102
}
330
47
100
AcDbScale
 70
     0
300
1:2
140
1.0
141
2.0
290
     0
  0
SCALE
  5
4A
102
{ACAD_REACTORS
330
47
102
}
330
47
100
AcDbScale
 70
     0
300
1:4
140
1.0
141
4.0
290
     0
  0
SCALE
  5
4B
102
{ACAD_REACTORS
330
47
102
}
330
47
100
AcDbScale
 70
     0
300
1:5
140
1.0
141
5.0
290
     0
  0
SCALE
  5
4C
102
{ACAD_REACTORS
330
47
102
}
330
47
100
AcDbScale
 70
     0
300
1:8
140
1.0
141
8.0
290
     0
  0
SCALE
  5
4D
102
{ACAD_REACTORS
330
47
102
}
330
47
100
AcDbScale
 70
     0
300
1:10
140
1.0
141
10.0
290
     0
  0
SCALE
  5
4E
102
{ACAD_REACTORS
330
47
102
}
330
47
100
AcDbScale
 70
     0
300
1:16
140
1.0
141
16.0
290
     0
  0
SCALE
  5
4F
102
{ACAD_REACTORS
330
47
102
}
330
47
100
AcDbScale
 70
     0
300
1:20
140
1.0
141
20.0
290
     0
  0
SCALE
  5
50
102
{ACAD_REACTORS
330
47
102
}
330
47
100
AcDbScale
 70
     0
300
1:30
140
1.0
141
30.0
290
     0
  0
SCALE
  5
51
102
{ACAD_REACTORS
330
47
102
}
330
47
100
AcDbScale
 70
     0
300
1:40
140
1.0
141
40.0
290
     0
  0
SCALE
  5
52
102
{ACAD_REACTORS
330
47
102
}
330
47
100
AcDbScale
 70
     0
300
1:50
140
1.0
141
50.0
290
     0
  0
SCALE
  5
53
102
{ACAD_REACTORS
330
47
102
}
330
47
100
AcDbScale
 70
     0
300
1:100
140
1.0
141
100.0
290
     0
  0
SCALE
  5
54
102
{ACAD_REACTORS
330
47
102
}
330
47
100
AcDbScale
 70
     0
300
2:1
140
2.0
141
1.0
290
     0
  0
SCALE
  5
55
102
{ACAD_REACTORS
330
47
102
}
330
47
100
AcDbScale
 70
     0
300
4:1
140
4.0
141
1.0
290
     0
  0
SCALE
  5
56
102
{ACAD_REACTORS
330
47
102
}
330
47
100
AcDbScale
 70
     0
300
8:1
140
8.0
141
1.0
290
     0
  0
SCALE
  5
57
102
{ACAD_REACTORS
330
47
102
}
330
47
100
AcDbScale
 70
     0
300
10:1
140
10.0
141
1.0
290
     0
  0
SCALE
  5
58
102
{ACAD_REACTORS
330
47
102
}
330
47
100
AcDbScale
 70
     0
300
100:1
140
100.0
141
1.0
290
     0
  0
SCALE
  5
59
102
{ACAD_REACTORS
330
47
102
}
330
47
100
AcDbScale
 70
     0
300
1/128" = 1'-0"
140
0.0078125
141
12.0
290
     0
  0
SCALE
  5
5A
102
{ACAD_REACTORS
330
47
102
}
330
47
100
AcDbScale
 70
     0
300
1/64" = 1'-0"
140
0.015625
141
12.0
290
     0
  0
SCALE
  5
5B
102
{ACAD_REACTORS
330
47
102
}
330
47
100
AcDbScale
 70
     0
300
1/32" = 1'-0"
140
0.03125
141
12.0
290
     0
  0
SCALE
  5
5C
102
{ACAD_REACTORS
330
47
102
}
330
47
100
AcDbScale
 70
     0
300
1/16" = 1'-0"
140
0.0625
141
12.0
290
     0
  0
SCALE
  5
5D
102
{ACAD_REACTORS
330
47
102
}
330
47
100
AcDbScale
 70
     0
300
3/32" = 1'-0"
140
0.09375
141
12.0
290
     0
  0
SCALE
  5
5E
102
{ACAD_REACTORS
330
47
102
}
330
47
100
AcDbScale
 70
     0
300
1/8" = 1'-0"
140
0.125
141
12.0
290
     0
  0
SCALE
  5
5F
102
{ACAD_REACTORS
330
47
102
}
330
47
100
AcDbScale
 70
     0
300
3/16" = 1'-0"
140
0.1875
141
12.0
290
     0
  0
SCALE
  5
60
102
{ACAD_REACTORS
330
47
102
}
330
47
100
AcDbScale
 70
     0
300
1/4" = 1'-0"
140
0.25
141
12.0
290
     0
  0
SCALE
  5
61
102
{ACAD_REACTORS
330
47
102
}
330
47
100
AcDbScale
 70
     0
300
3/8" = 1'-0"
140
0.375
141
12.0
290
     0
  0
SCALE
  5
62
102
{ACAD_REACTORS
330
47
102
}
330
47
100
AcDbScale
 70
     0
300
1/2" = 1'-0"
140
0.5
141
12.0
290
     0
  0
SCALE
  5
63
102
{ACAD_REACTORS
330
47
102
}
330
47
100
AcDbScale
 70
     0
300
3/4" = 1'-0"
140
0.75
141
12.0
290
     0
  0
SCALE
  5
64
102
{ACAD_REACTORS
330
47
102
}
330
47
100
AcDbScale
 70
     0
300
1" = 1'-0"
140
1.0
141
12.0
290
     0
  0
SCALE
  5
65
102
{ACAD_REACTORS
330
47
102
}
330
47
100
AcDbScale
 70
     0
300
1-1/2" = 1'-0"
140
1.5
141
12.0
290
     0
  0
SCALE
  5
66
102
{ACAD_REACTORS
330
47
102
}
330
47
100
AcDbScale
 70
     0
300
3" = 1'-0"
140
3.0
141
12.0
290
     0
  0
SCALE
  5
67
102
{ACAD_REACTORS
330
47
102
}
330
47
100
AcDbScale
 70
     0
300
6" = 1'-0"
140
6.0
141
12.0
290
     0
  0
SCALE
  5
68
102
{ACAD_REACTORS
330
47
102
}
330
47
100
AcDbScale
 70
     0
300
1'-0" = 1'-0"
140
12.0
141
12.0
290
     0
  0
ENDSEC
  0
EOF
