  0
SECTION
  2
HEADER
  9
$ACADVER
  1
AC1015
  9
$ACADMAINTVER
 70
     6
  9
$DWGCODEPAGE
  3
ANSI_1252
  9
$INSBASE
 10
0.0
 20
0.0
 30
0.0
  9
$EXTMIN
 10
0.0
 20
0.0
 30
0.0
  9
$EXTMAX
 10
1000.0
 20
700.0
 30
0.0
  9
$LIMMIN
 10
0.0
 20
0.0
  9
$LIMMAX
 10
1000.0
 20
700.0
  9
$ORTHOMODE
 70
     0
  9
$REGENMODE
 70
     1
  9
$FILLMODE
 70
     1
  9
$QTEXTMODE
 70
     0
  9
$MIRRTEXT
 70
     1
  9
$LTSCALE
 40
1.0
  9
$ATTMODE
 70
     1
  9
$TEXTSIZE
 40
5.0
  9
$TRACEWID
 40
1.0
  9
$TEXTSTYLE
  7
Standard
  9
$CLAYER
  8
0
  9
$CELTYPE
  6
ByLayer
  9
$CECOLOR
 62
   256
  9
$CELTSCALE
 40
1.0
  9
$DISPSILH
 70
     0
  9
$DIMSCALE
 40
1.0
  9
$DIMASZ
 40
6.0
  9
$DIMEXO
 40
1.0
  9
$DIMDLI
 40
3.75
  9
$DIMRND
 40
0.0
  9
$DIMDLE
 40
0.0
  9
$DIMEXE
 40
1.0
  9
$DIMTP
 40
0.0
  9
$DIMTM
 40
0.0
  9
$DIMTXT
 40
5.0
  9
$DIMCEN
 40
2.5
  9
$DIMTSZ
 40
0.0
  9
$DIMTOL
 70
     0
  9
$DIMLIM
 70
     0
  9
$DIMTIH
 70
     1
  9
$DIMTOH
 70
     1
  9
$DIMSE1
 70
     0
  9
$DIMSE2
 70
     0
  9
$DIMTAD
 70
     1
  9
$DIMZIN
 70
     0
  9
$DIMBLK
  1

  9
$DIMASO
 70
     1
  9
$DIMSHO
 70
     1
  9
$DIMPOST
  1

  9
$DIMAPOST
  1

  9
$DIMALT
 70
     0
  9
$DIMALTD
 70
     3
  9
$DIMALTF
 40
0.0393700787
  9
$DIMLFAC
 40
1.0
  9
$DIMTOFL
 70
     1
  9
$DIMTVP
 40
0.0
  9
$DIMTIX
 70
     0
  9
$DIMSOXD
 70
     0
  9
$DIMSAH
 70
     0
  9
$DIMBLK1
  1

  9
$DIMBLK2
  1

  9
$DIMSTYLE
  2
ISO-25
  9
$DIMCLRD
 70
     0
  9
$DIMCLRE
 70
     0
  9
$DIMCLRT
 70
     0
  9
$DIMTFAC
 40
1.0
  9
$DIMGAP
 40
1.524
  9
$DIMJUST
 70
     0
  9
$DIMSD1
 70
     0
  9
$DIMSD2
 70
     0
  9
$DIMTOLJ
 70
     0
  9
$DIMTZIN
 70
     0
  9
$DIMALTZ
 70
     0
  9
$DIMALTTZ
 70
     0
  9
$DIMUPT
 70
     0
  9
$DIMDEC
 70
     2
  9
$DIMTDEC
 70
     2
  9
$DIMALTU
 70
     2
  9
$DIMALTTD
 70
     3
  9
$DIMTXSTY
  7
Standard
  9
$DIMAUNIT
 70
     0
  9
$DIMADEC
 70
     2
  9
$DIMALTRND
 40
0.0
  9
$DIMAZIN
 70
     0
  9
$DIMDSEP
 70
    44
  9
$DIMATFIT
 70
     3
  9
$DIMFRAC
 70
     0
  9
$DIMLDRBLK
  1

  9
$DIMLUNIT
 70
     2
  9
$DIMLWD
 70
    -2
  9
$DIMLWE
 70
    -2
  9
$DIMTMOVE
 70
     0
  9
$LUNITS
 70
     2
  9
$LUPREC
 70
     2
  9
$SKETCHINC
 40
1.0
  9
$FILLETRAD
 40
10.0
  9
$AUNITS
 70
     0
  9
$AUPREC
 70
     2
  9
$MENU
  1
.
  9
$ELEVATION
 40
0.0
  9
$PELEVATION
 40
0.0
  9
$THICKNESS
 40
0.0
  9
$LIMCHECK
 70
     0
  9
$CHAMFERA
 40
0.0
  9
$CHAMFERB
 40
0.0
  9
$CHAMFERC
 40
0.0
  9
$CHAMFERD
 40
0.0
  9
$SKPOLY
 70
     0
  9
$TDCREATE
 40
2459346.321878877
  9
$TDUCREATE
 40
2459346.196878877
  9
$TDUPDATE
 40
2459346.321879769
  9
$TDUUPDATE
 40
2459346.196879769
  9
$TDINDWG
 40
0.0000000116
  9
$TDUSRTIMER
 40
0.0000000116
  9
$USRTIMER
 70
     1
  9
$ANGBASE
 50
0.0
  9
$ANGDIR
 70
     0
  9
$PDMODE
 70
     0
  9
$PDSIZE
 40
-1.0
  9
$PLINEWID
 40
0.0
  9
$SPLFRAME
 70
     0
  9
$SPLINETYPE
 70
     6
  9
$SPLINESEGS
 70
     8
  9
$HANDSEED
  5
F9
  9
$SURFTAB1
 70
     6
  9
$SURFTAB2
 70
     6
  9
$SURFTYPE
 70
     6
  9
$SURFU
 70
     6
  9
$SURFV
 70
     6
  9
$UCSBASE
  2

  9
$UCSNAME
  2

  9
$UCSORG
 10
0.0
 20
0.0
 30
0.0
  9
$UCSXDIR
 10
1.0
 20
0.0
 30
0.0
  9
$UCSYDIR
 10
0.0
 20
1.0
 30
0.0
  9
$UCSORTHOREF
  2

  9
$UCSORTHOVIEW
 70
     0
  9
$UCSORGTOP
 10
0.0
 20
0.0
 30
0.0
  9
$UCSORGBOTTOM
 10
0.0
 20
0.0
 30
0.0
  9
$UCSORGLEFT
 10
0.0
 20
0.0
 30
0.0
  9
$UCSORGRIGHT
 10
0.0
 20
0.0
 30
0.0
  9
$UCSORGFRONT
 10
0.0
 20
0.0
 30
0.0
  9
$UCSORGBACK
 10
0.0
 20
0.0
 30
0.0
  9
$PUCSBASE
  2

  9
$PUCSNAME
  2

  9
$PUCSORG
 10
0.0
 20
0.0
 30
0.0
  9
$PUCSXDIR
 10
1.0
 20
0.0
 30
0.0
  9
$PUCSYDIR
 10
0.0
 20
1.0
 30
0.0
  9
$PUCSORTHOREF
  2

  9
$PUCSORTHOVIEW
 70
     0
  9
$PUCSORGTOP
 10
0.0
 20
0.0
 30
0.0
  9
$PUCSORGBOTTOM
 10
0.0
 20
0.0
 30
0.0
  9
$PUCSORGLEFT
 10
0.0
 20
0.0
 30
0.0
  9
$PUCSORGRIGHT
 10
0.0
 20
0.0
 30
0.0
  9
$PUCSORGFRONT
 10
0.0
 20
0.0
 30
0.0
  9
$PUCSORGBACK
 10
0.0
 20
0.0
 30
0.0
  9
$USERI1
 70
     0
  9
$USERI2
 70
     0
  9
$USERI3
 70
     0
  9
$USERI4
 70
     0
  9
$USERI5
 70
     0
  9
$USERR1
 40
0.0
  9
$USERR2
 40
0.0
  9
$USERR3
 40
0.0
  9
$USERR4
 40
0.0
  9
$USERR5
 40
0.0
  9
$WORLDVIEW
 70
     1
  9
$SHADEDGE
 70
     3
  9
$SHADEDIF
 70
    70
  9
$TILEMODE
 70
     1
  9
$MAXACTVP
 70
    64
  9
$PINSBASE
 10
0.0
 20
0.0
 30
0.0
  9
$PLIMCHECK
 70
     0
  9
$PEXTMIN
 10
1.0000000000E+20
 20
1.0000000000E+20
 30
1.0000000000E+20
  9
$PEXTMAX
 10
-1.0000000000E+20
 20
-1.0000000000E+20
 30
-1.0000000000E+20
  9
$PLIMMIN
 10
0.0
 20
0.0
  9
$PLIMMAX
 10
420.0
 20
297.0
  9
$UNITMODE
 70
     0
  9
$VISRETAIN
 70
     1
  9
$PLINEGEN
 70
     0
  9
$PSLTSCALE
 70
     1
  9
$TREEDEPTH
 70
  3020
  9
$CMLSTYLE
  2
Standard
  9
$CMLJUST
 70
     0
  9
$CMLSCALE
 40
20.0
  9
$PROXYGRAPHICS
 70
     1
  9
$MEASUREMENT
 70
     1
  9
$CELWEIGHT
370
    -1
  9
$ENDCAPS
280
     0
  9
$JOINSTYLE
280
     0
  9
$LWDISPLAY
290
     1
  9
$INSUNITS
 70
     4
  9
$HYPERLINKBASE
  1

  9
$STYLESHEET
  1

  9
$XEDIT
290
     1
  9
$CEPSNTYPE
380
     0
  9
$PSTYLEMODE
290
     1
  9
$FINGERPRINTGUID
  2
{10fa4351-9552-4ec2-9782-a96d64b17725}
  9
$VERSIONGUID
  2
{FAEB1C32-E019-11D5-929B-00C0DF256EC4}
  9
$EXTNAMES
290
     1
  9
$PSVPSCALE
 40
0.0
  9
$OLESTARTUP
290
     0
  0
ENDSEC
  0
SECTION
  2
CLASSES
  0
CLASS
  1
ACDBDICTIONARYWDFLT
  2
AcDbDictionaryWithDefault
  3
ObjectDBX Classes
 90
        0
280
     0
281
     0
  0
CLASS
  1
VISUALSTYLE
  2
AcDbVisualStyle
  3
ObjectDBX Classes
 90
     4095
280
     0
281
     0
  0
CLASS
  1
MATERIAL
  2
AcDbMaterial
  3
ObjectDBX Classes
 90
     1153
280
     0
281
     0
  0
CLASS
  1
SCALE
  2
AcDbScale
  3
ObjectDBX Classes
 90
     1153
280
     0
281
     0
  0
CLASS
  1
TABLESTYLE
  2
AcDbTableStyle
  3
ObjectDBX Classes
 90
     4095
280
     0
281
     0
  0
CLASS
  1
MLEADERSTYLE
  2
AcDbMLeaderStyle
  3
ACDB_MLEADERSTYLE_CLASS
 90
     4095
280
     0
281
     0
  0
CLASS
  1
SUN
  2
AcDbSun
  3
SCENEOE
 90
     1153
280
     0
281
     0
  0
CLASS
  1
ACDBPLACEHOLDER
  2
AcDbPlaceHolder
  3
ObjectDBX Classes
 90
        0
280
     0
281
     0
  0
CLASS
  1
LAYOUT
  2
AcDbLayout
  3
ObjectDBX Classes
 90
        0
280
     0
281
     0
  0
ENDSEC
  0
SECTION
  2
TABLES
  0
TABLE
  2
VPORT
  5
8
330
0
100
AcDbSymbolTable
 70
     1
  0
VPORT
  5
29
330
8
100
AcDbSymbolTableRecord
100
AcDbViewportTableRecord
  2
*Active
 70
     0
 10
0.0
 20
0.0
 11
1.0
 21
1.0
 12
500.0
 22
350.0
 13
0.0
 23
0.0
 14
10.0
 24
10.0
 15
10.0
 25
10.0
 16
0.0
 26
0.0
 36
1.0
 17
0.0
 27
0.0
 37
0.0
 40
700.0
 41
1.4285714286
 42
50.0
 43
0.0
 44
0.0
 50
0.0
 51
0.0
 71
     0
 72
  2000
 73
     1
 74
     3
 75
     0
 76
     0
 77
     0
 78
     0
281
     0
 65
     1
110
0.0
120
0.0
130
0.0
111
1.0
121
0.0
131
0.0
112
0.0
122
1.0
132
0.0
 79
     0
146
0.0
  0
ENDTAB
  0
TABLE
  2
LTYPE
  5
5
330
0
100
AcDbSymbolTable
 70
     6
  0
LTYPE
  5
14
330
5
100
AcDbSymbolTableRecord
100
AcDbLinetypeTableRecord
  2
ByBlock
 70
     0
  3

 72
    65
 73
     0
 40
0.0
  0
LTYPE
  5
15
330
5
100
AcDbSymbolTableRecord
100
AcDbLinetypeTableRecord
  2
ByLayer
 70
     0
  3

 72
    65
 73
     0
 40
0.0
  0
LTYPE
  5
16
330
5
100
AcDbSymbolTableRecord
100
AcDbLinetypeTableRecord
  2
Continuous
 70
     0
  3
Solid line
 72
    65
 73
     0
 40
0.0
  0
LTYPE
  5
6E
330
5
100
AcDbSymbolTableRecord
100
AcDbLinetypeTableRecord
  2
HIDDEN
 70
     0
  3
Hidden __ __ __ __ __ __ __ __ __ __ __ __ __ __
 72
    65
 73
     2
 40
1.905
 49
1.27
 74
     0
 49
-0.635
 74
     0
  0
LTYPE
  5
6F
330
5
100
AcDbSymbolTableRecord
100
AcDbLinetypeTableRecord
  2
PHANTOM
 70
     0
  3
Phantom ______  __  __  ______  __  __  ______
 72
    65
 73
     6
 40
12.7
 49
6.35
 74
     0
 49
-1.27
 74
     0
 49
1.27
 74
     0
 49
-1.27
 74
     0
 49
1.27
 74
     0
 49
-1.27
 74
     0
  0
LTYPE
  5
70
330
5
100
AcDbSymbolTableRecord
100
AcDbLinetypeTableRecord
  2
CENTER
 70
     0
  3
Center ____ _ ____ _ ____ _ ____ _ ____ _ ____
 72
    65
 73
     4
 40
10.16
 49
6.35
 74
     0
 49
-1.27
 74
     0
 49
1.27
 74
     0
 49
-1.27
 74
     0
  0
LTYPE
  5
71
330
5
100
AcDbSymbolTableRecord
100
AcDbLinetypeTableRecord
  2
CENTERX2
 70
     0
  3
Center (2x) ________  __  ________  __  _____
 72
    65
 73
     4
 40
20.32
 49
12.7
 74
     0
 49
-2.54
 74
     0
 49
2.54
 74
     0
 49
-2.54
 74
     0
  0
LTYPE
  5
72
330
5
100
AcDbSymbolTableRecord
100
AcDbLinetypeTableRecord
  2
DOT2
 70
     0
  3
Dot (.5x) ........................................
 72
    65
 73
     2
 40
0.635
 49
0.0
 74
     0
 49
-0.635
 74
     0
  0
ENDTAB
  0
TABLE
  2
LAYER
  5
2
330
0
100
AcDbSymbolTable
 70
     2
  0
LAYER
  5
10
330
2
100
AcDbSymbolTableRecord
100
AcDbLayerTableRecord
  2
0
 70
     0
 62
     7
  6
Continuous
370
    -3
390
F
  0
LAYER
  5
73
330
2
100
AcDbSymbolTableRecord
100
AcDbLayerTableRecord
  2
TABLE_BL1
 70
     0
 62
   179
  6
Continuous
370
    -3
390
F
  0
ENDTAB
  0
TABLE
  2
STYLE
  5
3
330
0
100
AcDbSymbolTable
 70
     1
  0
STYLE
  5
11
330
3
100
AcDbSymbolTableRecord
100
AcDbTextStyleTableRecord
  2
Standard
 70
     0
 40
0.0
 41
1.0
 50
0.0
 71
     0
 42
5.0
  3
txt
  4

  0
ENDTAB
  0
TABLE
  2
VIEW
  5
6
330
0
100
AcDbSymbolTable
 70
     0
  0
ENDTAB
  0
TABLE
  2
UCS
  5
7
330
0
100
AcDbSymbolTable
 70
     0
  0
ENDTAB
  0
TABLE
  2
APPID
  5
9
330
0
100
AcDbSymbolTable
 70
     1
  0
APPID
  5
12
330
9
100
AcDbSymbolTableRecord
100
AcDbRegAppTableRecord
  2
ACAD
 70
     0
  0
ENDTAB
  0
TABLE
  2
DIMSTYLE
  5
A
330
0
100
AcDbSymbolTable
 70
     1
100
AcDbDimStyleTable
  0
DIMSTYLE
105
27
330
A
100
AcDbSymbolTableRecord
100
AcDbDimStyleTableRecord
  2
ISO-25
 70
     0
 41
2.5
 42
0.625
 43
3.75
 44
1.25
 73
     0
 74
     0
 77
     1
 78
     8
140
2.5
141
2.5
143
0.0393700787
147
0.625
171
     3
172
     1
178
     0
271
     2
272
     2
274
     3
278
    44
283
     0
284
     8
340
11
  0
ENDTAB
  0
TABLE
  2
BLOCK_RECORD
  5
1
330
0
100
AcDbSymbolTable
 70
     1
  0
BLOCK_RECORD
  5
1F
330
1
100
AcDbSymbolTableRecord
100
AcDbBlockTableRecord
  2
*Model_Space
340
22
  0
BLOCK_RECORD
  5
1B
330
1
100
AcDbSymbolTableRecord
100
AcDbBlockTableRecord
  2
*Paper_Space
340
1E
  0
BLOCK_RECORD
  5
23
330
1
100
AcDbSymbolTableRecord
100
AcDbBlockTableRecord
  2
*Paper_Space0
340
26
  0
ENDTAB
  0
ENDSEC
  0
SECTION
  2
BLOCKS
  0
BLOCK
  5
20
330
1F
100
AcDbEntity
  8
0
100
AcDbBlockBegin
  2
*Model_Space
 70
     0
 10
0.0
 20
0.0
 30
0.0
  3
*Model_Space
  1

  0
ENDBLK
  5
21
330
1F
100
AcDbEntity
  8
0
100
AcDbBlockEnd
  0
BLOCK
  5
1C
330
1B
100
AcDbEntity
 67
     1
  8
0
100
AcDbBlockBegin
  2
*Paper_Space
 70
     0
 10
0.0
 20
0.0
 30
0.0
  3
*Paper_Space
  1

  0
ENDBLK
  5
1D
330
1B
100
AcDbEntity
 67
     1
  8
0
100
AcDbBlockEnd
  0
BLOCK
  5
24
330
23
100
AcDbEntity
  8
0
100
AcDbBlockBegin
  2
*Paper_Space0
 70
     0
 10
0.0
 20
0.0
 30
0.0
  3
*Paper_Space0
  1

  0
ENDBLK
  5
25
330
23
100
AcDbEntity
  8
0
100
AcDbBlockEnd
  0
ENDSEC
  0
SECTION
  2
ENTITIES
  0
SPLINE
  5
74
330
1F
100
AcDbEntity
  8
0
  6
Continuous
 62
     7
370
    25
100
AcDbSpline
210
0.0
220
0.0
230
1.0
 70
     8
 71
     3
 72
    29
 73
    25
 74
     0
 42
0.000000001
 43
0.00000001
 40
0.0
 40
0.0
 40
0.0
 40
0.0
 40
0.0349325111164201
 40
0.0633982479152014
 40
0.0838986060818299
 40
0.1410483482149173
 40
0.199392883558457
 40
0.2579538894039337
 40
0.3167361485030689
 40
0.3756687571571112
 40
0.43471124342013
 40
0.49383681888338
 40
0.5530116482119737
 40
0.6120984695993714
 40
0.6710428877584133
 40
0.7298261248971621
 40
0.7884257155169205
 40
0.8467957060020292
 40
0.8655671096118497
 40
0.8834825125140331
 40
0.9012872166184538
 40
0.9267778949685094
 40
0.960493412653056
 40
1.0
 40
1.0
 40
1.0
 40
1.0
 10
449.9904090912498
 20
437.94542776578
 30
0.0
 10
449.4573561166641
 20
436.6916006543133
 30
0.0
 10
448.4899299696548
 20
434.4160573419348
 30
0.0
 10
447.6061284325805
 20
431.2610721117698
 30
0.0
 10
446.77202414465
 20
427.2107043460703
 30
0.0
 10
446.3477107003569
 20
421.8962287384035
 30
0.0
 10
447.0377666133071
 20
415.1129374598851
 30
0.0
 10
448.974127542806
 20
408.5064668238356
 30
0.0
 10
452.0991506671905
 20
402.346587034813
 30
0.0
 10
456.3153543904288
 20
396.8512159849862
 30
0.0
 10
461.482259503669
 20
392.2179969909603
 30
0.0
 10
467.4238898035551
 20
388.6132592357964
 30
0.0
 10
473.9310432545909
 20
386.1680131353602
 30
0.0
 10
480.770844769457
 20
384.9683378484798
 30
0.0
 10
487.6989530036459
 20
385.0501586946743
 30
0.0
 10
494.4751942176703
 20
386.4013477857291
 30
0.0
 10
500.8664697851748
 20
388.9627063897186
 30
0.0
 10
505.361136597325
 20
391.8128148382181
 30
0.0
 10
508.2275568324658
 20
394.1603281027458
 30
0.0
 10
509.7908408443545
 20
395.5986708550777
 30
0.0
 10
511.4542976408694
 20
397.3096568295498
 30
0.0
 10
513.3922113387758
 20
399.6030608751718
 30
0.0
 10
515.6235459805531
 20
402.7502533455076
 30
0.0
 10
516.9136011729032
 20
405.2990106237702
 30
0.0
 10
517.6096434147514
 20
406.6741787099176
 30
0.0
  0
SPLINE
  5
75
330
1F
100
AcDbEntity
  8
0
  6
Continuous
 62
     7
370
    25
100
AcDbSpline
210
0.0
220
0.0
230
1.0
 70
     8
 71
     3
 72
    29
 73
    25
 74
     0
 42
0.000000001
 43
0.00000001
 40
0.0
 40
0.0
 40
0.0
 40
0.0
 40
0.0349321954287971
 40
0.0633980149681464
 40
0.0838985808216907
 40
0.1410480940380721
 40
0.1993928829778964
 40
0.2579539863929739
 40
0.3167359287141958
 40
0.3756685633881489
 40
0.4347112459373176
 40
0.4938370654905516
 40
0.553011920946001
 40
0.6120984732416084
 40
0.6710429174257749
 40
0.729826480414999
 40
0.7884260020467477
 40
0.8467961548168301
 40
0.8655670463746584
 40
0.8834826298097408
 40
0.9012875194511297
 40
0.9267780145523181
 40
0.9604939650462078
 40
1.0
 40
1.0
 40
1.0
 40
1.0
 10
517.6096434147514
 20
406.6741787099176
 30
0.0
 10
518.1426782375067
 20
407.9279982974288
 30
0.0
 10
519.1100766290695
 20
410.2035401579
 30
0.0
 10
519.99394762585
 20
413.3585041328315
 30
0.0
 10
520.8279555136144
 20
417.4088938123306
 30
0.0
 10
521.2523133645938
 20
422.7233610823811
 30
0.0
 10
520.5623059820848
 20
429.5066688729621
 30
0.0
 10
518.6258840911784
 20
436.1131182898025
 30
0.0
 10
515.5009036075716
 20
442.2730058765488
 30
0.0
 10
511.2846854224023
 20
447.7683573450505
 30
0.0
 10
506.1178008758932
 20
452.4016228865606
 30
0.0
 10
500.1761357905663
 20
456.0063345906013
 30
0.0
 10
493.668992959643
 20
458.4516013723214
 30
0.0
 10
486.8291953887566
 20
459.651227000504
 30
0.0
 10
479.9010845032518
 20
459.5694318749157
 30
0.0
 10
473.1248527091104
 20
458.2181796361577
 30
0.0
 10
466.7335247405773
 20
455.6568995114069
 30
0.0
 10
462.2389361122125
 20
452.8067112005642
 30
0.0
 10
459.3724632332753
 20
450.459274553122
 30
0.0
 10
457.8092224529558
 20
449.020893894608
 30
0.0
 10
456.1457285988144
 20
447.3099377487449
 30
0.0
 10
454.2077862003367
 20
445.0165338725914
 30
0.0
 10
451.976510200199
 20
441.8693171054202
 30
0.0
 10
450.6864470377379
 20
439.3205721961936
 30
0.0
 10
449.9904090912499
 20
437.9454277657802
 30
0.0
  0
ARC
  5
76
330
1F
100
AcDbEntity
  8
0
  6
Continuous
 62
     7
370
    25
100
AcDbCircle
 10
483.8000178272
 20
422.3097904011
 30
0.0
 40
36.31056399417611
100
AcDbArc
 50
155.1813223123
 51
335.1813223292
  0
ARC
  5
77
330
1F
100
AcDbEntity
  8
0
  6
Continuous
 62
     7
370
    25
100
AcDbCircle
 10
483.8000178272
 20
422.3097904011
 30
0.0
 40
36.31056399417611
100
AcDbArc
 50
335.1813223292
 51
155.1813223123
  0
SPLINE
  5
78
330
1F
100
AcDbEntity
  8
0
  6
Continuous
 62
     7
370
    25
100
AcDbSpline
210
0.0
220
0.0
230
1.0
 70
     8
 71
     3
 72
     9
 73
     5
 74
     0
 42
0.000000001
 43
0.00000001
 40
0.0
 40
0.0
 40
0.0
 40
0.0
 40
0.5599932464279748
 40
1.0
 40
1.0
 40
1.0
 40
1.0
 10
453.3159310372032
 20
399.1250120305353
 30
0.0
 10
453.161067446067
 20
399.0072359210704
 30
0.0
 10
452.8845219839137
 20
398.7969189034705
 30
0.0
 10
452.5202665814186
 20
398.5198616404294
 30
0.0
 10
452.3599917442955
 20
398.3979545735651
 30
0.0
  0
SPLINE
  5
79
330
1F
100
AcDbEntity
  8
0
  6
Continuous
 62
     7
370
    25
100
AcDbSpline
210
0.0
220
0.0
230
1.0
 70
     8
 71
     3
 72
     9
 73
     5
 74
     0
 42
0.000000001
 43
0.00000001
 40
0.0
 40
0.0
 40
0.0
 40
0.0
 40
0.5600016510029904
 40
0.9999999999999999
 40
0.9999999999999999
 40
0.9999999999999999
 40
0.9999999999999999
 10
515.2400309593834
 20
446.2215922974878
 30
0.0
 10
515.0351501207178
 20
446.0657719421151
 30
0.0
 10
514.6692925588719
 20
445.7875221278622
 30
0.0
 10
514.4017916324545
 20
445.5840998927577
 30
0.0
 10
514.2840916664757
 20
445.4945944451624
 30
0.0
  0
ARC
  5
7A
330
1F
100
AcDbEntity
  8
0
  6
Continuous
 62
     7
370
    25
100
AcDbCircle
 10
483.8000178272
 20
422.3097904011
 30
0.0
 40
38.29899805700001
100
AcDbArc
 50
37.2549368278
 51
217.2549368278
  0
ARC
  5
7B
330
1F
100
AcDbEntity
  8
0
  6
Continuous
 62
     7
370
    25
100
AcDbCircle
 10
483.8000178272
 20
422.3097904011
 30
0.0
 40
39.50000000000001
100
AcDbArc
 50
37.2549368278
 51
217.2549368513
  0
ARC
  5
7C
330
1F
100
AcDbEntity
  8
0
  6
Continuous
 62
     7
370
    25
100
AcDbCircle
 10
483.8000178272
 20
422.3097904011
 30
0.0
 40
38.29899805700001
100
AcDbArc
 50
217.2549368278
 51
37.2549368278
  0
ARC
  5
7D
330
1F
100
AcDbEntity
  8
0
  6
Continuous
 62
     7
370
    25
100
AcDbCircle
 10
483.8000178272
 20
422.3097904011
 30
0.0
 40
39.50000000000002
100
AcDbArc
 50
217.2549368513
 51
37.2549368176
  0
CIRCLE
  5
7E
330
1F
100
AcDbEntity
  8
0
  6
Continuous
 62
     7
370
    25
100
AcDbCircle
 10
483.8000178272
 20
422.3097904011
 30
0.0
 40
57.0
  0
SPLINE
  5
7F
330
1F
100
AcDbEntity
  8
0
  6
Continuous
 62
     7
370
    25
100
AcDbSpline
210
0.0
220
0.0
230
1.0
 70
     8
 71
     3
 72
    35
 73
    31
 74
     0
 42
0.000000001
 43
0.00000001
 40
0.0
 40
0.0
 40
0.0
 40
0.0
 40
0.0282545518543861
 40
0.058383352485357
 40
0.0903496153796264
 40
0.1258614744267671
 40
0.1640103412346737
 40
0.2048405809704628
 40
0.2374622109013097
 40
0.2716124359474036
 40
0.3071914257745417
 40
0.344054958613361
 40
0.3820149939401029
 40
0.4208412124494115
 40
0.4602670525286099
 40
0.4999998115007627
 40
0.5397324947779919
 40
0.5791585225384649
 40
0.6179848110191718
 40
0.6559449204322796
 40
0.6928083276995382
 40
0.7283872334289698
 40
0.7625374611423421
 40
0.7951593383849204
 40
0.8359927770515606
 40
0.874141568427279
 40
0.909650262278992
 40
0.9416198954805356
 40
0.9717466974462574
 40
1.0
 40
1.0
 40
1.0
 40
1.0
 10
527.8078789265312
 20
417.6641725205713
 30
0.0
 10
527.9118027312046
 20
418.9695283531981
 30
0.0
 10
528.1265440638982
 20
421.6668300158765
 30
0.0
 10
527.9757563693039
 20
425.858017149057
 30
0.0
 10
527.4019629322453
 20
430.3483081011865
 30
0.0
 10
526.2615196448446
 20
435.1169459413396
 30
0.0
 10
524.4390006518802
 20
440.1097278951394
 30
0.0
 10
522.0718334402491
 20
444.7215543760533
 30
0.0
 10
519.296242093982
 20
448.8706887808584
 30
0.0
 10
516.2566880771803
 20
452.5204589066959
 30
0.0
 10
512.6941795693181
 20
455.9531457989902
 30
0.0
 10
508.6238093000583
 20
459.0670308032954
 30
0.0
 10
504.0861096044877
 20
461.759336000508
 30
0.0
 10
499.1480524584086
 20
463.9343720918206
 30
0.0
 10
493.9012684595406
 20
465.5111060263339
 30
0.0
 10
488.4577459530051
 20
466.432131185486
 30
0.0
 10
482.9418884633296
 20
466.6680711988412
 30
0.0
 10
477.4815215708217
 20
466.2215796710108
 30
0.0
 10
472.1981562050681
 20
465.1255140793623
 30
0.0
 10
467.1982996790509
 20
463.4400791339074
 30
0.0
 10
462.5674993551017
 20
461.2446724635079
 30
0.0
 10
458.3667357791981
 20
458.6315757586052
 30
0.0
 10
454.6321023934924
 20
455.6968977461855
 30
0.0
 10
451.0512633601924
 20
452.2186227133369
 30
0.0
 10
447.7732345716447
 20
448.2025795994072
 30
0.0
 10
444.9484618394423
 20
443.7003491127252
 30
0.0
 10
442.8374536059962
 20
439.2749462690182
 30
0.0
 10
441.3387942005034
 20
435.0034996711659
 30
0.0
 10
440.3162633853001
 20
430.9361617989849
 30
0.0
 10
439.9630721795244
 20
428.2536279439523
 30
0.0
 10
439.7921437771477
 20
426.955404152804
 30
0.0
  0
SPLINE
  5
80
330
1F
100
AcDbEntity
  8
0
  6
Continuous
 62
     7
370
    25
100
AcDbSpline
210
0.0
220
0.0
230
1.0
 70
     8
 71
     3
 72
    35
 73
    31
 74
     0
 42
0.000000001
 43
0.00000001
 40
0.0
 40
0.0
 40
0.0
 40
0.0
 40
0.0282545415504142
 40
0.0583833450965943
 40
0.0903493708909102
 40
0.1258614918105777
 40
0.1640102887412438
 40
0.2048403416070278
 40
0.237462331247377
 40
0.2716126968593043
 40
0.3071912380296863
 40
0.3440547744353554
 40
0.3820149228806049
 40
0.4208412549818368
 40
0.4602672223402347
 40
0.4999999493778918
 40
0.5397326364995848
 40
0.5791584717851054
 40
0.6179846768942103
 40
0.6559449270151991
 40
0.692808531659123
 40
0.7283871454156203
 40
0.762537376433308
 40
0.7951594062796623
 40
0.8359928183521049
 40
0.8741414317459973
 40
0.90965032265446
 40
0.9416196853722965
 40
0.9717469068049837
 40
1.0
 40
1.0
 40
1.0
 40
1.0
 10
439.7921437771477
 20
426.955404152804
 30
0.0
 10
439.6882317184287
 20
425.6500480378521
 30
0.0
 10
439.4735146056749
 20
422.9527451494932
 30
0.0
 10
439.6243037068568
 20
418.7615725188798
 30
0.0
 10
440.198044664828
 20
414.2712715652984
 30
0.0
 10
441.3385508879948
 20
409.5026523689323
 30
0.0
 10
443.1609976698792
 20
404.509844291813
 30
0.0
 10
445.5282229759329
 20
399.898042812584
 30
0.0
 10
448.3037576288091
 20
395.7488546978309
 30
0.0
 10
451.3433511178535
 20
392.0991110703409
 30
0.0
 10
454.9058606247752
 20
388.6664480092804
 30
0.0
 10
458.9762233273587
 20
385.5525844057115
 30
0.0
 10
463.5139009676017
 20
382.8602136082069
 30
0.0
 10
468.4520140744801
 20
380.6852723479564
 30
0.0
 10
473.6987672080901
 20
379.1084059998041
 30
0.0
 10
479.1423114186664
 20
378.1874677609481
 30
0.0
 10
484.6581566135184
 20
377.9514817798873
 30
0.0
 10
490.1184990052595
 20
378.3980676639277
 30
0.0
 10
495.401888243309
 20
379.4939905643084
 30
0.0
 10
500.4017162868797
 20
381.1795568711315
 30
0.0
 10
505.0325357587993
 20
383.374915257683
 30
0.0
 10
509.2332966592303
 20
385.9880108215782
 30
0.0
 10
512.9679329502237
 20
388.9226760830151
 30
0.0
 10
516.5487387858601
 20
392.4009915436943
 30
0.0
 10
519.8268208652181
 20
396.4169840048631
 30
0.0
 10
522.6516031778389
 20
400.9192113575847
 30
0.0
 10
524.7625920268432
 20
405.3446101465139
 30
0.0
 10
526.2612385919982
 20
409.6160780180591
 30
0.0
 10
527.2837495254028
 20
413.6834169762179
 30
0.0
 10
527.6369485985147
 20
416.3659590460264
 30
0.0
 10
527.8078789265312
 20
417.6641725205713
 30
0.0
  0
ARC
  5
81
330
1F
100
AcDbEntity
  8
0
  6
Continuous
 62
     7
370
    25
100
AcDbCircle
 10
483.8000178272
 20
422.3097904011
 30
0.0
 40
40.35476230894871
100
AcDbArc
 50
173.973964907
 51
353.973964907
  0
ARC
  5
82
330
1F
100
AcDbEntity
  8
0
  6
Continuous
 62
     7
370
    25
100
AcDbCircle
 10
483.8000178272
 20
422.3097904011
 30
0.0
 40
40.35476230894871
100
AcDbArc
 50
353.973964907
 51
173.973964907
  0
CIRCLE
  5
83
330
1F
100
AcDbEntity
  8
0
  6
Continuous
 62
     7
370
    25
100
AcDbCircle
 10
483.8000178272
 20
422.3097904011
 30
0.0
 40
39.93812333100002
  0
SPLINE
  5
84
330
1F
100
AcDbEntity
  8
0
  6
Continuous
 62
     7
370
    25
100
AcDbSpline
210
0.0
220
0.0
230
1.0
 70
     8
 71
     3
 72
    10
 73
     6
 74
     0
 42
0.000000001
 43
0.00000001
 40
0.0
 40
0.0
 40
0.0
 40
0.0
 40
0.284270641855855
 40
0.713220015392148
 40
1.0
 40
1.0
 40
1.0
 40
1.0
 10
217.0825029165901
 20
559.0273164414698
 30
0.0
 10
216.6181625573097
 20
558.4953377574149
 30
0.0
 10
215.4531571384204
 20
557.160631356666
 30
0.0
 10
214.470068802548
 20
554.7944143638853
 30
0.0
 10
214.3486620551355
 20
553.0205636890782
 30
0.0
 10
214.3000165374435
 20
552.3098133706385
 30
0.0
  0
LINE
  5
85
330
1F
100
AcDbEntity
  8
0
  6
Continuous
 62
     7
370
    25
100
AcDbLine
 10
214.3000165374
 20
552.3098133706
 30
0.0
 11
213.8000155242
 21
552.3098133706
 31
0.0
  0
SPLINE
  5
86
330
1F
100
AcDbEntity
  8
0
  6
Continuous
 62
     7
370
    25
100
AcDbSpline
210
0.0
220
0.0
230
1.0
 70
     8
 71
     3
 72
    12
 73
     8
 74
     0
 42
0.000000001
 43
0.00000001
 40
0.0
 40
0.0
 40
0.0
 40
0.0
 40
0.0000076106975279
 40
0.2866570631424392
 40
0.7154602680438278
 40
0.9053853121613082
 40
1.0
 40
1.0
 40
1.0
 40
1.0
 10
213.8000155241646
 20
552.3098133706385
 30
0.0
 10
213.8000155241449
 20
552.3098332388529
 30
0.0
 10
213.8000147831333
 20
553.0581699018651
 30
0.0
 10
214.0089429729163
 20
554.9309908469844
 30
0.0
 10
214.9400241781078
 20
557.1571063249012
 30
0.0
 10
216.0445702910649
 20
558.6650903263928
 30
0.0
 10
216.5581693827731
 20
559.2022245824102
 30
0.0
 10
216.7289505155243
 20
559.3808315896326
 30
0.0
  0
LWPOLYLINE
  5
87
330
1F
100
AcDbEntity
  8
0
  6
Continuous
 62
     7
370
    25
100
AcDbPolyline
 90
        9
 70
   128
 43
0.0
 10
217.0825029166
 20
559.0273164415
 10
217.0135254414
 20
559.0962790155
 10
216.9472078235
 20
559.1626189851
 10
216.8860832603
 20
559.223713746
 10
216.8325061352
 20
559.2772983217
 10
216.7885328086
 20
559.3212865495
 10
216.7558620126
 20
559.3539498948
 10
216.735745445
 20
559.3740366601
 10
216.7289505155
 20
559.3808315896
  0
LWPOLYLINE
  5
88
330
1F
100
AcDbEntity
  8
0
  6
Continuous
 62
     7
370
    25
100
AcDbPolyline
 90
        9
 70
   128
 43
0.0
 10
750.8711094411
 20
125.2387188577
 10
750.8643145116
 20
125.2455137872
 10
750.8441681416
 20
125.2656303548
 10
750.8115047963
 20
125.2983086013
 10
750.7675165684
 20
125.342281928
 10
750.7139319928
 20
125.3958516025
 10
750.6528372319
 20
125.4569761657
 10
750.5864972623
 20
125.5233012342
 10
750.5175346882
 20
125.5922787093
  0
SPLINE
  5
89
330
1F
100
AcDbEntity
  8
0
  6
Continuous
 62
     7
370
    25
100
AcDbSpline
210
0.0
220
0.0
230
1.0
 70
     8
 71
     3
 72
    10
 73
     6
 74
     0
 42
0.000000001
 43
0.00000001
 40
0.0
 40
0.0
 40
0.0
 40
0.0
 40
0.2842677975947043
 40
0.7132175676773981
 40
0.9999999999999999
 40
0.9999999999999999
 40
0.9999999999999999
 40
0.9999999999999999
 10
750.51753468825
 20
125.5922787093454
 30
0.0
 10
750.9818809194273
 20
126.1242462760438
 30
0.0
 10
752.1469087289878
 20
127.4589335575937
 30
0.0
 10
753.1299993236122
 20
129.8251697001423
 30
0.0
 10
753.251368164584
 20
131.5990366142043
 30
0.0
 10
753.2999987156547
 20
132.3097966813379
 30
0.0
  0
LINE
  5
8A
330
1F
100
AcDbEntity
  8
0
  6
Continuous
 62
     7
370
    25
100
AcDbLine
 10
753.8000220807
 20
132.3097966813
 30
0.0
 11
753.2999987157
 21
132.3097966813
 31
0.0
  0
SPLINE
  5
8B
330
1F
100
AcDbEntity
  8
0
  6
Continuous
 62
     7
370
    25
100
AcDbSpline
210
0.0
220
0.0
230
1.0
 70
     8
 71
     3
 72
    12
 73
     8
 74
     0
 42
0.000000001
 43
0.00000001
 40
0.0
 40
0.0
 40
0.0
 40
0.0
 40
0.0000076106602518
 40
0.2866616514191977
 40
0.7154605665618265
 40
0.905384282080108
 40
1.0
 40
1.0
 40
1.0
 40
1.0
 10
753.8000220806755
 20
132.3097966813379
 30
0.0
 10
753.8000220806953
 20
132.3097768131234
 30
0.0
 10
753.8000228215085
 20
131.5614245051189
 30
0.0
 10
753.5910482179058
 20
129.6886065109931
 30
0.0
 10
752.6600680784428
 20
127.4624304566416
 30
0.0
 10
751.5554556313901
 20
125.9545001831254
 30
0.0
 10
751.0418836106081
 20
125.4173374620784
 30
0.0
 10
750.8711094410576
 20
125.238718857699
 30
0.0
  0
SPLINE
  5
8C
330
1F
100
AcDbEntity
  8
0
  6
Continuous
 62
     7
370
    25
100
AcDbSpline
210
0.0
220
0.0
230
1.0
 70
     8
 71
     3
 72
    10
 73
     6
 74
     0
 42
0.000000001
 43
0.00000001
 40
0.0
 40
0.0
 40
0.0
 40
0.0
 40
0.2842637116986603
 40
0.713217220310198
 40
0.9999999999999999
 40
0.9999999999999999
 40
0.9999999999999999
 40
0.9999999999999999
 10
743.8000316174187
 20
122.8097848796182
 30
0.0
 10
744.5045194552245
 20
122.8576071400517
 30
0.0
 10
746.2720783688111
 20
122.9775931187455
 30
0.0
 10
748.6403977153111
 20
123.9556214855232
 30
0.0
 10
749.9805568130693
 20
125.1240929929504
 30
0.0
 10
750.51753468825
 20
125.5922787093454
 30
0.0
  0
LINE
  5
8D
330
1F
100
AcDbEntity
  8
0
  6
Continuous
 62
     7
370
    25
100
AcDbLine
 10
743.8000316174
 20
122.8097848796
 30
0.0
 11
743.8000316174
 21
122.3097913169
 31
0.0
  0
SPLINE
  5
8E
330
1F
100
AcDbEntity
  8
0
  6
Continuous
 62
     7
370
    25
100
AcDbSpline
210
0.0
220
0.0
230
1.0
 70
     8
 71
     3
 72
    12
 73
     8
 74
     0
 42
0.000000001
 43
0.00000001
 40
0.0
 40
0.0
 40
0.0
 40
0.0
 40
0.0000095133194252
 40
0.2866609661417485
 40
0.7154641681298591
 40
0.9053883138813261
 40
1.0
 40
1.0
 40
1.0
 40
1.0
 10
750.8711094410576
 20
125.238718857699
 30
0.0
 10
750.8710895728217
 20
125.2387039565663
 30
0.0
 10
750.272408145006
 20
124.7896942163109
 30
0.0
 10
748.9200954369792
 20
123.4750934462168
 30
0.0
 10
746.6307868860303
 20
122.6248597543049
 30
0.0
 10
744.7905221509023
 20
122.3314528211884
 30
0.0
 10
744.0471965730393
 20
122.3151966838166
 30
0.0
 10
743.8000316174187
 20
122.3097913169199
 30
0.0
  0
SPLINE
  5
8F
330
1F
100
AcDbEntity
  8
0
  6
Continuous
 62
     7
370
    25
100
AcDbSpline
210
0.0
220
0.0
230
1.0
 70
     8
 71
     3
 72
    10
 73
     6
 74
     0
 42
0.000000001
 43
0.00000001
 40
0.0
 40
0.0
 40
0.0
 40
0.0
 40
0.2842671283320602
 40
0.7132171666044367
 40
1.0
 40
1.0
 40
1.0
 40
1.0
 10
214.3000165374435
 20
132.3097966813379
 30
0.0
 10
214.3478383248617
 20
131.6052990297219
 30
0.0
 10
214.4678216656175
 20
129.8377368711522
 30
0.0
 10
215.4458393441513
 20
127.4694069512339
 30
0.0
 10
216.6143137258885
 20
126.1292559887402
 30
0.0
 10
217.0825029165901
 20
125.5922787093454
 30
0.0
  0
LWPOLYLINE
  5
90
330
1F
100
AcDbEntity
  8
0
  6
Continuous
 62
     7
370
    25
100
AcDbPolyline
 90
        9
 70
   128
 43
0.0
 10
217.0825029166
 20
125.5922787093
 10
217.0135254414
 20
125.5233012342
 10
216.9472078235
 20
125.4569761657
 10
216.8860832603
 20
125.3958516025
 10
216.8325061352
 20
125.342281928
 10
216.7885328086
 20
125.2983086013
 10
216.7558620126
 20
125.2656303548
 10
216.735745445
 20
125.2455137872
 10
216.7289505155
 20
125.2387188577
  0
SPLINE
  5
91
330
1F
100
AcDbEntity
  8
0
  6
Continuous
 62
     7
370
    25
100
AcDbSpline
210
0.0
220
0.0
230
1.0
 70
     8
 71
     3
 72
    12
 73
     8
 74
     0
 42
0.000000001
 43
0.00000001
 40
0.0
 40
0.0
 40
0.0
 40
0.0
 40
0.000008072308457
 40
0.286659736126957
 40
0.7154609714139486
 40
0.9053827007224983
 40
1.0
 40
1.0
 40
1.0
 40
1.0
 10
216.7289505155243
 20
125.238718857699
 30
0.0
 10
216.7289356143478
 20
125.2387337588441
 30
0.0
 10
216.1997725705027
 20
125.7678956907645
 30
0.0
 10
215.0232235368767
 20
127.2399285411489
 30
0.0
 10
214.1074435688335
 20
129.4724009736855
 30
0.0
 10
213.8222282925752
 20
131.3197511691789
 30
0.0
 10
213.805558652426
 20
132.0627338588601
 30
0.0
 10
213.8000155241646
 20
132.3097966813379
 30
0.0
  0
LINE
  5
92
330
1F
100
AcDbEntity
  8
0
  6
Continuous
 62
     7
370
    25
100
AcDbLine
 10
214.3000165374
 20
132.3097966813
 30
0.0
 11
213.8000155242
 21
132.3097966813
 31
0.0
  0
SPLINE
  5
93
330
1F
100
AcDbEntity
  8
0
  6
Continuous
 62
     7
370
    25
100
AcDbSpline
210
0.0
220
0.0
230
1.0
 70
     8
 71
     3
 72
    12
 73
     8
 74
     0
 42
0.000000001
 43
0.00000001
 40
0.0
 40
0.0
 40
0.0
 40
0.0
 40
0.0000076106433616
 40
0.2866553433307235
 40
0.7154562262469611
 40
0.9053765246188575
 40
1.0
 40
1.0
 40
1.0
 40
1.0
 10
743.8000316174187
 20
562.3098038338953
 30
0.0
 10
743.8000514856332
 20
562.309803833915
 30
0.0
 10
744.5483889844471
 20
562.3098045732579
 30
0.0
 10
746.4212139399613
 20
562.1008473536463
 30
0.0
 10
748.6472975833243
 20
561.169739448947
 30
0.0
 10
750.155334263074
 20
560.0652357073832
 30
0.0
 10
750.6924834255275
 20
559.5516287677502
 30
0.0
 10
750.8711094410576
 20
559.3808315896326
 30
0.0
  0
LWPOLYLINE
  5
94
330
1F
100
AcDbEntity
  8
0
  6
Continuous
 62
     7
370
    25
100
AcDbPolyline
 90
        9
 70
   128
 43
0.0
 10
750.8711094411
 20
559.3808315896
 10
750.8643145116
 20
559.3740366601
 10
750.8441681416
 20
559.3539498948
 10
750.8115047963
 20
559.3212865495
 10
750.7675165684
 20
559.2772983217
 10
750.7139319928
 20
559.223713746
 10
750.6528372319
 20
559.1626189851
 10
750.5864972623
 20
559.0962790155
 10
750.5175346882
 20
559.0273164415
  0
SPLINE
  5
95
330
1F
100
AcDbEntity
  8
0
  6
Continuous
 62
     7
370
    25
100
AcDbSpline
210
0.0
220
0.0
230
1.0
 70
     8
 71
     3
 72
    10
 73
     6
 74
     0
 42
0.000000001
 43
0.00000001
 40
0.0
 40
0.0
 40
0.0
 40
0.0
 40
0.2842716965734599
 40
0.7132207749418374
 40
0.9999999999999999
 40
0.9999999999999999
 40
0.9999999999999999
 40
0.9999999999999999
 10
750.51753468825
 20
559.0273164414698
 30
0.0
 10
749.9855565718747
 20
559.4916617951486
 30
0.0
 10
748.6508551260862
 20
560.6566766629087
 30
0.0
 10
746.2846351877185
 20
561.6397799167394
 30
0.0
 10
744.5107820768635
 20
561.7611497850986
 30
0.0
 10
743.8000316174187
 20
561.8097804688746
 30
0.0
  0
LINE
  5
96
330
1F
100
AcDbEntity
  8
0
  6
Continuous
 62
     7
370
    25
100
AcDbLine
 10
743.8000316174
 20
562.3098038339
 30
0.0
 11
743.8000316174
 21
561.8097804689
 31
0.0
  0
SPLINE
  5
97
330
1F
100
AcDbEntity
  8
0
  6
Continuous
 62
     7
370
    25
100
AcDbSpline
210
0.0
220
0.0
230
1.0
 70
     8
 71
     3
 72
    10
 73
     6
 74
     0
 42
0.000000001
 43
0.00000001
 40
0.0
 40
0.0
 40
0.0
 40
0.0
 40
0.2842667109036067
 40
0.7132167279273753
 40
1.0
 40
1.0
 40
1.0
 40
1.0
 10
217.0825029165901
 20
125.5922787093454
 30
0.0
 10
217.6144710327373
 20
125.1279373114708
 30
0.0
 10
218.949163223582
 20
123.9629185465909
 30
0.0
 10
221.3153971052534
 20
122.9798464585656
 30
0.0
 10
223.0892610208137
 20
122.8584332690349
 30
0.0
 10
223.8000208885826
 20
122.8097848796182
 30
0.0
  0
LINE
  5
98
330
1F
100
AcDbEntity
  8
0
  6
Continuous
 62
     7
370
    25
100
AcDbLine
 10
223.8000208886
 20
122.8097848796
 30
0.0
 11
223.8000208886
 21
122.3097913169
 31
0.0
  0
SPLINE
  5
99
330
1F
100
AcDbEntity
  8
0
  6
Continuous
 62
     7
370
    25
100
AcDbSpline
210
0.0
220
0.0
230
1.0
 70
     8
 71
     3
 72
    12
 73
     8
 74
     0
 42
0.000000001
 43
0.00000001
 40
0.0
 40
0.0
 40
0.0
 40
0.0
 40
0.0000076106558538
 40
0.2866603268700076
 40
0.7154613324643112
 40
0.9053830419794392
 40
1.0
 40
1.0
 40
1.0
 40
1.0
 10
223.8000208885826
 20
122.3097913169199
 30
0.0
 10
223.8000010203681
 20
122.3097913169002
 30
0.0
 10
223.0516517376356
 20
122.3097905756334
 30
0.0
 10
221.1788235759478
 20
122.5187334939946
 30
0.0
 10
218.9526735076595
 20
123.4497690537426
 30
0.0
 10
217.4447205594922
 20
124.5543574324548
 30
0.0
 10
216.9075684223617
 20
125.0679388616269
 30
0.0
 10
216.7289505155243
 20
125.238718857699
 30
0.0
  0
LWPOLYLINE
  5
9A
330
1F
100
AcDbEntity
  8
0
  6
Continuous
 62
     7
370
    25
100
AcDbPolyline
 90
        6
 70
   128
 43
0.0
 10
750.8711094411
 20
559.3808315896
 10
750.8711094411
 20
559.3808315896
 10
752.2703284772
 20
557.6252363824
 10
753.5524243863
 20
554.5213245057
 10
753.7726635487
 20
553.0502818727
 10
753.8000220807
 20
552.3098133706
  0
LINE
  5
9B
330
1F
100
AcDbEntity
  8
0
  6
Continuous
 62
     7
370
    25
100
AcDbLine
 10
753.8000220807
 20
552.3098133706
 30
0.0
 11
753.2999987157
 21
552.3098133706
 31
0.0
  0
SPLINE
  5
9C
330
1F
100
AcDbEntity
  8
0
  6
Continuous
 62
     7
370
    25
100
AcDbSpline
210
0.0
220
0.0
230
1.0
 70
     8
 71
     3
 72
    10
 73
     6
 74
     0
 42
0.000000001
 43
0.00000001
 40
0.0
 40
0.0
 40
0.0
 40
0.0
 40
0.2842636320402607
 40
0.7132158270064324
 40
1.0
 40
1.0
 40
1.0
 40
1.0
 10
753.2999987156547
 20
552.3098133706385
 30
0.0
 10
753.2521807479491
 20
553.0143005328275
 30
0.0
 10
753.1322057404603
 20
554.7818547936025
 30
0.0
 10
752.1542114112758
 20
557.1501905006342
 30
0.0
 10
750.9857275693898
 20
558.4903399022805
 30
0.0
 10
750.51753468825
 20
559.0273164414698
 30
0.0
  0
SPLINE
  5
9D
330
1F
100
AcDbEntity
  8
0
  6
Continuous
 62
     7
370
    25
100
AcDbSpline
210
0.0
220
0.0
230
1.0
 70
     8
 71
     3
 72
    10
 73
     6
 74
     0
 42
0.000000001
 43
0.00000001
 40
0.0
 40
0.0
 40
0.0
 40
0.0
 40
0.2842670492445664
 40
0.7132156137119826
 40
1.0
 40
1.0
 40
1.0
 40
1.0
 10
223.8000208885826
 20
561.8097804688746
 30
0.0
 10
223.0955233690209
 20
561.7619641269206
 30
0.0
 10
221.3279648985332
 20
561.6419946764946
 30
0.0
 10
218.9596310788554
 20
560.6639847524156
 30
0.0
 10
217.6194822067306
 20
559.4955087607126
 30
0.0
 10
217.0825029165901
 20
559.0273164414698
 30
0.0
  0
SPLINE
  5
9E
330
1F
100
AcDbEntity
  8
0
  6
Continuous
 62
     7
370
    25
100
AcDbSpline
210
0.0
220
0.0
230
1.0
 70
     8
 71
     3
 72
    12
 73
     8
 74
     0
 42
0.000000001
 43
0.00000001
 40
0.0
 40
0.0
 40
0.0
 40
0.0
 40
0.000009513297864
 40
0.2866595724981604
 40
0.7154616497420959
 40
0.9053828242245319
 40
1.0
 40
1.0
 40
1.0
 40
1.0
 10
216.7289505155243
 20
559.3808315896326
 30
0.0
 10
216.7289654166135
 20
559.380851457912
 30
0.0
 10
217.1779726823078
 20
559.9795326429089
 30
0.0
 10
218.7880573346812
 20
561.0363601739698
 30
0.0
 10
220.9550155055002
 20
562.0089274608632
 30
0.0
 10
222.8105160277539
 20
562.2871381417027
 30
0.0
 10
223.5530927840995
 20
562.304147675314
 30
0.0
 10
223.8000208885826
 20
562.3098038338953
 30
0.0
  0
LINE
  5
9F
330
1F
100
AcDbEntity
  8
0
  6
Continuous
 62
     7
370
    25
100
AcDbLine
 10
223.8000208886
 20
562.3098038339
 30
0.0
 11
223.8000208886
 21
561.8097804689
 31
0.0
  0
ARC
  5
A0
330
1F
100
AcDbEntity
  8
0
  6
Continuous
 62
     7
370
    25
100
AcDbCircle
 10
248.8000178272
 20
527.3097904011
 30
0.0
 40
14.99999999999997
100
AcDbArc
 50
90.0
 51
180.0
  0
LINE
  5
A1
330
1F
100
AcDbEntity
  8
0
  6
Continuous
 62
     7
370
    25
100
AcDbLine
 10
233.8000188024
 20
527.3097776079
 30
0.0
 11
231.8000147493
 21
527.3097776079
 31
0.0
  0
SPLINE
  5
A2
330
1F
100
AcDbEntity
  8
0
  6
Continuous
 62
     7
370
    25
100
AcDbSpline
210
0.0
220
0.0
230
1.0
 70
     8
 71
     3
 72
    16
 73
    12
 74
     0
 42
0.000000001
 43
0.00000001
 40
0.0
 40
0.0
 40
0.0
 40
0.0
 40
0.1164964476273263
 40
0.2399711338050794
 40
0.3685795687725846
 40
0.4999176144119667
 40
0.6312554024710482
 40
0.6956213676267777
 40
0.7600289746100903
 40
0.8835031975348311
 40
1.0
 40
1.0
 40
1.0
 40
1.0
 10
231.8000147493042
 20
527.3097776078516
 30
0.0
 10
231.8551717200631
 20
528.3466319245874
 30
0.0
 10
231.9687896121092
 20
530.4824490335671
 30
0.0
 10
232.9145777788143
 20
533.6508169088088
 30
0.0
 10
234.4830636224506
 20
536.6975218914816
 30
0.0
 10
236.6937233265658
 20
539.4162291326287
 30
0.0
 10
238.9671107123394
 20
541.2621341220091
 30
0.0
 10
240.9664664012168
 20
542.4309637763572
 30
0.0
 10
243.0098640157244
 20
543.3573068331311
 30
0.0
 10
245.6276299209829
 20
544.1417688280538
 30
0.0
 10
247.763249767815
 20
544.2548840309498
 30
0.0
 10
248.8000119478859
 20
544.3097971581751
 30
0.0
  0
LINE
  5
A3
330
1F
100
AcDbEntity
  8
0
  6
Continuous
 62
     7
370
    25
100
AcDbLine
 10
248.8000119479
 20
544.3097971582
 30
0.0
 11
248.8000119479
 21
542.3097633027
 31
0.0
  0
LINE
  5
A4
330
1F
100
AcDbEntity
  8
0
  6
Continuous
 62
     7
370
    25
100
AcDbLine
 10
735.800015405
 20
527.3097776079
 30
0.0
 11
735.800015405
 21
157.3097877406
 31
0.0
  0
SPLINE
  5
A5
330
1F
100
AcDbEntity
  8
0
  6
Continuous
 62
     7
370
    25
100
AcDbSpline
210
0.0
220
0.0
230
1.0
 70
     8
 71
     3
 72
    16
 73
    12
 74
     0
 42
0.000000001
 43
0.00000001
 40
0.0
 40
0.0
 40
0.0
 40
0.0
 40
0.1164985517682783
 40
0.2399725643826446
 40
0.3685811658878473
 40
0.4999174289859397
 40
0.6312554270950056
 40
0.6956221687901621
 40
0.7600292481464547
 40
0.8835038784351241
 40
1.0
 40
1.0
 40
1.0
 40
1.0
 10
718.7999958546318
 20
544.3097971581751
 30
0.0
 10
719.8368687290406
 20
544.2546279930444
 30
0.0
 10
721.9726982207726
 20
544.1409863569016
 30
0.0
 10
725.1411082917441
 20
543.195274673122
 30
0.0
 10
728.1877849876332
 20
541.6267549328478
 30
0.0
 10
730.9064706532072
 20
539.4160706518053
 30
0.0
 10
732.7523053004197
 20
537.142648730413
 30
0.0
 10
733.9212722246507
 20
535.1433587518555
 30
0.0
 10
734.8474677379111
 20
533.0998832855098
 30
0.0
 10
735.6320952452178
 20
530.4821755798484
 30
0.0
 10
735.745137802573
 20
528.346541715141
 30
0.0
 10
735.8000154049553
 20
527.3097776078516
 30
0.0
  0
LINE
  5
A6
330
1F
100
AcDbEntity
  8
0
  6
Continuous
 62
     7
370
    25
100
AcDbLine
 10
248.8000119479
 20
544.3097971582
 30
0.0
 11
718.7999958546
 21
544.3097971582
 31
0.0
  0
LINE
  5
A7
330
1F
100
AcDbEntity
  8
0
  6
Continuous
 62
     7
370
    25
100
AcDbLine
 10
231.8000147493
 20
157.3097877406
 30
0.0
 11
231.8000147493
 21
527.3097776079
 31
0.0
  0
SPLINE
  5
A8
330
1F
100
AcDbEntity
  8
0
  6
Continuous
 62
     7
370
    25
100
AcDbSpline
210
0.0
220
0.0
230
1.0
 70
     8
 71
     3
 72
    18
 73
    14
 74
     0
 42
0.000000001
 43
0.00000001
 40
0.0
 40
0.0
 40
0.0
 40
0.0
 40
0.1249419684107086
 40
0.2498834928608352
 40
0.3748257700795237
 40
0.4997674574651647
 40
0.5654788155361165
 40
0.6308549070558528
 40
0.6857985388886013
 40
0.7276232394204254
 40
0.8427228183287744
 40
0.9161062876713091
 40
0.9999999999999999
 40
0.9999999999999999
 40
0.9999999999999999
 40
0.9999999999999999
 10
231.8000147493042
 20
157.3097877406412
 30
0.0
 10
231.8632772692545
 20
156.1971542973323
 30
0.0
 10
231.9898020843622
 20
153.9718913642731
 30
0.0
 10
233.0007972922185
 20
150.7621746689896
 30
0.0
 10
234.5714362659741
 20
147.8044501561423
 30
0.0
 10
236.3666966176834
 20
145.620469053703
 30
0.0
 10
238.0594265449233
 20
144.0938260691329
 30
0.0
 10
239.3973579563855
 20
143.1160453486888
 30
0.0
 10
240.6381292317078
 20
142.3784712157699
 30
0.0
 10
242.3262562265341
 20
141.5402509742057
 30
0.0
 10
244.2711650199488
 20
140.8633103187068
 30
0.0
 10
246.6539614102386
 20
140.3909982507828
 30
0.0
 10
248.0534867621051
 20
140.338034598526
 30
0.0
 10
248.8000119478859
 20
140.3097830914789
 30
0.0
  0
LINE
  5
A9
330
1F
100
AcDbEntity
  8
0
  6
Continuous
 62
     7
370
    25
100
AcDbLine
 10
248.8000119479
 20
140.3097830915
 30
0.0
 11
718.7999958546
 21
140.3097830915
 31
0.0
  0
SPLINE
  5
AA
330
1F
100
AcDbEntity
  8
0
  6
Continuous
 62
     7
370
    25
100
AcDbSpline
210
0.0
220
0.0
230
1.0
 70
     8
 71
     3
 72
    15
 73
    11
 74
     0
 42
0.000000001
 43
0.00000001
 40
0.0
 40
0.0
 40
0.0
 40
0.0
 40
0.1165154298442465
 40
0.240011062204142
 40
0.3686404832544368
 40
0.4999998157364717
 40
0.631357846746022
 40
0.759987249866775
 40
0.8834821906178874
 40
0.9999999999999999
 40
0.9999999999999999
 40
0.9999999999999999
 40
0.9999999999999999
 10
735.8000154049553
 20
157.3097877406412
 30
0.0
 10
735.7448764815546
 20
156.2729302213409
 30
0.0
 10
735.6312953739541
 20
154.1370991567833
 30
0.0
 10
734.6854493785329
 20
150.968776783811
 30
0.0
 10
733.1170772109604
 20
147.9218923178585
 30
0.0
 10
730.9058722265014
 20
145.2039451121434
 30
0.0
 10
728.1879502070818
 20
142.9927005709536
 30
0.0
 10
725.1410520060587
 20
141.4243859713827
 30
0.0
 10
721.9727168675118
 20
140.4785538570102
 30
0.0
 10
719.8368733181062
 20
140.3649390924516
 30
0.0
 10
718.7999958546318
 20
140.3097830914789
 30
0.0
  0
LINE
  5
AB
330
1F
100
AcDbEntity
  8
0
  6
Continuous
 62
     7
370
    25
100
AcDbLine
 10
214.3000165374
 20
552.3098133706
 30
0.0
 11
214.3000165374
 21
132.3097966813
 31
0.0
  0
LINE
  5
AC
330
1F
100
AcDbEntity
  8
0
  6
Continuous
 62
     7
370
    25
100
AcDbLine
 10
743.8000316174
 20
561.8097804689
 30
0.0
 11
223.8000208886
 21
561.8097804689
 31
0.0
  0
LINE
  5
AD
330
1F
100
AcDbEntity
  8
0
  6
Continuous
 62
     7
370
    25
100
AcDbLine
 10
753.2999987157
 20
132.3097966813
 30
0.0
 11
753.2999987157
 21
552.3098133706
 31
0.0
  0
LINE
  5
AE
330
1F
100
AcDbEntity
  8
0
  6
Continuous
 62
     7
370
    25
100
AcDbLine
 10
223.8000208886
 20
122.8097848796
 30
0.0
 11
743.8000316174
 21
122.8097848796
 31
0.0
  0
LINE
  5
AF
330
1F
100
AcDbEntity
  8
0
  6
Continuous
 62
     7
370
    25
100
AcDbLine
 10
233.8000188024
 20
157.3097877406
 30
0.0
 11
233.8000188024
 21
527.3097776079
 31
0.0
  0
LINE
  5
B0
330
1F
100
AcDbEntity
  8
0
  6
Continuous
 62
     7
370
    25
100
AcDbLine
 10
233.8000188024
 20
157.3097877406
 30
0.0
 11
231.8000147493
 21
157.3097877406
 31
0.0
  0
ARC
  5
B1
330
1F
100
AcDbEntity
  8
0
  6
Continuous
 62
     7
370
    25
100
AcDbCircle
 10
248.8000178272
 20
157.3097904011
 30
0.0
 40
14.99999999999997
100
AcDbArc
 50
180.0
 51
270.0
  0
LINE
  5
B2
330
1F
100
AcDbEntity
  8
0
  6
Continuous
 62
     7
370
    25
100
AcDbLine
 10
248.8000119479
 20
142.3097871446
 30
0.0
 11
248.8000119479
 21
140.3097830915
 31
0.0
  0
LINE
  5
B3
330
1F
100
AcDbEntity
  8
0
  6
Continuous
 62
     7
370
    25
100
AcDbLine
 10
718.7999958546
 20
142.3097871446
 30
0.0
 11
248.8000119479
 21
142.3097871446
 31
0.0
  0
LINE
  5
B4
330
1F
100
AcDbEntity
  8
0
  6
Continuous
 62
     7
370
    25
100
AcDbLine
 10
718.7999958546
 20
140.3097830915
 30
0.0
 11
718.7999958546
 21
142.3097871446
 31
0.0
  0
LINE
  5
B5
330
1F
100
AcDbEntity
  8
0
  6
Continuous
 62
     7
370
    25
100
AcDbLine
 10
735.800015405
 20
157.3097877406
 30
0.0
 11
733.8000411542
 21
157.3097877406
 31
0.0
  0
ARC
  5
B6
330
1F
100
AcDbEntity
  8
0
  6
Continuous
 62
     7
370
    25
100
AcDbCircle
 10
718.8000178272
 20
157.3097904011
 30
0.0
 40
14.99999999999997
100
AcDbArc
 50
270.0
 51
0.0
  0
ARC
  5
B7
330
1F
100
AcDbEntity
  8
0
  6
Continuous
 62
     7
370
    25
100
AcDbCircle
 10
718.8000178272
 20
527.3097904011
 30
0.0
 40
14.99999999999989
100
AcDbArc
 50
0.0
 51
90.0
  0
LINE
  5
B8
330
1F
100
AcDbEntity
  8
0
  6
Continuous
 62
     7
370
    25
100
AcDbLine
 10
718.7999958546
 20
544.3097971582
 30
0.0
 11
718.7999958546
 21
542.3097633027
 31
0.0
  0
LINE
  5
B9
330
1F
100
AcDbEntity
  8
0
  6
Continuous
 62
     7
370
    25
100
AcDbLine
 10
735.800015405
 20
527.3097776079
 30
0.0
 11
733.8000411542
 21
527.3097776079
 31
0.0
  0
LINE
  5
BA
330
1F
100
AcDbEntity
  8
0
  6
Continuous
 62
     7
370
    25
100
AcDbLine
 10
248.8000119479
 20
542.3097633027
 30
0.0
 11
718.7999958546
 21
542.3097633027
 31
0.0
  0
LINE
  5
BB
330
1F
100
AcDbEntity
  8
0
  6
Continuous
 62
     7
370
    25
100
AcDbLine
 10
733.8000411542
 20
527.3097776079
 30
0.0
 11
733.8000411542
 21
157.3097877406
 31
0.0
  0
LINE
  5
BC
330
1F
100
AcDbEntity
  8
0
  6
Continuous
 62
     7
370
    25
100
AcDbLine
 10
743.8000316174
 20
122.3097913169
 30
0.0
 11
223.8000208886
 21
122.3097913169
 31
0.0
  0
LINE
  5
BD
330
1F
100
AcDbEntity
  8
0
  6
Continuous
 62
     7
370
    25
100
AcDbLine
 10
223.8000208886
 20
562.3098038339
 30
0.0
 11
743.8000316174
 21
562.3098038339
 31
0.0
  0
LINE
  5
BE
330
1F
100
AcDbEntity
  8
0
  6
Continuous
 62
     7
370
    25
100
AcDbLine
 10
753.8000220807
 20
552.3098133706
 30
0.0
 11
753.8000220807
 21
132.3097966813
 31
0.0
  0
LINE
  5
BF
330
1F
100
AcDbEntity
  8
0
  6
Continuous
 62
     7
370
    25
100
AcDbLine
 10
213.8000155242
 20
132.3097966813
 30
0.0
 11
213.8000155242
 21
552.3098133706
 31
0.0
  0
SPLINE
  5
C0
330
1F
100
AcDbEntity
  8
0
  6
Continuous
 62
     7
370
    25
100
AcDbSpline
210
0.0
220
0.0
230
1.0
 70
     8
 71
     3
 72
    33
 73
    29
 74
     0
 42
0.000000001
 43
0.00000001
 40
0.0
 40
0.0
 40
0.0
 40
0.0
 40
0.04143326726622
 40
0.0969099862523381
 40
0.1664278601425539
 40
0.2499814302595845
 40
0.2944605915602526
 40
0.3378162374088079
 40
0.3800477937494927
 40
0.4211555491360229
 40
0.4611396711514051
 40
0.4999995920953383
 40
0.5212456916409134
 40
0.5491631872388348
 40
0.5837518228331331
 40
0.6250119849896874
 40
0.6726196677867885
 40
0.709324480972826
 40
0.7351253097475088
 40
0.7500216536095387
 40
0.7714129371547988
 40
0.7925628620721324
 40
0.8134714832090582
 40
0.8341386265931479
 40
0.8545641320975195
 40
0.8747481732889948
 40
0.8946907646017852
 40
1.0
 40
1.0
 40
1.0
 40
1.0
 10
423.8000089676536
 20
422.3097585343652
 30
0.0
 10
423.812433445493
 20
421.3924145334099
 30
0.0
 10
423.8414935717164
 20
419.2468006249037
 30
0.0
 10
424.1342403828049
 20
415.5706853175971
 30
0.0
 10
424.8014067739057
 20
410.9982811354056
 30
0.0
 10
425.8036098315001
 20
406.7336522099926
 30
0.0
 10
426.9302074283165
 20
403.1091370539114
 30
0.0
 10
427.9180655041775
 20
400.4031059594519
 30
0.0
 10
429.0040110081104
 20
397.8158723095856
 30
0.0
 10
430.1760302407842
 20
395.3489217976573
 30
0.0
 10
431.4225235137858
 20
393.0030719937853
 30
0.0
 10
432.5470415370636
 20
391.092860486665
 30
0.0
 10
433.5910306347414
 20
389.447175175493
 30
0.0
 10
434.6267221425606
 20
387.9088389434049
 30
0.0
 10
435.9751138984105
 20
386.0482208733731
 30
0.0
 10
437.6710913495477
 20
383.9036595710636
 30
0.0
 10
439.5015568730651
 20
381.8094736708824
 30
0.0
 10
441.1902520955563
 20
380.0504015613013
 30
0.0
 10
442.419153070213
 20
378.8558113383414
 30
0.0
 10
443.4261848159915
 20
377.920140092708
 30
0.0
 10
444.3750132629263
 20
377.0733617327907
 30
0.0
 10
445.4448949912979
 20
376.1629095130846
 30
0.0
 10
446.5232392312012
 20
375.2877170769083
 30
0.0
 10
447.6087442461721
 20
374.4474004224579
 30
0.0
 10
448.7000913792575
 20
373.6413480674389
 30
0.0
 10
449.7965522806973
 20
372.8700242050793
 30
0.0
 10
452.4668000890196
 20
371.0692654495279
 30
0.0
 10
454.9109652223318
 20
369.7521666184124
 30
0.0
 10
456.9659704716362
 20
368.6447762154871
 30
0.0
  0
LINE
  5
C1
330
1F
100
AcDbEntity
  8
0
  6
Continuous
 62
     7
370
    25
100
AcDbLine
 10
456.9659704716
 20
368.6447762155
 30
0.0
 11
461.5259642155
 21
366.5974460744
 31
0.0
  0
SPLINE
  5
C2
330
1F
100
AcDbEntity
  8
0
  6
Continuous
 62
     7
370
    25
100
AcDbSpline
210
0.0
220
0.0
230
1.0
 70
     8
 71
     3
 72
    10
 73
     6
 74
     0
 42
0.000000001
 43
0.00000001
 40
0.0
 40
0.0
 40
0.0
 40
0.0
 40
0.3333338505399835
 40
0.6666670132054443
 40
1.0
 40
1.0
 40
1.0
 40
1.0
 10
461.5259642155327
 20
366.5974460744196
 30
0.0
 10
463.9149051647685
 20
365.7460641717314
 30
0.0
 10
468.692782133373
 20
364.043302123284
 30
0.0
 10
476.1974315366521
 20
362.5986816092285
 30
0.0
 10
481.2659973397516
 20
362.4060844878079
 30
0.0
 10
483.8002795727409
 20
362.3097859525018
 30
0.0
  0
SPLINE
  5
C3
330
1F
100
AcDbEntity
  8
0
  6
Continuous
 62
     7
370
    25
100
AcDbSpline
210
0.0
220
0.0
230
1.0
 70
     8
 71
     3
 72
    29
 73
    25
 74
     0
 42
0.000000001
 43
0.00000001
 40
0.0
 40
0.0
 40
0.0
 40
0.0
 40
0.0950218130695209
 40
0.1843922815956897
 40
0.268110990084803
 40
0.3340737413379122
 40
0.3960456970538425
 40
0.4147024387999377
 40
0.439127685593166
 40
0.480306649404797
 40
0.5184227174706897
 40
0.5534760226809452
 40
0.603852757197479
 40
0.6461590523883147
 40
0.6803933614951725
 40
0.7065553839197795
 40
0.7246438805159838
 40
0.7346581883533676
 40
0.7652781320519946
 40
0.8081431426055441
 40
0.8510082472632537
 40
0.9095605198203128
 40
0.9608397262146047
 40
1.0
 40
1.0
 40
1.0
 40
1.0
 10
483.800279572741
 20
362.3097859525019
 30
0.0
 10
486.2422786466353
 20
362.3955654449633
 30
0.0
 10
490.9810408986298
 20
362.5620227647943
 30
0.0
 10
497.771018396252
 20
363.8409121068647
 30
0.0
 10
503.664666209537
 20
365.5932514687024
 30
0.0
 10
508.7044690186362
 20
367.6486723651072
 30
0.0
 10
512.0667797789762
 20
369.3520691651574
 30
0.0
 10
514.4072905553909
 20
370.6946904762692
 30
0.0
 10
516.2542334381798
 20
371.8231764176839
 30
0.0
 10
518.467958092957
 20
373.3072733760127
 30
0.0
 10
520.8218631990025
 20
375.0653531764004
 30
0.0
 10
523.2728065289119
 20
377.0820663184478
 30
0.0
 10
525.6898921129446
 20
379.3039099002523
 30
0.0
 10
527.9552300240413
 20
381.6498594389264
 30
0.0
 10
529.6925902771738
 20
383.6357095593159
 30
0.0
 10
530.9603147904305
 20
385.2033574691781
 30
0.0
 10
531.8055703160028
 20
386.3116230026876
 30
0.0
 10
532.6984206531878
 20
387.5271405899978
 30
0.0
 10
533.9228179226693
 20
389.2884586589423
 30
0.0
 10
535.5114126861691
 20
391.8212432048405
 30
0.0
 10
537.3065052336794
 20
395.0651762521584
 30
0.0
 10
538.9751688613181
 20
398.6178659100725
 30
0.0
 10
540.3700605480756
 20
402.1852128582129
 30
0.0
 10
541.059093910517
 20
404.4038682072143
 30
0.0
 10
541.3574451954521
 20
405.3645454549128
 30
0.0
  0
LINE
  5
C4
330
1F
100
AcDbEntity
  8
0
  6
Continuous
 62
     7
370
    25
100
AcDbLine
 10
720.3789824994
 20
157.3300533199
 30
0.0
 11
720.6384415181
 21
156.9706969165
 31
0.0
  0
SPLINE
  5
C5
330
1F
100
AcDbEntity
  8
0
  6
Continuous
 62
     7
370
    25
100
AcDbSpline
210
0.0
220
0.0
230
1.0
 70
     8
 71
     3
 72
    11
 73
     7
 74
     0
 42
0.000000001
 43
0.00000001
 40
0.0
 40
0.0
 40
0.0
 40
0.0
 40
0.21998315395652
 40
0.5012538308069788
 40
0.6780342109229087
 40
1.0
 40
1.0
 40
1.0
 40
1.0
 10
720.6355208904899
 20
156.9713525676065
 30
0.0
 10
720.589838228958
 20
156.8229001644209
 30
0.0
 10
720.4857456714933
 20
156.4846363726217
 30
0.0
 10
720.2023145354615
 20
156.0900148065089
 30
0.0
 10
719.78844690916
 20
155.7218912950241
 30
0.0
 10
719.4541402256258
 20
155.6019967796603
 30
0.0
 10
719.23832841231
 20
155.5245988272958
 30
0.0
  0
LINE
  5
C6
330
1F
100
AcDbEntity
  8
0
  6
Continuous
 62
     7
370
    25
100
AcDbLine
 10
719.2383284123
 20
155.5245988273
 30
0.0
 11
718.8542360814
 21
155.4725341701
 31
0.0
  0
SPLINE
  5
C7
330
1F
100
AcDbEntity
  8
0
  6
Continuous
 62
     7
370
    25
100
AcDbSpline
210
0.0
220
0.0
230
1.0
 70
     8
 71
     3
 72
     9
 73
     5
 74
     0
 42
0.000000001
 43
0.00000001
 40
0.0
 40
0.0
 40
0.0
 40
0.0
 40
0.4999922824828238
 40
1.0
 40
1.0
 40
1.0
 40
1.0
 10
708.9464540035881
 20
155.4719232224756
 30
0.0
 10
710.5977786610806
 20
155.4717692466466
 30
0.0
 10
713.9004789533578
 20
155.4714612902352
 30
0.0
 10
717.2029667140337
 20
155.4720473970555
 30
0.0
 10
718.8542360813774
 20
155.472340454989
 30
0.0
  0
SPLINE
  5
C8
330
1F
100
AcDbEntity
  8
0
  6
Continuous
 62
     7
370
    25
100
AcDbSpline
210
0.0
220
0.0
230
1.0
 70
     8
 71
     3
 72
     9
 73
     5
 74
     0
 42
0.000000001
 43
0.00000001
 40
0.0
 40
0.0
 40
0.0
 40
0.0
 40
0.5000000303886782
 40
1.0
 40
1.0
 40
1.0
 40
1.0
 10
687.3218888790764
 20
155.4721318387323
 30
0.0
 10
690.9259829569712
 20
155.4721417728426
 30
0.0
 10
698.1341706746666
 20
155.4721616410621
 30
0.0
 10
705.342359706646
 20
155.4720026953346
 30
0.0
 10
708.9464540035881
 20
155.4719232224756
 30
0.0
  0
LWPOLYLINE
  5
C9
330
1F
100
AcDbEntity
  8
0
  6
Continuous
 62
     7
370
    25
100
AcDbPolyline
 90
        3
 70
   128
 43
0.0
 10
440.6404966862
 20
155.4722361469
 10
563.9811927827
 20
155.4719381236
 10
687.3218888791
 20
155.4721318387
  0
LWPOLYLINE
  5
CA
330
1F
100
AcDbEntity
  8
0
  6
Continuous
 62
     7
370
    25
100
AcDbPolyline
 90
        3
 70
   128
 43
0.0
 10
364.5321453364
 20
155.4718934202
 10
402.5863284619
 20
155.4720275306
 10
440.6404966862
 20
155.4722361469
  0
LWPOLYLINE
  5
CB
330
1F
100
AcDbEntity
  8
0
  6
Continuous
 62
     7
370
    25
100
AcDbPolyline
 90
        3
 70
   128
 43
0.0
 10
262.4821091445
 20
155.4720424318
 10
313.5071272404
 20
155.4719530248
 10
364.5321453364
 20
155.4718934202
  0
SPLINE
  5
CC
330
1F
100
AcDbEntity
  8
0
  6
Continuous
 62
     7
370
    25
100
AcDbSpline
210
0.0
220
0.0
230
1.0
 70
     8
 71
     3
 72
     9
 73
     5
 74
     0
 42
0.000000001
 43
0.00000001
 40
0.0
 40
0.0
 40
0.0
 40
0.0
 40
0.5000213077009108
 40
1.0
 40
1.0
 40
1.0
 40
1.0
 10
248.7370992453255
 20
155.4726831816965
 30
0.0
 10
251.0278854119282
 20
155.4721032670072
 30
0.0
 10
255.6092625079078
 20
155.4709434870532
 30
0.0
 10
260.1912253530084
 20
155.4716761272684
 30
0.0
 10
262.4821091444649
 20
155.4720424317651
 30
0.0
  0
SPLINE
  5
CD
330
1F
100
AcDbEntity
  8
0
  6
Continuous
 62
     7
370
    25
100
AcDbSpline
210
0.0
220
0.0
230
1.0
 70
     8
 71
     3
 72
    10
 73
     6
 74
     0
 42
0.000000001
 43
0.00000001
 40
0.0
 40
0.0
 40
0.0
 40
0.0
 40
0.219858887764353
 40
0.5063360018822921
 40
1.0
 40
1.0
 40
1.0
 40
1.0
 10
248.496534899012
 20
155.4968677663141
 30
0.0
 10
248.5133065675726
 20
155.4904722867433
 30
0.0
 10
248.5519317952822
 20
155.4757434686866
 30
0.0
 10
248.6338998764035
 20
155.471250888911
 30
0.0
 10
248.6971042628504
 20
155.4721280956969
 30
0.0
 10
248.7370992453255
 20
155.4726831816965
 30
0.0
  0
SPLINE
  5
CE
330
1F
100
AcDbEntity
  8
0
  6
Continuous
 62
     7
370
    25
100
AcDbSpline
210
0.0
220
0.0
230
1.0
 70
     8
 71
     3
 72
    11
 73
     7
 74
     0
 42
0.000000001
 43
0.00000001
 40
0.0
 40
0.0
 40
0.0
 40
0.0
 40
0.2490152677784483
 40
0.5059408517104295
 40
0.7597030710073248
 40
1.0
 40
1.0
 40
1.0
 40
1.0
 10
248.4965498001732
 20
155.4969422721201
 30
0.0
 10
248.3238245516504
 20
155.5411084882948
 30
0.0
 10
247.9728871969687
 20
155.6308439218994
 30
0.0
 10
247.5263074533955
 20
155.9523667636567
 30
0.0
 10
247.1822626591115
 20
156.3731489796459
 30
0.0
 10
247.0706855360313
 20
156.7086293729929
 30
0.0
 10
247.0164174587883
 20
156.8717979096704
 30
0.0
  0
SPLINE
  5
CF
330
1F
100
AcDbEntity
  8
0
  6
Continuous
 62
     7
370
    25
100
AcDbSpline
210
0.0
220
0.0
230
1.0
 70
     8
 71
     3
 72
    10
 73
     6
 74
     0
 42
0.000000001
 43
0.00000001
 40
0.0
 40
0.0
 40
0.0
 40
0.0
 40
0.1076079400120705
 40
0.3101436607205667
 40
1.0
 40
1.0
 40
1.0
 40
1.0
 10
246.9641441853203
 20
171.0524581574732
 30
0.0
 10
246.9643511187582
 20
170.5572627207403
 30
0.0
 10
246.9649475347285
 20
169.1300285825976
 30
0.0
 10
246.9636133346549
 20
164.5281839401474
 30
0.0
 10
246.9621310258062
 20
160.4215495045287
 30
0.0
 10
246.9609851391472
 20
157.2469495438867
 30
0.0
  0
SPLINE
  5
D0
330
1F
100
AcDbEntity
  8
0
  6
Continuous
 62
     7
370
    25
100
AcDbSpline
210
0.0
220
0.0
230
1.0
 70
     8
 71
     3
 72
     9
 73
     5
 74
     0
 42
0.000000001
 43
0.00000001
 40
0.0
 40
0.0
 40
0.0
 40
0.0
 40
0.5000468565257644
 40
1.0
 40
1.0
 40
1.0
 40
1.0
 10
246.9637567551292
 20
157.247351875239
 30
0.0
 10
246.9660942654419
 20
157.2195265021713
 30
0.0
 10
246.9707688479979
 20
157.1638809707486
 30
0.0
 10
246.9754372933187
 20
157.108234696245
 30
0.0
 10
246.977771297232
 20
157.0804141663843
 30
0.0
  0
SPLINE
  5
D1
330
1F
100
AcDbEntity
  8
0
  6
Continuous
 62
     7
370
    25
100
AcDbSpline
210
0.0
220
0.0
230
1.0
 70
     8
 71
     3
 72
    17
 73
    13
 74
     0
 42
0.000000001
 43
0.00000001
 40
0.0
 40
0.0
 40
0.0
 40
0.0
 40
0.1107115539013381
 40
0.2150080139669725
 40
0.3128837544674982
 40
0.4043379075349846
 40
0.5676994070261102
 40
0.7054784562838499
 40
0.8176327595124485
 40
0.9041264331746298
 40
0.9649235620401715
 40
1.0
 40
1.0
 40
1.0
 40
1.0
 10
233.80001880242
 20
157.3097877406412
 30
0.0
 10
233.8370068413866
 20
157.2973247060969
 30
0.0
 10
233.9088396765197
 20
157.2731207977336
 30
0.0
 10
234.4601474330908
 20
157.2388099128977
 30
0.0
 10
235.2511882848727
 20
157.2081146123718
 30
0.0
 10
236.5227407050273
 20
157.1736564137817
 30
0.0
 10
238.3803394922661
 20
157.1397825375416
 30
0.0
 10
240.7802398568707
 20
157.1117660140318
 30
0.0
 10
242.9635621642591
 20
157.0948731711648
 30
0.0
 10
244.7488154488942
 20
157.0860061203612
 30
0.0
 10
246.0388473038923
 20
157.0817886555716
 30
0.0
 10
246.7262698997682
 20
157.0807823388391
 30
0.0
 10
246.977771297232
 20
157.0804141663843
 30
0.0
  0
LINE
  5
D2
330
1F
100
AcDbEntity
  8
0
  6
Continuous
 62
     7
370
    25
100
AcDbLine
 10
720.6384415181
 20
156.9706969165
 30
0.0
 11
720.6386799367
 21
157.2705529832
 31
0.0
  0
SPLINE
  5
D3
330
1F
100
AcDbEntity
  8
0
  6
Continuous
 62
     7
370
    25
100
AcDbSpline
210
0.0
220
0.0
230
1.0
 70
     8
 71
     3
 72
    22
 73
    18
 74
     0
 42
0.000000001
 43
0.00000001
 40
0.0
 40
0.0
 40
0.0
 40
0.0
 40
0.1163306785316144
 40
0.250063314062569
 40
0.3226417470886297
 40
0.4059557625796884
 40
0.5000051554214862
 40
0.5481588860308162
 40
0.6058759593316576
 40
0.6731584607009764
 40
0.7499978359474161
 40
0.7648532492258837
 40
0.7843975310581018
 40
0.808627462913048
 40
0.8375432810722505
 40
0.9094140856682646
 40
0.9999999999999999
 40
0.9999999999999999
 40
0.9999999999999999
 40
0.9999999999999999
 10
720.6360573322929
 20
157.2711192273431
 30
0.0
 10
721.4660305194036
 20
157.2242633457303
 30
0.0
 10
723.2501329451073
 20
157.1235423907135
 30
0.0
 10
725.4230889209452
 20
157.0789918989342
 30
0.0
 10
727.2265071956751
 20
157.0662394265603
 30
0.0
 10
728.6695712100149
 20
157.0714951532267
 30
0.0
 10
729.8352197150124
 20
157.0875454913412
 30
0.0
 10
730.755860489044
 20
157.1082021457908
 30
0.0
 10
731.4772482461838
 20
157.1289784738984
 30
0.0
 10
732.2069109924801
 20
157.1561228497464
 30
0.0
 10
732.6748086976667
 20
157.1795037187994
 30
0.0
 10
732.9518114452071
 20
157.1965960199227
 30
0.0
 10
733.0879074561772
 20
157.2056751156381
 30
0.0
 10
733.2408037792673
 20
157.2171269113287
 30
0.0
 10
733.4692320858352
 20
157.2369749310785
 30
0.0
 10
733.7320666839746
 20
157.2680608260672
 30
0.0
 10
733.775707193304
 20
157.2948500573732
 30
0.0
 10
733.8000411541618
 20
157.3097877406412
 30
0.0
  0
SPLINE
  5
D4
330
1F
100
AcDbEntity
  8
0
  6
Continuous
 62
     7
370
    25
100
AcDbSpline
210
0.0
220
0.0
230
1.0
 70
     8
 71
     3
 72
    15
 73
    11
 74
     0
 42
0.000000001
 43
0.00000001
 40
0.0
 40
0.0
 40
0.0
 40
0.0
 40
0.1250042002581289
 40
0.2500040331623177
 40
0.3749984198938279
 40
0.4999934203186469
 40
0.6249909097187542
 40
0.7499881185173843
 40
0.8749925130965455
 40
1.0
 40
1.0
 40
1.0
 40
1.0
 10
719.23832841231
 20
155.5245988272958
 30
0.0
 10
719.4698791224787
 20
154.6627633485656
 30
0.0
 10
719.9329724529769
 20
152.9391225016178
 30
0.0
 10
720.5867133971817
 20
150.5121699649731
 30
0.0
 10
721.1831114334564
 20
148.3032200678647
 30
0.0
 10
721.7011740984495
 20
146.390249950157
 30
0.0
 10
722.1253124687752
 20
144.8309605926445
 30
0.0
 10
722.438394562946
 20
143.6882748394912
 30
0.0
 10
722.641649080703
 20
142.9570214578804
 30
0.0
 10
722.670765989732
 20
142.8668086153978
 30
0.0
 10
722.6853246243156
 20
142.8217016362482
 30
0.0
  0
LINE
  5
D5
330
1F
100
AcDbEntity
  8
0
  6
Continuous
 62
     7
370
    25
100
AcDbLine
 10
720.6386799367
 20
157.2705529832
 30
0.0
 11
720.6367129834
 21
176.280590167
 31
0.0
  0
SPLINE
  5
D6
330
1F
100
AcDbEntity
  8
0
  6
Continuous
 62
     7
370
    25
100
AcDbSpline
210
0.0
220
0.0
230
1.0
 70
     8
 71
     3
 72
    15
 73
    11
 74
     0
 42
0.000000001
 43
0.00000001
 40
0.0
 40
0.0
 40
0.0
 40
0.0
 40
0.1250078895291658
 40
0.250012229827893
 40
0.3750095559628653
 40
0.5000059330500126
 40
0.6250018835872383
 40
0.7499962082813517
 40
0.8749960756140231
 40
1.0
 40
1.0
 40
1.0
 40
1.0
 10
234.3122387678779
 20
153.4233711861902
 30
0.0
 10
234.3573482302002
 20
153.4379402565611
 30
0.0
 10
234.4475658740945
 20
153.467077983657
 30
0.0
 10
235.1789135774187
 20
153.6704434862883
 30
0.0
 10
236.3217082123361
 20
153.9836767367816
 30
0.0
 10
237.8812074146469
 20
154.4079880415475
 30
0.0
 10
239.794380632681
 20
154.9263020319097
 30
0.0
 10
242.0035649733388
 20
155.522929469039
 30
0.0
 10
244.4307418222181
 20
156.1769385281746
 30
0.0
 10
246.15451625548
 20
156.6401756100398
 30
0.0
 10
247.0164174587883
 20
156.8717979096704
 30
0.0
  0
SPLINE
  5
D7
330
1F
100
AcDbEntity
  8
0
  6
Continuous
 62
     7
370
    25
100
AcDbSpline
210
0.0
220
0.0
230
1.0
 70
     8
 71
     3
 72
    20
 73
    16
 74
     0
 42
0.000000001
 43
0.00000001
 40
0.0
 40
0.0
 40
0.0
 40
0.0
 40
0.1472150221241041
 40
0.2495264368971872
 40
0.3216333555218928
 40
0.3873059386352851
 40
0.4465451797983723
 40
0.4993475294804595
 40
0.5747224964906368
 40
0.6415186970287164
 40
0.6997345276845482
 40
0.7493673640579561
 40
0.8391715130983514
 40
0.9187634661595968
 40
1.0
 40
1.0
 40
1.0
 40
1.0
 10
248.8000119478859
 20
142.3097871445947
 30
0.0
 10
248.7777795529222
 20
142.3741353193989
 30
0.0
 10
248.7400961003851
 20
142.4832041531908
 30
0.0
 10
248.6942806166858
 20
143.1711365295975
 30
0.0
 10
248.6611682888849
 20
143.8687059077204
 30
0.0
 10
248.6354115931839
 20
144.5724643021445
 30
0.0
 10
248.6136039908964
 20
145.3049882069054
 30
0.0
 10
248.5920889692616
 20
146.1655005180821
 30
0.0
 10
248.5711190968649
 20
147.1593732784719
 30
0.0
 10
248.5519325579247
 20
148.2812005889818
 30
0.0
 10
248.5376504817441
 20
149.3275019684427
 30
0.0
 10
248.5237253540935
 20
150.5703474133529
 30
0.0
 10
248.510575784921
 20
152.0242289435088
 30
0.0
 10
248.50061812407
 20
153.7626289706493
 30
0.0
 10
248.497915121486
 20
154.9149102181997
 30
0.0
 10
248.4965498001732
 20
155.4969422721201
 30
0.0
  0
LINE
  5
D8
330
1F
100
AcDbEntity
  8
0
  6
Continuous
 62
     7
370
    25
100
AcDbLine
 10
246.974932626
 20
157.0799969339
 30
0.0
 11
247.0135862382
 21
156.8711720609
 31
0.0
  0
SPLINE
  5
D9
330
1F
100
AcDbEntity
  8
0
  6
Continuous
 62
     7
370
    25
100
AcDbSpline
210
0.0
220
0.0
230
1.0
 70
     8
 71
     3
 72
    23
 73
    19
 74
     0
 42
0.000000001
 43
0.00000001
 40
0.0
 40
0.0
 40
0.0
 40
0.0
 40
0.0373378635531276
 40
0.0914641936657786
 40
0.1623696324429095
 40
0.250040764530283
 40
0.2935197955716077
 40
0.3402616795951995
 40
0.390268201610404
 40
0.4435362279697685
 40
0.5000674080286336
 40
0.5753227005207392
 40
0.6586326653785819
 40
0.749995043009049
 40
0.7965159811235015
 40
0.8536926963952978
 40
0.921523139439681
 40
1.0
 40
1.0
 40
1.0
 40
1.0
 10
718.8542360813774
 20
155.4725341700845
 30
0.0
 10
718.8613306067182
 20
155.2049402180881
 30
0.0
 10
718.8787096149954
 20
154.5494323041345
 30
0.0
 10
718.9012567245953
 20
153.4011197590679
 30
0.0
 10
718.920629361852
 20
151.9308957004571
 30
0.0
 10
718.9294308596739
 20
150.5925141325317
 30
0.0
 10
718.9321401790414
 20
149.4723890140543
 30
0.0
 10
718.9318106181521
 20
148.6237470228073
 30
0.0
 10
718.9288393825021
 20
147.7598579042275
 30
0.0
 10
718.923424335427
 20
146.8944249400733
 30
0.0
 10
718.914745868579
 20
145.9660150934868
 30
0.0
 10
718.9020584630101
 20
144.9978630894891
 30
0.0
 10
718.884690005422
 20
144.0427216766418
 30
0.0
 10
718.8672212444196
 20
143.3759496104366
 30
0.0
 10
718.8515396519828
 20
142.9199562232812
 30
0.0
 10
718.8371944835179
 20
142.6104041054111
 30
0.0
 10
718.8196955155861
 20
142.3625655679701
 30
0.0
 10
718.8068734189457
 20
142.3282131978143
 30
0.0
 10
718.7999958546318
 20
142.3097871445947
 30
0.0
  0
SPLINE
  5
DA
330
1F
100
AcDbEntity
  8
0
  6
Continuous
 62
     7
370
    25
100
AcDbSpline
210
0.0
220
0.0
230
1.0
 70
     8
 71
     3
 72
    19
 73
    15
 74
     0
 42
0.000000001
 43
0.00000001
 40
0.0
 40
0.0
 40
0.0
 40
0.0
 40
0.0971787237149478
 40
0.2131642240606255
 40
0.3479234591678751
 40
0.5014388065034951
 40
0.5244086783291889
 40
0.5533623060332856
 40
0.5882959889842314
 40
0.6292099465942756
 40
0.6761046620690239
 40
0.8192864424543685
 40
0.9049790387205341
 40
1.0
 40
1.0
 40
1.0
 40
1.0
 10
719.3185562641777
 20
529.0741943024927
 30
0.0
 10
719.3174949921122
 20
529.7715212685835
 30
0.0
 10
719.3151670624201
 20
531.3011272971552
 30
0.0
 10
719.2890933278218
 20
533.6874365512675
 30
0.0
 10
719.2398005727118
 20
536.2413911647695
 30
0.0
 10
719.1856324818933
 20
537.9324746239978
 30
0.0
 10
719.1449510468317
 20
538.90121056659
 30
0.0
 10
719.1271057002799
 20
539.292649792384
 30
0.0
 10
719.1048092389161
 20
539.7368306370224
 30
0.0
 10
719.0776655967188
 20
540.2165316483442
 30
0.0
 10
719.0246229009738
 20
541.0281069739356
 30
0.0
 10
718.9562257943317
 20
541.746065540601
 30
0.0
 10
718.8726845300921
 20
542.2302915714323
 30
0.0
 10
718.8250451224776
 20
542.2823765238334
 30
0.0
 10
718.7999958546318
 20
542.3097633027369
 30
0.0
  0
SPLINE
  5
DB
330
1F
100
AcDbEntity
  8
0
  6
Continuous
 62
     7
370
    25
100
AcDbSpline
210
0.0
220
0.0
230
1.0
 70
     8
 71
     3
 72
    11
 73
     7
 74
     0
 42
0.000000001
 43
0.00000001
 40
0.0
 40
0.0
 40
0.0
 40
0.0
 40
0.1362523504597576
 40
0.2756438926402643
 40
0.5187535248387403
 40
0.9999999999999999
 40
0.9999999999999999
 40
0.9999999999999999
 40
0.9999999999999999
 10
719.3186754734672
 20
529.0744327210718
 30
0.0
 10
719.3033403052854
 20
529.0864630075437
 30
0.0
 10
719.2723166536737
 20
529.1108007527752
 30
0.0
 10
719.2023822386744
 20
529.1375493582927
 30
0.0
 10
719.0793399235212
 20
529.1504693507844
 30
0.0
 10
718.9762868693774
 20
529.1481171153897
 30
0.0
 10
718.9078206570305
 20
529.1465543412501
 30
0.0
  0
SPLINE
  5
DC
330
1F
100
AcDbEntity
  8
0
  6
Continuous
 62
     7
370
    25
100
AcDbSpline
210
0.0
220
0.0
230
1.0
 70
     8
 71
     3
 72
    16
 73
    12
 74
     0
 42
0.000000001
 43
0.00000001
 40
0.0
 40
0.0
 40
0.0
 40
0.0
 40
0.0001250261518367
 40
0.0003355405636193
 40
0.0009954624855592
 40
0.0031516150913871
 40
0.012212173486132
 40
0.0427730465483495
 40
0.1385394668076791
 40
0.5083149660223196
 40
1.0
 40
1.0
 40
1.0
 40
1.0
 10
675.0232452900566
 20
529.1495941781336
 30
0.0
 10
675.0250729604508
 20
529.1495089184281
 30
0.0
 10
675.0299779946787
 20
529.1492801015828
 30
0.0
 10
675.0445431344441
 20
529.1489722245561
 30
0.0
 10
675.0888281055543
 20
529.148400180341
 30
0.0
 10
675.2626218824445
 20
529.147471069997
 30
0.0
 10
675.8739342485532
 20
529.1475548186553
 30
0.0
 10
677.8549724577847
 20
529.1475842634778
 30
0.0
 10
685.1132411997727
 20
529.1475269498258
 30
0.0
 10
699.1160260670355
 20
529.147854389376
 30
0.0
 10
711.7159199030285
 20
529.1464954824828
 30
0.0
 10
718.907403424517
 20
529.1457198762233
 30
0.0
  0
SPLINE
  5
DD
330
1F
100
AcDbEntity
  8
0
  6
Continuous
 62
     7
370
    25
100
AcDbSpline
210
0.0
220
0.0
230
1.0
 70
     8
 71
     3
 72
    18
 73
    14
 74
     0
 42
0.000000001
 43
0.00000001
 40
0.0
 40
0.0
 40
0.0
 40
0.0
 40
0.0784562570267846
 40
0.1599753367723664
 40
0.2445572676882993
 40
0.3322022239402755
 40
0.4229101140615545
 40
0.5166809351165448
 40
0.6078989258787263
 40
0.7018397844035288
 40
0.7985035904971577
 40
0.897890205418257
 40
1.0
 40
1.0
 40
1.0
 40
1.0
 10
246.963354423777
 20
520.3685783051783
 30
0.0
 10
246.963014295681
 20
511.2332335260435
 30
0.0
 10
246.9623207613632
 20
492.6059128641004
 30
0.0
 10
246.9622528093794
 20
464.1299659088633
 30
0.0
 10
246.9625008919605
 20
434.5841025643891
 30
0.0
 10
246.9628976040617
 20
403.9683069831169
 30
0.0
 10
246.9631167562382
 20
372.2825678238627
 30
0.0
 10
246.9629348951554
 20
340.1807866515681
 30
0.0
 10
246.9622933209796
 20
307.7025631822554
 30
0.0
 10
246.9612983091995
 20
274.8874841424475
 30
0.0
 10
246.960492699148
 20
241.1212656128554
 30
0.0
 10
246.9604138360903
 20
206.4038391872097
 30
0.0
 10
246.9628895825208
 20
182.9419459431762
 30
0.0
 10
246.9641441853203
 20
171.0524581574732
 30
0.0
  0
LINE
  5
DE
330
1F
100
AcDbEntity
  8
0
  6
Continuous
 62
     7
370
    25
100
AcDbLine
 10
720.6373090298
 20
523.9434860849
 30
0.0
 11
720.637785867
 21
527.2683523797
 31
0.0
  0
LINE
  5
DF
330
1F
100
AcDbEntity
  8
0
  6
Continuous
 62
     7
370
    25
100
AcDbLine
 10
720.6368321927
 20
527.2682331704
 30
0.0
 11
720.634924844
 21
527.4009131097
 31
0.0
  0
SPLINE
  5
E0
330
1F
100
AcDbEntity
  8
0
  6
Continuous
 62
     7
370
    25
100
AcDbSpline
210
0.0
220
0.0
230
1.0
 70
     8
 71
     3
 72
    15
 73
    11
 74
     0
 42
0.000000001
 43
0.00000001
 40
0.0
 40
0.0
 40
0.0
 40
0.0
 40
0.1250049625768857
 40
0.250002664755912
 40
0.3749978009685654
 40
0.4999937871603937
 40
0.6249896006097009
 40
0.7499882921964526
 40
0.8749928622340621
 40
1.0
 40
1.0
 40
1.0
 40
1.0
 10
720.6369514019646
 20
527.4011515282923
 30
0.0
 10
721.5294036332386
 20
527.4002077655417
 30
0.0
 10
723.3142562613788
 20
527.3983202948551
 30
0.0
 10
725.8278556807408
 20
527.3917347288407
 30
0.0
 10
728.1160188440842
 20
527.3826418435932
 30
0.0
 10
730.0980949089279
 20
527.3712389370501
 30
0.0
 10
731.7140969361232
 20
527.3576365307518
 30
0.0
 10
732.8990132420425
 20
527.3426242563655
 30
0.0
 10
733.658022683772
 20
527.3265102296245
 30
0.0
 10
733.7527013399015
 20
527.3153551866315
 30
0.0
 10
733.8000411541618
 20
527.3097776078516
 30
0.0
  0
SPLINE
  5
E1
330
1F
100
AcDbEntity
  8
0
  6
Continuous
 62
     7
370
    25
100
AcDbSpline
210
0.0
220
0.0
230
1.0
 70
     8
 71
     3
 72
    10
 73
     6
 74
     0
 42
0.000000001
 43
0.00000001
 40
0.0
 40
0.0
 40
0.0
 40
0.0
 40
0.0361455862007281
 40
0.2969035218773177
 40
0.9999999999999999
 40
0.9999999999999999
 40
0.9999999999999999
 40
0.9999999999999999
 10
720.6367129833855
 20
176.2805901669794
 30
0.0
 10
720.6373730061007
 20
180.4693733977506
 30
0.0
 10
720.6427944998219
 20
214.8764649494035
 30
0.0
 10
720.6309838911227
 20
330.7647569257192
 30
0.0
 10
720.6346411751456
 20
442.4634108299765
 30
0.0
 10
720.6373090298332
 20
523.9434860848719
 30
0.0
  0
SPLINE
  5
E2
330
1F
100
AcDbEntity
  8
0
  6
Continuous
 62
     7
370
    25
100
AcDbSpline
210
0.0
220
0.0
230
1.0
 70
     8
 71
     3
 72
    15
 73
    11
 74
     0
 42
0.000000001
 43
0.00000001
 40
0.0
 40
0.0
 40
0.0
 40
0.0
 40
0.1250053376392798
 40
0.2500031474016282
 40
0.3749991177960694
 40
0.4999945441835218
 40
0.6249910239767437
 40
0.74998941126103
 40
0.8749921135771824
 40
0.9999999999999999
 40
0.9999999999999999
 40
0.9999999999999999
 40
0.9999999999999999
 10
720.5863470585502
 20
527.7479313515955
 30
0.0
 10
721.4481963850548
 20
527.9792574547025
 30
0.0
 10
723.171843137115
 20
528.4418957303558
 30
0.0
 10
725.5987512123247
 20
529.0950676814284
 30
0.0
 10
727.8076654697576
 20
529.690913234753
 30
0.0
 10
729.7205737933332
 20
530.2084931260268
 30
0.0
 10
731.2798650290636
 20
530.6322505749549
 30
0.0
 10
732.4224206360539
 20
530.9452161443425
 30
0.0
 10
733.153665759563
 20
531.1482228822591
 30
0.0
 10
733.2438421800435
 20
531.1773723135182
 30
0.0
 10
733.2889313252128
 20
531.1919473313624
 30
0.0
  0
SPLINE
  5
E3
330
1F
100
AcDbEntity
  8
0
  6
Continuous
 62
     7
370
    25
100
AcDbSpline
210
0.0
220
0.0
230
1.0
 70
     8
 71
     3
 72
    11
 73
     7
 74
     0
 42
0.000000001
 43
0.00000001
 40
0.0
 40
0.0
 40
0.0
 40
0.0
 40
0.3764496430536731
 40
0.6726538245231505
 40
0.8787836495864084
 40
1.0
 40
1.0
 40
1.0
 40
1.0
 10
719.3185562641777
 20
529.0741943024927
 30
0.0
 10
719.5427750352867
 20
528.9797066136425
 30
0.0
 10
719.9434172372372
 20
528.8108725970665
 30
0.0
 10
720.3205687933154
 20
528.377162067008
 30
0.0
 10
720.5072019599661
 20
528.0232604955846
 30
0.0
 10
720.5649594493547
 20
527.8223343435319
 30
0.0
 10
720.5863470585502
 20
527.7479313515955
 30
0.0
  0
LINE
  5
E4
330
1F
100
AcDbEntity
  8
0
  6
Continuous
 62
     7
370
    25
100
AcDbLine
 10
720.5863470586
 20
527.7479313516
 30
0.0
 11
720.636951402
 21
527.4011515283
 31
0.0
  0
SPLINE
  5
E5
330
1F
100
AcDbEntity
  8
0
  6
Continuous
 62
     7
370
    25
100
AcDbSpline
210
0.0
220
0.0
230
1.0
 70
     8
 71
     3
 72
    20
 73
    16
 74
     0
 42
0.000000001
 43
0.00000001
 40
0.0
 40
0.0
 40
0.0
 40
0.0
 40
0.1472113762745489
 40
0.2495340802898756
 40
0.3216497917664585
 40
0.3873286175543236
 40
0.4465693321006534
 40
0.4993705887129305
 40
0.5747628840407037
 40
0.6415701156557967
 40
0.699790204254847
 40
0.7494198731746687
 40
0.8392272257342736
 40
0.9188049740051691
 40
1.0
 40
1.0
 40
1.0
 40
1.0
 10
233.80001880242
 20
527.3097776078516
 30
0.0
 10
233.8643566619462
 20
527.3312233354899
 30
0.0
 10
233.9734140528284
 20
527.3675754168152
 30
0.0
 10
234.6613554549303
 20
527.4116962024073
 30
0.0
 10
235.3590017798061
 20
527.4435775930425
 30
0.0
 10
236.0628168084271
 20
527.4684536929768
 30
0.0
 10
236.7953726786212
 20
527.4894250279496
 30
0.0
 10
237.6559246571425
 20
527.5102114633074
 30
0.0
 10
238.6499660672791
 20
527.5303997160729
 30
0.0
 10
239.7719820658856
 20
527.5489564302751
 30
0.0
 10
240.8183500320418
 20
527.5627674045473
 30
0.0
 10
242.0612234227857
 20
527.5762000730864
 30
0.0
 10
243.5150142903131
 20
527.5888539886735
 30
0.0
 10
245.2530106535359
 20
527.598613806971
 30
0.0
 10
246.4048499351922
 20
527.6012725057739
 30
0.0
 10
246.9865629823364
 20
527.6026152276331
 30
0.0
  0
SPLINE
  5
E6
330
1F
100
AcDbEntity
  8
0
  6
Continuous
 62
     7
370
    25
100
AcDbSpline
210
0.0
220
0.0
230
1.0
 70
     8
 71
     3
 72
    10
 73
     6
 74
     0
 42
0.000000001
 43
0.00000001
 40
0.0
 40
0.0
 40
0.0
 40
0.0
 40
0.2148942279008465
 40
0.5048009534594647
 40
1.0
 40
1.0
 40
1.0
 40
1.0
 10
246.9857359678902
 20
527.6028536462123
 30
0.0
 10
246.9795893979401
 20
527.5855101729373
 30
0.0
 10
246.9651506929011
 20
527.5447691910554
 30
0.0
 10
246.9611388919116
 20
527.4588012514654
 30
0.0
 10
246.9622416411793
 20
527.392052418849
 30
0.0
 10
246.9629371912636
 20
527.3499511384302
 30
0.0
  0
LINE
  5
E7
330
1F
100
AcDbEntity
  8
0
  6
Continuous
 62
     7
370
    25
100
AcDbLine
 10
246.9624529035
 20
527.3499511384
 30
0.0
 11
246.9633544238
 21
520.3685783052
 31
0.0
  0
SPLINE
  5
E8
330
1F
100
AcDbEntity
  8
0
  6
Continuous
 62
     7
370
    25
100
AcDbSpline
210
0.0
220
0.0
230
1.0
 70
     8
 71
     3
 72
     9
 73
     5
 74
     0
 42
0.000000001
 43
0.00000001
 40
0.0
 40
0.0
 40
0.0
 40
0.0
 40
0.562060636305431
 40
1.0
 40
1.0
 40
1.0
 40
1.0
 10
248.3616048844017
 20
529.1466139458948
 30
0.0
 10
252.9354325770068
 20
529.1469796601538
 30
0.0
 10
261.073038018779
 20
529.1476303270664
 30
0.0
 10
269.2140800885371
 20
529.1485815525867
 30
0.0
 10
272.7793628723778
 20
529.1489981316859
 30
0.0
  0
SPLINE
  5
E9
330
1F
100
AcDbEntity
  8
0
  6
Continuous
 62
     7
370
    25
100
AcDbSpline
210
0.0
220
0.0
230
1.0
 70
     8
 71
     3
 72
    19
 73
    15
 74
     0
 42
0.000000001
 43
0.00000001
 40
0.0
 40
0.0
 40
0.0
 40
0.0
 40
0.095309985683362
 40
0.1812641160205606
 40
0.3248776350608097
 40
0.4311276946504048
 40
0.4999441012363525
 40
0.5403381622932185
 40
0.5795196714531784
 40
0.6174819448606579
 40
0.6542298287746803
 40
0.7888674933617698
 40
0.9041335523873033
 40
1.0
 40
1.0
 40
1.0
 40
1.0
 10
248.8000119478859
 20
542.3097633027369
 30
0.0
 10
248.7789399337971
 20
542.2823990207712
 30
0.0
 10
248.7388643847432
 20
542.230356599975
 30
0.0
 10
248.6684242875302
 20
541.7461585351547
 30
0.0
 10
248.5986786297648
 20
540.8749426066564
 30
0.0
 10
248.5384761032648
 20
539.6686229788894
 30
0.0
 10
248.5014546442999
 20
538.6941627413022
 30
0.0
 10
248.4778224776799
 20
537.9596674009975
 30
0.0
 10
248.4602766199735
 20
537.3431060974324
 30
0.0
 10
248.4444234559348
 20
536.7149642505392
 30
0.0
 10
248.4174638344601
 20
535.5095902805059
 30
0.0
 10
248.3878048983846
 20
533.7027831815211
 30
0.0
 10
248.3654720576822
 20
531.3411339430476
 30
0.0
 10
248.3628124851429
 20
529.8318958774096
 30
0.0
 10
248.3616048844017
 20
529.1466139458948
 30
0.0
  0
SPLINE
  5
EA
330
1F
100
AcDbEntity
  8
0
  6
Continuous
 62
     7
370
    25
100
AcDbSpline
210
0.0
220
0.0
230
1.0
 70
     8
 71
     3
 72
    14
 73
    10
 74
     0
 42
0.000000001
 43
0.00000001
 40
0.0
 40
0.0
 40
0.0
 40
0.0
 40
0.2645417226426637
 40
0.4983984631840319
 40
0.7090837769609565
 40
0.9577656073268644
 40
0.9874444777232753
 40
0.9984451973692741
 40
1.0
 40
1.0
 40
1.0
 40
1.0
 10
246.9865629823364
 20
527.6026152276331
 30
0.0
 10
247.033851115746
 20
527.7901073650496
 30
0.0
 10
247.1229422911672
 20
528.1433438685921
 30
0.0
 10
247.4237958055322
 20
528.5722209659293
 30
0.0
 10
247.7995807330082
 20
528.910422313173
 30
0.0
 10
248.122004803579
 20
529.0728849097538
 30
0.0
 10
248.3222039325321
 20
529.1356584515693
 30
0.0
 10
248.3516546685198
 20
529.1441023773086
 30
0.0
 10
248.3604819616018
 20
529.1463371986567
 30
0.0
 10
248.3615750820793
 20
529.1466139458948
 30
0.0
  0
SPLINE
  5
EB
330
1F
100
AcDbEntity
  8
0
  6
Continuous
 62
     7
370
    25
100
AcDbSpline
210
0.0
220
0.0
230
1.0
 70
     8
 71
     3
 72
    20
 73
    16
 74
     0
 42
0.000000001
 43
0.00000001
 40
0.0
 40
0.0
 40
0.0
 40
0.0
 40
0.0977754394548561
 40
0.1854852320190207
 40
0.3304837718957398
 40
0.4352929047526904
 40
0.4998278863946227
 40
0.5639110602142584
 40
0.6209647481354444
 40
0.6709863637824371
 40
0.7139765181871028
 40
0.749933700915855
 40
0.8401452327352081
 40
0.9268643665753526
 40
1.0
 40
1.0
 40
1.0
 40
1.0
 10
244.9076349289573
 20
541.795971264773
 30
0.0
 10
244.9168709495504
 20
541.7687550780248
 30
0.0
 10
244.9343921740235
 20
541.7171245178168
 30
0.0
 10
245.0706689858665
 20
541.2337069748398
 30
0.0
 10
245.307031389796
 20
540.3774950811406
 30
0.0
 10
245.6231250096399
 20
539.2211123218824
 30
0.0
 10
245.900399833305
 20
538.203168301828
 30
0.0
 10
246.1453136702316
 20
537.3030073407207
 30
0.0
 10
246.3902321730857
 20
536.401645040027
 30
0.0
 10
246.618524170408
 20
535.5610745177937
 30
0.0
 10
246.8238888620454
 20
534.8043808407497
 30
0.0
 10
247.102545074073
 20
533.7777375775655
 30
0.0
 10
247.4709817745048
 20
532.4204586186569
 30
0.0
 10
247.9251968684661
 20
530.7508243662693
 30
0.0
 10
248.224596060751
 20
529.6501752295071
 30
0.0
 10
248.3615750820793
 20
529.1466139458948
 30
0.0
  0
SPLINE
  5
EC
330
1F
100
AcDbEntity
  8
0
  6
Continuous
 62
     7
370
    25
100
AcDbSpline
210
0.0
220
0.0
230
1.0
 70
     8
 71
     3
 72
     9
 73
     5
 74
     0
 42
0.000000001
 43
0.00000001
 40
0.0
 40
0.0
 40
0.0
 40
0.0
 40
0.6457998508133515
 40
1.0
 40
1.0
 40
1.0
 40
1.0
 10
567.9029101879753
 20
529.1475676202112
 30
0.0
 10
590.962331021327
 20
529.1474620693973
 30
0.0
 10
626.669091876582
 20
529.1472986274056
 30
0.0
 10
662.3757594829787
 20
529.149037776064
 30
0.0
 10
675.0230664761223
 20
529.1496537827784
 30
0.0
  0
SPLINE
  5
ED
330
1F
100
AcDbEntity
  8
0
  6
Continuous
 62
     7
370
    25
100
AcDbSpline
210
0.0
220
0.0
230
1.0
 70
    24
 71
     3
 72
     9
 73
     5
 74
     0
 42
0.000000001
 43
0.00000001
 40
0.0
 40
0.0
 40
0.0
 40
0.0
 40
0.500577263563112
 40
1.0
 40
1.0
 40
1.0
 40
1.0
 10
375.7326180489219
 20
529.1475676202112
 30
0.0
 10
407.7979062658992
 20
529.1475676202112
 30
0.0
 10
471.8545275929173
 20
529.1475676202111
 30
0.0
 10
535.9114344684926
 20
529.1475676202114
 30
0.0
 10
567.9029101879753
 20
529.1475676202112
 30
0.0
  0
SPLINE
  5
EE
330
1F
100
AcDbEntity
  8
0
  6
Continuous
 62
     7
370
    25
100
AcDbSpline
210
0.0
220
0.0
230
1.0
 70
     8
 71
     3
 72
     9
 73
     5
 74
     0
 42
0.000000001
 43
0.00000001
 40
0.0
 40
0.0
 40
0.0
 40
0.0
 40
0.503297302114956
 40
1.0
 40
1.0
 40
1.0
 40
1.0
 10
272.7793628723778
 20
529.1489981316859
 30
0.0
 10
290.0514073708971
 20
529.1487605096821
 30
0.0
 10
324.3691842116207
 20
529.1482883791887
 30
0.0
 10
358.6869107112668
 20
529.147806814628
 30
0.0
 10
375.732618048922
 20
529.1475676202114
 30
0.0
  0
SPLINE
  5
EF
330
1F
100
AcDbEntity
  8
0
  6
Continuous
 62
     7
370
    25
100
AcDbSpline
210
0.0
220
0.0
230
1.0
 70
     8
 71
     3
 72
    10
 73
     6
 74
     0
 42
0.000000001
 43
0.00000001
 40
0.0
 40
0.0
 40
0.0
 40
0.0
 40
0.3329383566845076
 40
0.4999609746956106
 40
1.0
 40
1.0
 40
1.0
 40
1.0
 10
425.0379378349937
 20
434.4348333977991
 30
0.0
 10
425.1543820333125
 20
434.977302616873
 30
0.0
 10
425.3292418946662
 20
435.7919081859382
 30
0.0
 10
425.7221833368055
 20
437.4114689620644
 30
0.0
 10
426.0243863915756
 20
438.4813302077418
 30
0.0
 10
426.2509221584953
 20
439.2833136224085
 30
0.0
  0
SPLINE
  5
F0
330
1F
100
AcDbEntity
  8
0
  6
Continuous
 62
     7
370
    25
100
AcDbSpline
210
0.0
220
0.0
230
1.0
 70
     8
 71
     3
 72
    11
 73
     7
 74
     0
 42
0.000000001
 43
0.00000001
 40
0.0
 40
0.0
 40
0.0
 40
0.0
 40
0.2229400194207058
 40
0.500006796466456
 40
0.7590206810573487
 40
1.0
 40
1.0
 40
1.0
 40
1.0
 10
423.8000089676536
 20
422.3097585343652
 30
0.0
 10
423.8119445374193
 20
423.2170451129562
 30
0.0
 10
423.8387134684439
 20
425.2518949206175
 30
0.0
 10
424.0772221212247
 20
428.3334529668152
 30
0.0
 10
424.4701699168766
 20
431.4728926263169
 30
0.0
 10
424.8532881724554
 20
433.4715500799846
 30
0.0
 10
425.0379378349937
 20
434.4348333977991
 30
0.0
  0
SPLINE
  5
F1
330
1F
100
AcDbEntity
  8
0
  6
Continuous
 62
     7
370
    25
100
AcDbSpline
210
0.0
220
0.0
230
1.0
 70
     8
 71
     3
 72
    30
 73
    26
 74
     0
 42
0.000000001
 43
0.00000001
 40
0.0
 40
0.0
 40
0.0
 40
0.0
 40
0.0466657750238444
 40
0.0977748226098736
 40
0.1433309901784532
 40
0.1899965352461187
 40
0.2499920840817653
 40
0.291659351582238
 40
0.333326317227699
 40
0.3749937640326661
 40
0.416661189810952
 40
0.458328941298682
 40
0.4999965699608072
 40
0.5507762177890609
 40
0.5989528296420417
 40
0.6445258792581187
 40
0.6874952158892231
 40
0.7278604788943341
 40
0.7656224258852895
 40
0.8007802433561029
 40
0.8333340876618709
 40
0.8906222075239659
 40
0.9374970401052612
 40
0.973956427849532
 40
1.0
 40
1.0
 40
1.0
 40
1.0
 10
543.8000137360252
 20
422.3099373482996
 30
0.0
 10
543.7844996875365
 20
423.3432476951849
 30
0.0
 10
543.7519944234928
 20
425.5082548297715
 30
0.0
 10
543.4885246253176
 20
428.6732905030146
 30
0.0
 10
543.0684561437389
 20
431.8198100937049
 30
0.0
 10
542.4491645518319
 20
435.1341611129711
 30
0.0
 10
541.6567268170861
 20
438.3238812791288
 30
0.0
 10
540.7189968295459
 20
441.356654208318
 30
0.0
 10
539.7800924493623
 20
443.9612072107363
 30
0.0
 10
538.7221049059376
 20
446.5196779135325
 30
0.0
 10
537.5472291967511
 20
449.0266468762209
 30
0.0
 10
536.258004864762
 20
451.4767930401115
 30
0.0
 10
534.7550623763804
 20
454.0389057713584
 30
0.0
 10
533.0434729762815
 20
456.6417826924097
 30
0.0
 10
531.1406559295064
 20
459.2164035969031
 30
0.0
 10
529.2168568496944
 20
461.555161680887
 30
0.0
 10
527.2971523379952
 20
463.6686242727842
 30
0.0
 10
525.4042456070739
 20
465.5686969849442
 30
0.0
 10
523.5583279514404
 20
467.2678946054767
 30
0.0
 10
521.777337913887
 20
468.7793023821558
 30
0.0
 10
519.6010801954204
 20
470.4898650722874
 30
0.0
 10
517.1296576834441
 20
472.2416996895066
 30
0.0
 10
514.4878697662236
 20
473.891526553888
 30
0.0
 10
512.3788916815347
 20
475.0836434899525
 30
0.0
 10
511.1463871476876
 20
475.7131114273931
 30
0.0
 10
510.6328303368248
 20
475.9753965043359
 30
0.0
  0
LINE
  5
F2
330
1F
100
AcDbEntity
  8
0
  6
Continuous
 62
     7
370
    25
100
AcDbLine
 10
510.6328303368
 20
475.9753965043
 30
0.0
 11
506.0756976159
 21
478.0215047502
 31
0.0
  0
SPLINE
  5
F3
330
1F
100
AcDbEntity
  8
0
  6
Continuous
 62
     7
370
    25
100
AcDbSpline
210
0.0
220
0.0
230
1.0
 70
     8
 71
     3
 72
    31
 73
    27
 74
     0
 42
0.000000001
 43
0.00000001
 40
0.0
 40
0.0
 40
0.0
 40
0.0
 40
0.0324133338566892
 40
0.0740841273864275
 40
0.1250098104142258
 40
0.1500153237488165
 40
0.1750211183541875
 40
0.2000265616579295
 40
0.2250321816813792
 40
0.2500376458981707
 40
0.3125279661081045
 40
0.3750184365451187
 40
0.4375086892057636
 40
0.4999989264017875
 40
0.5624891573179818
 40
0.6249793969105658
 40
0.6874699987570292
 40
0.7499601263179925
 40
0.7749658484128448
 40
0.7999712097267859
 40
0.8249772411142795
 40
0.8559497649318263
 40
0.8893315121330956
 40
0.9366307867876819
 40
0.9735212454594252
 40
1.0
 40
1.0
 40
1.0
 40
1.0
 10
506.0756976158776
 20
478.0215047501856
 30
0.0
 10
505.0676969128689
 20
478.4061145049975
 30
0.0
 10
502.7638039280416
 20
479.2851810704897
 30
0.0
 10
498.7713009695976
 20
480.4695377298335
 30
0.0
 10
494.9441642025109
 20
481.3085584992118
 30
0.0
 10
491.6227402483677
 20
481.8149926541182
 30
0.0
 10
489.1407385843948
 20
482.0890431045572
 30
0.0
 10
486.6494926401357
 20
482.2593865044591
 30
0.0
 10
484.1532646075258
 20
482.3260697760855
 30
0.0
 10
480.4091541544394
 20
482.2702069981199
 30
0.0
 10
475.4272561003687
 20
481.8321067467472
 30
0.0
 10
469.2923424021441
 20
480.6410348930125
 30
0.0
 10
463.3138626339841
 20
478.819325266575
 30
0.0
 10
457.5569588938225
 20
476.3867165900348
 30
0.0
 10
452.0837841902275
 20
473.3694564556025
 30
0.0
 10
446.9533821319608
 20
469.8001609040264
 30
0.0
 10
442.2216291461031
 20
465.7177213002519
 30
0.0
 10
438.7948322247474
 20
462.0751432163797
 30
0.0
 10
436.4342116472343
 20
459.1684468341402
 30
0.0
 10
434.9419755147357
 20
457.1662063412955
 30
0.0
 10
433.4223943512938
 20
454.9396719099508
 30
0.0
 10
431.8616810357323
 20
452.4069121795152
 30
0.0
 10
430.0828822641408
 20
449.1426936515828
 30
0.0
 10
428.4477315715401
 20
445.5840459933008
 30
0.0
 10
427.1341949206488
 20
442.1402518976324
 30
0.0
 10
426.5112281314224
 20
440.1252710892182
 30
0.0
 10
426.2509221584953
 20
439.2833136224085
 30
0.0
  0
SPLINE
  5
F4
330
1F
100
AcDbEntity
  8
0
  6
Continuous
 62
     7
370
    25
100
AcDbSpline
210
0.0
220
0.0
230
1.0
 70
     8
 71
     3
 72
    10
 73
     6
 74
     0
 42
0.000000001
 43
0.00000001
 40
0.0
 40
0.0
 40
0.0
 40
0.0
 40
0.1836496544421493
 40
0.5000037511566033
 40
1.0
 40
1.0
 40
1.0
 40
1.0
 10
542.5680751354851
 20
410.2136515282923
 30
0.0
 10
542.5049123257176
 20
409.9142102714528
 30
0.0
 10
542.3329455343109
 20
409.0989528067677
 30
0.0
 10
541.9519798744628
 20
407.4762896671193
 30
0.0
 10
541.5832710612059
 20
406.1666626093999
 30
0.0
 10
541.3574451954521
 20
405.3645454549127
 30
0.0
  0
SPLINE
  5
F5
330
1F
100
AcDbEntity
  8
0
  6
Continuous
 62
     7
370
    25
100
AcDbSpline
210
0.0
220
0.0
230
1.0
 70
     8
 71
     3
 72
    14
 73
    10
 74
     0
 42
0.000000001
 43
0.00000001
 40
0.0
 40
0.0
 40
0.0
 40
0.0
 40
0.1574303489330792
 40
0.3100078230165115
 40
0.4577230759885701
 40
0.6005820232840302
 40
0.7385785991456835
 40
0.8717185102998268
 40
0.9999999999999999
 40
0.9999999999999999
 40
0.9999999999999999
 40
0.9999999999999999
 10
543.8000137360252
 20
422.3099373482996
 30
0.0
 10
543.7941292709756
 20
421.6707776672465
 30
0.0
 10
543.7825417326643
 20
420.4121607447404
 30
0.0
 10
543.6910989956687
 20
418.5556902446255
 30
0.0
 10
543.5518283879405
 20
416.7617851459482
 30
0.0
 10
543.3652506671278
 20
415.0316209653921
 30
0.0
 10
543.1368413563304
 20
413.3663146862201
 30
0.0
 10
542.875337887645
 20
411.7656970530071
 30
0.0
 10
542.6692191724727
 20
410.7245502586292
 30
0.0
 10
542.5680751354851
 20
410.2136515282922
 30
0.0
  0
SPLINE
  5
F6
330
1F
100
AcDbEntity
  8
0
  6
Continuous
 62
     8
370
    25
100
AcDbSpline
210
0.0
220
0.0
230
1.0
 70
     8
 71
     3
 72
    12
 73
     8
 74
     0
 42
0.000000001
 43
0.00000001
 40
0.0
 40
0.0
 40
0.0
 40
0.0
 40
0.2635942151744129
 40
0.4531041468105559
 40
0.6509978816208576
 40
0.8488821532518706
 40
1.0
 40
1.0
 40
1.0
 40
1.0
 10
516.7569691689171
 20
407.0684932374292
 30
0.0
 10
516.8764509558548
 20
407.0132397692939
 30
0.0
 10
517.0818336615946
 20
406.9182620569749
 30
0.0
 10
517.3287857811865
 20
406.8040696010416
 30
0.0
 10
517.4961955859627
 20
406.726661426393
 30
0.0
 10
517.5958928659276
 20
406.6805234422346
 30
0.0
 10
517.6013290734953
 20
406.6780091929916
 30
0.0
 10
517.6036829502739
 20
406.6769205235773
 30
0.0
  0
SPLINE
  5
F7
330
1F
100
AcDbEntity
  8
0
  6
Continuous
 62
     8
370
    25
100
AcDbSpline
210
0.0
220
0.0
230
1.0
 70
     8
 71
     3
 72
    12
 73
     8
 74
     0
 42
0.000000001
 43
0.00000001
 40
0.0
 40
0.0
 40
0.0
 40
0.0
 40
0.1511126926111723
 40
0.3489901396920802
 40
0.5468801338354244
 40
0.7363933532392966
 40
0.9999999999999999
 40
0.9999999999999999
 40
0.9999999999999999
 40
0.9999999999999999
 10
449.9963695557274
 20
437.9426263474756
 30
0.0
 10
449.9987111732881
 20
437.9415478558891
 30
0.0
 10
450.004119067394
 20
437.9390571125711
 30
0.0
 10
450.1038307960288
 20
437.892949612759
 30
0.0
 10
450.2712411843488
 20
437.8155438895172
 30
0.0
 10
450.5181882920355
 20
437.7012986579073
 30
0.0
 10
450.7235893713525
 20
437.6063314702234
 30
0.0
 10
450.8430833370842
 20
437.5510834359461
 30
0.0
  0
LINE
  5
F8
330
1F
100
AcDbEntity
  8
0
  6
Continuous
 62
     8
370
    25
100
AcDbLine
 10
497.8767807038
 20
480.609598031
 30
0.0
 11
498.5500151665
 21
480.609598031
 31
0.0
  0
ENDSEC
  0
SECTION
  2
OBJECTS
  0
DICTIONARY
  5
C
330
0
100
AcDbDictionary
281
     1
  3
ACAD_GROUP
350
D
  3
ACAD_LAYOUT
350
1A
  3
ACAD_MLINESTYLE
350
17
  3
ACAD_PLOTSETTINGS
350
19
  3
ACAD_PLOTSTYLENAME
350
E
  3
ACAD_SCALELIST
350
47
  0
DICTIONARY
  5
D
102
{ACAD_REACTORS
330
C
102
}
330
C
100
AcDbDictionary
281
     1
  0
DICTIONARY
  5
1A
102
{ACAD_REACTORS
330
C
102
}
330
C
100
AcDbDictionary
281
     1
  3
Layout1
350
1E
  3
Layout2
350
26
  3
Model
350
22
  0
DICTIONARY
  5
17
102
{ACAD_REACTORS
330
C
102
}
330
C
100
AcDbDictionary
281
     1
  3
Standard
350
18
  0
DICTIONARY
  5
19
102
{ACAD_REACTORS
330
C
102
}
330
C
100
AcDbDictionary
281
     1
  0
ACDBDICTIONARYWDFLT
  5
E
102
{ACAD_REACTORS
330
C
102
}
330
C
100
AcDbDictionary
281
     1
  3
Normal
350
F
100
AcDbDictionaryWithDefault
340
F
  0
DICTIONARY
  5
47
102
{ACAD_REACTORS
330
C
102
}
330
C
100
AcDbDictionary
281
     1
  3
A0
350
48
  3
A1
350
49
  3
A2
350
4A
  3
A3
350
4B
  3
A4
350
4C
  3
A5
350
4D
  3
A6
350
4E
  3
A7
350
4F
  3
A8
350
50
  3
A9
350
51
  3
B0
350
52
  3
B1
350
53
  3
B2
350
54
  3
B3
350
55
  3
B4
350
56
  3
B5
350
57
  3
B6
350
58
  3
B7
350
59
  3
B8
350
5A
  3
B9
350
5B
  3
C0
350
5C
  3
C1
350
5D
  3
C2
350
5E
  3
C3
350
5F
  3
C4
350
60
  3
C5
350
61
  3
C6
350
62
  3
C7
350
63
  3
C8
350
64
  3
C9
350
65
  3
D0
350
66
  3
D1
350
67
  3
D2
350
68
  0
LAYOUT
  5
1E
102
{ACAD_REACTORS
330
1A
102
}
330
1A
100
AcDbPlotSettings
  1

  2
none_device
  4

  6

 40
0.0
 41
0.0
 42
0.0
 43
0.0
 44
0.0
 45
0.0
 46
0.0
 47
0.0
 48
0.0
 49
0.0
140
0.0
141
0.0
142
1.0
143
1.0
 70
   688
 72
     1
 73
     0
 74
     5
  7

 75
    16
147
1.0
148
0.0
149
0.0
100
AcDbLayout
  1
Layout1
 70
     1
 71
     1
 10
0.0
 20
0.0
 11
420.0
 21
297.0
 12
0.0
 22
0.0
 32
0.0
 14
1.0000000000E+20
 24
1.0000000000E+20
 34
1.0000000000E+20
 15
-1.0000000000E+20
 25
-1.0000000000E+20
 35
-1.0000000000E+20
146
0.0
 13
0.0
 23
0.0
 33
0.0
 16
1.0
 26
0.0
 36
0.0
 17
0.0
 27
1.0
 37
0.0
 76
     0
330
1B
  0
LAYOUT
  5
26
102
{ACAD_REACTORS
330
1A
102
}
330
1A
100
AcDbPlotSettings
  1

  2
none_device
  4

  6

 40
0.0
 41
0.0
 42
0.0
 43
0.0
 44
0.0
 45
0.0
 46
0.0
 47
0.0
 48
0.0
 49
0.0
140
0.0
141
0.0
142
1.0
143
1.0
 70
   688
 72
     1
 73
     0
 74
     5
  7

 75
    16
147
1.0
148
0.0
149
0.0
100
AcDbLayout
  1
Layout2
 70
     1
 71
     2
 10
0.0
 20
0.0
 11
0.0
 21
0.0
 12
0.0
 22
0.0
 32
0.0
 14
0.0
 24
0.0
 34
0.0
 15
0.0
 25
0.0
 35
0.0
146
0.0
 13
0.0
 23
0.0
 33
0.0
 16
1.0
 26
0.0
 36
0.0
 17
0.0
 27
1.0
 37
0.0
 76
     0
330
23
  0
LAYOUT
  5
22
102
{ACAD_REACTORS
330
1A
102
}
330
1A
100
AcDbPlotSettings
  1

  2
none_device
  4
Letter_(8.50_x_11.00_Inches)
  6

 40
6.35
 41
6.35
 42
6.35000508
 43
6.35000508
 44
215.9
 45
279.4
 46
0.0
 47
0.0
 48
0.0
 49
0.0
140
0.0
141
0.0
142
1.0
143
1.0
 70
  1712
 72
     1
 73
     0
 74
     0
  7

 75
     0
147
1.0
148
0.0
149
0.0
100
AcDbLayout
  1
Model
 70
     1
 71
     0
 10
0.0
 20
0.0
 11
1000.0
 21
700.0
 12
0.0
 22
0.0
 32
0.0
 14
0.0
 24
0.0
 34
0.0
 15
1000.0
 25
700.0
 35
0.0
146
0.0
 13
0.0
 23
0.0
 33
0.0
 16
1.0
 26
0.0
 36
0.0
 17
0.0
 27
1.0
 37
0.0
 76
     0
330
1F
331
29
  0
MLINESTYLE
  5
18
102
{ACAD_REACTORS
330
17
102
}
330
17
100
AcDbMlineStyle
  2
Standard
 70
     0
  3

 62
   256
 51
90.0
 52
90.0
 71
     2
 49
0.5
 62
   256
  6
BYLAYER
 49
-0.5
 62
   256
  6
BYLAYER
  0
ACDBPLACEHOLDER
  5
F
102
{ACAD_REACTORS
330
E
102
}
330
E
  0
SCALE
  5
48
102
{ACAD_REACTORS
330
47
102
}
330
47
100
AcDbScale
 70
     0
300
1:1
140
1.0
141
1.0
290
     1
  0
SCALE
  5
49
102
{ACAD_REACTORS
330
47
102
}
330
47
100
AcDbScale
 70
     0
300
1:2
140
1.0
141
2.0
290
     0
  0
SCALE
  5
4A
102
{ACAD_REACTORS
330
47
102
}
330
47
100
AcDbScale
 70
     0
300
1:4
140
1.0
141
4.0
290
     0
  0
SCALE
  5
4B
102
{ACAD_REACTORS
330
47
102
}
330
47
100
AcDbScale
 70
     0
300
1:5
140
1.0
141
5.0
290
     0
  0
SCALE
  5
4C
102
{ACAD_REACTORS
330
47
102
}
330
47
100
AcDbScale
 70
     0
300
1:8
140
1.0
141
8.0
290
     0
  0
SCALE
  5
4D
102
{ACAD_REACTORS
330
47
102
}
330
47
100
AcDbScale
 70
     0
300
1:10
140
1.0
141
10.0
290
     0
  0
SCALE
  5
4E
102
{ACAD_REACTORS
330
47
102
}
330
47
100
AcDbScale
 70
     0
300
1:16
140
1.0
141
16.0
290
     0
  0
SCALE
  5
4F
102
{ACAD_REACTORS
330
47
102
}
330
47
100
AcDbScale
 70
     0
300
1:20
140
1.0
141
20.0
290
     0
  0
SCALE
  5
50
102
{ACAD_REACTORS
330
47
102
}
330
47
100
AcDbScale
 70
     0
300
1:30
140
1.0
141
30.0
290
     0
  0
SCALE
  5
51
102
{ACAD_REACTORS
330
47
102
}
330
47
100
AcDbScale
 70
     0
300
1:40
140
1.0
141
40.0
290
     0
  0
SCALE
  5
52
102
{ACAD_REACTORS
330
47
102
}
330
47
100
AcDbScale
 70
     0
300
1:50
140
1.0
141
50.0
290
     0
  0
SCALE
  5
53
102
{ACAD_REACTORS
330
47
102
}
330
47
100
AcDbScale
 70
     0
300
1:100
140
1.0
141
100.0
290
     0
  0
SCALE
  5
54
102
{ACAD_REACTORS
330
47
102
}
330
47
100
AcDbScale
 70
     0
300
2:1
140
2.0
141
1.0
290
     0
  0
SCALE
  5
55
102
{ACAD_REACTORS
330
47
102
}
330
47
100
AcDbScale
 70
     0
300
4:1
140
4.0
141
1.0
290
     0
  0
SCALE
  5
56
102
{ACAD_REACTORS
330
47
102
}
330
47
100
AcDbScale
 70
     0
300
8:1
140
8.0
141
1.0
290
     0
  0
SCALE
  5
57
102
{ACAD_REACTORS
330
47
102
}
330
47
100
AcDbScale
 70
     0
300
10:1
140
10.0
141
1.0
290
     0
  0
SCALE
  5
58
102
{ACAD_REACTORS
330
47
102
}
330
47
100
AcDbScale
 70
     0
300
100:1
140
100.0
141
1.0
290
     0
  0
SCALE
  5
59
102
{ACAD_REACTORS
330
47
102
}
330
47
100
AcDbScale
 70
     0
300
1/128" = 1'-0"
140
0.0078125
141
12.0
290
     0
  0
SCALE
  5
5A
102
{ACAD_REACTORS
330
47
102
}
330
47
100
AcDbScale
 70
     0
300
1/64" = 1'-0"
140
0.015625
141
12.0
290
     0
  0
SCALE
  5
5B
102
{ACAD_REACTORS
330
47
102
}
330
47
100
AcDbScale
 70
     0
300
1/32" = 1'-0"
140
0.03125
141
12.0
290
     0
  0
SCALE
  5
5C
102
{ACAD_REACTORS
330
47
102
}
330
47
100
AcDbScale
 70
     0
300
1/16" = 1'-0"
140
0.0625
141
12.0
290
     0
  0
SCALE
  5
5D
102
{ACAD_REACTORS
330
47
102
}
330
47
100
AcDbScale
 70
     0
300
3/32" = 1'-0"
140
0.09375
141
12.0
290
     0
  0
SCALE
  5
5E
102
{ACAD_REACTORS
330
47
102
}
330
47
100
AcDbScale
 70
     0
300
1/8" = 1'-0"
140
0.125
141
12.0
290
     0
  0
SCALE
  5
5F
102
{ACAD_REACTORS
330
47
102
}
330
47
100
AcDbScale
 70
     0
300
3/16" = 1'-0"
140
0.1875
141
12.0
290
     0
  0
SCALE
  5
60
102
{ACAD_REACTORS
330
47
102
}
330
47
100
AcDbScale
 70
     0
300
1/4" = 1'-0"
140
0.25
141
12.0
290
     0
  0
SCALE
  5
61
102
{ACAD_REACTORS
330
47
102
}
330
47
100
AcDbScale
 70
     0
300
3/8" = 1'-0"
140
0.375
141
12.0
290
     0
  0
SCALE
  5
62
102
{ACAD_REACTORS
330
47
102
}
330
47
100
AcDbScale
 70
     0
300
1/2" = 1'-0"
140
0.5
141
12.0
290
     0
  0
SCALE
  5
63
102
{ACAD_REACTORS
330
47
102
}
330
47
100
AcDbScale
 70
     0
300
3/4" = 1'-0"
140
0.75
141
12.0
290
     0
  0
SCALE
  5
64
102
{ACAD_REACTORS
330
47
102
}
330
47
100
AcDbScale
 70
     0
300
1" = 1'-0"
140
1.0
141
12.0
290
     0
  0
SCALE
  5
65
102
{ACAD_REACTORS
330
47
102
}
330
47
100
AcDbScale
 70
     0
300
1-1/2" = 1'-0"
140
1.5
141
12.0
290
     0
  0
SCALE
  5
66
102
{ACAD_REACTORS
330
47
102
}
330
47
100
AcDbScale
 70
     0
300
3" = 1'-0"
140
3.0
141
12.0
290
     0
  0
SCALE
  5
67
102
{ACAD_REACTORS
330
47
102
}
330
47
100
AcDbScale
 70
     0
300
6" = 1'-0"
140
6.0
141
12.0
290
     0
  0
SCALE
  5
68
102
{ACAD_REACTORS
330
47
102
}
330
47
100
AcDbScale
 70
     0
300
1'-0" = 1'-0"
140
12.0
141
12.0
290
     0
  0
ENDSEC
  0
EOF
