  0
SECTION
  2
HEADER
  9
$ACADVER
  1
AC1015
  9
$ACADMAINTVER
 70
     6
  9
$DWGCODEPAGE
  3
ANSI_1252
  9
$INSBASE
 10
0.0
 20
0.0
 30
0.0
  9
$EXTMIN
 10
0.0
 20
0.0
 30
0.0
  9
$EXTMAX
 10
1000.0
 20
700.0
 30
0.0
  9
$LIMMIN
 10
0.0
 20
0.0
  9
$LIMMAX
 10
1000.0
 20
700.0
  9
$ORTHOMODE
 70
     0
  9
$REGENMODE
 70
     1
  9
$FILLMODE
 70
     1
  9
$QTEXTMODE
 70
     0
  9
$MIRRTEXT
 70
     1
  9
$LTSCALE
 40
1.0
  9
$ATTMODE
 70
     1
  9
$TEXTSIZE
 40
5.0
  9
$TRACEWID
 40
1.0
  9
$TEXTSTYLE
  7
Standard
  9
$CLAYER
  8
0
  9
$CELTYPE
  6
ByLayer
  9
$CECOLOR
 62
   256
  9
$CELTSCALE
 40
1.0
  9
$DISPSILH
 70
     0
  9
$DIMSCALE
 40
1.0
  9
$DIMASZ
 40
6.0
  9
$DIMEXO
 40
1.0
  9
$DIMDLI
 40
3.75
  9
$DIMRND
 40
0.0
  9
$DIMDLE
 40
0.0
  9
$DIMEXE
 40
1.0
  9
$DIMTP
 40
0.0
  9
$DIMTM
 40
0.0
  9
$DIMTXT
 40
5.0
  9
$DIMCEN
 40
2.5
  9
$DIMTSZ
 40
0.0
  9
$DIMTOL
 70
     0
  9
$DIMLIM
 70
     0
  9
$DIMTIH
 70
     1
  9
$DIMTOH
 70
     1
  9
$DIMSE1
 70
     0
  9
$DIMSE2
 70
     0
  9
$DIMTAD
 70
     1
  9
$DIMZIN
 70
     0
  9
$DIMBLK
  1

  9
$DIMASO
 70
     1
  9
$DIMSHO
 70
     1
  9
$DIMPOST
  1

  9
$DIMAPOST
  1

  9
$DIMALT
 70
     0
  9
$DIMALTD
 70
     3
  9
$DIMALTF
 40
0.0393700787
  9
$DIMLFAC
 40
1.0
  9
$DIMTOFL
 70
     1
  9
$DIMTVP
 40
0.0
  9
$DIMTIX
 70
     0
  9
$DIMSOXD
 70
     0
  9
$DIMSAH
 70
     0
  9
$DIMBLK1
  1

  9
$DIMBLK2
  1

  9
$DIMSTYLE
  2
ISO-25
  9
$DIMCLRD
 70
     0
  9
$DIMCLRE
 70
     0
  9
$DIMCLRT
 70
     0
  9
$DIMTFAC
 40
1.0
  9
$DIMGAP
 40
1.524
  9
$DIMJUST
 70
     0
  9
$DIMSD1
 70
     0
  9
$DIMSD2
 70
     0
  9
$DIMTOLJ
 70
     0
  9
$DIMTZIN
 70
     0
  9
$DIMALTZ
 70
     0
  9
$DIMALTTZ
 70
     0
  9
$DIMUPT
 70
     0
  9
$DIMDEC
 70
     2
  9
$DIMTDEC
 70
     2
  9
$DIMALTU
 70
     2
  9
$DIMALTTD
 70
     3
  9
$DIMTXSTY
  7
Standard
  9
$DIMAUNIT
 70
     0
  9
$DIMADEC
 70
     2
  9
$DIMALTRND
 40
0.0
  9
$DIMAZIN
 70
     0
  9
$DIMDSEP
 70
    44
  9
$DIMATFIT
 70
     3
  9
$DIMFRAC
 70
     0
  9
$DIMLDRBLK
  1

  9
$DIMLUNIT
 70
     2
  9
$DIMLWD
 70
    -2
  9
$DIMLWE
 70
    -2
  9
$DIMTMOVE
 70
     0
  9
$LUNITS
 70
     2
  9
$LUPREC
 70
     2
  9
$SKETCHINC
 40
1.0
  9
$FILLETRAD
 40
10.0
  9
$AUNITS
 70
     0
  9
$AUPREC
 70
     2
  9
$MENU
  1
.
  9
$ELEVATION
 40
0.0
  9
$PELEVATION
 40
0.0
  9
$THICKNESS
 40
0.0
  9
$LIMCHECK
 70
     0
  9
$CHAMFERA
 40
0.0
  9
$CHAMFERB
 40
0.0
  9
$CHAMFERC
 40
0.0
  9
$CHAMFERD
 40
0.0
  9
$SKPOLY
 70
     0
  9
$TDCREATE
 40
2458582.569941042
  9
$TDUCREATE
 40
2458582.444941042
  9
$TDUPDATE
 40
2458582.569942176
  9
$TDUUPDATE
 40
2458582.444942176
  9
$TDINDWG
 40
0.0000000116
  9
$TDUSRTIMER
 40
0.0000000116
  9
$USRTIMER
 70
     1
  9
$ANGBASE
 50
0.0
  9
$ANGDIR
 70
     0
  9
$PDMODE
 70
     0
  9
$PDSIZE
 40
-1.0
  9
$PLINEWID
 40
0.0
  9
$SPLFRAME
 70
     0
  9
$SPLINETYPE
 70
     6
  9
$SPLINESEGS
 70
     8
  9
$HANDSEED
  5
145
  9
$SURFTAB1
 70
     6
  9
$SURFTAB2
 70
     6
  9
$SURFTYPE
 70
     6
  9
$SURFU
 70
     6
  9
$SURFV
 70
     6
  9
$UCSBASE
  2

  9
$UCSNAME
  2

  9
$UCSORG
 10
0.0
 20
0.0
 30
0.0
  9
$UCSXDIR
 10
1.0
 20
0.0
 30
0.0
  9
$UCSYDIR
 10
0.0
 20
1.0
 30
0.0
  9
$UCSORTHOREF
  2

  9
$UCSORTHOVIEW
 70
     0
  9
$UCSORGTOP
 10
0.0
 20
0.0
 30
0.0
  9
$UCSORGBOTTOM
 10
0.0
 20
0.0
 30
0.0
  9
$UCSORGLEFT
 10
0.0
 20
0.0
 30
0.0
  9
$UCSORGRIGHT
 10
0.0
 20
0.0
 30
0.0
  9
$UCSORGFRONT
 10
0.0
 20
0.0
 30
0.0
  9
$UCSORGBACK
 10
0.0
 20
0.0
 30
0.0
  9
$PUCSBASE
  2

  9
$PUCSNAME
  2

  9
$PUCSORG
 10
0.0
 20
0.0
 30
0.0
  9
$PUCSXDIR
 10
1.0
 20
0.0
 30
0.0
  9
$PUCSYDIR
 10
0.0
 20
1.0
 30
0.0
  9
$PUCSORTHOREF
  2

  9
$PUCSORTHOVIEW
 70
     0
  9
$PUCSORGTOP
 10
0.0
 20
0.0
 30
0.0
  9
$PUCSORGBOTTOM
 10
0.0
 20
0.0
 30
0.0
  9
$PUCSORGLEFT
 10
0.0
 20
0.0
 30
0.0
  9
$PUCSORGRIGHT
 10
0.0
 20
0.0
 30
0.0
  9
$PUCSORGFRONT
 10
0.0
 20
0.0
 30
0.0
  9
$PUCSORGBACK
 10
0.0
 20
0.0
 30
0.0
  9
$USERI1
 70
     0
  9
$USERI2
 70
     0
  9
$USERI3
 70
     0
  9
$USERI4
 70
     0
  9
$USERI5
 70
     0
  9
$USERR1
 40
0.0
  9
$USERR2
 40
0.0
  9
$USERR3
 40
0.0
  9
$USERR4
 40
0.0
  9
$USERR5
 40
0.0
  9
$WORLDVIEW
 70
     1
  9
$SHADEDGE
 70
     3
  9
$SHADEDIF
 70
    70
  9
$TILEMODE
 70
     1
  9
$MAXACTVP
 70
    64
  9
$PINSBASE
 10
0.0
 20
0.0
 30
0.0
  9
$PLIMCHECK
 70
     0
  9
$PEXTMIN
 10
1.0000000000E+20
 20
1.0000000000E+20
 30
1.0000000000E+20
  9
$PEXTMAX
 10
-1.0000000000E+20
 20
-1.0000000000E+20
 30
-1.0000000000E+20
  9
$PLIMMIN
 10
0.0
 20
0.0
  9
$PLIMMAX
 10
420.0
 20
297.0
  9
$UNITMODE
 70
     0
  9
$VISRETAIN
 70
     1
  9
$PLINEGEN
 70
     0
  9
$PSLTSCALE
 70
     1
  9
$TREEDEPTH
 70
  3020
  9
$CMLSTYLE
  2
Standard
  9
$CMLJUST
 70
     0
  9
$CMLSCALE
 40
20.0
  9
$PROXYGRAPHICS
 70
     1
  9
$MEASUREMENT
 70
     1
  9
$CELWEIGHT
370
    -1
  9
$ENDCAPS
280
     0
  9
$JOINSTYLE
280
     0
  9
$LWDISPLAY
290
     1
  9
$INSUNITS
 70
     4
  9
$HYPERLINKBASE
  1

  9
$STYLESHEET
  1

  9
$XEDIT
290
     1
  9
$CEPSNTYPE
380
     0
  9
$PSTYLEMODE
290
     1
  9
$FINGERPRINTGUID
  2
{9F9EBF8F-3590-47FA-9B89-8033F7FD7639}
  9
$VERSIONGUID
  2
{FAEB1C32-E019-11D5-929B-00C0DF256EC4}
  9
$EXTNAMES
290
     1
  9
$PSVPSCALE
 40
0.0
  9
$OLESTARTUP
290
     0
  0
ENDSEC
  0
SECTION
  2
CLASSES
  0
CLASS
  1
ACDBDICTIONARYWDFLT
  2
AcDbDictionaryWithDefault
  3
ObjectDBX Classes
 90
        0
280
     0
281
     0
  0
CLASS
  1
VISUALSTYLE
  2
AcDbVisualStyle
  3
ObjectDBX Classes
 90
     4095
280
     0
281
     0
  0
CLASS
  1
MATERIAL
  2
AcDbMaterial
  3
ObjectDBX Classes
 90
     1153
280
     0
281
     0
  0
CLASS
  1
SCALE
  2
AcDbScale
  3
ObjectDBX Classes
 90
     1153
280
     0
281
     0
  0
CLASS
  1
TABLESTYLE
  2
AcDbTableStyle
  3
ObjectDBX Classes
 90
     4095
280
     0
281
     0
  0
CLASS
  1
MLEADERSTYLE
  2
AcDbMLeaderStyle
  3
ACDB_MLEADERSTYLE_CLASS
 90
     4095
280
     0
281
     0
  0
CLASS
  1
SUN
  2
AcDbSun
  3
SCENEOE
 90
     1153
280
     0
281
     0
  0
CLASS
  1
ACDBPLACEHOLDER
  2
AcDbPlaceHolder
  3
ObjectDBX Classes
 90
        0
280
     0
281
     0
  0
CLASS
  1
LAYOUT
  2
AcDbLayout
  3
ObjectDBX Classes
 90
        0
280
     0
281
     0
  0
ENDSEC
  0
SECTION
  2
TABLES
  0
TABLE
  2
VPORT
  5
8
330
0
100
AcDbSymbolTable
 70
     1
  0
VPORT
  5
29
330
8
100
AcDbSymbolTableRecord
100
AcDbViewportTableRecord
  2
*Active
 70
     0
 10
0.0
 20
0.0
 11
1.0
 21
1.0
 12
500.0
 22
350.0
 13
0.0
 23
0.0
 14
10.0
 24
10.0
 15
10.0
 25
10.0
 16
0.0
 26
0.0
 36
1.0
 17
0.0
 27
0.0
 37
0.0
 40
700.0
 41
1.4285714286
 42
50.0
 43
0.0
 44
0.0
 50
0.0
 51
0.0
 71
     0
 72
  2000
 73
     1
 74
     3
 75
     0
 76
     0
 77
     0
 78
     0
281
     0
 65
     1
110
0.0
120
0.0
130
0.0
111
1.0
121
0.0
131
0.0
112
0.0
122
1.0
132
0.0
 79
     0
146
0.0
  0
ENDTAB
  0
TABLE
  2
LTYPE
  5
5
330
0
100
AcDbSymbolTable
 70
     6
  0
LTYPE
  5
14
330
5
100
AcDbSymbolTableRecord
100
AcDbLinetypeTableRecord
  2
ByBlock
 70
     0
  3

 72
    65
 73
     0
 40
0.0
  0
LTYPE
  5
15
330
5
100
AcDbSymbolTableRecord
100
AcDbLinetypeTableRecord
  2
ByLayer
 70
     0
  3

 72
    65
 73
     0
 40
0.0
  0
LTYPE
  5
16
330
5
100
AcDbSymbolTableRecord
100
AcDbLinetypeTableRecord
  2
Continuous
 70
     0
  3
Solid line
 72
    65
 73
     0
 40
0.0
  0
LTYPE
  5
6E
330
5
100
AcDbSymbolTableRecord
100
AcDbLinetypeTableRecord
  2
HIDDEN
 70
     0
  3
Hidden __ __ __ __ __ __ __ __ __ __ __ __ __ __
 72
    65
 73
     2
 40
1.905
 49
1.27
 74
     0
 49
-0.635
 74
     0
  0
LTYPE
  5
6F
330
5
100
AcDbSymbolTableRecord
100
AcDbLinetypeTableRecord
  2
PHANTOM
 70
     0
  3
Phantom ______  __  __  ______  __  __  ______
 72
    65
 73
     6
 40
12.7
 49
6.35
 74
     0
 49
-1.27
 74
     0
 49
1.27
 74
     0
 49
-1.27
 74
     0
 49
1.27
 74
     0
 49
-1.27
 74
     0
  0
LTYPE
  5
70
330
5
100
AcDbSymbolTableRecord
100
AcDbLinetypeTableRecord
  2
CENTER
 70
     0
  3
Center ____ _ ____ _ ____ _ ____ _ ____ _ ____
 72
    65
 73
     4
 40
10.16
 49
6.35
 74
     0
 49
-1.27
 74
     0
 49
1.27
 74
     0
 49
-1.27
 74
     0
  0
LTYPE
  5
71
330
5
100
AcDbSymbolTableRecord
100
AcDbLinetypeTableRecord
  2
CENTERX2
 70
     0
  3
Center (2x) ________  __  ________  __  _____
 72
    65
 73
     4
 40
20.32
 49
12.7
 74
     0
 49
-2.54
 74
     0
 49
2.54
 74
     0
 49
-2.54
 74
     0
  0
LTYPE
  5
72
330
5
100
AcDbSymbolTableRecord
100
AcDbLinetypeTableRecord
  2
DOT2
 70
     0
  3
Dot (.5x) ........................................
 72
    65
 73
     2
 40
0.635
 49
0.0
 74
     0
 49
-0.635
 74
     0
  0
ENDTAB
  0
TABLE
  2
LAYER
  5
2
330
0
100
AcDbSymbolTable
 70
     2
  0
LAYER
  5
10
330
2
100
AcDbSymbolTableRecord
100
AcDbLayerTableRecord
  2
0
 70
     0
 62
     7
  6
Continuous
370
    -3
390
F
  0
LAYER
  5
73
330
2
100
AcDbSymbolTableRecord
100
AcDbLayerTableRecord
  2
TABLE_BL1
 70
     0
 62
   179
  6
Continuous
370
    -3
390
F
  0
ENDTAB
  0
TABLE
  2
STYLE
  5
3
330
0
100
AcDbSymbolTable
 70
     1
  0
STYLE
  5
11
330
3
100
AcDbSymbolTableRecord
100
AcDbTextStyleTableRecord
  2
Standard
 70
     0
 40
0.0
 41
1.0
 50
0.0
 71
     0
 42
5.0
  3
txt
  4

  0
ENDTAB
  0
TABLE
  2
VIEW
  5
6
330
0
100
AcDbSymbolTable
 70
     0
  0
ENDTAB
  0
TABLE
  2
UCS
  5
7
330
0
100
AcDbSymbolTable
 70
     0
  0
ENDTAB
  0
TABLE
  2
APPID
  5
9
330
0
100
AcDbSymbolTable
 70
     1
  0
APPID
  5
12
330
9
100
AcDbSymbolTableRecord
100
AcDbRegAppTableRecord
  2
ACAD
 70
     0
  0
ENDTAB
  0
TABLE
  2
DIMSTYLE
  5
A
330
0
100
AcDbSymbolTable
 70
     1
100
AcDbDimStyleTable
  0
DIMSTYLE
105
27
330
A
100
AcDbSymbolTableRecord
100
AcDbDimStyleTableRecord
  2
ISO-25
 70
     0
 41
2.5
 42
0.625
 43
3.75
 44
1.25
 73
     0
 74
     0
 77
     1
 78
     8
140
2.5
141
2.5
143
0.0393700787
147
0.625
171
     3
172
     1
178
     0
271
     2
272
     2
274
     3
278
    44
283
     0
284
     8
340
11
  0
ENDTAB
  0
TABLE
  2
BLOCK_RECORD
  5
1
330
0
100
AcDbSymbolTable
 70
     1
  0
BLOCK_RECORD
  5
1F
330
1
100
AcDbSymbolTableRecord
100
AcDbBlockTableRecord
  2
*Model_Space
340
22
  0
BLOCK_RECORD
  5
1B
330
1
100
AcDbSymbolTableRecord
100
AcDbBlockTableRecord
  2
*Paper_Space
340
1E
  0
BLOCK_RECORD
  5
23
330
1
100
AcDbSymbolTableRecord
100
AcDbBlockTableRecord
  2
*Paper_Space0
340
26
  0
ENDTAB
  0
ENDSEC
  0
SECTION
  2
BLOCKS
  0
BLOCK
  5
20
330
1F
100
AcDbEntity
  8
0
100
AcDbBlockBegin
  2
*Model_Space
 70
     0
 10
0.0
 20
0.0
 30
0.0
  3
*Model_Space
  1

  0
ENDBLK
  5
21
330
1F
100
AcDbEntity
  8
0
100
AcDbBlockEnd
  0
BLOCK
  5
1C
330
1B
100
AcDbEntity
 67
     1
  8
0
100
AcDbBlockBegin
  2
*Paper_Space
 70
     0
 10
0.0
 20
0.0
 30
0.0
  3
*Paper_Space
  1

  0
ENDBLK
  5
1D
330
1B
100
AcDbEntity
 67
     1
  8
0
100
AcDbBlockEnd
  0
BLOCK
  5
24
330
23
100
AcDbEntity
  8
0
100
AcDbBlockBegin
  2
*Paper_Space0
 70
     0
 10
0.0
 20
0.0
 30
0.0
  3
*Paper_Space0
  1

  0
ENDBLK
  5
25
330
23
100
AcDbEntity
  8
0
100
AcDbBlockEnd
  0
ENDSEC
  0
SECTION
  2
ENTITIES
  0
SPLINE
  5
74
330
1F
100
AcDbEntity
  8
0
  6
Continuous
 62
     7
370
    25
100
AcDbSpline
210
0.0
220
0.0
230
1.0
 70
     8
 71
     3
 72
    29
 73
    25
 74
     0
 42
0.000000001
 43
0.00000001
 40
0.0
 40
0.0
 40
0.0
 40
0.0
 40
0.0349321406882633
 40
0.0633980643159911
 40
0.0838985515737893
 40
0.1410481598295769
 40
0.1993926718331195
 40
0.2579538570990186
 40
0.3167358876867429
 40
0.3756685440136572
 40
0.4347110736298803
 40
0.4938368192040534
 40
0.553011649517384
 40
0.6120983013386023
 40
0.6710428299972754
 40
0.7298261731686603
 40
0.7884258360426929
 40
0.8467958145206171
 40
0.8655669647427028
 40
0.883482395160418
 40
0.9012873219477368
 40
0.9267778521638323
 40
0.9604934909203239
 40
1.0
 40
1.0
 40
1.0
 40
1.0
 10
552.1931610932711
 20
419.6205695673634
 30
0.0
 10
552.726208421539
 20
420.874382623026
 30
0.0
 10
553.6936317782283
 20
423.1499179660354
 30
0.0
 10
554.577458836708
 20
426.3048936587271
 30
0.0
 10
555.4115231616843
 20
430.3552764523113
 30
0.0
 10
555.8358390759604
 20
435.6697441142883
 30
0.0
 10
555.1458174195587
 20
442.453040881792
 30
0.0
 10
553.2094278119613
 20
449.0594994386357
 30
0.0
 10
550.0844159001332
 20
455.2193800630373
 30
0.0
 10
545.8682196982938
 20
460.7147494667446
 30
0.0
 10
540.7013094310739
 20
465.3479739090064
 30
0.0
 10
534.7596785204701
 20
468.9527252985151
 30
0.0
 10
528.2525205012503
 20
471.3979549896321
 30
0.0
 10
521.4127244211912
 20
472.5976329438788
 30
0.0
 10
514.4846160399582
 20
472.5158066427052
 30
0.0
 10
507.7083646376206
 20
471.164620757802
 30
0.0
 10
501.3170861115994
 20
468.6032571380692
 30
0.0
 10
496.8224241004273
 20
465.7531576118
 30
0.0
 10
493.9560139513155
 20
463.4056480747221
 30
0.0
 10
492.3927325033118
 20
461.9673035702572
 30
0.0
 10
490.7292717592501
 20
460.2563171339482
 30
0.0
 10
488.7913411227404
 20
457.962917940353
 30
0.0
 10
486.5600297280626
 20
454.8157146595513
 30
0.0
 10
485.2699753778318
 20
452.2669565621518
 30
0.0
 10
484.5739353761821
 20
450.8917915623201
 30
0.0
  0
SPLINE
  5
75
330
1F
100
AcDbEntity
  8
0
  6
Continuous
 62
     7
370
    25
100
AcDbSpline
210
0.0
220
0.0
230
1.0
 70
     8
 71
     3
 72
    29
 73
    25
 74
     0
 42
0.000000001
 43
0.00000001
 40
0.0
 40
0.0
 40
0.0
 40
0.0
 40
0.0349321406882638
 40
0.0633980643159916
 40
0.0838985515737896
 40
0.1410481598295768
 40
0.1993926718331195
 40
0.2579538570990189
 40
0.3167358876867433
 40
0.375668544013657
 40
0.4347110736298803
 40
0.4938368192040536
 40
0.5530116495173842
 40
0.6120983013386025
 40
0.6710428299972757
 40
0.7298261731686607
 40
0.7884258360426933
 40
0.8467958145206171
 40
0.8655669647427024
 40
0.8834823951604176
 40
0.9012873219477364
 40
0.9267778521638327
 40
0.960493490920324
 40
0.9999999999999999
 40
0.9999999999999999
 40
0.9999999999999999
 40
0.9999999999999999
 10
484.5739353761821
 20
450.8917915623201
 30
0.0
 10
484.0408880479143
 20
449.6379785066576
 30
0.0
 10
483.0734646912246
 20
447.3624431636483
 30
0.0
 10
482.1896376327451
 20
444.2074674709565
 30
0.0
 10
481.3555733077696
 20
440.1570846773721
 30
0.0
 10
480.9312573934926
 20
434.8426170153954
 30
0.0
 10
481.6212790498953
 20
428.0593202478913
 30
0.0
 10
483.557668657492
 20
421.4528616910478
 30
0.0
 10
486.68268056932
 20
415.2929810666463
 30
0.0
 10
490.8988767711596
 20
409.7976116629391
 30
0.0
 10
496.0657870383797
 20
405.1643872206769
 30
0.0
 10
502.0074179489828
 20
401.5596358311686
 30
0.0
 10
508.5145759682032
 20
399.1144061400514
 30
0.0
 10
515.3543720482621
 20
397.9147281858046
 30
0.0
 10
522.2824804294954
 20
397.9965544869784
 30
0.0
 10
529.0587318318327
 20
399.3477403718817
 30
0.0
 10
535.4500103578544
 20
401.9091039916138
 30
0.0
 10
539.9446723690255
 20
404.7592035178837
 30
0.0
 10
542.811082518138
 20
407.1067130549614
 30
0.0
 10
544.3743639661416
 20
408.5450575594263
 30
0.0
 10
546.0378247102029
 20
410.2560439957354
 30
0.0
 10
547.9757553467131
 20
412.5494431893305
 30
0.0
 10
550.2070667413908
 20
415.6966464701323
 30
0.0
 10
551.4971210916217
 20
418.2454045675316
 30
0.0
 10
552.1931610932711
 20
419.6205695673634
 30
0.0
  0
LINE
  5
76
330
1F
100
AcDbEntity
  8
0
  6
Continuous
 62
     7
370
    25
100
AcDbLine
 10
503.6335482188
 20
493.5559730228
 30
0.0
 11
503.6335482189
 21
493.3731378176
 31
0.0
  0
LINE
  5
77
330
1F
100
AcDbEntity
  8
0
  6
Continuous
 62
     7
370
    25
100
AcDbLine
 10
163.3882282971
 20
182.7702917606
 30
0.0
 11
163.3887737296
 21
178.7977076373
 31
0.0
  0
LINE
  5
78
330
1F
100
AcDbEntity
  8
0
  6
Continuous
 62
     7
370
    25
100
AcDbLine
 10
163.3887465905
 20
533.869694842
 30
0.0
 11
163.3881951044
 21
530.4310159968
 31
0.0
  0
ARC
  5
79
330
1F
100
AcDbEntity
  8
0
  6
Continuous
 62
     7
370
    25
100
AcDbCircle
 10
518.3835482347
 20
435.2561805648
 30
0.0
 40
36.31056399417622
100
AcDbArc
 50
155.181322328
 51
335.1813223449
  0
ARC
  5
7A
330
1F
100
AcDbEntity
  8
0
  6
Continuous
 62
     7
370
    25
100
AcDbCircle
 10
518.3835482347
 20
435.2561805648
 30
0.0
 40
36.31056399417622
100
AcDbArc
 50
335.1813223449
 51
155.181322328
  0
SPLINE
  5
7B
330
1F
100
AcDbEntity
  8
0
  6
Continuous
 62
     7
370
    25
100
AcDbSpline
210
0.0
220
0.0
230
1.0
 70
    24
 71
     3
 72
     9
 73
     5
 74
     0
 42
0.000000001
 43
0.00000001
 40
0.0
 40
0.0
 40
0.0
 40
0.0
 40
0.5599999999872696
 40
1.0
 40
1.0
 40
1.0
 40
1.0
 10
487.8994666700236
 20
412.0714005707472
 30
0.0
 10
487.7446054199739
 20
411.9536202792732
 30
0.0
 10
487.4680674734504
 20
411.7432983302074
 30
0.0
 10
487.103804894879
 20
411.4662570906233
 30
0.0
 10
486.9435293603029
 20
411.3443589452029
 30
0.0
  0
SPLINE
  5
7C
330
1F
100
AcDbEntity
  8
0
  6
Continuous
 62
     7
370
    25
100
AcDbSpline
210
0.0
220
0.0
230
1.0
 70
    24
 71
     3
 72
     9
 73
     5
 74
     0
 42
0.000000001
 43
0.00000001
 40
0.0
 40
0.0
 40
0.0
 40
0.0
 40
0.5600000000053909
 40
0.9999999999999999
 40
0.9999999999999999
 40
0.9999999999999999
 40
0.9999999999999999
 10
549.8235671091503
 20
459.1680021844804
 30
0.0
 10
549.6186831138828
 20
459.0121769107387
 30
0.0
 10
549.2528188366229
 20
458.7339174933455
 30
0.0
 10
548.9853264492818
 20
458.5304751774784
 30
0.0
 10
548.8676297988533
 20
458.440960558498
 30
0.0
  0
ARC
  5
7D
330
1F
100
AcDbEntity
  8
0
  6
Continuous
 62
     7
370
    25
100
AcDbCircle
 10
518.3835482347
 20
435.2561805648
 30
0.0
 40
38.29899805700023
100
AcDbArc
 50
37.2549368435
 51
217.2549368435
  0
ARC
  5
7E
330
1F
100
AcDbEntity
  8
0
  6
Continuous
 62
     7
370
    25
100
AcDbCircle
 10
518.3835482347
 20
435.2561805648
 30
0.0
 40
39.5
100
AcDbArc
 50
37.2549368435
 51
217.254936867
  0
ARC
  5
7F
330
1F
100
AcDbEntity
  8
0
  6
Continuous
 62
     7
370
    25
100
AcDbCircle
 10
518.3835482347
 20
435.2561805648
 30
0.0
 40
38.29899805700023
100
AcDbArc
 50
217.2549368435
 51
37.2549368435
  0
ARC
  5
80
330
1F
100
AcDbEntity
  8
0
  6
Continuous
 62
     7
370
    25
100
AcDbCircle
 10
518.3835482347
 20
435.2561805648
 30
0.0
 40
39.5
100
AcDbArc
 50
217.254936867
 51
37.2549368332
  0
CIRCLE
  5
81
330
1F
100
AcDbEntity
  8
0
  6
Continuous
 62
     7
370
    25
100
AcDbCircle
 10
518.3835482347
 20
435.2561805648
 30
0.0
 40
57.00000000000003
  0
SPLINE
  5
82
330
1F
100
AcDbEntity
  8
0
  6
Continuous
 62
     7
370
    25
100
AcDbSpline
210
0.0
220
0.0
230
1.0
 70
     8
 71
     3
 72
    35
 73
    31
 74
     0
 42
0.000000001
 43
0.00000001
 40
0.0
 40
0.0
 40
0.0
 40
0.0
 40
0.0282546077220529
 40
0.0583834426637942
 40
0.0903495399278274
 40
0.1258616479012823
 40
0.1640104750491882
 40
0.2048405213069455
 40
0.2374624815847443
 40
0.271612710407119
 40
0.3071914351681357
 40
0.3440550017625775
 40
0.3820151215667333
 40
0.4208413631481726
 40
0.4602672732901844
 40
0.5000000044809546
 40
0.5397327356717242
 40
0.579158645813736
 40
0.6179848873951757
 40
0.6559450071993312
 40
0.6928085737937731
 40
0.7283872985547897
 40
0.7625375273771646
 40
0.7951594876549631
 40
0.8359928376182008
 40
0.8741415922595375
 40
0.9096504660940494
 40
0.9416198397637133
 40
0.9717470283705446
 40
1.0
 40
1.0
 40
1.0
 40
1.0
 10
562.3914091407529
 20
430.6105490497918
 30
0.0
 10
562.4953307001914
 20
431.915907639013
 30
0.0
 10
562.7100673005609
 20
434.6132138305979
 30
0.0
 10
562.5592707231198
 20
438.8043953698179
 30
0.0
 10
561.9855175477879
 20
443.2946978407155
 30
0.0
 10
560.8450342991142
 20
448.0633271042822
 30
0.0
 10
559.0225669858858
 20
453.0561293403093
 30
0.0
 10
556.6553361560493
 20
457.6679274401968
 30
0.0
 10
553.8797981156147
 20
461.8171024078862
 30
0.0
 10
550.8402273301052
 20
465.4668670903882
 30
0.0
 10
547.2776905055264
 20
468.8995075495433
 30
0.0
 10
543.2073351029898
 20
472.0133934564094
 30
0.0
 10
538.6696551460013
 20
474.7057527870213
 30
0.0
 10
533.7315589244662
 20
476.8807123859231
 30
0.0
 10
528.4848052601201
 20
478.4575564468753
 30
0.0
 10
523.0412621412048
 20
479.3784974289654
 30
0.0
 10
517.5254112771502
 20
479.6144703485083
 30
0.0
 10
512.0650593631221
 20
479.1679076994288
 30
0.0
 10
506.7816747008864
 20
478.0719651798974
 30
0.0
 10
501.7818470547319
 20
476.386420214575
 30
0.0
 10
497.1510284350588
 20
474.1910621594178
 30
0.0
 10
492.9502786996948
 20
471.5779429440717
 30
0.0
 10
489.2156335230584
 20
468.6432887379562
 30
0.0
 10
485.6348095206429
 20
465.1649988169078
 30
0.0
 10
482.3567523706953
 20
461.1489841473392
 30
0.0
 10
479.5319719745814
 20
456.6467529833425
 30
0.0
 10
477.4209860061868
 20
452.2213469669264
 30
0.0
 10
475.9223079603714
 20
447.9498917955386
 30
0.0
 10
474.8998121165088
 20
443.8825550274562
 30
0.0
 10
474.5466159612146
 20
441.2000199957268
 30
0.0
 10
474.3756873287002
 20
439.9018120798918
 30
0.0
  0
SPLINE
  5
83
330
1F
100
AcDbEntity
  8
0
  6
Continuous
 62
     7
370
    25
100
AcDbSpline
210
0.0
220
0.0
230
1.0
 70
     8
 71
     3
 72
    35
 73
    31
 74
     0
 42
0.000000001
 43
0.00000001
 40
0.0
 40
0.0
 40
0.0
 40
0.0
 40
0.0282546077224725
 40
0.0583834426636154
 40
0.0903495399278288
 40
0.125861647903081
 40
0.1640104750499172
 40
0.2048405213069395
 40
0.2374624815847381
 40
0.2716127104071132
 40
0.3071914351681301
 40
0.344055001762572
 40
0.3820151215667281
 40
0.4208413631481677
 40
0.4602672732901798
 40
0.5000000044809503
 40
0.53973273567172
 40
0.579158645813732
 40
0.6179848873951719
 40
0.6559450071993277
 40
0.6928085737937696
 40
0.7283872985547866
 40
0.7625375273771617
 40
0.7951594876549605
 40
0.8359928376182582
 40
0.8741415922594719
 40
0.909650466094047
 40
0.9416198397647854
 40
0.9717470283710188
 40
1.0
 40
1.0
 40
1.0
 40
1.0
 10
474.3756873287002
 20
439.9018120798918
 30
0.0
 10
474.2717657692566
 20
438.5964534906511
 30
0.0
 10
474.0570291688803
 20
435.8991472990747
 30
0.0
 10
474.2078257463539
 20
431.7079657598555
 30
0.0
 10
474.7815789216698
 20
427.2176632888935
 30
0.0
 10
475.9220621703611
 20
422.4490340252837
 30
0.0
 10
477.7445294836413
 20
417.4562317892784
 30
0.0
 10
480.1117603134178
 20
412.8444336894555
 30
0.0
 10
482.8872983538391
 20
408.6952587217972
 30
0.0
 10
485.9268691393475
 20
405.0454940392947
 30
0.0
 10
489.4894059639263
 20
401.6128535801399
 30
0.0
 10
493.5597613664632
 20
398.4989676732733
 30
0.0
 10
498.0974413234516
 20
395.8066083426618
 30
0.0
 10
503.0355375449864
 20
393.6316487437599
 30
0.0
 10
508.2822912093325
 20
392.0548046828077
 30
0.0
 10
513.7258343282476
 20
391.1338637007177
 30
0.0
 10
519.2416851923025
 20
390.8978907811747
 30
0.0
 10
524.7020371063309
 20
391.3444534302541
 30
0.0
 10
529.9854217685662
 20
392.4403959497852
 30
0.0
 10
534.9852494147207
 20
394.125940915108
 30
0.0
 10
539.6160680343942
 20
396.3212989702651
 30
0.0
 10
543.816817769758
 20
398.9344181856113
 30
0.0
 10
547.5514629463944
 20
401.8690723917267
 30
0.0
 10
551.1322869488105
 20
405.3473623127779
 30
0.0
 10
554.4103440987618
 20
409.3633769823405
 30
0.0
 10
557.2351244948663
 20
413.8656081463432
 30
0.0
 10
559.3461104632855
 20
418.2910141627987
 30
0.0
 10
560.8447885091099
 20
422.5624693342114
 30
0.0
 10
561.867284352945
 20
426.6298061023
 30
0.0
 10
562.2204805082384
 20
429.3123411339791
 30
0.0
 10
562.3914091407529
 20
430.6105490497918
 30
0.0
  0
ARC
  5
84
330
1F
100
AcDbEntity
  8
0
  6
Continuous
 62
     7
370
    25
100
AcDbCircle
 10
518.3835482347
 20
435.2561805648
 30
0.0
 40
40.35476230894898
100
AcDbArc
 50
173.9739649226
 51
353.9739649226
  0
ARC
  5
85
330
1F
100
AcDbEntity
  8
0
  6
Continuous
 62
     7
370
    25
100
AcDbCircle
 10
518.3835482347
 20
435.2561805648
 30
0.0
 40
40.35476230894898
100
AcDbArc
 50
353.9739649226
 51
173.9739649226
  0
CIRCLE
  5
86
330
1F
100
AcDbEntity
  8
0
  6
Continuous
 62
     7
370
    25
100
AcDbCircle
 10
518.3835482347
 20
435.2561805648
 30
0.0
 40
39.93812333100017
  0
SPLINE
  5
87
330
1F
100
AcDbEntity
  8
0
  6
Continuous
 62
     7
370
    25
100
AcDbSpline
210
0.0
220
0.0
230
1.0
 70
     8
 71
     3
 72
    15
 73
    11
 74
     0
 42
0.000000001
 43
0.00000001
 40
0.0
 40
0.0
 40
0.0
 40
0.0
 40
0.1249994018574859
 40
0.2499987976793997
 40
0.3749981814313185
 40
0.4999975470787827
 40
0.6249981512622204
 40
0.7499987494077287
 40
0.8749993596190613
 40
1.0
 40
1.0
 40
1.0
 40
1.0
 10
875.3835482060881
 20
540.2561806622108
 30
0.0
 10
875.3202796693505
 20
541.3688165744319
 30
0.0
 10
875.1937425989305
 20
543.5940883451507
 30
0.0
 10
874.1828866187449
 20
546.8036627695953
 30
0.0
 10
872.6117810498716
 20
549.7618633778529
 30
0.0
 10
870.4813224008697
 20
552.3538747515017
 30
0.0
 10
867.8893135982509
 20
554.4843541825719
 30
0.0
 10
864.9310910394541
 20
556.0554884941746
 30
0.0
 10
861.7214884189293
 20
557.0663656689729
 30
0.0
 10
859.4961950301248
 20
557.1929089896174
 30
0.0
 10
858.3835482014508
 20
557.2561806575751
 30
0.0
  0
LINE
  5
88
330
1F
100
AcDbEntity
  8
0
  6
Continuous
 62
     7
370
    25
100
AcDbLine
 10
858.3835482015
 20
557.2561806576
 30
0.0
 11
178.3835482015
 21
557.2561804721
 31
0.0
  0
SPLINE
  5
89
330
1F
100
AcDbEntity
  8
0
  6
Continuous
 62
     7
370
    25
100
AcDbSpline
210
0.0
220
0.0
230
1.0
 70
     8
 71
     3
 72
    15
 73
    11
 74
     0
 42
0.000000001
 43
0.00000001
 40
0.0
 40
0.0
 40
0.0
 40
0.0
 40
0.1249999999992171
 40
0.2499999999985884
 40
0.3749999999982754
 40
0.4999999999984326
 40
0.624999999999061
 40
0.7499999999998446
 40
0.8750000000003157
 40
1.0
 40
1.0
 40
1.0
 40
1.0
 10
178.383548201452
 20
557.2561804721092
 30
0.0
 10
177.270906670902
 20
557.1929113723714
 30
0.0
 10
175.0456236098008
 20
557.0663731728962
 30
0.0
 10
171.8360337229218
 20
556.0555082647224
 30
0.0
 10
168.8778206079814
 20
554.4843889066002
 30
0.0
 10
166.2858092902033
 20
552.353919381394
 30
0.0
 10
164.1553397662888
 20
549.7619080625344
 30
0.0
 10
162.5842204097338
 20
546.8036949467286
 30
0.0
 10
161.5733555033364
 20
543.5941050592568
 30
0.0
 10
161.4468173051711
 20
541.368821998065
 30
0.0
 10
161.3835482060886
 20
540.2561804674726
 30
0.0
  0
LINE
  5
8A
330
1F
100
AcDbEntity
  8
0
  6
Continuous
 62
     7
370
    25
100
AcDbLine
 10
161.3835482061
 20
540.2561804675
 30
0.0
 11
161.383548307
 21
170.2561804675
 31
0.0
  0
SPLINE
  5
8B
330
1F
100
AcDbEntity
  8
0
  6
Continuous
 62
     7
370
    25
100
AcDbSpline
210
0.0
220
0.0
230
1.0
 70
     8
 71
     3
 72
    15
 73
    11
 74
     0
 42
0.000000001
 43
0.00000001
 40
0.0
 40
0.0
 40
0.0
 40
0.0
 40
0.1249999999992132
 40
0.2499999999985829
 40
0.3749999999982694
 40
0.49999999999843
 40
0.6249999999990556
 40
0.7499999999998415
 40
0.8750000000003137
 40
1.0
 40
1.0
 40
1.0
 40
1.0
 10
161.3835483070035
 20
170.2561804674723
 30
0.0
 10
161.446817406741
 20
169.1435389369224
 30
0.0
 10
161.5733556062162
 20
166.9182558758212
 30
0.0
 10
162.5842205143902
 20
163.7086659889422
 30
0.0
 10
164.1553398725123
 20
160.750452874002
 30
0.0
 10
166.2858093977187
 20
158.1584415562238
 30
0.0
 10
168.8778207165779
 20
156.0279720323092
 30
0.0
 10
171.8360338323841
 20
154.4568526757543
 30
0.0
 10
175.0456237198558
 20
153.445987769357
 30
0.0
 10
177.2709067810476
 20
153.3194495711917
 30
0.0
 10
178.3835483116401
 20
153.2561804721092
 30
0.0
  0
LINE
  5
8C
330
1F
100
AcDbEntity
  8
0
  6
Continuous
 62
     7
370
    25
100
AcDbLine
 10
178.3835483116
 20
153.2561804721
 30
0.0
 11
858.3835483116
 21
153.2561806576
 31
0.0
  0
SPLINE
  5
8D
330
1F
100
AcDbEntity
  8
0
  6
Continuous
 62
     7
370
    25
100
AcDbSpline
210
0.0
220
0.0
230
1.0
 70
     8
 71
     3
 72
    15
 73
    11
 74
     0
 42
0.000000001
 43
0.00000001
 40
0.0
 40
0.0
 40
0.0
 40
0.0
 40
0.1249994018752135
 40
0.2499987977149232
 40
0.3749981814846138
 40
0.4999975471498369
 40
0.6249981513155073
 40
0.7499987494432349
 40
0.8749993596368063
 40
1.0
 40
1.0
 40
1.0
 40
1.0
 10
858.3835483116411
 20
153.256180657574
 30
0.0
 10
859.4961842240201
 20
153.3194491943296
 30
0.0
 10
861.721455995055
 20
153.4459862647859
 30
0.0
 10
864.931030419918
 20
154.4568422452592
 30
0.0
 10
867.8892310284896
 20
156.0279478145651
 30
0.0
 10
870.4812424020531
 20
158.1584064639304
 30
0.0
 10
872.61172183276
 20
160.7504152666294
 30
0.0
 10
874.1828561439311
 20
163.7086378251094
 30
0.0
 10
875.193733318447
 20
166.91824044521
 30
0.0
 10
875.3202766390607
 20
169.1435338336959
 30
0.0
 10
875.3835483070029
 20
170.2561806622108
 30
0.0
  0
LINE
  5
8E
330
1F
100
AcDbEntity
  8
0
  6
Continuous
 62
     7
370
    25
100
AcDbLine
 10
875.383548307
 20
170.2561806622
 30
0.0
 11
875.3835482061
 21
540.2561806622
 31
0.0
  0
SPLINE
  5
8F
330
1F
100
AcDbEntity
  8
0
  6
Continuous
 62
     7
370
    25
100
AcDbSpline
210
0.0
220
0.0
230
1.0
 70
     8
 71
     3
 72
    10
 73
     6
 74
     0
 42
0.000000001
 43
0.00000001
 40
0.0
 40
0.0
 40
0.0
 40
0.0
 40
0.2844235582232084
 40
0.568849545304703
 40
1.0
 40
1.0
 40
1.0
 40
1.0
 10
146.6660181850154
 20
138.5386817533644
 30
0.0
 10
146.7918910063981
 20
138.4169155335125
 30
0.0
 10
147.0436377240643
 20
138.1733820539765
 30
0.0
 10
147.5137251580134
 20
137.7747549059947
 30
0.0
 10
147.8737438331105
 20
137.5204577765219
 30
0.0
 10
148.0906629578953
 20
137.3672381949387
 30
0.0
  0
SPLINE
  5
90
330
1F
100
AcDbEntity
  8
0
  6
Continuous
 62
     7
370
    25
100
AcDbSpline
210
0.0
220
0.0
230
1.0
 70
     8
 71
     3
 72
    10
 73
     6
 74
     0
 42
0.000000001
 43
0.00000001
 40
0.0
 40
0.0
 40
0.0
 40
0.0
 40
0.2843958949256599
 40
0.5687950898866885
 40
0.9999999999999999
 40
0.9999999999999999
 40
0.9999999999999999
 40
0.9999999999999999
 10
145.4945820514281
 20
139.963327172778
 30
0.0
 10
145.5945516491396
 20
139.819553693346
 30
0.0
 10
145.7944920045766
 20
139.5320050661824
 30
0.0
 10
146.178700143205
 20
139.0500662814648
 30
0.0
 10
146.4827845954354
 20
138.73096444085
 30
0.0
 10
146.6660181850154
 20
138.5386817533644
 30
0.0
  0
SPLINE
  5
91
330
1F
100
AcDbEntity
  8
0
  6
Continuous
 62
     7
370
    25
100
AcDbSpline
210
0.0
220
0.0
230
1.0
 70
     8
 71
     3
 72
    10
 73
     6
 74
     0
 42
0.000000001
 43
0.00000001
 40
0.0
 40
0.0
 40
0.0
 40
0.0
 40
0.2797716893160981
 40
0.5595443741656481
 40
1.0
 40
1.0
 40
1.0
 40
1.0
 10
144.0625886124199
 20
143.4204910093837
 30
0.0
 10
144.1418988174743
 20
143.0784054385599
 30
0.0
 10
144.3005195097987
 20
142.3942330796427
 30
0.0
 10
144.743726194106
 20
141.2145774708632
 30
0.0
 10
145.2096477328398
 20
140.4381508657567
 30
0.0
 10
145.4945820514281
 20
139.963327172778
 30
0.0
  0
SPLINE
  5
92
330
1F
100
AcDbEntity
  8
0
  6
Continuous
 62
     7
370
    25
100
AcDbSpline
210
0.0
220
0.0
230
1.0
 70
     8
 71
     3
 72
    10
 73
     6
 74
     0
 42
0.000000001
 43
0.00000001
 40
0.0
 40
0.0
 40
0.0
 40
0.0
 40
0.2844235569836225
 40
0.5688495428037008
 40
1.0
 40
1.0
 40
1.0
 40
1.0
 10
143.883548313822
 20
145.2562026805194
 30
0.0
 10
143.8864521202755
 20
145.0810954352312
 30
0.0
 10
143.8922597579792
 20
144.730879449326
 30
0.0
 10
143.942789810547
 20
144.116605474982
 30
0.0
 10
144.0175462329402
 20
143.6822186012349
 30
0.0
 10
144.0625886124199
 20
143.4204910093837
 30
0.0
  0
LINE
  5
93
330
1F
100
AcDbEntity
  8
0
  6
Continuous
 62
     7
370
    25
100
AcDbLine
 10
143.8835482037
 20
565.2561804627
 30
0.0
 11
143.8835483138
 21
145.2562026805
 31
0.0
  0
SPLINE
  5
94
330
1F
100
AcDbEntity
  8
0
  6
Continuous
 62
     7
370
    25
100
AcDbSpline
210
0.0
220
0.0
230
1.0
 70
     8
 71
     3
 72
    10
 73
     6
 74
     0
 42
0.000000001
 43
0.00000001
 40
0.0
 40
0.0
 40
0.0
 40
0.0
 40
0.2843924752525844
 40
0.5687882506575854
 40
0.9999999999999999
 40
0.9999999999999999
 40
0.9999999999999999
 40
0.9999999999999999
 10
144.0625942050324
 20
567.0919095602471
 30
0.0
 10
144.0316201848148
 20
566.9195571777855
 30
0.0
 10
143.9696717849504
 20
566.5748504128471
 30
0.0
 10
143.9005649218371
 20
565.9623846839792
 30
0.0
 10
143.8899466040074
 20
565.5217179929203
 30
0.0
 10
143.8835482036999
 20
565.2561804627001
 30
0.0
  0
SPLINE
  5
95
330
1F
100
AcDbEntity
  8
0
  6
Continuous
 62
     7
370
    25
100
AcDbSpline
210
0.0
220
0.0
230
1.0
 70
     8
 71
     3
 72
    10
 73
     6
 74
     0
 42
0.000000001
 43
0.00000001
 40
0.0
 40
0.0
 40
0.0
 40
0.0
 40
0.2797716621980003
 40
0.5595443201396936
 40
1.0
 40
1.0
 40
1.0
 40
1.0
 10
145.494605928919
 20
570.5490658212184
 30
0.0
 10
145.3087957031178
 20
570.2510940402199
 30
0.0
 10
144.9371745901925
 20
569.6551494177025
 30
0.0
 10
144.4164265417365
 20
568.5076124961297
 30
0.0
 10
144.1968662894654
 20
567.6291396673354
 30
0.0
 10
144.0625942050325
 20
567.0919095602471
 30
0.0
  0
SPLINE
  5
96
330
1F
100
AcDbEntity
  8
0
  6
Continuous
 62
     7
370
    25
100
AcDbSpline
210
0.0
220
0.0
230
1.0
 70
     8
 71
     3
 72
    10
 73
     6
 74
     0
 42
0.000000001
 43
0.00000001
 40
0.0
 40
0.0
 40
0.0
 40
0.0
 40
0.2844235582234823
 40
0.5688495453051461
 40
1.0
 40
1.0
 40
1.0
 40
1.0
 10
146.6660494873452
 20
571.9737105940972
 30
0.0
 10
146.5442832674933
 20
571.8478377727147
 30
0.0
 10
146.3007497879567
 20
571.5960910550485
 30
0.0
 10
145.9021226399755
 20
571.1260036210992
 30
0.0
 10
145.6478255105024
 20
570.765984946003
 30
0.0
 10
145.494605928919
 20
570.5490658212184
 30
0.0
  0
SPLINE
  5
97
330
1F
100
AcDbEntity
  8
0
  6
Continuous
 62
     7
370
    25
100
AcDbSpline
210
0.0
220
0.0
230
1.0
 70
     8
 71
     3
 72
    10
 73
     6
 74
     0
 42
0.000000001
 43
0.00000001
 40
0.0
 40
0.0
 40
0.0
 40
0.0
 40
0.2843958949258232
 40
0.5687950898864946
 40
1.0
 40
1.0
 40
1.0
 40
1.0
 10
148.0906949067589
 20
573.1451467276847
 30
0.0
 10
147.9469214273269
 20
573.0451771299731
 30
0.0
 10
147.6593728001632
 20
572.8452367745363
 30
0.0
 10
147.1774340154449
 20
572.4610286359085
 30
0.0
 10
146.8583321748305
 20
572.1569441836774
 30
0.0
 10
146.6660494873452
 20
571.9737105940972
 30
0.0
  0
SPLINE
  5
98
330
1F
100
AcDbEntity
  8
0
  6
Continuous
 62
     7
370
    25
100
AcDbSpline
210
0.0
220
0.0
230
1.0
 70
     8
 71
     3
 72
    10
 73
     6
 74
     0
 42
0.000000001
 43
0.00000001
 40
0.0
 40
0.0
 40
0.0
 40
0.0
 40
0.2797716893155204
 40
0.5595443741637266
 40
1.0
 40
1.0
 40
1.0
 40
1.0
 10
151.5478587433638
 20
574.5771401666929
 30
0.0
 10
151.2057731725408
 20
574.4978299616387
 30
0.0
 10
150.5216008136259
 20
574.339209269315
 30
0.0
 10
149.3419452048472
 20
573.8960025850071
 30
0.0
 10
148.5655185997397
 20
573.4300810462738
 30
0.0
 10
148.0906949067589
 20
573.1451467276847
 30
0.0
  0
SPLINE
  5
99
330
1F
100
AcDbEntity
  8
0
  6
Continuous
 62
     7
370
    25
100
AcDbSpline
210
0.0
220
0.0
230
1.0
 70
     8
 71
     3
 72
    10
 73
     6
 74
     0
 42
0.000000001
 43
0.00000001
 40
0.0
 40
0.0
 40
0.0
 40
0.0
 40
0.2844235569983395
 40
0.568849542832656
 40
0.9999999999999999
 40
0.9999999999999999
 40
0.9999999999999999
 40
0.9999999999999999
 10
153.3835704144996
 20
574.7561804652914
 30
0.0
 10
153.2084631692026
 20
574.7532766588369
 30
0.0
 10
152.8582471832793
 20
574.747469021131
 30
0.0
 10
152.2439732089266
 20
574.6969389686363
 30
0.0
 10
151.809586335194
 20
574.6221825461979
 30
0.0
 10
151.5478587433638
 20
574.5771401666929
 30
0.0
  0
LINE
  5
9A
330
1F
100
AcDbEntity
  8
0
  6
Continuous
 62
     7
370
    25
100
AcDbLine
 10
883.3835481967
 20
574.75618066
 30
0.0
 11
153.3835704145
 21
574.7561804653
 31
0.0
  0
SPLINE
  5
9B
330
1F
100
AcDbEntity
  8
0
  6
Continuous
 62
     7
370
    25
100
AcDbSpline
210
0.0
220
0.0
230
1.0
 70
     8
 71
     3
 72
    10
 73
     6
 74
     0
 42
0.000000001
 43
0.00000001
 40
0.0
 40
0.0
 40
0.0
 40
0.0
 40
0.2843924752476402
 40
0.5687882506458416
 40
1.0
 40
1.0
 40
1.0
 40
1.0
 10
885.2192772942258
 20
574.5771346586313
 30
0.0
 10
885.0469249117621
 20
574.6081086788128
 30
0.0
 10
884.7022181468207
 20
574.6700570786047
 30
0.0
 10
884.0897524179641
 20
574.7391639417693
 30
0.0
 10
883.649085726905
 20
574.7497822596341
 30
0.0
 10
883.3835481966792
 20
574.756180659963
 30
0.0
  0
SPLINE
  5
9C
330
1F
100
AcDbEntity
  8
0
  6
Continuous
 62
     7
370
    25
100
AcDbSpline
210
0.0
220
0.0
230
1.0
 70
     8
 71
     3
 72
    10
 73
     6
 74
     0
 42
0.000000001
 43
0.00000001
 40
0.0
 40
0.0
 40
0.0
 40
0.0
 40
0.2797716621949799
 40
0.5595443201310683
 40
0.9999999999999999
 40
0.9999999999999999
 40
0.9999999999999999
 40
0.9999999999999999
 10
888.6764335551975
 20
573.1451229347447
 30
0.0
 10
888.3784617741912
 20
573.330933160525
 30
0.0
 10
887.782517151661
 20
573.7025542734067
 30
0.0
 10
886.634980230238
 20
574.2233023222287
 30
0.0
 10
885.7565074013685
 20
574.4428625743114
 30
0.0
 10
885.219277294226
 20
574.5771346586313
 30
0.0
  0
SPLINE
  5
9D
330
1F
100
AcDbEntity
  8
0
  6
Continuous
 62
     7
370
    25
100
AcDbSpline
210
0.0
220
0.0
230
1.0
 70
     8
 71
     3
 72
    10
 73
     6
 74
     0
 42
0.000000001
 43
0.00000001
 40
0.0
 40
0.0
 40
0.0
 40
0.0
 40
0.2844235582232277
 40
0.5688495453046073
 40
1.0
 40
1.0
 40
1.0
 40
1.0
 10
890.1010783280765
 20
571.9736793763175
 30
0.0
 10
889.9752055066939
 20
572.0954455961693
 30
0.0
 10
889.723458789028
 20
572.3389790757058
 30
0.0
 10
889.253371355079
 20
572.7376062236874
 30
0.0
 10
888.8933526799825
 20
572.991903353161
 30
0.0
 10
888.6764335551975
 20
573.1451229347447
 30
0.0
  0
SPLINE
  5
9E
330
1F
100
AcDbEntity
  8
0
  6
Continuous
 62
     7
370
    25
100
AcDbSpline
210
0.0
220
0.0
230
1.0
 70
     8
 71
     3
 72
    10
 73
     6
 74
     0
 42
0.000000001
 43
0.00000001
 40
0.0
 40
0.0
 40
0.0
 40
0.0
 40
0.2843958949315752
 40
0.5687950899056491
 40
1.0
 40
1.0
 40
1.0
 40
1.0
 10
891.2725144616638
 20
570.5490339569028
 30
0.0
 10
891.1725448640748
 20
570.6928074364313
 30
0.0
 10
890.9726045088809
 20
570.9803560637913
 30
0.0
 10
890.5883963700338
 20
571.4622948483648
 30
0.0
 10
890.2843119177078
 20
571.7813966888917
 30
0.0
 10
890.1010783280765
 20
571.9736793763175
 30
0.0
  0
SPLINE
  5
9F
330
1F
100
AcDbEntity
  8
0
  6
Continuous
 62
     7
370
    25
100
AcDbSpline
210
0.0
220
0.0
230
1.0
 70
     8
 71
     3
 72
    10
 73
     6
 74
     0
 42
0.000000001
 43
0.00000001
 40
0.0
 40
0.0
 40
0.0
 40
0.0
 40
0.2797716893161088
 40
0.5595443741657048
 40
1.0
 40
1.0
 40
1.0
 40
1.0
 10
892.7045079006717
 20
567.091870120299
 30
0.0
 10
892.6251976956158
 20
567.433955691123
 30
0.0
 10
892.4665770032886
 20
568.1181280500409
 30
0.0
 10
892.0233703193088
 20
569.2977836589656
 30
0.0
 10
891.5574487803748
 20
570.0742102639804
 30
0.0
 10
891.2725144616638
 20
570.5490339569028
 30
0.0
  0
SPLINE
  5
A0
330
1F
100
AcDbEntity
  8
0
  6
Continuous
 62
     7
370
    25
100
AcDbSpline
210
0.0
220
0.0
230
1.0
 70
     8
 71
     3
 72
    10
 73
     6
 74
     0
 42
0.000000001
 43
0.00000001
 40
0.0
 40
0.0
 40
0.0
 40
0.0
 40
0.2844235569839785
 40
0.5688495428039265
 40
1.0
 40
1.0
 40
1.0
 40
1.0
 10
892.8835481992703
 20
565.2561584491629
 30
0.0
 10
892.8806443928167
 20
565.4312656944511
 30
0.0
 10
892.8748367551125
 20
565.7814816803566
 30
0.0
 10
892.824306702547
 20
566.3957556547012
 30
0.0
 10
892.7495502801523
 20
566.8301425284479
 30
0.0
 10
892.7045079006717
 20
567.091870120299
 30
0.0
  0
LINE
  5
A1
330
1F
100
AcDbEntity
  8
0
  6
Continuous
 62
     7
370
    25
100
AcDbLine
 10
892.8835483094
 20
145.256180667
 30
0.0
 11
892.8835481993
 21
565.2561584492
 31
0.0
  0
SPLINE
  5
A2
330
1F
100
AcDbEntity
  8
0
  6
Continuous
 62
     7
370
    25
100
AcDbSpline
210
0.0
220
0.0
230
1.0
 70
     8
 71
     3
 72
    10
 73
     6
 74
     0
 42
0.000000001
 43
0.00000001
 40
0.0
 40
0.0
 40
0.0
 40
0.0
 40
0.2843924752656836
 40
0.5687882506832309
 40
1.0
 40
1.0
 40
1.0
 40
1.0
 10
892.7045023080595
 20
143.4204515694357
 30
0.0
 10
892.7354763282498
 20
143.5928039519095
 30
0.0
 10
892.7974247280595
 20
143.9375107168715
 30
0.0
 10
892.8665315912488
 20
144.5499764457277
 30
0.0
 10
892.8771499090826
 20
144.9906431367776
 30
0.0
 10
892.8835483093922
 20
145.2561806669819
 30
0.0
  0
SPLINE
  5
A3
330
1F
100
AcDbEntity
  8
0
  6
Continuous
 62
     7
370
    25
100
AcDbSpline
210
0.0
220
0.0
230
1.0
 70
     8
 71
     3
 72
    10
 73
     6
 74
     0
 42
0.000000001
 43
0.00000001
 40
0.0
 40
0.0
 40
0.0
 40
0.0
 40
0.2797716614073665
 40
0.5595443195381441
 40
1.0
 40
1.0
 40
1.0
 40
1.0
 10
891.2724905862
 20
139.9632953114835
 30
0.0
 10
891.4583008114479
 20
140.2612670912768
 30
0.0
 10
891.8299219239166
 20
140.8572117124273
 30
0.0
 10
892.350669971548
 20
142.0047486331172
 30
0.0
 10
892.5702302236775
 20
142.8832214620924
 30
0.0
 10
892.7045023080598
 20
143.4204515694356
 30
0.0
  0
SPLINE
  5
A4
330
1F
100
AcDbEntity
  8
0
  6
Continuous
 62
     7
370
    25
100
AcDbSpline
210
0.0
220
0.0
230
1.0
 70
     8
 71
     3
 72
    11
 73
     7
 74
     0
 42
0.000000001
 43
0.00000001
 40
0.0
 40
0.0
 40
0.0
 40
0.0
 40
0.1353609111575401
 40
0.2844599691576708
 40
0.5688714829075207
 40
1.0
 40
1.0
 40
1.0
 40
1.0
 10
890.1010156755187
 20
138.5386191797897
 30
0.0
 10
890.1595077403932
 20
138.5979946452177
 30
0.0
 10
890.2824283888128
 20
138.7227717534679
 30
0.0
 10
890.519328375524
 20
138.9807887495783
 30
0.0
 10
890.8654534508827
 20
139.3859036523986
 30
0.0
 10
891.1194513170342
 20
139.7462055428568
 30
0.0
 10
891.2724905862
 20
139.9632953114835
 30
0.0
  0
SPLINE
  5
A5
330
1F
100
AcDbEntity
  8
0
  6
Continuous
 62
     7
370
    25
100
AcDbSpline
210
0.0
220
0.0
230
1.0
 70
     8
 71
     3
 72
    10
 73
     6
 74
     0
 42
0.000000001
 43
0.00000001
 40
0.0
 40
0.0
 40
0.0
 40
0.0
 40
0.2844010035697763
 40
0.5688076987245372
 40
1.0
 40
1.0
 40
1.0
 40
1.0
 10
888.6764052661678
 20
137.3672168583607
 30
0.0
 10
888.8201775053586
 20
137.4671856606668
 30
0.0
 10
889.1077248609869
 20
137.6671252659085
 30
0.0
 10
889.5896508979902
 20
138.0513233030084
 30
0.0
 10
889.9087430661478
 20
138.3553964513545
 30
0.0
 10
890.1010156755187
 20
138.5386191797897
 30
0.0
  0
SPLINE
  5
A6
330
1F
100
AcDbEntity
  8
0
  6
Continuous
 62
     7
370
    25
100
AcDbSpline
210
0.0
220
0.0
230
1.0
 70
     8
 71
     3
 72
    10
 73
     6
 74
     0
 42
0.000000001
 43
0.00000001
 40
0.0
 40
0.0
 40
0.0
 40
0.0
 40
0.2797713634744838
 40
0.5595437216781926
 40
1.0
 40
1.0
 40
1.0
 40
1.0
 10
885.2192377667462
 20
135.9352209624022
 30
0.0
 10
885.5613233381292
 20
136.014531168092
 30
0.0
 10
886.2454956971831
 20
136.1731518614592
 30
0.0
 10
887.4251526914298
 20
136.6163590535375
 30
0.0
 10
888.2015804060705
 20
137.0822816188045
 30
0.0
 10
888.6764052661678
 20
137.3672168583607
 30
0.0
  0
SPLINE
  5
A7
330
1F
100
AcDbEntity
  8
0
  6
Continuous
 62
     7
370
    25
100
AcDbSpline
210
0.0
220
0.0
230
1.0
 70
     8
 71
     3
 72
    10
 73
     6
 74
     0
 42
0.000000001
 43
0.00000001
 40
0.0
 40
0.0
 40
0.0
 40
0.0
 40
0.2844149527362832
 40
0.5688443592297237
 40
1.0
 40
1.0
 40
1.0
 40
1.0
 10
883.3835483164132
 20
135.7561806649121
 30
0.0
 10
883.5586481502143
 20
135.7590846437983
 30
0.0
 10
883.9088567162603
 20
135.7648927491483
 30
0.0
 10
884.5231233031723
 20
135.8154221476101
 30
0.0
 10
884.957510175911
 20
135.890178578109
 30
0.0
 10
885.2192377667462
 20
135.9352209624022
 30
0.0
  0
LINE
  5
A8
330
1F
100
AcDbEntity
  8
0
  6
Continuous
 62
     7
370
    25
100
AcDbLine
 10
153.3834817594
 20
135.7561804653
 30
0.0
 11
883.3835483164
 21
135.7561806649
 31
0.0
  0
SPLINE
  5
A9
330
1F
100
AcDbEntity
  8
0
  6
Continuous
 62
     7
370
    25
100
AcDbSpline
210
0.0
220
0.0
230
1.0
 70
     8
 71
     3
 72
    10
 73
     6
 74
     0
 42
0.000000001
 43
0.00000001
 40
0.0
 40
0.0
 40
0.0
 40
0.0
 40
0.2844027148227841
 40
0.568808729915125
 40
0.9999999999999999
 40
0.9999999999999999
 40
0.9999999999999999
 40
0.9999999999999999
 10
151.5478192188645
 20
135.9352264710532
 30
0.0
 10
151.7201716016489
 20
135.9042524459296
 30
0.0
 10
152.0648783672313
 20
135.8423040362532
 30
0.0
 10
152.6773220393688
 20
135.7731997480752
 30
0.0
 10
153.117966460012
 20
135.7625796974121
 30
0.0
 10
153.3834817593692
 20
135.7561804652898
 30
0.0
  0
SPLINE
  5
AA
330
1F
100
AcDbEntity
  8
0
  6
Continuous
 62
     7
370
    25
100
AcDbSpline
210
0.0
220
0.0
230
1.0
 70
     8
 71
     3
 72
    10
 73
     6
 74
     0
 42
0.000000001
 43
0.00000001
 40
0.0
 40
0.0
 40
0.0
 40
0.0
 40
0.2797716621051435
 40
0.5595443199711458
 40
1.0
 40
1.0
 40
1.0
 40
1.0
 10
148.0906629578953
 20
137.3672381949387
 30
0.0
 10
148.3886347386655
 20
137.1814279689528
 30
0.0
 10
148.9845793607446
 20
136.8098068556469
 30
0.0
 10
150.132116282282
 20
136.289058806813
 30
0.0
 10
151.0105891114261
 20
136.0694985551489
 30
0.0
 10
151.5478192188645
 20
135.9352264710532
 30
0.0
  0
LINE
  5
AB
330
1F
100
AcDbEntity
  8
0
  6
Continuous
 62
     7
370
    25
100
AcDbLine
 10
875.383548307
 20
170.2561806622
 30
0.0
 11
873.383548307
 21
170.2561806617
 31
0.0
  0
LINE
  5
AC
330
1F
100
AcDbEntity
  8
0
  6
Continuous
 62
     7
370
    25
100
AcDbLine
 10
873.3835482061
 20
540.2561806617
 30
0.0
 11
873.383548307
 21
170.2561806617
 31
0.0
  0
LINE
  5
AD
330
1F
100
AcDbEntity
  8
0
  6
Continuous
 62
     7
370
    25
100
AcDbLine
 10
875.3835482061
 20
540.2561806622
 30
0.0
 11
873.3835482061
 21
540.2561806617
 31
0.0
  0
LINE
  5
AE
330
1F
100
AcDbEntity
  8
0
  6
Continuous
 62
     7
370
    25
100
AcDbLine
 10
163.383548307
 20
170.256180468
 30
0.0
 11
163.3835482061
 21
540.256180468
 31
0.0
  0
LINE
  5
AF
330
1F
100
AcDbEntity
  8
0
  6
Continuous
 62
     7
370
    25
100
AcDbLine
 10
163.383548307
 20
170.256180468
 30
0.0
 11
161.383548307
 21
170.2561804675
 31
0.0
  0
LINE
  5
B0
330
1F
100
AcDbEntity
  8
0
  6
Continuous
 62
     7
370
    25
100
AcDbLine
 10
163.3835482061
 20
540.256180468
 30
0.0
 11
161.3835482061
 21
540.2561804675
 31
0.0
  0
LINE
  5
B1
330
1F
100
AcDbEntity
  8
0
  6
Continuous
 62
     7
370
    25
100
AcDbLine
 10
178.383548202
 20
555.2561804721
 30
0.0
 11
858.383548202
 21
555.2561806576
 31
0.0
  0
LINE
  5
B2
330
1F
100
AcDbEntity
  8
0
  6
Continuous
 62
     7
370
    25
100
AcDbLine
 10
178.383548202
 20
555.2561804721
 30
0.0
 11
178.3835482015
 21
557.2561804721
 31
0.0
  0
LINE
  5
B3
330
1F
100
AcDbEntity
  8
0
  6
Continuous
 62
     7
370
    25
100
AcDbLine
 10
858.3835482015
 20
557.2561806576
 30
0.0
 11
858.383548202
 21
555.2561806576
 31
0.0
  0
ARC
  5
B4
330
1F
100
AcDbEntity
  8
0
  6
Continuous
 62
     7
370
    25
100
AcDbCircle
 10
178.3835482061
 20
540.2561804721
 30
0.0
 40
15.00000000000011
100
AcDbArc
 50
90.0000000156
 51
180.0000000156
  0
ARC
  5
B5
330
1F
100
AcDbEntity
  8
0
  6
Continuous
 62
     7
370
    25
100
AcDbCircle
 10
858.3835482061
 20
540.2561806576
 30
0.0
 40
15.00000000000011
100
AcDbArc
 50
0.0000000156
 51
90.0000000156
  0
ARC
  5
B6
330
1F
100
AcDbEntity
  8
0
  6
Continuous
 62
     7
370
    25
100
AcDbCircle
 10
178.383548307
 20
170.2561804721
 30
0.0
 40
15.0
100
AcDbArc
 50
180.0000000156
 51
270.0000000156
  0
LINE
  5
B7
330
1F
100
AcDbEntity
  8
0
  6
Continuous
 62
     7
370
    25
100
AcDbLine
 10
178.3835483111
 20
155.2561804721
 30
0.0
 11
178.3835483116
 21
153.2561804721
 31
0.0
  0
LINE
  5
B8
330
1F
100
AcDbEntity
  8
0
  6
Continuous
 62
     7
370
    25
100
AcDbLine
 10
858.3835483116
 20
153.2561806576
 30
0.0
 11
858.3835483111
 21
155.2561806576
 31
0.0
  0
ARC
  5
B9
330
1F
100
AcDbEntity
  8
0
  6
Continuous
 62
     7
370
    25
100
AcDbCircle
 10
858.383548307
 20
170.2561806576
 30
0.0
 40
15.00000000000011
100
AcDbArc
 50
270.0000000156
 51
359.9999999621
  0
LINE
  5
BA
330
1F
100
AcDbEntity
  8
0
  6
Continuous
 62
     7
370
    25
100
AcDbLine
 10
178.3835483111
 20
155.2561804721
 30
0.0
 11
858.3835483111
 21
155.2561806576
 31
0.0
  0
LINE
  5
BB
330
1F
100
AcDbEntity
  8
0
  6
Continuous
 62
     7
370
    25
100
AcDbLine
 10
151.5478587434
 20
574.5771401667
 30
0.0
 11
151.4512306036
 21
575.0677143228
 31
0.0
  0
SPLINE
  5
BC
330
1F
100
AcDbEntity
  8
0
  6
Continuous
 62
     7
370
    25
100
AcDbSpline
210
0.0
220
0.0
230
1.0
 70
     8
 71
     3
 72
    11
 73
     7
 74
     0
 42
0.000000001
 43
0.00000001
 40
0.0
 40
0.0
 40
0.0
 40
0.0
 40
0.0000308614123774
 40
0.4311449906359546
 40
0.7156398425195325
 40
1.0
 40
1.0
 40
1.0
 40
1.0
 10
151.4512306035941
 20
575.0677143227635
 30
0.0
 10
151.4512502265676
 20
575.067718187851
 30
0.0
 10
151.7253901994544
 20
575.121714845676
 30
0.0
 10
152.1844424696699
 20
575.191849385638
 30
0.0
 10
152.8305336163556
 20
575.2474125179626
 30
0.0
 10
153.1992391040395
 20
575.2532582775707
 30
0.0
 10
153.3835481965426
 20
575.2561804652905
 30
0.0
  0
LINE
  5
BD
330
1F
100
AcDbEntity
  8
0
  6
Continuous
 62
     7
370
    25
100
AcDbLine
 10
153.3835704145
 20
574.7561804653
 30
0.0
 11
153.3835481965
 21
575.2561804653
 31
0.0
  0
LINE
  5
BE
330
1F
100
AcDbEntity
  8
0
  6
Continuous
 62
     7
370
    25
100
AcDbLine
 10
153.3835481965
 20
575.2561804653
 30
0.0
 11
883.3835481965
 21
575.2561806644
 31
0.0
  0
LINE
  5
BF
330
1F
100
AcDbEntity
  8
0
  6
Continuous
 62
     7
370
    25
100
AcDbLine
 10
883.3835481967
 20
574.75618066
 30
0.0
 11
883.3835481965
 21
575.2561806644
 31
0.0
  0
LINE
  5
C0
330
1F
100
AcDbEntity
  8
0
  6
Continuous
 62
     7
370
    25
100
AcDbLine
 10
148.0906949068
 20
573.1451467277
 30
0.0
 11
147.8120122416
 21
573.5602804076
 31
0.0
  0
SPLINE
  5
C1
330
1F
100
AcDbEntity
  8
0
  6
Continuous
 62
     7
370
    25
100
AcDbSpline
210
0.0
220
0.0
230
1.0
 70
     8
 71
     3
 72
    10
 73
     6
 74
     0
 42
0.000000001
 43
0.00000001
 40
0.0
 40
0.0
 40
0.0
 40
0.0
 40
0.4404838419017612
 40
0.7202182041649579
 40
1.0
 40
1.0
 40
1.0
 40
1.0
 10
147.8120122416364
 20
573.5602804075754
 30
0.0
 10
148.3118709214122
 20
573.8602454591633
 30
0.0
 10
149.1291706414886
 20
574.3507067887641
 30
0.0
 10
150.3709529447657
 20
574.8172458415963
 30
0.0
 10
151.0911176997426
 20
574.9842201105679
 30
0.0
 10
151.4512306035941
 20
575.0677143227635
 30
0.0
  0
LINE
  5
C2
330
1F
100
AcDbEntity
  8
0
  6
Continuous
 62
     7
370
    25
100
AcDbLine
 10
145.4946059289
 20
570.5490658212
 30
0.0
 11
145.0793911998
 21
570.827627715
 31
0.0
  0
SPLINE
  5
C3
330
1F
100
AcDbEntity
  8
0
  6
Continuous
 62
     7
370
    25
100
AcDbSpline
210
0.0
220
0.0
230
1.0
 70
     8
 71
     3
 72
    11
 73
     7
 74
     0
 42
0.000000001
 43
0.00000001
 40
0.0
 40
0.0
 40
0.0
 40
0.0
 40
0.0000308614120473
 40
0.4311449902436462
 40
0.7156398423384652
 40
0.9999999999999999
 40
0.9999999999999999
 40
0.9999999999999999
 40
0.9999999999999999
 10
145.0793911997517
 20
570.8276277150258
 30
0.0
 10
145.0794023422595
 20
570.827644323593
 30
0.0
 10
145.2350671694516
 20
571.0596719623427
 30
0.0
 10
145.5100735380433
 20
571.4338635413151
 30
0.0
 10
145.927639900149
 20
571.9300080406897
 30
0.0
 10
146.1842204748019
 20
572.1948557674993
 30
0.0
 10
146.3124803853414
 20
572.3272482753621
 30
0.0
  0
LINE
  5
C4
330
1F
100
AcDbEntity
  8
0
  6
Continuous
 62
     7
370
    25
100
AcDbLine
 10
146.6660494873
 20
571.9737105941
 30
0.0
 11
146.3124803853
 21
572.3272482754
 31
0.0
  0
SPLINE
  5
C5
330
1F
100
AcDbEntity
  8
0
  6
Continuous
 62
     7
370
    25
100
AcDbSpline
210
0.0
220
0.0
230
1.0
 70
     8
 71
     3
 72
    11
 73
     7
 74
     0
 42
0.000000001
 43
0.00000001
 40
0.0
 40
0.0
 40
0.0
 40
0.0
 40
0.0000308631487902
 40
0.4312385260787352
 40
0.7156899691887828
 40
1.0
 40
1.0
 40
1.0
 40
1.0
 10
146.3124803853414
 20
572.3272482753621
 30
0.0
 10
146.312494525622
 20
572.3272624193522
 30
0.0
 10
146.5100710531869
 20
572.524890778737
 30
0.0
 10
146.8522675969933
 20
572.8388288575428
 30
0.0
 10
147.3577857144475
 20
573.2449341073865
 30
0.0
 10
147.6606284980417
 20
573.4551823989964
 30
0.0
 10
147.8120122416364
 20
573.5602804075754
 30
0.0
  0
LINE
  5
C6
330
1F
100
AcDbEntity
  8
0
  6
Continuous
 62
     7
370
    25
100
AcDbLine
 10
143.8835483138
 20
145.2562026805
 30
0.0
 11
143.3835483138
 21
145.2561804626
 31
0.0
  0
LINE
  5
C7
330
1F
100
AcDbEntity
  8
0
  6
Continuous
 62
     7
370
    25
100
AcDbLine
 10
143.3835483138
 20
145.2561804626
 30
0.0
 11
143.3835481993
 21
565.2561804626
 31
0.0
  0
LINE
  5
C8
330
1F
100
AcDbEntity
  8
0
  6
Continuous
 62
     7
370
    25
100
AcDbLine
 10
143.8835482037
 20
565.2561804627
 30
0.0
 11
143.3835481993
 21
565.2561804626
 31
0.0
  0
LINE
  5
C9
330
1F
100
AcDbEntity
  8
0
  6
Continuous
 62
     7
370
    25
100
AcDbLine
 10
893.3835481993
 20
565.2561806671
 30
0.0
 11
893.3835483138
 21
145.2561806671
 31
0.0
  0
LINE
  5
CA
330
1F
100
AcDbEntity
  8
0
  6
Continuous
 62
     7
370
    25
100
AcDbLine
 10
893.3835483138
 20
145.2561806671
 30
0.0
 11
892.8835483094
 21
145.256180667
 31
0.0
  0
LINE
  5
CB
330
1F
100
AcDbEntity
  8
0
  6
Continuous
 62
     7
370
    25
100
AcDbLine
 10
893.3835481993
 20
565.2561806671
 30
0.0
 11
892.8835481993
 21
565.2561584492
 31
0.0
  0
SPLINE
  5
CC
330
1F
100
AcDbEntity
  8
0
  6
Continuous
 62
     7
370
    25
100
AcDbSpline
210
0.0
220
0.0
230
1.0
 70
     8
 71
     3
 72
    11
 73
     7
 74
     0
 42
0.000000001
 43
0.00000001
 40
0.0
 40
0.0
 40
0.0
 40
0.0
 40
0.0000308631487628
 40
0.4312385312932513
 40
0.715689974566957
 40
1.0
 40
1.0
 40
1.0
 40
1.0
 10
883.3835481965422
 20
575.2561806643928
 30
0.0
 10
883.3835681965417
 20
575.2561806670158
 30
0.0
 10
883.6630202548492
 20
575.2562173170566
 30
0.0
 10
884.1269775000293
 20
575.2362355652187
 30
0.0
 10
884.7715925646014
 20
575.165940051773
 30
0.0
 10
885.1344027399144
 20
575.1004658593399
 30
0.0
 10
885.3157627226947
 20
575.0677369029318
 30
0.0
  0
LINE
  5
CD
330
1F
100
AcDbEntity
  8
0
  6
Continuous
 62
     7
370
    25
100
AcDbLine
 10
885.3157627227
 20
575.0677369029
 30
0.0
 11
885.2192772942
 21
574.5771346586
 31
0.0
  0
LINE
  5
CE
330
1F
100
AcDbEntity
  8
0
  6
Continuous
 62
     7
370
    25
100
AcDbLine
 10
144.062594205
 20
567.0919095602
 30
0.0
 11
143.5719919607
 21
567.1883949887
 31
0.0
  0
SPLINE
  5
CF
330
1F
100
AcDbEntity
  8
0
  6
Continuous
 62
     7
370
    25
100
AcDbSpline
210
0.0
220
0.0
230
1.0
 70
     8
 71
     3
 72
    10
 73
     6
 74
     0
 42
0.000000001
 43
0.00000001
 40
0.0
 40
0.0
 40
0.0
 40
0.0
 40
0.4404838981405104
 40
0.7202182332937996
 40
1.0
 40
1.0
 40
1.0
 40
1.0
 10
143.5719919607319
 20
567.1883949887151
 30
0.0
 10
143.7133381223002
 20
567.7539558447467
 30
0.0
 10
143.9444477796506
 20
568.6786825879275
 30
0.0
 10
144.4926275605246
 20
569.8866481927328
 30
0.0
 10
144.8837922666788
 20
570.513950148286
 30
0.0
 10
145.0793911997517
 20
570.8276277150258
 30
0.0
  0
SPLINE
  5
D0
330
1F
100
AcDbEntity
  8
0
  6
Continuous
 62
     7
370
    25
100
AcDbSpline
210
0.0
220
0.0
230
1.0
 70
     8
 71
     3
 72
    10
 73
     6
 74
     0
 42
0.000000001
 43
0.00000001
 40
0.0
 40
0.0
 40
0.0
 40
0.0
 40
0.4404838982055916
 40
0.7202182332972169
 40
1.0
 40
1.0
 40
1.0
 40
1.0
 10
885.3157627226947
 20
575.0677369029318
 30
0.0
 10
885.881323578853
 20
574.9263907414553
 30
0.0
 10
886.8060503221092
 20
574.6952810842878
 30
0.0
 10
888.0140159267551
 20
574.1471013030341
 30
0.0
 10
888.6413178822579
 20
573.7559365969639
 30
0.0
 10
888.9549954490049
 20
573.5603376639125
 30
0.0
  0
LINE
  5
D1
330
1F
100
AcDbEntity
  8
0
  6
Continuous
 62
     7
370
    25
100
AcDbLine
 10
888.954995449
 20
573.5603376639
 30
0.0
 11
888.6764335552
 21
573.1451229347
 31
0.0
  0
SPLINE
  5
D2
330
1F
100
AcDbEntity
  8
0
  6
Continuous
 62
     7
370
    25
100
AcDbSpline
210
0.0
220
0.0
230
1.0
 70
     8
 71
     3
 72
    11
 73
     7
 74
     0
 42
0.000000001
 43
0.00000001
 40
0.0
 40
0.0
 40
0.0
 40
0.0
 40
0.0000308631487627
 40
0.431238531257342
 40
0.7156899745739413
 40
1.0
 40
1.0
 40
1.0
 40
1.0
 10
143.3835481992701
 20
565.2561804625631
 30
0.0
 10
143.3835481966471
 20
565.2562004625628
 30
0.0
 10
143.3835115464655
 20
565.5356525213031
 30
0.0
 10
143.4034932984254
 20
565.9996097658994
 30
0.0
 10
143.4737888117715
 20
566.6442248306472
 30
0.0
 10
143.5392630042861
 20
567.0070350059542
 30
0.0
 10
143.5719919607319
 20
567.1883949887151
 30
0.0
  0
SPLINE
  5
D3
330
1F
100
AcDbEntity
  8
0
  6
Continuous
 62
     7
370
    25
100
AcDbSpline
210
0.0
220
0.0
230
1.0
 70
     8
 71
     3
 72
    11
 73
     7
 74
     0
 42
0.000000001
 43
0.00000001
 40
0.0
 40
0.0
 40
0.0
 40
0.0
 40
0.0000308631487695
 40
0.4312385259547321
 40
0.7156899692268479
 40
1.0
 40
1.0
 40
1.0
 40
1.0
 10
890.4546160093419
 20
572.3272484783215
 30
0.0
 10
890.4546301533325
 20
572.327234338041
 30
0.0
 10
890.6522585152114
 20
572.1296578140011
 30
0.0
 10
890.9661965908997
 20
571.7874612658287
 30
0.0
 10
891.37230184186
 20
571.2819431497504
 30
0.0
 10
891.5825501331656
 20
570.9791003657645
 30
0.0
 10
891.6876481415552
 20
570.8277166220272
 30
0.0
  0
LINE
  5
D4
330
1F
100
AcDbEntity
  8
0
  6
Continuous
 62
     7
370
    25
100
AcDbLine
 10
891.6876481416
 20
570.827716622
 30
0.0
 11
891.2725144617
 21
570.5490339569
 31
0.0
  0
LINE
  5
D5
330
1F
100
AcDbEntity
  8
0
  6
Continuous
 62
     7
370
    25
100
AcDbLine
 10
890.4546160093
 20
572.3272484783
 30
0.0
 11
890.1010783281
 21
571.9736793763
 31
0.0
  0
SPLINE
  5
D6
330
1F
100
AcDbEntity
  8
0
  6
Continuous
 62
     7
370
    25
100
AcDbSpline
210
0.0
220
0.0
230
1.0
 70
     8
 71
     3
 72
    10
 73
     6
 74
     0
 42
0.000000001
 43
0.00000001
 40
0.0
 40
0.0
 40
0.0
 40
0.0
 40
0.4404838419033195
 40
0.7202182041841138
 40
1.0
 40
1.0
 40
1.0
 40
1.0
 10
891.6876481415554
 20
570.8277166220272
 30
0.0
 10
891.9876131932667
 20
570.3278579423052
 30
0.0
 10
892.4780745230807
 20
569.510558222298
 30
0.0
 10
892.9446135755778
 20
568.2687759188717
 30
0.0
 10
893.1115878445528
 20
567.548611163896
 30
0.0
 10
893.1950820567442
 20
567.1884982600687
 30
0.0
  0
LINE
  5
D7
330
1F
100
AcDbEntity
  8
0
  6
Continuous
 62
     7
370
    25
100
AcDbLine
 10
893.1950820567
 20
567.1884982601
 30
0.0
 11
892.7045079007
 21
567.0918701203
 31
0.0
  0
SPLINE
  5
D8
330
1F
100
AcDbEntity
  8
0
  6
Continuous
 62
     7
370
    25
100
AcDbSpline
210
0.0
220
0.0
230
1.0
 70
     8
 71
     3
 72
    11
 73
     7
 74
     0
 42
0.000000001
 43
0.00000001
 40
0.0
 40
0.0
 40
0.0
 40
0.0
 40
0.0000308614124209
 40
0.431144990243631
 40
0.7156398423382786
 40
1.0
 40
1.0
 40
1.0
 40
1.0
 10
888.9549954490049
 20
573.5603376639125
 30
0.0
 10
888.955012057572
 20
573.5603265214044
 30
0.0
 10
889.1870396929162
 20
573.4046616907935
 30
0.0
 10
889.5612312763117
 20
573.1296553266408
 30
0.0
 10
890.0573757744592
 20
572.712088963303
 30
0.0
 10
890.3222235014088
 20
572.4555083887907
 30
0.0
 10
890.4546160093419
 20
572.3272484783215
 30
0.0
  0
SPLINE
  5
D9
330
1F
100
AcDbEntity
  8
0
  6
Continuous
 62
     7
370
    25
100
AcDbSpline
210
0.0
220
0.0
230
1.0
 70
     8
 71
     3
 72
    11
 73
     7
 74
     0
 42
0.000000001
 43
0.00000001
 40
0.0
 40
0.0
 40
0.0
 40
0.0
 40
0.0000308614123554
 40
0.4311449906457425
 40
0.7156398425218002
 40
1.0
 40
1.0
 40
1.0
 40
1.0
 10
893.195082056744
 20
567.1884982600687
 30
0.0
 10
893.1950859218314
 20
567.1884786370953
 30
0.0
 10
893.2490825788209
 20
566.9143386642723
 30
0.0
 10
893.3192171197882
 20
566.455286393955
 30
0.0
 10
893.3747802518934
 20
565.8091952473037
 30
0.0
 10
893.3806260115338
 20
565.4404897596232
 30
0.0
 10
893.3835481992697
 20
565.2561806671201
 30
0.0
  0
SPLINE
  5
DA
330
1F
100
AcDbEntity
  8
0
  6
Continuous
 62
     7
370
    25
100
AcDbSpline
210
0.0
220
0.0
230
1.0
 70
     8
 71
     3
 72
    11
 73
     7
 74
     0
 42
0.000000001
 43
0.00000001
 40
0.0
 40
0.0
 40
0.0
 40
0.0
 40
0.0000308631488199
 40
0.4312385312518884
 40
0.7156899745639829
 40
0.9999999999999999
 40
0.9999999999999999
 40
0.9999999999999999
 40
0.9999999999999999
 10
893.3835483138217
 20
145.2561806671195
 30
0.0
 10
893.383548316445
 20
145.2561606671197
 30
0.0
 10
893.3835849696319
 20
144.976708608711
 30
0.0
 10
893.3636032137604
 20
144.5127513636955
 30
0.0
 10
893.2933077014206
 20
143.8681362990776
 30
0.0
 10
893.2278335088411
 20
143.5053261237454
 30
0.0
 10
893.1951045523614
 20
143.3239661409671
 30
0.0
  0
LINE
  5
DB
330
1F
100
AcDbEntity
  8
0
  6
Continuous
 62
     7
370
    25
100
AcDbLine
 10
893.1951045524
 20
143.323966141
 30
0.0
 11
892.7045023081
 21
143.4204515694
 31
0.0
  0
LINE
  5
DC
330
1F
100
AcDbEntity
  8
0
  6
Continuous
 62
     7
370
    25
100
AcDbLine
 10
144.0625886124
 20
143.4204910094
 30
0.0
 11
143.5720144563
 21
143.3238628696
 31
0.0
  0
SPLINE
  5
DD
330
1F
100
AcDbEntity
  8
0
  6
Continuous
 62
     7
370
    25
100
AcDbSpline
210
0.0
220
0.0
230
1.0
 70
     8
 71
     3
 72
    11
 73
     7
 74
     0
 42
0.000000001
 43
0.00000001
 40
0.0
 40
0.0
 40
0.0
 40
0.0
 40
0.0000308614128147
 40
0.431144990646655
 40
0.7156398425222599
 40
1.0
 40
1.0
 40
1.0
 40
1.0
 10
143.572014456349
 20
143.3238628696125
 30
0.0
 10
143.5720105912615
 20
143.3238824925863
 30
0.0
 10
143.5180139353398
 20
143.5980224650296
 30
0.0
 10
143.4478793929849
 20
144.0570747358408
 30
0.0
 10
143.3923162612642
 20
144.7031658823548
 30
0.0
 10
143.3864705015799
 20
145.0718713700504
 30
0.0
 10
143.383548313822
 20
145.256180462561
 30
0.0
  0
SPLINE
  5
DE
330
1F
100
AcDbEntity
  8
0
  6
Continuous
 62
     7
370
    25
100
AcDbSpline
210
0.0
220
0.0
230
1.0
 70
     8
 71
     3
 72
    10
 73
     6
 74
     0
 42
0.000000001
 43
0.00000001
 40
0.0
 40
0.0
 40
0.0
 40
0.0
 40
0.4404838983250548
 40
0.7202182334146388
 40
1.0
 40
1.0
 40
1.0
 40
1.0
 10
893.1951045523614
 20
143.3239661409671
 30
0.0
 10
893.0537583908358
 20
142.7584052846605
 30
0.0
 10
892.8226487336137
 20
141.8336785412619
 30
0.0
 10
892.2744689530608
 20
140.6257129362295
 30
0.0
 10
891.8833042465648
 20
139.9984109811349
 30
0.0
 10
891.6877053133408
 20
139.6847334146566
 30
0.0
  0
LINE
  5
DF
330
1F
100
AcDbEntity
  8
0
  6
Continuous
 62
     7
370
    25
100
AcDbLine
 10
891.6877053133
 20
139.6847334147
 30
0.0
 11
891.2724905862
 21
139.9632953115
 31
0.0
  0
LINE
  5
E0
330
1F
100
AcDbEntity
  8
0
  6
Continuous
 62
     7
370
    25
100
AcDbLine
 10
883.3835483165
 20
135.2561806644
 30
0.0
 11
153.3835483165
 21
135.2561804653
 31
0.0
  0
LWPOLYLINE
  5
E1
330
1F
100
AcDbEntity
  8
0
  6
Continuous
 62
     7
370
    25
100
AcDbPolyline
 90
        9
 70
   128
 43
0.0
 10
153.3835483165
 20
135.2561804653
 10
153.3835353319
 20
135.2657878251
 10
153.3835228463
 20
135.294240699
 10
153.3835113394
 20
135.3404456591
 10
153.3835012536
 20
135.4026270747
 10
153.3834929763
 20
135.4783953488
 10
153.3834868258
 20
135.5648387491
 10
153.3834830383
 20
135.6586353043
 10
153.3834817594
 20
135.7561804653
  0
LWPOLYLINE
  5
E2
330
1F
100
AcDbEntity
  8
0
  6
Continuous
 62
     7
370
    25
100
AcDbPolyline
 90
        9
 70
   128
 43
0.0
 10
883.3835483165
 20
135.2561806644
 10
883.3835522241
 20
135.2657880244
 10
883.3835551277
 20
135.2942408985
 10
883.3835569157
 20
135.3404458587
 10
883.3835575194
 20
135.4026272744
 10
883.3835569157
 20
135.4783955485
 10
883.3835551276
 20
135.5648389488
 10
883.383552224
 20
135.658635504
 10
883.3835483164
 20
135.7561806649
  0
LINE
  5
E3
330
1F
100
AcDbEntity
  8
0
  6
Continuous
 62
     7
370
    25
100
AcDbLine
 10
146.666018185
 20
138.5386817534
 30
0.0
 11
146.3124805038
 21
138.1851126514
 31
0.0
  0
SPLINE
  5
E4
330
1F
100
AcDbEntity
  8
0
  6
Continuous
 62
     7
370
    25
100
AcDbSpline
210
0.0
220
0.0
230
1.0
 70
     8
 71
     3
 72
    11
 73
     7
 74
     0
 42
0.000000001
 43
0.00000001
 40
0.0
 40
0.0
 40
0.0
 40
0.0
 40
0.0000308631488306
 40
0.4312385260786941
 40
0.7156899691890642
 40
1.0
 40
1.0
 40
1.0
 40
1.0
 10
146.3124805037506
 20
138.1851126513608
 30
0.0
 10
146.3124663597605
 20
138.1851267916417
 30
0.0
 10
146.1148380010504
 20
138.3827033196933
 30
0.0
 10
145.800899921368
 20
138.7248998628673
 30
0.0
 10
145.3947946717679
 20
139.2304179804977
 30
0.0
 10
145.1845463801301
 20
139.5332607640716
 30
0.0
 10
145.0794483715371
 20
139.684644507656
 30
0.0
  0
LINE
  5
E5
330
1F
100
AcDbEntity
  8
0
  6
Continuous
 62
     7
370
    25
100
AcDbLine
 10
145.4945820514
 20
139.9633271728
 30
0.0
 11
145.0794483715
 21
139.6846445077
 31
0.0
  0
SPLINE
  5
E6
330
1F
100
AcDbEntity
  8
0
  6
Continuous
 62
     7
370
    25
100
AcDbSpline
210
0.0
220
0.0
230
1.0
 70
     8
 71
     3
 72
    11
 73
     7
 74
     0
 42
0.000000001
 43
0.00000001
 40
0.0
 40
0.0
 40
0.0
 40
0.0
 40
0.000030863148877
 40
0.4312385312935476
 40
0.7156899745663564
 40
0.9999999999999999
 40
0.9999999999999999
 40
0.9999999999999999
 40
0.9999999999999999
 10
153.3835483165494
 20
135.2561804652895
 30
0.0
 10
153.3835283165498
 20
135.2561804626665
 30
0.0
 10
153.1040762577553
 20
135.2561438121079
 30
0.0
 10
152.640119013208
 20
135.2761255646211
 30
0.0
 10
151.9955039484606
 20
135.346421077878
 30
0.0
 10
151.6326937731678
 20
135.4118952703332
 30
0.0
 10
151.4513337903975
 20
135.4446242267522
 30
0.0
  0
LINE
  5
E7
330
1F
100
AcDbEntity
  8
0
  6
Continuous
 62
     7
370
    25
100
AcDbLine
 10
151.5478192189
 20
135.9352264711
 30
0.0
 11
151.4513337904
 21
135.4446242268
 31
0.0
  0
LINE
  5
E8
330
1F
100
AcDbEntity
  8
0
  6
Continuous
 62
     7
370
    25
100
AcDbLine
 10
148.0906629579
 20
137.3672381949
 30
0.0
 11
147.8121010641
 21
136.9520234658
 31
0.0
  0
SPLINE
  5
E9
330
1F
100
AcDbEntity
  8
0
  6
Continuous
 62
     7
370
    25
100
AcDbSpline
210
0.0
220
0.0
230
1.0
 70
     8
 71
     3
 72
    11
 73
     7
 74
     0
 42
0.000000001
 43
0.00000001
 40
0.0
 40
0.0
 40
0.0
 40
0.0
 40
0.0000308614124927
 40
0.4311449902442881
 40
0.715639842339013
 40
1.0
 40
1.0
 40
1.0
 40
1.0
 10
147.8121010640869
 20
136.9520234657699
 30
0.0
 10
147.8120844555197
 20
136.9520346082782
 30
0.0
 10
147.5800568201482
 20
137.1076994400667
 30
0.0
 10
147.2058652367882
 20
137.3827058026903
 30
0.0
 10
146.7097207386308
 20
137.8002721664519
 30
0.0
 10
146.4448730116826
 20
138.056852740916
 30
0.0
 10
146.3124805037506
 20
138.1851126513608
 30
0.0
  0
SPLINE
  5
EA
330
1F
100
AcDbEntity
  8
0
  6
Continuous
 62
     7
370
    25
100
AcDbSpline
210
0.0
220
0.0
230
1.0
 70
     8
 71
     3
 72
    10
 73
     6
 74
     0
 42
0.000000001
 43
0.00000001
 40
0.0
 40
0.0
 40
0.0
 40
0.0
 40
0.4404838419002621
 40
0.7202182041643076
 40
1.0
 40
1.0
 40
1.0
 40
1.0
 10
145.0794483715371
 20
139.684644507656
 30
0.0
 10
144.7794833199501
 20
140.18450318743
 30
0.0
 10
144.2890219903494
 20
141.0018029075048
 30
0.0
 10
143.8224829375184
 20
142.2435852107823
 30
0.0
 10
143.6555086685453
 20
142.9637499657606
 30
0.0
 10
143.572014456349
 20
143.3238628696125
 30
0.0
  0
SPLINE
  5
EB
330
1F
100
AcDbEntity
  8
0
  6
Continuous
 62
     7
370
    25
100
AcDbSpline
210
0.0
220
0.0
230
1.0
 70
     8
 71
     3
 72
    10
 73
     6
 74
     0
 42
0.000000001
 43
0.00000001
 40
0.0
 40
0.0
 40
0.0
 40
0.0
 40
0.4404838983112268
 40
0.7202182334652595
 40
1.0
 40
1.0
 40
1.0
 40
1.0
 10
151.4513337903975
 20
135.4446242267521
 30
0.0
 10
150.8857729340022
 20
135.5859703879877
 30
0.0
 10
149.9610461903644
 20
135.8170800447594
 30
0.0
 10
148.753080585604
 20
136.3652598260373
 30
0.0
 10
148.1257786305036
 20
136.7564245325684
 30
0.0
 10
147.8121010640869
 20
136.9520234657699
 30
0.0
  0
SPLINE
  5
EC
330
1F
100
AcDbEntity
  8
0
  6
Continuous
 62
     7
370
    25
100
AcDbSpline
210
0.0
220
0.0
230
1.0
 70
     8
 71
     3
 72
    11
 73
     7
 74
     0
 42
0.000000001
 43
0.00000001
 40
0.0
 40
0.0
 40
0.0
 40
0.0
 40
0.0000308614122301
 40
0.4311449902438119
 40
0.7156398423380724
 40
1.0
 40
1.0
 40
1.0
 40
1.0
 10
891.6877053133408
 20
139.6847334146566
 30
0.0
 10
891.687694170833
 20
139.6847168060892
 30
0.0
 10
891.5320293421527
 20
139.4526891679591
 30
0.0
 10
891.2570229754928
 20
139.0784975881826
 30
0.0
 10
890.8394566128528
 20
138.5823530890296
 30
0.0
 10
890.5828760382601
 20
138.3175053621952
 30
0.0
 10
890.4546161277505
 20
138.18511285432
 30
0.0
  0
LWPOLYLINE
  5
ED
330
1F
100
AcDbEntity
  8
0
  6
Continuous
 62
     7
370
    25
100
AcDbPolyline
 90
        9
 70
   128
 43
0.0
 10
890.4546161278
 20
138.1851128543
 10
890.4478162802
 20
138.1918998648
 10
890.4276902848
 20
138.212012309
 10
890.3950115721
 20
138.244677277
 10
890.3510359669
 20
138.2886394724
 10
890.2974534268
 20
138.3422094528
 10
890.236323099
 20
138.4033285537
 10
890.1699941876
 20
138.4696480024
 10
890.1010156755
 20
138.5386191798
  0
SPLINE
  5
EE
330
1F
100
AcDbEntity
  8
0
  6
Continuous
 62
     7
370
    25
100
AcDbSpline
210
0.0
220
0.0
230
1.0
 70
     8
 71
     3
 72
    11
 73
     7
 74
     0
 42
0.000000001
 43
0.00000001
 40
0.0
 40
0.0
 40
0.0
 40
0.0
 40
0.0000308631482981
 40
0.4312385316764453
 40
0.7156899748842228
 40
1.0
 40
1.0
 40
1.0
 40
1.0
 10
890.4546161277505
 20
138.18511285432
 30
0.0
 10
890.4546019874699
 20
138.1850987103302
 30
0.0
 10
890.2570254540445
 20
137.9874703515259
 30
0.0
 10
889.9148289116845
 20
137.6735322659279
 30
0.0
 10
889.409310792417
 20
137.2674270177997
 30
0.0
 10
889.1064680120253
 20
137.0571787278596
 30
0.0
 10
888.9550842715742
 20
136.9520807211861
 30
0.0
  0
LWPOLYLINE
  5
EF
330
1F
100
AcDbEntity
  8
0
  6
Continuous
 62
     7
370
    25
100
AcDbPolyline
 90
        9
 70
   128
 43
0.0
 10
888.9550842716
 20
136.9520807212
 10
888.9497301778
 20
136.9600578788
 10
888.93387222
 20
136.9836818329
 10
888.9081198105
 20
137.0220447284
 10
888.8734626001
 20
137.0736723007
 10
888.8312324459
 20
137.136580531
 10
888.783052229
 20
137.2083518914
 10
888.7307734882
 20
137.2862282488
 10
888.6764052662
 20
137.3672168584
  0
SPLINE
  5
F0
330
1F
100
AcDbEntity
  8
0
  6
Continuous
 62
     7
370
    25
100
AcDbSpline
210
0.0
220
0.0
230
1.0
 70
     8
 71
     3
 72
    10
 73
     6
 74
     0
 42
0.000000001
 43
0.00000001
 40
0.0
 40
0.0
 40
0.0
 40
0.0
 40
0.4404838418600932
 40
0.7202182042059628
 40
1.0
 40
1.0
 40
1.0
 40
1.0
 10
888.9550842715742
 20
136.9520807211861
 30
0.0
 10
888.4552255918268
 20
136.6521156697184
 30
0.0
 10
887.6379258716725
 20
136.1616543402397
 30
0.0
 10
886.3961435682695
 20
135.6951152879832
 30
0.0
 10
885.6759788132771
 20
135.5281410190686
 30
0.0
 10
885.3158659094975
 20
135.4446468069198
 30
0.0
  0
LINE
  5
F1
330
1F
100
AcDbEntity
  8
0
  6
Continuous
 62
     7
370
    25
100
AcDbLine
 10
885.3158659095
 20
135.4446468069
 30
0.0
 11
885.2192377667
 21
135.9352209624
 31
0.0
  0
SPLINE
  5
F2
330
1F
100
AcDbEntity
  8
0
  6
Continuous
 62
     7
370
    25
100
AcDbSpline
210
0.0
220
0.0
230
1.0
 70
     8
 71
     3
 72
    11
 73
     7
 74
     0
 42
0.000000001
 43
0.00000001
 40
0.0
 40
0.0
 40
0.0
 40
0.0
 40
0.0000308614123775
 40
0.4311449906353627
 40
0.7156398425197514
 40
0.9999999999999999
 40
0.9999999999999999
 40
0.9999999999999999
 40
0.9999999999999999
 10
885.3158659094975
 20
135.4446468069198
 30
0.0
 10
885.315846286524
 20
135.4446429418322
 30
0.0
 10
885.0417063117799
 20
135.390646285452
 30
0.0
 10
884.5826540439776
 20
135.320511743614
 30
0.0
 10
883.9365628966223
 20
135.264948611808
 30
0.0
 10
883.567857409014
 20
135.2591028521419
 30
0.0
 10
883.3835483165495
 20
135.2561806643928
 30
0.0
  0
SPLINE
  5
F3
330
1F
100
AcDbEntity
  8
0
  6
Continuous
 62
     7
370
    25
100
AcDbSpline
210
0.0
220
0.0
230
1.0
 70
     8
 71
     3
 72
    13
 73
     9
 74
     0
 42
0.000000001
 43
0.00000001
 40
0.0
 40
0.0
 40
0.0
 40
0.0
 40
0.2711096241433122
 40
0.4011866296946821
 40
0.5304313325262393
 40
0.6909049710338442
 40
0.8481477454787837
 40
1.0
 40
1.0
 40
1.0
 40
1.0
 10
167.6992777394763
 20
170.1533340257014
 30
0.0
 10
167.0048057776278
 20
170.1571113555636
 30
0.0
 10
165.9771297345073
 20
170.162701028898
 30
0.0
 10
164.9703568129301
 20
170.1743939257284
 30
0.0
 10
164.3180929585576
 20
170.1900912864356
 30
0.0
 10
163.8229492390295
 20
170.2128645967739
 30
0.0
 10
163.5172630244415
 20
170.2363763690518
 30
0.0
 10
163.4080200458172
 20
170.247373842385
 30
0.0
 10
163.3543511380699
 20
170.2527766828164
 30
0.0
  0
SPLINE
  5
F4
330
1F
100
AcDbEntity
  8
0
  6
Continuous
 62
     7
370
    25
100
AcDbSpline
210
0.0
220
0.0
230
1.0
 70
     8
 71
     3
 72
    14
 73
    10
 74
     0
 42
0.000000001
 43
0.00000001
 40
0.0
 40
0.0
 40
0.0
 40
0.0
 40
0.1022969250361785
 40
0.2042041561058257
 40
0.3049155828801867
 40
0.4058242590256027
 40
0.5040145294763506
 40
0.7541391675412333
 40
0.9999999999999999
 40
0.9999999999999999
 40
0.9999999999999999
 40
0.9999999999999999
 10
178.1362748671967
 20
170.1031840644905
 30
0.0
 10
177.7409687121273
 20
170.1041422134629
 30
0.0
 10
176.9518622969456
 20
170.1060548613974
 30
0.0
 10
175.7812863382333
 20
170.114948250997
 30
0.0
 10
174.6279951015115
 20
170.1188728521347
 30
0.0
 10
173.5080145224302
 20
170.1203488902376
 30
0.0
 10
171.8756791878495
 20
170.1224496331779
 30
0.0
 10
169.8259702208282
 20
170.1344347943595
 30
0.0
 10
168.4041008028885
 20
170.1470704900714
 30
0.0
 10
167.6992777394763
 20
170.1533340257014
 30
0.0
  0
SPLINE
  5
F5
330
1F
100
AcDbEntity
  8
0
  6
Continuous
 62
     7
370
    25
100
AcDbSpline
210
0.0
220
0.0
230
1.0
 70
     8
 71
     3
 72
     9
 73
     5
 74
     0
 42
0.000000001
 43
0.00000001
 40
0.0
 40
0.0
 40
0.0
 40
0.0
 40
0.499997797867797
 40
0.9999999999999999
 40
0.9999999999999999
 40
0.9999999999999999
 40
0.9999999999999999
 10
178.1445050904488
 20
168.6376870450705
 30
0.0
 10
178.1429063735684
 20
168.8813088374726
 30
0.0
 10
178.1397089257253
 20
169.3685545682359
 30
0.0
 10
178.1371024547479
 20
169.8579236259081
 30
0.0
 10
178.1357992135194
 20
170.1026092323997
 30
0.0
  0
SPLINE
  5
F6
330
1F
100
AcDbEntity
  8
0
  6
Continuous
 62
     7
370
    25
100
AcDbSpline
210
0.0
220
0.0
230
1.0
 70
     8
 71
     3
 72
     9
 73
     5
 74
     0
 42
0.000000001
 43
0.00000001
 40
0.0
 40
0.0
 40
0.0
 40
0.0
 40
0.4999977871264035
 40
1.0
 40
1.0
 40
1.0
 40
1.0
 10
178.1511554368458
 20
167.1883944301183
 30
0.0
 10
178.1499005869952
 20
167.4285395559704
 30
0.0
 10
178.1473908761867
 20
167.9088319333271
 30
0.0
 10
178.1454670222633
 20
168.3947345185141
 30
0.0
 10
178.1445050910444
 20
168.6376868863485
 30
0.0
  0
SPLINE
  5
F7
330
1F
100
AcDbEntity
  8
0
  6
Continuous
 62
     7
370
    25
100
AcDbSpline
210
0.0
220
0.0
230
1.0
 70
     8
 71
     3
 72
     9
 73
     5
 74
     0
 42
0.000000001
 43
0.00000001
 40
0.0
 40
0.0
 40
0.0
 40
0.0
 40
0.5000035127168505
 40
1.0
 40
1.0
 40
1.0
 40
1.0
 10
178.1624875236007
 20
164.4002415480502
 30
0.0
 10
178.1600358994494
 20
164.8542789889132
 30
0.0
 10
178.155132685594
 20
165.7623474910642
 30
0.0
 10
178.1524811804658
 20
166.7130475727201
 30
0.0
 10
178.1511554372157
 20
167.1883942740082
 30
0.0
  0
SPLINE
  5
F8
330
1F
100
AcDbEntity
  8
0
  6
Continuous
 62
     7
370
    25
100
AcDbSpline
210
0.0
220
0.0
230
1.0
 70
     8
 71
     3
 72
     9
 73
     5
 74
     0
 42
0.000000001
 43
0.00000001
 40
0.0
 40
0.0
 40
0.0
 40
0.0
 40
0.500000451184231
 40
1.0
 40
1.0
 40
1.0
 40
1.0
 10
178.1886148035516
 20
161.8379850826842
 30
0.0
 10
178.1837441682862
 20
162.2480342691678
 30
0.0
 10
178.1740029065459
 20
163.0681319021047
 30
0.0
 10
178.16632598341
 20
163.9562051270866
 30
0.0
 10
178.1624875253058
 20
164.4002413388928
 30
0.0
  0
SPLINE
  5
F9
330
1F
100
AcDbEntity
  8
0
  6
Continuous
 62
     7
370
    25
100
AcDbSpline
210
0.0
220
0.0
230
1.0
 70
     8
 71
     3
 72
     9
 73
     5
 74
     0
 42
0.000000001
 43
0.00000001
 40
0.0
 40
0.0
 40
0.0
 40
0.0
 40
0.4999939076708753
 40
1.0
 40
1.0
 40
1.0
 40
1.0
 10
178.2214451689157
 20
159.594467550325
 30
0.0
 10
178.2155217877271
 20
159.9456787288834
 30
0.0
 10
178.2036748809994
 20
160.648109644881
 30
0.0
 10
178.1936348701456
 20
161.4413567149348
 30
0.0
 10
178.1886148035515
 20
161.8379850826842
 30
0.0
  0
SPLINE
  5
FA
330
1F
100
AcDbEntity
  8
0
  6
Continuous
 62
     7
370
    25
100
AcDbSpline
210
0.0
220
0.0
230
1.0
 70
     8
 71
     3
 72
     9
 73
     5
 74
     0
 42
0.000000001
 43
0.00000001
 40
0.0
 40
0.0
 40
0.0
 40
0.0
 40
0.50000619669735
 40
1.0
 40
1.0
 40
1.0
 40
1.0
 10
178.2587251734087
 20
157.7540004886589
 30
0.0
 10
178.2521410308032
 20
158.033182989488
 30
0.0
 10
178.2389729087902
 20
158.5915410711943
 30
0.0
 10
178.2272877056856
 20
159.2601611805433
 30
0.0
 10
178.2214451765431
 20
159.5944670919812
 30
0.0
  0
SPLINE
  5
FB
330
1F
100
AcDbEntity
  8
0
  6
Continuous
 62
     7
370
    25
100
AcDbSpline
210
0.0
220
0.0
230
1.0
 70
     8
 71
     3
 72
     9
 73
     5
 74
     0
 42
0.000000001
 43
0.00000001
 40
0.0
 40
0.0
 40
0.0
 40
0.0
 40
0.5000000363101752
 40
0.9999999999999999
 40
0.9999999999999999
 40
0.9999999999999999
 40
0.9999999999999999
 10
178.2976028167868
 20
156.3862193851438
 30
0.0
 10
178.2908471969488
 20
156.5827931872755
 30
0.0
 10
178.2773359582542
 20
156.9759407629882
 30
0.0
 10
178.2649287713033
 20
157.4946471158815
 30
0.0
 10
178.2587251782783
 20
157.7540002734939
 30
0.0
  0
SPLINE
  5
FC
330
1F
100
AcDbEntity
  8
0
  6
Continuous
 62
     7
370
    25
100
AcDbSpline
210
0.0
220
0.0
230
1.0
 70
     8
 71
     3
 72
     9
 73
     5
 74
     0
 42
0.000000001
 43
0.00000001
 40
0.0
 40
0.0
 40
0.0
 40
0.0
 40
0.4999967183194633
 40
1.0
 40
1.0
 40
1.0
 40
1.0
 10
178.3450606300149
 20
155.5421476435992
 30
0.0
 10
178.3369808269662
 20
155.6486835763132
 30
0.0
 10
178.3208211148067
 20
155.8617568402177
 30
0.0
 10
178.3053422862918
 20
156.2113976999339
 30
0.0
 10
178.2976028212379
 20
156.3862192772017
 30
0.0
  0
SPLINE
  5
FD
330
1F
100
AcDbEntity
  8
0
  6
Continuous
 62
     7
370
    25
100
AcDbSpline
210
0.0
220
0.0
230
1.0
 70
     8
 71
     3
 72
     9
 73
     5
 74
     0
 42
0.000000001
 43
0.00000001
 40
0.0
 40
0.0
 40
0.0
 40
0.0
 40
0.5000024179538174
 40
1.0
 40
1.0
 40
1.0
 40
1.0
 10
178.3647849770751
 20
155.3276683122834
 30
0.0
 10
178.3614755711853
 20
155.3545282923288
 30
0.0
 10
178.3548567914133
 20
155.4082479926365
 30
0.0
 10
178.3483260078878
 20
155.4975145519841
 30
0.0
 10
178.3450606319162
 20
155.5421476158157
 30
0.0
  0
LINE
  5
FE
330
1F
100
AcDbEntity
  8
0
  6
Continuous
 62
     7
370
    25
100
AcDbLine
 10
175.1751365492
 20
540.4045245442
 30
0.0
 11
178.0527647479
 21
540.4074160691
 31
0.0
  0
LINE
  5
FF
330
1F
100
AcDbEntity
  8
0
  6
Continuous
 62
     7
370
    25
100
AcDbLine
 10
172.4148431021
 20
540.3955026195
 30
0.0
 11
175.1751365492
 21
540.4045245439
 31
0.0
  0
LINE
  5
100
330
1F
100
AcDbEntity
  8
0
  6
Continuous
 62
     7
370
    25
100
AcDbLine
 10
169.8785864793
 20
540.3812718767
 30
0.0
 11
172.4148431021
 21
540.3955026198
 31
0.0
  0
LINE
  5
101
330
1F
100
AcDbEntity
  8
0
  6
Continuous
 62
     7
370
    25
100
AcDbLine
 10
167.6605077719
 20
540.3623687239
 30
0.0
 11
169.8785864793
 21
540.3812718767
 31
0.0
  0
LINE
  5
102
330
1F
100
AcDbEntity
  8
0
  6
Continuous
 62
     7
370
    25
100
AcDbLine
 10
165.8428206777
 20
540.3395006714
 30
0.0
 11
167.6605077719
 21
540.3623687239
 31
0.0
  0
LINE
  5
103
330
1F
100
AcDbEntity
  8
0
  6
Continuous
 62
     7
370
    25
100
AcDbLine
 10
164.493715583
 20
540.3135192993
 30
0.0
 11
165.8428206777
 21
540.3395006712
 31
0.0
  0
LINE
  5
104
330
1F
100
AcDbEntity
  8
0
  6
Continuous
 62
     7
370
    25
100
AcDbLine
 10
164.0115086496
 20
540.2996597941
 30
0.0
 11
164.493715583
 21
540.3135192996
 31
0.0
  0
LINE
  5
105
330
1F
100
AcDbEntity
  8
0
  6
Continuous
 62
     7
370
    25
100
AcDbLine
 10
163.6639296382
 20
540.2853940829
 30
0.0
 11
163.7618413447
 21
540.2894126804
 31
0.0
  0
LINE
  5
106
330
1F
100
AcDbEntity
  8
0
  6
Continuous
 62
     7
370
    25
100
AcDbLine
 10
163.4539353543
 20
540.270855784
 30
0.0
 11
163.6639296382
 21
540.2853940827
 31
0.0
  0
SPLINE
  5
107
330
1F
100
AcDbEntity
  8
0
  6
Continuous
 62
     7
370
    25
100
AcDbSpline
210
0.0
220
0.0
230
1.0
 70
     8
 71
     3
 72
    15
 73
    11
 74
     0
 42
0.000000001
 43
0.00000001
 40
0.0
 40
0.0
 40
0.0
 40
0.0
 40
0.1250001762729385
 40
0.2500004190339702
 40
0.3750002980645414
 40
0.4999999874591958
 40
0.6249996779337887
 40
0.7499995604927289
 40
0.8749998106298909
 40
1.0
 40
1.0
 40
1.0
 40
1.0
 10
858.631471433357
 20
170.1023329655678
 30
0.0
 10
859.6018499890652
 20
170.1030455489079
 30
0.0
 10
861.5426076166301
 20
170.1044707159671
 30
0.0
 10
864.3323075833209
 20
170.1138830398841
 30
0.0
 10
866.899073128994
 20
170.1282420442027
 30
0.0
 10
869.1444303808977
 20
170.1475351550805
 30
0.0
 10
870.9878712222965
 20
170.1708925972471
 30
0.0
 10
872.3461280418627
 20
170.1974724901518
 30
0.0
 10
873.2196000022527
 20
170.2262624077859
 30
0.0
 10
873.3288988809422
 20
170.246207902655
 30
0.0
 10
873.3835483070031
 20
170.2561806476657
 30
0.0
  0
SPLINE
  5
108
330
1F
100
AcDbEntity
  8
0
  6
Continuous
 62
     7
370
    25
100
AcDbSpline
210
0.0
220
0.0
230
1.0
 70
     8
 71
     3
 72
    15
 73
    11
 74
     0
 42
0.000000001
 43
0.00000001
 40
0.0
 40
0.0
 40
0.0
 40
0.0
 40
0.1250001943845968
 40
0.2500004517828521
 40
0.375000332909795
 40
0.500000016563293
 40
0.624999698077575
 40
0.749999573082957
 40
0.874999820109855
 40
1.0
 40
1.0
 40
1.0
 40
1.0
 10
858.3835483110942
 20
155.2561806575744
 30
0.0
 10
858.3996737892112
 20
155.3112734055508
 30
0.0
 10
858.4319247535743
 20
155.4214589292768
 30
0.0
 10
858.4784642120671
 20
156.3019307067847
 30
0.0
 10
858.5214056205639
 20
157.6707797902078
 30
0.0
 10
858.559101967274
 20
159.5280022718197
 30
0.0
 10
858.5901851349018
 20
161.7891588495746
 30
0.0
 10
858.6132444976429
 20
164.3724067772869
 30
0.0
 10
858.6282631098156
 20
167.1781775613315
 30
0.0
 10
858.630402000294
 20
169.1276146767288
 30
0.0
 10
858.6314714452457
 20
170.1023329726701
 30
0.0
  0
LINE
  5
109
330
1F
100
AcDbEntity
  8
0
  6
Continuous
 62
     7
370
    25
100
AcDbLine
 10
178.1359828606
 20
170.1025198872
 30
0.0
 11
178.0441695247
 21
178.7951713401
 31
0.0
  0
SPLINE
  5
10A
330
1F
100
AcDbEntity
  8
0
  6
Continuous
 62
     7
370
    25
100
AcDbSpline
210
0.0
220
0.0
230
1.0
 70
     8
 71
     3
 72
    10
 73
     6
 74
     0
 42
0.000000001
 43
0.00000001
 40
0.0
 40
0.0
 40
0.0
 40
0.0
 40
0.4915218497069495
 40
0.747085516072992
 40
1.0
 40
1.0
 40
1.0
 40
1.0
 10
178.1357992135194
 20
170.1026092323997
 30
0.0
 10
181.848783969663
 20
170.0664290872168
 30
0.0
 10
187.4923115857161
 20
170.0114373051594
 30
0.0
 10
195.0474791630889
 20
169.9330199400345
 30
0.0
 10
198.8865639224988
 20
169.783813888926
 30
0.0
 10
200.7961054438377
 20
169.7095995467895
 30
0.0
  0
LINE
  5
10B
330
1F
100
AcDbEntity
  8
0
  6
Continuous
 62
     7
370
    25
100
AcDbLine
 10
177.9847906401
 20
533.8681866372
 30
0.0
 11
178.0441685462
 21
178.7952486792
 31
0.0
  0
LINE
  5
10C
330
1F
100
AcDbEntity
  8
0
  6
Continuous
 62
     7
370
    25
100
AcDbLine
 10
178.0527647484
 20
540.4074160691
 30
0.0
 11
177.9847905527
 21
533.8681866145
 31
0.0
  0
SPLINE
  5
10D
330
1F
100
AcDbEntity
  8
0
  6
Continuous
 62
     7
370
    25
100
AcDbSpline
210
0.0
220
0.0
230
1.0
 70
     8
 71
     3
 72
     9
 73
     5
 74
     0
 42
0.000000001
 43
0.00000001
 40
0.0
 40
0.0
 40
0.0
 40
0.0
 40
0.5084978963447254
 40
1.0
 40
1.0
 40
1.0
 40
1.0
 10
839.2527309907374
 20
169.847808928928
 30
0.0
 10
838.6962411256649
 20
169.8315836342459
 30
0.0
 10
837.6018612490261
 20
169.7996753514417
 30
0.0
 10
836.5086554034118
 20
169.7396100961966
 30
0.0
 10
835.9713424305642
 20
169.710087896887
 30
0.0
  0
SPLINE
  5
10E
330
1F
100
AcDbEntity
  8
0
  6
Continuous
 62
     7
370
    25
100
AcDbSpline
210
0.0
220
0.0
230
1.0
 70
     8
 71
     3
 72
     9
 73
     5
 74
     0
 42
0.000000001
 43
0.00000001
 40
0.0
 40
0.0
 40
0.0
 40
0.0
 40
0.5006928406577649
 40
1.0
 40
1.0
 40
1.0
 40
1.0
 10
841.7102186575089
 20
169.9055568853177
 30
0.0
 10
841.3000418665362
 20
169.897227535429
 30
0.0
 10
840.4808234602303
 20
169.8805918873579
 30
0.0
 10
839.6617168069736
 20
169.8587264822435
 30
0.0
 10
839.2527309907374
 20
169.847808928928
 30
0.0
  0
SPLINE
  5
10F
330
1F
100
AcDbEntity
  8
0
  6
Continuous
 62
     7
370
    25
100
AcDbSpline
210
0.0
220
0.0
230
1.0
 70
     8
 71
     3
 72
     9
 73
     5
 74
     0
 42
0.000000001
 43
0.00000001
 40
0.0
 40
0.0
 40
0.0
 40
0.0
 40
0.4974614002043108
 40
1.0
 40
1.0
 40
1.0
 40
1.0
 10
847.3934222092552
 20
169.9912419880982
 30
0.0
 10
846.451005041118
 20
169.9796312165932
 30
0.0
 10
844.5565521896003
 20
169.9562911715154
 30
0.0
 10
842.6622024986983
 20
169.9225254591374
 30
0.0
 10
841.7102186575089
 20
169.9055568853177
 30
0.0
  0
SPLINE
  5
110
330
1F
100
AcDbEntity
  8
0
  6
Continuous
 62
     7
370
    25
100
AcDbSpline
210
0.0
220
0.0
230
1.0
 70
     8
 71
     3
 72
     9
 73
     5
 74
     0
 42
0.000000001
 43
0.00000001
 40
0.0
 40
0.0
 40
0.0
 40
0.0
 40
0.4924596572351151
 40
1.0
 40
1.0
 40
1.0
 40
1.0
 10
858.6314714452457
 20
170.1023329726701
 30
0.0
 10
856.7867363612114
 20
170.0860066047593
 30
0.0
 10
853.0407745206177
 20
170.0528539034754
 30
0.0
 10
849.2947040831225
 20
170.0119847382336
 30
0.0
 10
847.3934222092549
 20
169.9912419880983
 30
0.0
  0
LWPOLYLINE
  5
111
330
1F
100
AcDbEntity
  8
0
  6
Continuous
 62
     7
370
    25
100
AcDbPolyline
 90
        3
 70
   128
 43
0.0
 10
858.632041602
 20
170.1019786136
 10
858.6514719981
 20
172.2161118262
 10
858.6709022629
 20
174.3302450497
  0
SPLINE
  5
112
330
1F
100
AcDbEntity
  8
0
  6
Continuous
 62
     7
370
    25
100
AcDbSpline
210
0.0
220
0.0
230
1.0
 70
     8
 71
     3
 72
     9
 73
     5
 74
     0
 42
0.000000001
 43
0.00000001
 40
0.0
 40
0.0
 40
0.0
 40
0.0
 40
0.5013634444412725
 40
1.0
 40
1.0
 40
1.0
 40
1.0
 10
858.6708715943095
 20
174.3302546212757
 30
0.0
 10
858.6784754222537
 20
175.0764560758382
 30
0.0
 10
858.69364172133
 20
176.5648004352758
 30
0.0
 10
858.7131691174037
 20
178.0531136787777
 30
0.0
 10
858.722906190921
 20
178.79524106811
 30
0.0
  0
SPLINE
  5
113
330
1F
100
AcDbEntity
  8
0
  6
Continuous
 62
     7
370
    25
100
AcDbSpline
210
0.0
220
0.0
230
1.0
 70
     8
 71
     3
 72
     9
 73
     5
 74
     0
 42
0.000000001
 43
0.00000001
 40
0.0
 40
0.0
 40
0.0
 40
0.0
 40
0.4999999344696835
 40
1.0
 40
1.0
 40
1.0
 40
1.0
 10
858.7226603776754
 20
178.7952508236669
 30
0.0
 10
858.7283224134752
 20
209.1170890954726
 30
0.0
 10
858.7396464865593
 20
269.7607735870835
 30
0.0
 10
858.7506390837469
 20
330.4044615473455
 30
0.0
 10
858.7561353830611
 20
360.7263095014767
 30
0.0
  0
LWPOLYLINE
  5
114
330
1F
100
AcDbEntity
  8
0
  6
Continuous
 62
     7
370
    25
100
AcDbPolyline
 90
        3
 70
   128
 43
0.0
 10
858.7564373137
 20
360.726307474
 10
858.7709631936
 20
447.3245514785
 10
858.78230205
 20
533.8681887198
  0
SPLINE
  5
115
330
1F
100
AcDbEntity
  8
0
  6
Continuous
 62
     7
370
    25
100
AcDbSpline
210
0.0
220
0.0
230
1.0
 70
     8
 71
     3
 72
     9
 73
     5
 74
     0
 42
0.000000001
 43
0.00000001
 40
0.0
 40
0.0
 40
0.0
 40
0.0
 40
0.4905682796924061
 40
1.0
 40
1.0
 40
1.0
 40
1.0
 10
858.7145538120686
 20
540.4076372112474
 30
0.0
 10
856.4692294997267
 20
540.4290286403605
 30
0.0
 10
851.8922431651234
 20
540.4726340465774
 30
0.0
 10
847.3150611257829
 20
540.5269682536284
 30
0.0
 10
844.9832994053206
 20
540.554647822198
 30
0.0
  0
SPLINE
  5
116
330
1F
100
AcDbEntity
  8
0
  6
Continuous
 62
     7
370
    25
100
AcDbSpline
210
0.0
220
0.0
230
1.0
 70
     8
 71
     3
 72
     9
 73
     5
 74
     0
 42
0.000000001
 43
0.00000001
 40
0.0
 40
0.0
 40
0.0
 40
0.0
 40
0.4938534777768077
 40
1.0
 40
1.0
 40
1.0
 40
1.0
 10
844.9832994053211
 20
540.554647822198
 30
0.0
 10
843.7802740054996
 20
540.5708441915057
 30
0.0
 10
841.3442773912057
 20
540.6036400915783
 30
0.0
 10
838.908451018223
 20
540.6534792672571
 30
0.0
 10
837.6755659707984
 20
540.6787051926975
 30
0.0
  0
SPLINE
  5
117
330
1F
100
AcDbEntity
  8
0
  6
Continuous
 62
     7
370
    25
100
AcDbSpline
210
0.0
220
0.0
230
1.0
 70
     8
 71
     3
 72
     9
 73
     5
 74
     0
 42
0.000000001
 43
0.00000001
 40
0.0
 40
0.0
 40
0.0
 40
0.0
 40
0.497433407487337
 40
1.0
 40
1.0
 40
1.0
 40
1.0
 10
837.6755659707986
 20
540.6787051926974
 30
0.0
 10
837.0471700356377
 20
540.6937470984137
 30
0.0
 10
835.7838935332907
 20
540.7239861324026
 30
0.0
 10
834.5210591910712
 20
540.7703435449438
 30
0.0
 10
833.8864008387941
 20
540.7936412318023
 30
0.0
  0
SPLINE
  5
118
330
1F
100
AcDbEntity
  8
0
  6
Continuous
 62
     7
370
    25
100
AcDbSpline
210
0.0
220
0.0
230
1.0
 70
     8
 71
     3
 72
     9
 73
     5
 74
     0
 42
0.000000001
 43
0.00000001
 40
0.0
 40
0.0
 40
0.0
 40
0.0
 40
0.5007700728813201
 40
1.0
 40
1.0
 40
1.0
 40
1.0
 10
833.8864008387941
 20
540.7936412318024
 30
0.0
 10
833.5670306334772
 20
540.8071449411249
 30
0.0
 10
832.9292724633867
 20
540.834110828373
 30
0.0
 10
832.2921081758608
 20
540.8728667701185
 30
0.0
 10
831.9740166950362
 20
540.8922148960916
 30
0.0
  0
SPLINE
  5
119
330
1F
100
AcDbEntity
  8
0
  6
Continuous
 62
     7
370
    25
100
AcDbSpline
210
0.0
220
0.0
230
1.0
 70
     8
 71
     3
 72
     9
 73
     5
 74
     0
 42
0.000000001
 43
0.00000001
 40
0.0
 40
0.0
 40
0.0
 40
0.0
 40
0.5169760227535346
 40
1.0
 40
1.0
 40
1.0
 40
1.0
 10
831.9740144524501
 20
540.8922150437018
 30
0.0
 10
831.6616953334952
 20
540.9134732568639
 30
0.0
 10
831.0575684393857
 20
540.9545935646279
 30
0.0
 10
830.4567475441551
 20
541.0298151218996
 30
0.0
 10
830.1665366457278
 20
541.0661489376675
 30
0.0
  0
SPLINE
  5
11A
330
1F
100
AcDbEntity
  8
0
  6
Continuous
 62
     7
370
    25
100
AcDbSpline
210
0.0
220
0.0
230
1.0
 70
     8
 71
     3
 72
     9
 73
     5
 74
     0
 42
0.000000001
 43
0.00000001
 40
0.0
 40
0.0
 40
0.0
 40
0.0
 40
0.4905541391862916
 40
1.0
 40
1.0
 40
1.0
 40
1.0
 10
178.0527323672351
 20
540.4073867319172
 30
0.0
 10
180.2979896839641
 20
540.4289017079172
 30
0.0
 10
184.8749713815467
 20
540.4727602227711
 30
0.0
 10
189.4521484968535
 20
540.5273248017224
 30
0.0
 10
191.7839724324576
 20
540.5551225006162
 30
0.0
  0
SPLINE
  5
11B
330
1F
100
AcDbEntity
  8
0
  6
Continuous
 62
     7
370
    25
100
AcDbSpline
210
0.0
220
0.0
230
1.0
 70
     8
 71
     3
 72
     9
 73
     5
 74
     0
 42
0.000000001
 43
0.00000001
 40
0.0
 40
0.0
 40
0.0
 40
0.0
 40
0.5040575543821699
 40
1.0
 40
1.0
 40
1.0
 40
1.0
 10
199.091635826098
 20
540.6796306397101
 30
0.0
 10
200.3553695519366
 20
540.7041739191627
 30
0.0
 10
202.8624914368325
 20
540.7528653418765
 30
0.0
 10
205.361480175298
 20
540.9627977130671
 30
0.0
 10
206.6008347618243
 20
541.0669120866498
 30
0.0
  0
SPLINE
  5
11C
330
1F
100
AcDbEntity
  8
0
  6
Continuous
 62
     7
370
    25
100
AcDbSpline
210
0.0
220
0.0
230
1.0
 70
     8
 71
     3
 72
     9
 73
     5
 74
     0
 42
0.000000001
 43
0.00000001
 40
0.0
 40
0.0
 40
0.0
 40
0.0
 40
0.4938684934111633
 40
1.0
 40
1.0
 40
1.0
 40
1.0
 10
191.7839724324579
 20
540.5551225006162
 30
0.0
 10
192.987023148651
 20
540.5713923899833
 30
0.0
 10
195.4229969599861
 20
540.6043361585862
 30
0.0
 10
197.8587994447377
 20
540.6543281286064
 30
0.0
 10
199.091635826098
 20
540.67963063971
 30
0.0
  0
SPLINE
  5
11D
330
1F
100
AcDbEntity
  8
0
  6
Continuous
 62
     7
370
    25
100
AcDbSpline
210
0.0
220
0.0
230
1.0
 70
     8
 71
     3
 72
     9
 73
     5
 74
     0
 42
0.000000001
 43
0.00000001
 40
0.0
 40
0.0
 40
0.0
 40
0.0
 40
0.5028228924027357
 40
1.0
 40
1.0
 40
1.0
 40
1.0
 10
858.782302378697
 20
533.8681887197397
 30
0.0
 10
858.7699132811553
 20
534.9642605164418
 30
0.0
 10
858.745274193061
 20
537.1440972209012
 30
0.0
 10
858.724755326834
 20
539.3238927792181
 30
0.0
 10
858.7145538162722
 20
540.4076372300553
 30
0.0
  0
LWPOLYLINE
  5
11E
330
1F
100
AcDbEntity
  8
0
  6
Continuous
 62
     7
370
    25
100
AcDbPolyline
 90
        3
 70
   128
 43
0.0
 10
696.8288424831
 20
169.721636239
 10
662.15870034
 20
169.7292504032
 10
627.4773505429
 20
169.7381470013
  0
LWPOLYLINE
  5
11F
330
1F
100
AcDbEntity
  8
0
  6
Continuous
 62
     7
370
    25
100
AcDbPolyline
 90
        4
 70
   128
 43
0.0
 10
835.9713424258
 20
169.7100427992
 10
811.3182321979
 20
169.7113622084
 10
767.2184225794
 20
169.7128139961
 10
696.8288424831
 20
169.721636239
  0
LWPOLYLINE
  5
120
330
1F
100
AcDbEntity
  8
0
  6
Continuous
 62
     7
370
    25
100
AcDbPolyline
 90
        3
 70
   128
 43
0.0
 10
559.4846924947
 20
169.7566977114
 10
538.9353037777
 20
169.762942676
 10
518.3835351195
 20
169.7693396384
  0
LWPOLYLINE
  5
121
330
1F
100
AcDbEntity
  8
0
  6
Continuous
 62
     7
370
    25
100
AcDbPolyline
 90
        3
 70
   128
 43
0.0
 10
592.7861280651
 20
169.7479450307
 10
576.1365450694
 20
169.7522425115
 10
559.4846924947
 20
169.7566977114
  0
LWPOLYLINE
  5
122
330
1F
100
AcDbEntity
  8
0
  6
Continuous
 62
     7
370
    25
100
AcDbPolyline
 90
        3
 70
   128
 43
0.0
 10
627.4773505429
 20
169.7381470013
 10
610.134947545
 20
169.7429297994
 10
592.7861280651
 20
169.7479450307
  0
SPLINE
  5
123
330
1F
100
AcDbEntity
  8
0
  6
Continuous
 62
     7
370
    25
100
AcDbSpline
210
0.0
220
0.0
230
1.0
 70
     8
 71
     3
 72
     9
 73
     5
 74
     0
 42
0.000000001
 43
0.00000001
 40
0.0
 40
0.0
 40
0.0
 40
0.0
 40
0.4999963547410143
 40
1.0
 40
1.0
 40
1.0
 40
1.0
 10
477.2824273176394
 20
169.7566400426483
 30
0.0
 10
484.1325678647124
 20
169.7588054929873
 30
0.0
 10
497.8329488417322
 20
169.7631364252404
 30
0.0
 10
511.533308281767
 20
169.7674901783842
 30
0.0
 10
518.3835379431428
 20
169.7696670708267
 30
0.0
  0
SPLINE
  5
124
330
1F
100
AcDbEntity
  8
0
  6
Continuous
 62
     7
370
    25
100
AcDbSpline
210
0.0
220
0.0
230
1.0
 70
     8
 71
     3
 72
     9
 73
     5
 74
     0
 42
0.000000001
 43
0.00000001
 40
0.0
 40
0.0
 40
0.0
 40
0.0
 40
0.5006656797477961
 40
1.0
 40
1.0
 40
1.0
 40
1.0
 10
200.7961077763792
 20
169.7095707014563
 30
0.0
 10
246.9385118551883
 20
169.7118449540061
 30
0.0
 10
339.1006191161708
 20
169.7163874114619
 30
0.0
 10
431.2627194883734
 20
169.7439023110515
 30
0.0
 10
477.2824192307423
 20
169.7576414447349
 30
0.0
  0
SPLINE
  5
125
330
1F
100
AcDbEntity
  8
0
  6
Continuous
 62
     7
370
    25
100
AcDbSpline
210
0.0
220
0.0
230
1.0
 70
     8
 71
     3
 72
     9
 73
     5
 74
     0
 42
0.000000001
 43
0.00000001
 40
0.0
 40
0.0
 40
0.0
 40
0.0
 40
0.5143465410575063
 40
1.0
 40
1.0
 40
1.0
 40
1.0
 10
504.4542114790058
 20
541.6255678399857
 30
0.0
 10
506.8423319999375
 20
541.633319819095
 30
0.0
 10
511.4853505298611
 20
541.6483913292354
 30
0.0
 10
516.1283727990982
 20
541.6620153998857
 30
0.0
 10
518.3832726241
 20
541.6686319769219
 30
0.0
  0
LWPOLYLINE
  5
126
330
1F
100
AcDbEntity
  8
0
  6
Continuous
 62
     7
370
    25
100
AcDbPolyline
 90
        3
 70
   128
 43
0.0
 10
490.5188994649
 20
541.5828067934
 10
497.4922098309
 20
541.6039768673
 10
504.454211479
 20
541.62556784
  0
LWPOLYLINE
  5
127
330
1F
100
AcDbEntity
  8
0
  6
Continuous
 62
     7
370
    25
100
AcDbPolyline
 90
        3
 70
   128
 43
0.0
 10
462.4660095011
 20
541.5045541544
 10
476.5150392254
 20
541.5427976642
 10
490.5188994649
 20
541.5828067934
  0
SPLINE
  5
128
330
1F
100
AcDbEntity
  8
0
  6
Continuous
 62
     7
370
    25
100
AcDbSpline
210
0.0
220
0.0
230
1.0
 70
     8
 71
     3
 72
     9
 73
     5
 74
     0
 42
0.000000001
 43
0.00000001
 40
0.0
 40
0.0
 40
0.0
 40
0.0
 40
0.3363003571388682
 40
0.9999999999999999
 40
0.9999999999999999
 40
0.9999999999999999
 40
0.9999999999999999
 10
406.0545433016829
 20
541.3668015197612
 30
0.0
 10
412.3782779371151
 20
541.3817401511795
 30
0.0
 10
431.1821076125642
 20
541.4261606553544
 30
0.0
 10
449.9859235674492
 20
541.4732806384521
 30
0.0
 10
462.4660095011332
 20
541.5045541544057
 30
0.0
  0
SPLINE
  5
129
330
1F
100
AcDbEntity
  8
0
  6
Continuous
 62
     7
370
    25
100
AcDbSpline
210
0.0
220
0.0
230
1.0
 70
     8
 71
     3
 72
    10
 73
     6
 74
     0
 42
0.000000001
 43
0.00000001
 40
0.0
 40
0.0
 40
0.0
 40
0.0
 40
0.6765454708489465
 40
0.8821182778184745
 40
1.0
 40
1.0
 40
1.0
 40
1.0
 10
305.7104705455341
 20
541.1879121538819
 30
0.0
 10
328.3395927977539
 20
541.2238045106428
 30
0.0
 10
357.8447232136352
 20
541.270602996919
 30
0.0
 10
391.2927288008422
 20
541.3371590890964
 30
0.0
 10
402.1116355740058
 20
541.3588839721638
 30
0.0
 10
406.0545433016829
 20
541.3668015197612
 30
0.0
  0
LWPOLYLINE
  5
12A
330
1F
100
AcDbEntity
  8
0
  6
Continuous
 62
     7
370
    25
100
AcDbPolyline
 90
        3
 70
   128
 43
0.0
 10
256.0293986483
 20
541.1181177158
 10
280.8939038882
 20
541.1513676475
 10
305.7104705455
 20
541.1879121539
  0
SPLINE
  5
12B
330
1F
100
AcDbEntity
  8
0
  6
Continuous
 62
     7
370
    25
100
AcDbSpline
210
0.0
220
0.0
230
1.0
 70
     8
 71
     3
 72
     9
 73
     5
 74
     0
 42
0.000000001
 43
0.00000001
 40
0.0
 40
0.0
 40
0.0
 40
0.0
 40
0.3921616030685926
 40
1.0
 40
1.0
 40
1.0
 40
1.0
 10
206.6008407808831
 20
541.0669116084679
 30
0.0
 10
213.0621706537682
 20
541.0715633251483
 30
0.0
 10
229.5383626683012
 20
541.0834250593006
 30
0.0
 10
246.0145433781245
 20
541.1050022629447
 30
0.0
 10
256.0293986483356
 20
541.1181177158178
 30
0.0
  0
SPLINE
  5
12C
330
1F
100
AcDbEntity
  8
0
  6
Continuous
 62
     7
370
    25
100
AcDbSpline
210
0.0
220
0.0
230
1.0
 70
     8
 71
     3
 72
     9
 73
     5
 74
     0
 42
0.000000001
 43
0.00000001
 40
0.0
 40
0.0
 40
0.0
 40
0.0
 40
0.5022338589267442
 40
1.0
 40
1.0
 40
1.0
 40
1.0
 10
830.1665372134994
 20
541.0661999485637
 30
0.0
 10
796.7756536608517
 20
541.1014391007524
 30
0.0
 10
730.2909215800579
 20
541.1716039284761
 30
0.0
 10
663.8063310045135
 20
541.3019297839156
 30
0.0
 10
630.7125529128892
 20
541.3668015820599
 30
0.0
  0
SPLINE
  5
12D
330
1F
100
AcDbEntity
  8
0
  6
Continuous
 62
     7
370
    25
100
AcDbSpline
210
0.0
220
0.0
230
1.0
 70
     8
 71
     3
 72
     9
 73
     5
 74
     0
 42
0.000000001
 43
0.00000001
 40
0.0
 40
0.0
 40
0.0
 40
0.0
 40
0.5012766795088912
 40
1.0
 40
1.0
 40
1.0
 40
1.0
 10
630.7125529128892
 20
541.36680158206
 30
0.0
 10
621.2721556493426
 20
541.3880938057893
 30
0.0
 10
602.4394477866999
 20
541.4305697967932
 30
0.0
 10
583.606764448003
 20
541.4803555868015
 30
0.0
 10
574.2144660795705
 20
541.5051849213077
 30
0.0
  0
SPLINE
  5
12E
330
1F
100
AcDbEntity
  8
0
  6
Continuous
 62
     7
370
    25
100
AcDbSpline
210
0.0
220
0.0
230
1.0
 70
     8
 71
     3
 72
     9
 73
     5
 74
     0
 42
0.000000001
 43
0.00000001
 40
0.0
 40
0.0
 40
0.0
 40
0.0
 40
0.499997649122808
 40
1.0
 40
1.0
 40
1.0
 40
1.0
 10
574.2144751464482
 20
541.505536233076
 30
0.0
 10
569.5469517550931
 20
541.5197429996351
 30
0.0
 10
560.2118610810797
 20
541.5481566663475
 30
0.0
 10
550.8767343470003
 20
541.5765837531608
 30
0.0
 10
546.2091490342237
 20
541.5907973633957
 30
0.0
  0
SPLINE
  5
12F
330
1F
100
AcDbEntity
  8
0
  6
Continuous
 62
     7
370
    25
100
AcDbSpline
210
0.0
220
0.0
230
1.0
 70
     8
 71
     3
 72
     9
 73
     5
 74
     0
 42
0.000000001
 43
0.00000001
 40
0.0
 40
0.0
 40
0.0
 40
0.0
 40
0.5468735132851879
 40
1.0
 40
1.0
 40
1.0
 40
1.0
 10
546.2091490342237
 20
541.5907973633957
 30
0.0
 10
541.1367417993365
 20
541.6064348974461
 30
0.0
 10
531.8614576400869
 20
541.6350293231596
 30
0.0
 10
522.586238934736
 20
541.6549929466503
 30
0.0
 10
518.383391669269
 20
541.6640389932248
 30
0.0
  0
SPLINE
  5
130
330
1F
100
AcDbEntity
  8
0
  6
Continuous
 62
     7
370
    25
100
AcDbSpline
210
0.0
220
0.0
230
1.0
 70
     8
 71
     3
 72
    14
 73
    10
 74
     0
 42
0.000000001
 43
0.00000001
 40
0.0
 40
0.0
 40
0.0
 40
0.0
 40
0.1202565700467582
 40
0.2399047452817869
 40
0.3644825214647668
 40
0.4895132971710415
 40
0.6566691325389248
 40
0.8315232017971322
 40
1.0
 40
1.0
 40
1.0
 40
1.0
 10
518.3835482121368
 20
495.2561805648418
 30
0.0
 10
516.9636349399238
 20
495.2270661411962
 30
0.0
 10
514.1309919353871
 20
495.1689845878475
 30
0.0
 10
509.8488471138893
 20
494.6949383653562
 30
0.0
 10
505.5551417822699
 20
493.9250419429881
 30
0.0
 10
500.7856118263981
 20
492.696836927756
 30
0.0
 10
495.5807269435922
 20
490.8570156011801
 30
0.0
 10
490.0974254605259
 20
488.3180489130094
 30
0.0
 10
486.6641496704988
 20
486.1576777506017
 30
0.0
 10
484.9793978253512
 20
485.0975563025542
 30
0.0
  0
SPLINE
  5
131
330
1F
100
AcDbEntity
  8
0
  6
Continuous
 62
     7
370
    25
100
AcDbSpline
210
0.0
220
0.0
230
1.0
 70
     8
 71
     3
 72
    10
 73
     6
 74
     0
 42
0.000000001
 43
0.00000001
 40
0.0
 40
0.0
 40
0.0
 40
0.0
 40
0.2904760965594195
 40
0.623813818078919
 40
1.0
 40
1.0
 40
1.0
 40
1.0
 10
484.9793978253512
 20
485.0975563025542
 30
0.0
 10
483.5859484096671
 20
484.110262960658
 30
0.0
 10
480.5934371132344
 20
481.9899947648681
 30
0.0
 10
476.1762585901505
 20
478.0844019328123
 30
0.0
 10
473.4273659190365
 20
474.9443604555223
 30
0.0
 10
471.9699161651344
 20
473.2795254743643
 30
0.0
  0
SPLINE
  5
132
330
1F
100
AcDbEntity
  8
0
  6
Continuous
 62
     7
370
    25
100
AcDbSpline
210
0.0
220
0.0
230
1.0
 70
     8
 71
     3
 72
     9
 73
     5
 74
     0
 42
0.000000001
 43
0.00000001
 40
0.0
 40
0.0
 40
0.0
 40
0.0
 40
0.4987136614285295
 40
1.0
 40
1.0
 40
1.0
 40
1.0
 10
471.9699161651344
 20
473.2795254743643
 30
0.0
 10
470.1760892383016
 20
470.9154512905975
 30
0.0
 10
466.5791817028344
 20
466.1751075490703
 30
0.0
 10
464.1146627091321
 20
460.7588132296563
 30
0.0
 10
462.8792330064392
 20
458.0436988816518
 30
0.0
  0
SPLINE
  5
133
330
1F
100
AcDbEntity
  8
0
  6
Continuous
 62
     7
370
    25
100
AcDbSpline
210
0.0
220
0.0
230
1.0
 70
     8
 71
     3
 72
    11
 73
     7
 74
     0
 42
0.000000001
 43
0.00000001
 40
0.0
 40
0.0
 40
0.0
 40
0.0
 40
0.2172084427985681
 40
0.4562808984641867
 40
0.7172130052073022
 40
1.0
 40
1.0
 40
1.0
 40
1.0
 10
462.8792330064392
 20
458.0436988816518
 30
0.0
 10
462.2727892458083
 20
456.4573545397882
 30
0.0
 10
460.998857623246
 20
453.1249858148289
 30
0.0
 10
459.6014945651472
 20
447.6880560519086
 30
0.0
 10
458.5788699661805
 20
441.642896182848
 30
0.0
 10
458.4504082722004
 20
437.3917544668906
 30
0.0
 10
458.3835956546482
 20
435.180745902178
 30
0.0
  0
SPLINE
  5
134
330
1F
100
AcDbEntity
  8
0
  6
Continuous
 62
     7
370
    25
100
AcDbSpline
210
0.0
220
0.0
230
1.0
 70
     8
 71
     3
 72
    10
 73
     6
 74
     0
 42
0.000000001
 43
0.00000001
 40
0.0
 40
0.0
 40
0.0
 40
0.0
 40
0.3333333333333576
 40
0.6666666666666793
 40
1.0
 40
1.0
 40
1.0
 40
1.0
 10
458.3835956546481
 20
435.1807459021781
 30
0.0
 10
458.4885978823924
 20
432.5763196072865
 30
0.0
 10
458.6986023378811
 20
427.3674670175033
 30
0.0
 10
460.2341094585601
 20
419.6623568465156
 30
0.0
 10
462.0369320722489
 20
414.7709278327217
 30
0.0
 10
462.9383433790934
 20
412.3252133258248
 30
0.0
  0
SPLINE
  5
135
330
1F
100
AcDbEntity
  8
0
  6
Continuous
 62
     7
370
    25
100
AcDbSpline
210
0.0
220
0.0
230
1.0
 70
     8
 71
     3
 72
    16
 73
    12
 74
     0
 42
0.000000001
 43
0.00000001
 40
0.0
 40
0.0
 40
0.0
 40
0.0
 40
0.0965961921693853
 40
0.2123510252962438
 40
0.3472579365525538
 40
0.5013092771962564
 40
0.6211747788373803
 40
0.7309782274724096
 40
0.8307179167472919
 40
0.9203923015565157
 40
1.0
 40
1.0
 40
1.0
 40
1.0
 10
462.9383433790934
 20
412.3252133258248
 30
0.0
 10
463.5494940377666
 20
410.935718192106
 30
0.0
 10
464.8930094089748
 20
407.8811390243069
 30
0.0
 10
467.5993910878498
 20
403.1331534715325
 30
0.0
 10
471.250105477954
 20
397.9170895032223
 30
0.0
 10
475.5242342985043
 20
393.1012309487071
 30
0.0
 10
479.9905868408184
 20
389.0421758186683
 30
0.0
 10
484.1222660000658
 20
385.9160898852215
 30
0.0
 10
488.0972619628898
 20
383.4011163098922
 30
0.0
 10
491.8212305005363
 20
381.3935159125167
 30
0.0
 10
494.2592891120785
 20
380.3303206381797
 30
0.0
 10
495.4058264833458
 20
379.830335482281
 30
0.0
  0
SPLINE
  5
136
330
1F
100
AcDbEntity
  8
0
  6
Continuous
 62
     7
370
    25
100
AcDbSpline
210
0.0
220
0.0
230
1.0
 70
     8
 71
     3
 72
    10
 73
     6
 74
     0
 42
0.000000001
 43
0.00000001
 40
0.0
 40
0.0
 40
0.0
 40
0.0
 40
0.3586722908421179
 40
0.6920069696229465
 40
1.0
 40
1.0
 40
1.0
 40
1.0
 10
495.4058264833458
 20
379.830335482281
 30
0.0
 10
497.3787644667015
 20
379.084015633392
 30
0.0
 10
501.1852665856979
 20
377.6440980535129
 30
0.0
 10
506.9150079425237
 20
376.2536755544024
 30
0.0
 10
510.6556014478119
 20
375.7783611686046
 30
0.0
 10
512.4519946375201
 20
375.5500948455169
 30
0.0
  0
SPLINE
  5
137
330
1F
100
AcDbEntity
  8
0
  6
Continuous
 62
     7
370
    25
100
AcDbSpline
210
0.0
220
0.0
230
1.0
 70
     8
 71
     3
 72
    10
 73
     6
 74
     0
 42
0.000000001
 43
0.00000001
 40
0.0
 40
0.0
 40
0.0
 40
0.0
 40
0.3130337259005226
 40
0.4999763849095109
 40
0.9999999999999999
 40
0.9999999999999999
 40
0.9999999999999999
 40
0.9999999999999999
 10
512.4519946375201
 20
375.5500948455169
 30
0.0
 10
513.0694145528598
 20
375.4943840936634
 30
0.0
 10
514.0555555073352
 20
375.4054030733847
 30
0.0
 10
516.0327108854708
 20
375.2885927646617
 30
0.0
 10
517.393249842695
 20
375.269834316634
 30
0.0
 10
518.3835482510913
 20
375.2561805648418
 30
0.0
  0
SPLINE
  5
138
330
1F
100
AcDbEntity
  8
0
  6
Continuous
 62
     7
370
    25
100
AcDbSpline
210
0.0
220
0.0
230
1.0
 70
     8
 71
     3
 72
    10
 73
     6
 74
     0
 42
0.000000001
 43
0.00000001
 40
0.0
 40
0.0
 40
0.0
 40
0.0
 40
0.3129877128465505
 40
0.4999767780787678
 40
0.9999999999999999
 40
0.9999999999999999
 40
0.9999999999999999
 40
0.9999999999999999
 10
524.3125928528392
 20
375.5498456420178
 30
0.0
 10
523.6955236206106
 20
375.4941896474027
 30
0.0
 10
522.7097971082982
 20
375.4052829468318
 30
0.0
 10
520.7334781988928
 20
375.2885669183733
 30
0.0
 10
519.3734255839984
 20
375.2698228937487
 30
0.0
 10
518.3835482510913
 20
375.2561805648418
 30
0.0
  0
SPLINE
  5
139
330
1F
100
AcDbEntity
  8
0
  6
Continuous
 62
     7
370
    25
100
AcDbSpline
210
0.0
220
0.0
230
1.0
 70
     8
 71
     3
 72
    10
 73
     6
 74
     0
 42
0.000000001
 43
0.00000001
 40
0.0
 40
0.0
 40
0.0
 40
0.0
 40
0.3586556942032455
 40
0.6919903699640526
 40
1.0
 40
1.0
 40
1.0
 40
1.0
 10
541.3530918173395
 20
379.8269457910652
 30
0.0
 10
539.3808531131923
 20
379.0811948209915
 30
0.0
 10
535.5756153528602
 20
377.6423427463611
 30
0.0
 10
529.8478216051257
 20
376.2529188924274
 30
0.0
 10
526.1084496937975
 20
375.7779516450302
 30
0.0
 10
524.3125928528392
 20
375.5498456420178
 30
0.0
  0
SPLINE
  5
13A
330
1F
100
AcDbEntity
  8
0
  6
Continuous
 62
     7
370
    25
100
AcDbSpline
210
0.0
220
0.0
230
1.0
 70
     8
 71
     3
 72
    16
 73
    12
 74
     0
 42
0.000000001
 43
0.00000001
 40
0.0
 40
0.0
 40
0.0
 40
0.0
 40
0.0787783136701403
 40
0.1671532477809926
 40
0.2651235469728322
 40
0.3726878195553998
 40
0.4898445375344679
 40
0.642808193524635
 40
0.7788258704993777
 40
0.8978915553864233
 40
1.0
 40
1.0
 40
1.0
 40
1.0
 10
573.8188485331708
 20
412.301279545205
 30
0.0
 10
573.3249509033831
 20
411.1668018935834
 30
0.0
 10
572.2769899983549
 20
408.7596467366766
 30
0.0
 10
570.3053327592851
 20
405.0878254411094
 30
0.0
 10
567.8469901156633
 20
401.177916616442
 30
0.0
 10
564.8039539550682
 20
397.1185858096995
 30
0.0
 10
560.838756636121
 20
392.6988299093907
 30
0.0
 10
556.0903713487537
 20
388.4164897437194
 30
0.0
 10
550.8625771864886
 20
384.6953506146257
 30
0.0
 10
545.9980498654324
 20
381.8805570419814
 30
0.0
 10
542.820196695744
 20
380.475576640552
 30
0.0
 10
541.3530918173395
 20
379.8269457910652
 30
0.0
  0
SPLINE
  5
13B
330
1F
100
AcDbEntity
  8
0
  6
Continuous
 62
     7
370
    25
100
AcDbSpline
210
0.0
220
0.0
230
1.0
 70
     8
 71
     3
 72
    22
 73
    18
 74
     0
 42
0.000000001
 43
0.00000001
 40
0.0
 40
0.0
 40
0.0
 40
0.0
 40
0.1169226513636028
 40
0.2392851810035465
 40
0.2752703406438912
 40
0.3117004168071597
 40
0.3485754076897303
 40
0.3858953114517388
 40
0.4236601262175729
 40
0.4618698500763433
 40
0.5005244810823268
 40
0.5570700431674164
 40
0.6242990848481137
 40
0.7022093702481561
 40
0.790798308105705
 40
0.8900629519054108
 40
1.0
 40
1.0
 40
1.0
 40
1.0
 10
564.7769626401691
 20
473.3041910227477
 30
0.0
 10
566.3069976839914
 20
471.2936915343501
 30
0.0
 10
569.4382533314899
 20
467.179153176058
 30
0.0
 10
572.2286132808767
 20
461.9012789571677
 30
0.0
 10
573.9037229274642
 20
458.0463641864656
 30
0.0
 10
574.7564915059124
 20
455.8463677130492
 30
0.0
 10
575.5314755782701
 20
453.58762094996
 30
0.0
 10
576.223550536671
 20
451.271903186606
 30
0.0
 10
576.8284326665237
 20
448.9021649384064
 30
0.0
 10
577.341663304991
 20
446.4813964607167
 30
0.0
 10
577.8216358662354
 20
443.641734347063
 30
0.0
 10
578.2279730855311
 20
440.1576178595145
 30
0.0
 10
578.4421778482491
 20
435.8066384939863
 30
0.0
 10
578.2974567163445
 20
430.7578378610223
 30
0.0
 10
577.6073686574841
 20
425.0576820327194
 30
0.0
 10
576.2387367097145
 20
418.7583792002857
 30
0.0
 10
574.6524526354413
 20
414.5256239646787
 30
0.0
 10
573.8188485331708
 20
412.301279545205
 30
0.0
  0
SPLINE
  5
13C
330
1F
100
AcDbEntity
  8
0
  6
Continuous
 62
     7
370
    25
100
AcDbSpline
210
0.0
220
0.0
230
1.0
 70
     8
 71
     3
 72
    10
 73
     6
 74
     0
 42
0.000000001
 43
0.00000001
 40
0.0
 40
0.0
 40
0.0
 40
0.0
 40
0.2901078939047041
 40
0.6234456884329694
 40
1.0
 40
1.0
 40
1.0
 40
1.0
 10
551.7664288248525
 20
485.1118049567335
 30
0.0
 10
553.1580717528415
 20
484.1267641279292
 30
0.0
 10
556.1487307508279
 20
482.0098984012415
 30
0.0
 10
560.566626485903
 20
478.1083117287498
 30
0.0
 10
563.3176911968092
 20
474.9692638102542
 30
0.0
 10
564.7769626401691
 20
473.3041910227477
 30
0.0
  0
SPLINE
  5
13D
330
1F
100
AcDbEntity
  8
0
  6
Continuous
 62
     7
370
    25
100
AcDbSpline
210
0.0
220
0.0
230
1.0
 70
     8
 71
     3
 72
    16
 73
    12
 74
     0
 42
0.000000001
 43
0.00000001
 40
0.0
 40
0.0
 40
0.0
 40
0.0
 40
0.0780704631034454
 40
0.1593365437185353
 40
0.2480556988281022
 40
0.3192179920379275
 40
0.4031167739078462
 40
0.4997509009430031
 40
0.6589362632002551
 40
0.8186627921723649
 40
1.0
 40
1.0
 40
1.0
 40
1.0
 10
518.3839009742635
 20
495.2561805638049
 30
0.0
 10
519.3049632949259
 20
495.2438881357254
 30
0.0
 10
521.1847892994064
 20
495.2188001200247
 30
0.0
 10
524.1051580971774
 20
495.0062397946307
 30
0.0
 10
526.9309106575051
 20
494.6671861958181
 30
0.0
 10
529.7675126845749
 20
494.1876091018432
 30
0.0
 10
532.6708302197023
 20
493.5594035878883
 30
0.0
 10
536.5399014709964
 20
492.5051438656112
 30
0.0
 10
541.1616017169675
 20
490.8528963791022
 30
0.0
 10
546.5376962167275
 20
488.3855153974367
 30
0.0
 10
549.9514172300495
 20
486.2481840476571
 30
0.0
 10
551.7664288248525
 20
485.1118049567335
 30
0.0
  0
SPLINE
  5
13E
330
1F
100
AcDbEntity
  8
0
  6
Continuous
 62
     8
370
    25
100
AcDbSpline
210
0.0
220
0.0
230
1.0
 70
     8
 71
     3
 72
    12
 73
     8
 74
     0
 42
0.000000001
 43
0.00000001
 40
0.0
 40
0.0
 40
0.0
 40
0.0
 40
0.2636005345609692
 40
0.4531130705264902
 40
0.6509913616037194
 40
0.8488696526565315
 40
1.0
 40
1.0
 40
1.0
 40
1.0
 10
551.3404937579965
 20
420.0148945511426
 30
0.0
 10
551.4599828930251
 20
419.9596355405623
 30
0.0
 10
551.6653773508083
 20
419.86464870755
 30
0.0
 10
551.9123174677261
 20
419.7504486556252
 30
0.0
 10
552.079721326739
 20
419.6730309801919
 30
0.0
 10
552.1794453325375
 20
419.6269125651635
 30
0.0
 10
552.1848636689739
 20
419.6244067984883
 30
0.0
 10
552.1872099577976
 20
419.6233217325434
 30
0.0
  0
SPLINE
  5
13F
330
1F
100
AcDbEntity
  8
0
  6
Continuous
 62
     8
370
    25
100
AcDbSpline
210
0.0
220
0.0
230
1.0
 70
     8
 71
     3
 72
    12
 73
     8
 74
     0
 42
0.000000001
 43
0.00000001
 40
0.0
 40
0.0
 40
0.0
 40
0.0
 40
0.1511297784499933
 40
0.3490077426238702
 40
0.5468857068220973
 40
0.7363979297282657
 40
1.0
 40
1.0
 40
1.0
 40
1.0
 10
484.5798865495858
 20
450.889039379599
 30
0.0
 10
484.5822328375203
 20
450.8879543140733
 30
0.0
 10
484.5876511783929
 20
450.8854485453648
 30
0.0
 10
484.6873751479982
 20
450.8393301469034
 30
0.0
 10
484.85477899932
 20
450.7619124756993
 30
0.0
 10
485.1017198716145
 20
450.6477120717293
 30
0.0
 10
485.3071153490159
 20
450.5527247760241
 30
0.0
 10
485.426605450923
 20
450.4974653234436
 30
0.0
  0
LINE
  5
140
330
1F
100
AcDbEntity
  8
0
  6
Continuous
 62
     8
370
    25
100
AcDbLine
 10
532.707848469
 20
493.5559730307
 30
0.0
 11
533.1335476242
 21
493.5559730308
 31
0.0
  0
LINE
  5
141
330
1F
100
AcDbEntity
  8
0
  6
Continuous
 62
     8
370
    25
100
AcDbLine
 10
504.3000818274
 20
493.555973023
 30
0.0
 11
503.6335482188
 21
493.5559730228
 31
0.0
  0
SPLINE
  5
142
330
1F
100
AcDbEntity
  8
0
  6
Continuous
 62
     8
370
    25
100
AcDbSpline
210
0.0
220
0.0
230
1.0
 70
     8
 71
     3
 72
    14
 73
    10
 74
     0
 42
0.000000001
 43
0.00000001
 40
0.0
 40
0.0
 40
0.0
 40
0.0
 40
0.142857462667268
 40
0.2857145109253392
 40
0.4285713408303614
 40
0.5714281659182987
 40
0.7142851997562494
 40
0.8571426380817512
 40
1.0
 40
1.0
 40
1.0
 40
1.0
 10
873.1033477141996
 20
540.2853512113084
 30
0.0
 10
872.8638719770812
 20
540.2948467671406
 30
0.0
 10
872.3849211975296
 20
540.3138378512598
 30
0.0
 10
870.9960959000533
 20
540.3398762414366
 30
0.0
 10
869.1754853425555
 20
540.3628526589381
 30
0.0
 10
866.9411959489066
 20
540.3818452777178
 30
0.0
 10
864.3897528223539
 20
540.39603046088
 30
0.0
 10
861.6140712307589
 20
540.4053869151109
 30
0.0
 10
859.6810594487894
 20
540.4068871252076
 30
0.0
 10
858.7145538162722
 20
540.4076372300553
 30
0.0
  0
SPLINE
  5
143
330
1F
100
AcDbEntity
  8
0
  6
Continuous
 62
     8
370
    25
100
AcDbSpline
210
0.0
220
0.0
230
1.0
 70
     8
 71
     3
 72
    14
 73
    10
 74
     0
 42
0.000000001
 43
0.00000001
 40
0.0
 40
0.0
 40
0.0
 40
0.0
 40
0.1428573837242283
 40
0.2857148431991072
 40
0.4285718761300007
 40
0.5714286865863989
 40
0.7142854982649909
 40
0.8571425345695455
 40
1.0
 40
1.0
 40
1.0
 40
1.0
 10
858.7145538125334
 20
540.407637211243
 30
0.0
 10
858.713124067029
 20
541.3824517579213
 30
0.0
 10
858.710264575262
 20
543.3320813681772
 30
0.0
 10
858.6902109261101
 20
546.1384650163144
 30
0.0
 10
858.6594201802274
 20
548.7213537342494
 30
0.0
 10
858.6179308524939
 20
550.9858200735044
 30
0.0
 10
858.5675661007912
 20
552.8325400028575
 30
0.0
 10
858.5103754777219
 20
554.2421641526203
 30
0.0
 10
858.4686081865258
 20
554.7284848057994
 30
0.0
 10
858.4477245095617
 20
554.971645497601
 30
0.0
  0
SPLINE
  5
144
330
1F
100
AcDbEntity
  8
0
  6
Continuous
 62
     8
370
    25
100
AcDbSpline
210
0.0
220
0.0
230
1.0
 70
     8
 71
     3
 72
    14
 73
    10
 74
     0
 42
0.000000001
 43
0.00000001
 40
0.0
 40
0.0
 40
0.0
 40
0.0
 40
0.1428544638530798
 40
0.2857113321221704
 40
0.4285734261562308
 40
0.5714298375331881
 40
0.714278367182781
 40
0.8571365423349021
 40
1.0
 40
1.0
 40
1.0
 40
1.0
 10
178.3193958455345
 20
554.9716563786673
 30
0.0
 10
178.2985202531146
 20
554.7285661384788
 30
0.0
 10
178.256768716913
 20
554.2423815665942
 30
0.0
 10
178.1996061281017
 20
552.8323817123819
 30
0.0
 10
178.1492673136773
 20
550.9855701905717
 30
0.0
 10
178.1077993052725
 20
548.7212765383389
 30
0.0
 10
178.0770295950376
 20
546.1384331089421
 30
0.0
 10
178.0570207602202
 20
543.3318100912578
 30
0.0
 10
178.0541618491823
 20
541.3822065333289
 30
0.0
 10
178.0527323672351
 20
540.4073867319172
 30
0.0
  0
ENDSEC
  0
SECTION
  2
OBJECTS
  0
DICTIONARY
  5
C
330
0
100
AcDbDictionary
281
     1
  3
ACAD_GROUP
350
D
  3
ACAD_LAYOUT
350
1A
  3
ACAD_MLINESTYLE
350
17
  3
ACAD_PLOTSETTINGS
350
19
  3
ACAD_PLOTSTYLENAME
350
E
  3
ACAD_SCALELIST
350
47
  0
DICTIONARY
  5
D
102
{ACAD_REACTORS
330
C
102
}
330
C
100
AcDbDictionary
281
     1
  0
DICTIONARY
  5
1A
102
{ACAD_REACTORS
330
C
102
}
330
C
100
AcDbDictionary
281
     1
  3
Layout1
350
1E
  3
Layout2
350
26
  3
Model
350
22
  0
DICTIONARY
  5
17
102
{ACAD_REACTORS
330
C
102
}
330
C
100
AcDbDictionary
281
     1
  3
Standard
350
18
  0
DICTIONARY
  5
19
102
{ACAD_REACTORS
330
C
102
}
330
C
100
AcDbDictionary
281
     1
  0
ACDBDICTIONARYWDFLT
  5
E
102
{ACAD_REACTORS
330
C
102
}
330
C
100
AcDbDictionary
281
     1
  3
Normal
350
F
100
AcDbDictionaryWithDefault
340
F
  0
DICTIONARY
  5
47
102
{ACAD_REACTORS
330
C
102
}
330
C
100
AcDbDictionary
281
     1
  3
A0
350
48
  3
A1
350
49
  3
A2
350
4A
  3
A3
350
4B
  3
A4
350
4C
  3
A5
350
4D
  3
A6
350
4E
  3
A7
350
4F
  3
A8
350
50
  3
A9
350
51
  3
B0
350
52
  3
B1
350
53
  3
B2
350
54
  3
B3
350
55
  3
B4
350
56
  3
B5
350
57
  3
B6
350
58
  3
B7
350
59
  3
B8
350
5A
  3
B9
350
5B
  3
C0
350
5C
  3
C1
350
5D
  3
C2
350
5E
  3
C3
350
5F
  3
C4
350
60
  3
C5
350
61
  3
C6
350
62
  3
C7
350
63
  3
C8
350
64
  3
C9
350
65
  3
D0
350
66
  3
D1
350
67
  3
D2
350
68
  0
LAYOUT
  5
1E
102
{ACAD_REACTORS
330
1A
102
}
330
1A
100
AcDbPlotSettings
  1

  2
none_device
  4

  6

 40
0.0
 41
0.0
 42
0.0
 43
0.0
 44
0.0
 45
0.0
 46
0.0
 47
0.0
 48
0.0
 49
0.0
140
0.0
141
0.0
142
1.0
143
1.0
 70
   688
 72
     1
 73
     0
 74
     5
  7

 75
    16
147
1.0
148
0.0
149
0.0
100
AcDbLayout
  1
Layout1
 70
     1
 71
     1
 10
0.0
 20
0.0
 11
420.0
 21
297.0
 12
0.0
 22
0.0
 32
0.0
 14
1.0000000000E+20
 24
1.0000000000E+20
 34
1.0000000000E+20
 15
-1.0000000000E+20
 25
-1.0000000000E+20
 35
-1.0000000000E+20
146
0.0
 13
0.0
 23
0.0
 33
0.0
 16
1.0
 26
0.0
 36
0.0
 17
0.0
 27
1.0
 37
0.0
 76
     0
330
1B
  0
LAYOUT
  5
26
102
{ACAD_REACTORS
330
1A
102
}
330
1A
100
AcDbPlotSettings
  1

  2
none_device
  4

  6

 40
0.0
 41
0.0
 42
0.0
 43
0.0
 44
0.0
 45
0.0
 46
0.0
 47
0.0
 48
0.0
 49
0.0
140
0.0
141
0.0
142
1.0
143
1.0
 70
   688
 72
     1
 73
     0
 74
     5
  7

 75
    16
147
1.0
148
0.0
149
0.0
100
AcDbLayout
  1
Layout2
 70
     1
 71
     2
 10
0.0
 20
0.0
 11
0.0
 21
0.0
 12
0.0
 22
0.0
 32
0.0
 14
0.0
 24
0.0
 34
0.0
 15
0.0
 25
0.0
 35
0.0
146
0.0
 13
0.0
 23
0.0
 33
0.0
 16
1.0
 26
0.0
 36
0.0
 17
0.0
 27
1.0
 37
0.0
 76
     0
330
23
  0
LAYOUT
  5
22
102
{ACAD_REACTORS
330
1A
102
}
330
1A
100
AcDbPlotSettings
  1

  2
none_device
  4
Letter_(8.50_x_11.00_Inches)
  6

 40
6.35
 41
6.35
 42
6.35000508
 43
6.35000508
 44
215.9
 45
279.4
 46
0.0
 47
0.0
 48
0.0
 49
0.0
140
0.0
141
0.0
142
1.0
143
1.0
 70
  1712
 72
     1
 73
     0
 74
     0
  7

 75
     0
147
1.0
148
0.0
149
0.0
100
AcDbLayout
  1
Model
 70
     1
 71
     0
 10
0.0
 20
0.0
 11
1000.0
 21
700.0
 12
0.0
 22
0.0
 32
0.0
 14
0.0
 24
0.0
 34
0.0
 15
1000.0
 25
700.0
 35
0.0
146
0.0
 13
0.0
 23
0.0
 33
0.0
 16
1.0
 26
0.0
 36
0.0
 17
0.0
 27
1.0
 37
0.0
 76
     0
330
1F
331
29
  0
MLINESTYLE
  5
18
102
{ACAD_REACTORS
330
17
102
}
330
17
100
AcDbMlineStyle
  2
Standard
 70
     0
  3

 62
   256
 51
90.0
 52
90.0
 71
     2
 49
0.5
 62
   256
  6
BYLAYER
 49
-0.5
 62
   256
  6
BYLAYER
  0
ACDBPLACEHOLDER
  5
F
102
{ACAD_REACTORS
330
E
102
}
330
E
  0
SCALE
  5
48
102
{ACAD_REACTORS
330
47
102
}
330
47
100
AcDbScale
 70
     0
300
1:1
140
1.0
141
1.0
290
     1
  0
SCALE
  5
49
102
{ACAD_REACTORS
330
47
102
}
330
47
100
AcDbScale
 70
     0
300
1:2
140
1.0
141
2.0
290
     0
  0
SCALE
  5
4A
102
{ACAD_REACTORS
330
47
102
}
330
47
100
AcDbScale
 70
     0
300
1:4
140
1.0
141
4.0
290
     0
  0
SCALE
  5
4B
102
{ACAD_REACTORS
330
47
102
}
330
47
100
AcDbScale
 70
     0
300
1:5
140
1.0
141
5.0
290
     0
  0
SCALE
  5
4C
102
{ACAD_REACTORS
330
47
102
}
330
47
100
AcDbScale
 70
     0
300
1:8
140
1.0
141
8.0
290
     0
  0
SCALE
  5
4D
102
{ACAD_REACTORS
330
47
102
}
330
47
100
AcDbScale
 70
     0
300
1:10
140
1.0
141
10.0
290
     0
  0
SCALE
  5
4E
102
{ACAD_REACTORS
330
47
102
}
330
47
100
AcDbScale
 70
     0
300
1:16
140
1.0
141
16.0
290
     0
  0
SCALE
  5
4F
102
{ACAD_REACTORS
330
47
102
}
330
47
100
AcDbScale
 70
     0
300
1:20
140
1.0
141
20.0
290
     0
  0
SCALE
  5
50
102
{ACAD_REACTORS
330
47
102
}
330
47
100
AcDbScale
 70
     0
300
1:30
140
1.0
141
30.0
290
     0
  0
SCALE
  5
51
102
{ACAD_REACTORS
330
47
102
}
330
47
100
AcDbScale
 70
     0
300
1:40
140
1.0
141
40.0
290
     0
  0
SCALE
  5
52
102
{ACAD_REACTORS
330
47
102
}
330
47
100
AcDbScale
 70
     0
300
1:50
140
1.0
141
50.0
290
     0
  0
SCALE
  5
53
102
{ACAD_REACTORS
330
47
102
}
330
47
100
AcDbScale
 70
     0
300
1:100
140
1.0
141
100.0
290
     0
  0
SCALE
  5
54
102
{ACAD_REACTORS
330
47
102
}
330
47
100
AcDbScale
 70
     0
300
2:1
140
2.0
141
1.0
290
     0
  0
SCALE
  5
55
102
{ACAD_REACTORS
330
47
102
}
330
47
100
AcDbScale
 70
     0
300
4:1
140
4.0
141
1.0
290
     0
  0
SCALE
  5
56
102
{ACAD_REACTORS
330
47
102
}
330
47
100
AcDbScale
 70
     0
300
8:1
140
8.0
141
1.0
290
     0
  0
SCALE
  5
57
102
{ACAD_REACTORS
330
47
102
}
330
47
100
AcDbScale
 70
     0
300
10:1
140
10.0
141
1.0
290
     0
  0
SCALE
  5
58
102
{ACAD_REACTORS
330
47
102
}
330
47
100
AcDbScale
 70
     0
300
100:1
140
100.0
141
1.0
290
     0
  0
SCALE
  5
59
102
{ACAD_REACTORS
330
47
102
}
330
47
100
AcDbScale
 70
     0
300
1/128" = 1'-0"
140
0.0078125
141
12.0
290
     0
  0
SCALE
  5
5A
102
{ACAD_REACTORS
330
47
102
}
330
47
100
AcDbScale
 70
     0
300
1/64" = 1'-0"
140
0.015625
141
12.0
290
     0
  0
SCALE
  5
5B
102
{ACAD_REACTORS
330
47
102
}
330
47
100
AcDbScale
 70
     0
300
1/32" = 1'-0"
140
0.03125
141
12.0
290
     0
  0
SCALE
  5
5C
102
{ACAD_REACTORS
330
47
102
}
330
47
100
AcDbScale
 70
     0
300
1/16" = 1'-0"
140
0.0625
141
12.0
290
     0
  0
SCALE
  5
5D
102
{ACAD_REACTORS
330
47
102
}
330
47
100
AcDbScale
 70
     0
300
3/32" = 1'-0"
140
0.09375
141
12.0
290
     0
  0
SCALE
  5
5E
102
{ACAD_REACTORS
330
47
102
}
330
47
100
AcDbScale
 70
     0
300
1/8" = 1'-0"
140
0.125
141
12.0
290
     0
  0
SCALE
  5
5F
102
{ACAD_REACTORS
330
47
102
}
330
47
100
AcDbScale
 70
     0
300
3/16" = 1'-0"
140
0.1875
141
12.0
290
     0
  0
SCALE
  5
60
102
{ACAD_REACTORS
330
47
102
}
330
47
100
AcDbScale
 70
     0
300
1/4" = 1'-0"
140
0.25
141
12.0
290
     0
  0
SCALE
  5
61
102
{ACAD_REACTORS
330
47
102
}
330
47
100
AcDbScale
 70
     0
300
3/8" = 1'-0"
140
0.375
141
12.0
290
     0
  0
SCALE
  5
62
102
{ACAD_REACTORS
330
47
102
}
330
47
100
AcDbScale
 70
     0
300
1/2" = 1'-0"
140
0.5
141
12.0
290
     0
  0
SCALE
  5
63
102
{ACAD_REACTORS
330
47
102
}
330
47
100
AcDbScale
 70
     0
300
3/4" = 1'-0"
140
0.75
141
12.0
290
     0
  0
SCALE
  5
64
102
{ACAD_REACTORS
330
47
102
}
330
47
100
AcDbScale
 70
     0
300
1" = 1'-0"
140
1.0
141
12.0
290
     0
  0
SCALE
  5
65
102
{ACAD_REACTORS
330
47
102
}
330
47
100
AcDbScale
 70
     0
300
1-1/2" = 1'-0"
140
1.5
141
12.0
290
     0
  0
SCALE
  5
66
102
{ACAD_REACTORS
330
47
102
}
330
47
100
AcDbScale
 70
     0
300
3" = 1'-0"
140
3.0
141
12.0
290
     0
  0
SCALE
  5
67
102
{ACAD_REACTORS
330
47
102
}
330
47
100
AcDbScale
 70
     0
300
6" = 1'-0"
140
6.0
141
12.0
290
     0
  0
SCALE
  5
68
102
{ACAD_REACTORS
330
47
102
}
330
47
100
AcDbScale
 70
     0
300
1'-0" = 1'-0"
140
12.0
141
12.0
290
     0
  0
ENDSEC
  0
EOF
