  0
SECTION
  2
HEADER
  9
$ACADVER
  1
AC1015
  9
$ACADMAINTVER
 70
     6
  9
$DWGCODEPAGE
  3
ANSI_1252
  9
$INSBASE
 10
0.0
 20
0.0
 30
0.0
  9
$EXTMIN
 10
0.0
 20
0.0
 30
0.0
  9
$EXTMAX
 10
1000.0
 20
700.0
 30
0.0
  9
$LIMMIN
 10
0.0
 20
0.0
  9
$LIMMAX
 10
1000.0
 20
700.0
  9
$ORTHOMODE
 70
     0
  9
$REGENMODE
 70
     1
  9
$FILLMODE
 70
     1
  9
$QTEXTMODE
 70
     0
  9
$MIRRTEXT
 70
     1
  9
$LTSCALE
 40
1.0
  9
$ATTMODE
 70
     1
  9
$TEXTSIZE
 40
5.0
  9
$TRACEWID
 40
1.0
  9
$TEXTSTYLE
  7
Standard
  9
$CLAYER
  8
0
  9
$CELTYPE
  6
ByLayer
  9
$CECOLOR
 62
   256
  9
$CELTSCALE
 40
1.0
  9
$DISPSILH
 70
     0
  9
$DIMSCALE
 40
1.0
  9
$DIMASZ
 40
6.0
  9
$DIMEXO
 40
1.0
  9
$DIMDLI
 40
3.75
  9
$DIMRND
 40
0.0
  9
$DIMDLE
 40
0.0
  9
$DIMEXE
 40
1.0
  9
$DIMTP
 40
0.0
  9
$DIMTM
 40
0.0
  9
$DIMTXT
 40
5.0
  9
$DIMCEN
 40
2.5
  9
$DIMTSZ
 40
0.0
  9
$DIMTOL
 70
     0
  9
$DIMLIM
 70
     0
  9
$DIMTIH
 70
     1
  9
$DIMTOH
 70
     1
  9
$DIMSE1
 70
     0
  9
$DIMSE2
 70
     0
  9
$DIMTAD
 70
     1
  9
$DIMZIN
 70
     0
  9
$DIMBLK
  1

  9
$DIMASO
 70
     1
  9
$DIMSHO
 70
     1
  9
$DIMPOST
  1

  9
$DIMAPOST
  1

  9
$DIMALT
 70
     0
  9
$DIMALTD
 70
     3
  9
$DIMALTF
 40
0.0393700787
  9
$DIMLFAC
 40
1.0
  9
$DIMTOFL
 70
     1
  9
$DIMTVP
 40
0.0
  9
$DIMTIX
 70
     0
  9
$DIMSOXD
 70
     0
  9
$DIMSAH
 70
     0
  9
$DIMBLK1
  1

  9
$DIMBLK2
  1

  9
$DIMSTYLE
  2
ISO-25
  9
$DIMCLRD
 70
     0
  9
$DIMCLRE
 70
     0
  9
$DIMCLRT
 70
     0
  9
$DIMTFAC
 40
1.0
  9
$DIMGAP
 40
1.524
  9
$DIMJUST
 70
     0
  9
$DIMSD1
 70
     0
  9
$DIMSD2
 70
     0
  9
$DIMTOLJ
 70
     0
  9
$DIMTZIN
 70
     0
  9
$DIMALTZ
 70
     0
  9
$DIMALTTZ
 70
     0
  9
$DIMUPT
 70
     0
  9
$DIMDEC
 70
     2
  9
$DIMTDEC
 70
     2
  9
$DIMALTU
 70
     2
  9
$DIMALTTD
 70
     3
  9
$DIMTXSTY
  7
Standard
  9
$DIMAUNIT
 70
     0
  9
$DIMADEC
 70
     2
  9
$DIMALTRND
 40
0.0
  9
$DIMAZIN
 70
     0
  9
$DIMDSEP
 70
    44
  9
$DIMATFIT
 70
     3
  9
$DIMFRAC
 70
     0
  9
$DIMLDRBLK
  1

  9
$DIMLUNIT
 70
     2
  9
$DIMLWD
 70
    -2
  9
$DIMLWE
 70
    -2
  9
$DIMTMOVE
 70
     0
  9
$LUNITS
 70
     2
  9
$LUPREC
 70
     2
  9
$SKETCHINC
 40
1.0
  9
$FILLETRAD
 40
10.0
  9
$AUNITS
 70
     0
  9
$AUPREC
 70
     2
  9
$MENU
  1
.
  9
$ELEVATION
 40
0.0
  9
$PELEVATION
 40
0.0
  9
$THICKNESS
 40
0.0
  9
$LIMCHECK
 70
     0
  9
$CHAMFERA
 40
0.0
  9
$CHAMFERB
 40
0.0
  9
$CHAMFERC
 40
0.0
  9
$CHAMFERD
 40
0.0
  9
$SKPOLY
 70
     0
  9
$TDCREATE
 40
2458642.585322083
  9
$TDUCREATE
 40
2458642.460322083
  9
$TDUPDATE
 40
2458642.585322639
  9
$TDUUPDATE
 40
2458642.460322639
  9
$TDINDWG
 40
0.0000000116
  9
$TDUSRTIMER
 40
0.0000000116
  9
$USRTIMER
 70
     1
  9
$ANGBASE
 50
0.0
  9
$ANGDIR
 70
     0
  9
$PDMODE
 70
     0
  9
$PDSIZE
 40
-1.0
  9
$PLINEWID
 40
0.0
  9
$SPLFRAME
 70
     0
  9
$SPLINETYPE
 70
     6
  9
$SPLINESEGS
 70
     8
  9
$HANDSEED
  5
D8
  9
$SURFTAB1
 70
     6
  9
$SURFTAB2
 70
     6
  9
$SURFTYPE
 70
     6
  9
$SURFU
 70
     6
  9
$SURFV
 70
     6
  9
$UCSBASE
  2

  9
$UCSNAME
  2

  9
$UCSORG
 10
0.0
 20
0.0
 30
0.0
  9
$UCSXDIR
 10
1.0
 20
0.0
 30
0.0
  9
$UCSYDIR
 10
0.0
 20
1.0
 30
0.0
  9
$UCSORTHOREF
  2

  9
$UCSORTHOVIEW
 70
     0
  9
$UCSORGTOP
 10
0.0
 20
0.0
 30
0.0
  9
$UCSORGBOTTOM
 10
0.0
 20
0.0
 30
0.0
  9
$UCSORGLEFT
 10
0.0
 20
0.0
 30
0.0
  9
$UCSORGRIGHT
 10
0.0
 20
0.0
 30
0.0
  9
$UCSORGFRONT
 10
0.0
 20
0.0
 30
0.0
  9
$UCSORGBACK
 10
0.0
 20
0.0
 30
0.0
  9
$PUCSBASE
  2

  9
$PUCSNAME
  2

  9
$PUCSORG
 10
0.0
 20
0.0
 30
0.0
  9
$PUCSXDIR
 10
1.0
 20
0.0
 30
0.0
  9
$PUCSYDIR
 10
0.0
 20
1.0
 30
0.0
  9
$PUCSORTHOREF
  2

  9
$PUCSORTHOVIEW
 70
     0
  9
$PUCSORGTOP
 10
0.0
 20
0.0
 30
0.0
  9
$PUCSORGBOTTOM
 10
0.0
 20
0.0
 30
0.0
  9
$PUCSORGLEFT
 10
0.0
 20
0.0
 30
0.0
  9
$PUCSORGRIGHT
 10
0.0
 20
0.0
 30
0.0
  9
$PUCSORGFRONT
 10
0.0
 20
0.0
 30
0.0
  9
$PUCSORGBACK
 10
0.0
 20
0.0
 30
0.0
  9
$USERI1
 70
     0
  9
$USERI2
 70
     0
  9
$USERI3
 70
     0
  9
$USERI4
 70
     0
  9
$USERI5
 70
     0
  9
$USERR1
 40
0.0
  9
$USERR2
 40
0.0
  9
$USERR3
 40
0.0
  9
$USERR4
 40
0.0
  9
$USERR5
 40
0.0
  9
$WORLDVIEW
 70
     1
  9
$SHADEDGE
 70
     3
  9
$SHADEDIF
 70
    70
  9
$TILEMODE
 70
     1
  9
$MAXACTVP
 70
    64
  9
$PINSBASE
 10
0.0
 20
0.0
 30
0.0
  9
$PLIMCHECK
 70
     0
  9
$PEXTMIN
 10
1.0000000000E+20
 20
1.0000000000E+20
 30
1.0000000000E+20
  9
$PEXTMAX
 10
-1.0000000000E+20
 20
-1.0000000000E+20
 30
-1.0000000000E+20
  9
$PLIMMIN
 10
0.0
 20
0.0
  9
$PLIMMAX
 10
420.0
 20
297.0
  9
$UNITMODE
 70
     0
  9
$VISRETAIN
 70
     1
  9
$PLINEGEN
 70
     0
  9
$PSLTSCALE
 70
     1
  9
$TREEDEPTH
 70
  3020
  9
$CMLSTYLE
  2
Standard
  9
$CMLJUST
 70
     0
  9
$CMLSCALE
 40
20.0
  9
$PROXYGRAPHICS
 70
     1
  9
$MEASUREMENT
 70
     1
  9
$CELWEIGHT
370
    -1
  9
$ENDCAPS
280
     0
  9
$JOINSTYLE
280
     0
  9
$LWDISPLAY
290
     1
  9
$INSUNITS
 70
     4
  9
$HYPERLINKBASE
  1

  9
$STYLESHEET
  1

  9
$XEDIT
290
     1
  9
$CEPSNTYPE
380
     0
  9
$PSTYLEMODE
290
     1
  9
$FINGERPRINTGUID
  2
{D3BB5F71-392D-41FB-9FB2-7498D7B782D4}
  9
$VERSIONGUID
  2
{FAEB1C32-E019-11D5-929B-00C0DF256EC4}
  9
$EXTNAMES
290
     1
  9
$PSVPSCALE
 40
0.0
  9
$OLESTARTUP
290
     0
  0
ENDSEC
  0
SECTION
  2
CLASSES
  0
CLASS
  1
ACDBDICTIONARYWDFLT
  2
AcDbDictionaryWithDefault
  3
ObjectDBX Classes
 90
        0
280
     0
281
     0
  0
CLASS
  1
VISUALSTYLE
  2
AcDbVisualStyle
  3
ObjectDBX Classes
 90
     4095
280
     0
281
     0
  0
CLASS
  1
MATERIAL
  2
AcDbMaterial
  3
ObjectDBX Classes
 90
     1153
280
     0
281
     0
  0
CLASS
  1
SCALE
  2
AcDbScale
  3
ObjectDBX Classes
 90
     1153
280
     0
281
     0
  0
CLASS
  1
TABLESTYLE
  2
AcDbTableStyle
  3
ObjectDBX Classes
 90
     4095
280
     0
281
     0
  0
CLASS
  1
MLEADERSTYLE
  2
AcDbMLeaderStyle
  3
ACDB_MLEADERSTYLE_CLASS
 90
     4095
280
     0
281
     0
  0
CLASS
  1
SUN
  2
AcDbSun
  3
SCENEOE
 90
     1153
280
     0
281
     0
  0
CLASS
  1
ACDBPLACEHOLDER
  2
AcDbPlaceHolder
  3
ObjectDBX Classes
 90
        0
280
     0
281
     0
  0
CLASS
  1
LAYOUT
  2
AcDbLayout
  3
ObjectDBX Classes
 90
        0
280
     0
281
     0
  0
ENDSEC
  0
SECTION
  2
TABLES
  0
TABLE
  2
VPORT
  5
8
330
0
100
AcDbSymbolTable
 70
     1
  0
VPORT
  5
29
330
8
100
AcDbSymbolTableRecord
100
AcDbViewportTableRecord
  2
*Active
 70
     0
 10
0.0
 20
0.0
 11
1.0
 21
1.0
 12
500.0
 22
350.0
 13
0.0
 23
0.0
 14
10.0
 24
10.0
 15
10.0
 25
10.0
 16
0.0
 26
0.0
 36
1.0
 17
0.0
 27
0.0
 37
0.0
 40
700.0
 41
1.4285714286
 42
50.0
 43
0.0
 44
0.0
 50
0.0
 51
0.0
 71
     0
 72
  2000
 73
     1
 74
     3
 75
     0
 76
     0
 77
     0
 78
     0
281
     0
 65
     1
110
0.0
120
0.0
130
0.0
111
1.0
121
0.0
131
0.0
112
0.0
122
1.0
132
0.0
 79
     0
146
0.0
  0
ENDTAB
  0
TABLE
  2
LTYPE
  5
5
330
0
100
AcDbSymbolTable
 70
     6
  0
LTYPE
  5
14
330
5
100
AcDbSymbolTableRecord
100
AcDbLinetypeTableRecord
  2
ByBlock
 70
     0
  3

 72
    65
 73
     0
 40
0.0
  0
LTYPE
  5
15
330
5
100
AcDbSymbolTableRecord
100
AcDbLinetypeTableRecord
  2
ByLayer
 70
     0
  3

 72
    65
 73
     0
 40
0.0
  0
LTYPE
  5
16
330
5
100
AcDbSymbolTableRecord
100
AcDbLinetypeTableRecord
  2
Continuous
 70
     0
  3
Solid line
 72
    65
 73
     0
 40
0.0
  0
LTYPE
  5
6E
330
5
100
AcDbSymbolTableRecord
100
AcDbLinetypeTableRecord
  2
HIDDEN
 70
     0
  3
Hidden __ __ __ __ __ __ __ __ __ __ __ __ __ __
 72
    65
 73
     2
 40
1.905
 49
1.27
 74
     0
 49
-0.635
 74
     0
  0
LTYPE
  5
6F
330
5
100
AcDbSymbolTableRecord
100
AcDbLinetypeTableRecord
  2
PHANTOM
 70
     0
  3
Phantom ______  __  __  ______  __  __  ______
 72
    65
 73
     6
 40
12.7
 49
6.35
 74
     0
 49
-1.27
 74
     0
 49
1.27
 74
     0
 49
-1.27
 74
     0
 49
1.27
 74
     0
 49
-1.27
 74
     0
  0
LTYPE
  5
70
330
5
100
AcDbSymbolTableRecord
100
AcDbLinetypeTableRecord
  2
CENTER
 70
     0
  3
Center ____ _ ____ _ ____ _ ____ _ ____ _ ____
 72
    65
 73
     4
 40
10.16
 49
6.35
 74
     0
 49
-1.27
 74
     0
 49
1.27
 74
     0
 49
-1.27
 74
     0
  0
LTYPE
  5
71
330
5
100
AcDbSymbolTableRecord
100
AcDbLinetypeTableRecord
  2
CENTERX2
 70
     0
  3
Center (2x) ________  __  ________  __  _____
 72
    65
 73
     4
 40
20.32
 49
12.7
 74
     0
 49
-2.54
 74
     0
 49
2.54
 74
     0
 49
-2.54
 74
     0
  0
LTYPE
  5
72
330
5
100
AcDbSymbolTableRecord
100
AcDbLinetypeTableRecord
  2
DOT2
 70
     0
  3
Dot (.5x) ........................................
 72
    65
 73
     2
 40
0.635
 49
0.0
 74
     0
 49
-0.635
 74
     0
  0
ENDTAB
  0
TABLE
  2
LAYER
  5
2
330
0
100
AcDbSymbolTable
 70
     2
  0
LAYER
  5
10
330
2
100
AcDbSymbolTableRecord
100
AcDbLayerTableRecord
  2
0
 70
     0
 62
     7
  6
Continuous
370
    -3
390
F
  0
LAYER
  5
73
330
2
100
AcDbSymbolTableRecord
100
AcDbLayerTableRecord
  2
TABLE_BL1
 70
     0
 62
   179
  6
Continuous
370
    -3
390
F
  0
ENDTAB
  0
TABLE
  2
STYLE
  5
3
330
0
100
AcDbSymbolTable
 70
     1
  0
STYLE
  5
11
330
3
100
AcDbSymbolTableRecord
100
AcDbTextStyleTableRecord
  2
Standard
 70
     0
 40
0.0
 41
1.0
 50
0.0
 71
     0
 42
5.0
  3
txt
  4

  0
ENDTAB
  0
TABLE
  2
VIEW
  5
6
330
0
100
AcDbSymbolTable
 70
     0
  0
ENDTAB
  0
TABLE
  2
UCS
  5
7
330
0
100
AcDbSymbolTable
 70
     0
  0
ENDTAB
  0
TABLE
  2
APPID
  5
9
330
0
100
AcDbSymbolTable
 70
     1
  0
APPID
  5
12
330
9
100
AcDbSymbolTableRecord
100
AcDbRegAppTableRecord
  2
ACAD
 70
     0
  0
ENDTAB
  0
TABLE
  2
DIMSTYLE
  5
A
330
0
100
AcDbSymbolTable
 70
     1
100
AcDbDimStyleTable
  0
DIMSTYLE
105
27
330
A
100
AcDbSymbolTableRecord
100
AcDbDimStyleTableRecord
  2
ISO-25
 70
     0
 41
2.5
 42
0.625
 43
3.75
 44
1.25
 73
     0
 74
     0
 77
     1
 78
     8
140
2.5
141
2.5
143
0.0393700787
147
0.625
171
     3
172
     1
178
     0
271
     2
272
     2
274
     3
278
    44
283
     0
284
     8
340
11
  0
ENDTAB
  0
TABLE
  2
BLOCK_RECORD
  5
1
330
0
100
AcDbSymbolTable
 70
     1
  0
BLOCK_RECORD
  5
1F
330
1
100
AcDbSymbolTableRecord
100
AcDbBlockTableRecord
  2
*Model_Space
340
22
  0
BLOCK_RECORD
  5
1B
330
1
100
AcDbSymbolTableRecord
100
AcDbBlockTableRecord
  2
*Paper_Space
340
1E
  0
BLOCK_RECORD
  5
23
330
1
100
AcDbSymbolTableRecord
100
AcDbBlockTableRecord
  2
*Paper_Space0
340
26
  0
ENDTAB
  0
ENDSEC
  0
SECTION
  2
BLOCKS
  0
BLOCK
  5
20
330
1F
100
AcDbEntity
  8
0
100
AcDbBlockBegin
  2
*Model_Space
 70
     0
 10
0.0
 20
0.0
 30
0.0
  3
*Model_Space
  1

  0
ENDBLK
  5
21
330
1F
100
AcDbEntity
  8
0
100
AcDbBlockEnd
  0
BLOCK
  5
1C
330
1B
100
AcDbEntity
 67
     1
  8
0
100
AcDbBlockBegin
  2
*Paper_Space
 70
     0
 10
0.0
 20
0.0
 30
0.0
  3
*Paper_Space
  1

  0
ENDBLK
  5
1D
330
1B
100
AcDbEntity
 67
     1
  8
0
100
AcDbBlockEnd
  0
BLOCK
  5
24
330
23
100
AcDbEntity
  8
0
100
AcDbBlockBegin
  2
*Paper_Space0
 70
     0
 10
0.0
 20
0.0
 30
0.0
  3
*Paper_Space0
  1

  0
ENDBLK
  5
25
330
23
100
AcDbEntity
  8
0
100
AcDbBlockEnd
  0
ENDSEC
  0
SECTION
  2
ENTITIES
  0
SPLINE
  5
74
330
1F
100
AcDbEntity
  8
0
  6
Continuous
 62
     7
370
    25
100
AcDbSpline
210
0.0
220
0.0
230
1.0
 70
     8
 71
     3
 72
    29
 73
    25
 74
     0
 42
0.000000001
 43
0.00000001
 40
0.0
 40
0.0
 40
0.0
 40
0.0
 40
0.034932130236503
 40
0.0633980414690867
 40
0.0838985111200189
 40
0.1410481346313651
 40
0.1993926702701289
 40
0.2579538597656248
 40
0.3167358503651233
 40
0.3756685164885253
 40
0.4347110619345342
 40
0.493836815542934
 40
0.5530116241526682
 40
0.6120982836424286
 40
0.6710428140077691
 40
0.7298261595152031
 40
0.7884258347282079
 40
0.8467958281937671
 40
0.865566955660363
 40
0.8834824067637418
 40
0.9012873183610246
 40
0.9267778374061868
 40
0.9604935030459331
 40
0.9999999999999999
 40
0.9999999999999999
 40
0.9999999999999999
 40
0.9999999999999999
 10
531.620255447652
 20
406.913474685659
 30
0.0
 10
532.1533018927698
 20
408.1672876292671
 30
0.0
 10
533.12072358746
 20
410.4428226297143
 30
0.0
 10
534.0045517163878
 20
413.5977961702922
 30
0.0
 10
534.8386206652957
 20
417.6481774354901
 30
0.0
 10
535.2629327740259
 20
422.9626465321368
 30
0.0
 10
534.5729112118104
 20
429.7459444376385
 30
0.0
 10
532.6365223973839
 20
436.3524029815497
 30
0.0
 10
529.5115071297575
 20
442.5122805608708
 30
0.0
 10
525.2953123083256
 20
448.0076499162985
 30
0.0
 10
520.1284027765871
 20
452.6408765985142
 30
0.0
 10
514.1867733274019
 20
456.2456317848119
 30
0.0
 10
507.6796121717232
 20
458.6908512287425
 30
0.0
 10
500.8398188962158
 20
459.8905385362564
 30
0.0
 10
493.911709579158
 20
459.8087123651685
 30
0.0
 10
487.1354576527854
 20
458.4575276421592
 30
0.0
 10
480.7441784695629
 20
455.8961598046669
 30
0.0
 10
476.2495225390511
 20
453.0460531875024
 30
0.0
 10
473.3831038389394
 20
450.6985531343212
 30
0.0
 10
471.8198282505649
 20
449.2602031429856
 30
0.0
 10
470.1563662816392
 20
447.5492185972745
 30
0.0
 10
468.2184314058051
 20
445.2558227253577
 30
0.0
 10
465.9871252219646
 20
442.1086155961072
 30
0.0
 10
464.6970691509173
 20
439.5598579800773
 30
0.0
 10
464.001028574731
 20
438.1846939391991
 30
0.0
  0
SPLINE
  5
75
330
1F
100
AcDbEntity
  8
0
  6
Continuous
 62
     7
370
    25
100
AcDbSpline
210
0.0
220
0.0
230
1.0
 70
     8
 71
     3
 72
    29
 73
    25
 74
     0
 42
0.000000001
 43
0.00000001
 40
0.0
 40
0.0
 40
0.0
 40
0.0
 40
0.0349321290507993
 40
0.0633980393171626
 40
0.083898570717844
 40
0.1410481287519991
 40
0.1993926624103703
 40
0.2579538499181198
 40
0.3167358953669927
 40
0.3756685245041231
 40
0.4347110585328835
 40
0.4938368101343737
 40
0.5530116391571058
 40
0.6120982856291166
 40
0.6710428120019218
 40
0.7298261574675383
 40
0.7884258188338087
 40
0.846795810318111
 40
0.8655669450111781
 40
0.8834823856561923
 40
0.9012872966491219
 40
0.9267778288388355
 40
0.960493476344627
 40
1.0
 40
1.0
 40
1.0
 40
1.0
 10
464.001028574731
 20
438.1846939391991
 30
0.0
 10
463.4679822052331
 20
436.9308809801404
 30
0.0
 10
462.500560647785
 20
434.6553459516521
 30
0.0
 10
461.6167310537787
 20
431.5003702277654
 30
0.0
 10
460.7826657573339
 20
427.4499882572518
 30
0.0
 10
460.3583505780377
 20
422.1355198110173
 30
0.0
 10
461.048372756895
 20
415.3522239847834
 30
0.0
 10
462.9847634049165
 20
408.7457641211219
 30
0.0
 10
466.10977389622
 20
402.5858831201238
 30
0.0
 10
470.3259701574256
 20
397.0905137365543
 30
0.0
 10
475.4928821362644
 20
392.4572920016932
 30
0.0
 10
481.4345122608898
 20
388.8525392679604
 30
0.0
 10
487.9416692915421
 20
386.4073052987167
 30
0.0
 10
494.7814661564131
 20
385.2076333631438
 30
0.0
 10
501.7095741936391
 20
385.2894552531462
 30
0.0
 10
508.4858258377284
 20
386.6406417541313
 30
0.0
 10
514.8771048953571
 20
389.2020058779137
 30
0.0
 10
519.3717657731511
 20
392.0521071190636
 30
0.0
 10
522.2381760802922
 20
394.399617016311
 30
0.0
 10
523.801457012629
 20
395.8379609000739
 30
0.0
 10
525.464918483008
 20
397.5489465283696
 30
0.0
 10
527.4028478541481
 20
399.8423465899146
 30
0.0
 10
529.6341617850495
 20
402.9895493602327
 30
0.0
 10
530.9242156647814
 20
405.5383088599288
 30
0.0
 10
531.620255447652
 20
406.913474685659
 30
0.0
  0
ARC
  5
76
330
1F
100
AcDbEntity
  8
0
  6
Continuous
 62
     7
370
    25
100
AcDbCircle
 10
497.8106419585
 20
422.5490830526
 30
0.0
 40
36.31056399417603
100
AcDbArc
 50
155.1813223123
 51
335.1813223292
  0
ARC
  5
77
330
1F
100
AcDbEntity
  8
0
  6
Continuous
 62
     7
370
    25
100
AcDbCircle
 10
497.8106419585
 20
422.5490830526
 30
0.0
 40
36.31056399417603
100
AcDbArc
 50
335.1813223292
 51
155.1813223123
  0
SPLINE
  5
78
330
1F
100
AcDbEntity
  8
0
  6
Continuous
 62
     7
370
    25
100
AcDbSpline
210
0.0
220
0.0
230
1.0
 70
     8
 71
     3
 72
     9
 73
     5
 74
     0
 42
0.000000001
 43
0.00000001
 40
0.0
 40
0.0
 40
0.0
 40
0.0
 40
0.560000728168321
 40
1.0
 40
1.0
 40
1.0
 40
1.0
 10
467.3265598339102
 20
399.3643042809864
 30
0.0
 10
467.171698833012
 20
399.2465237031848
 30
0.0
 10
466.8951616909895
 20
399.0362015163067
 30
0.0
 10
466.530898112804
 20
398.7591598545968
 30
0.0
 10
466.3706224036476
 20
398.6372617251774
 30
0.0
  0
SPLINE
  5
79
330
1F
100
AcDbEntity
  8
0
  6
Continuous
 62
     7
370
    25
100
AcDbSpline
210
0.0
220
0.0
230
1.0
 70
     8
 71
     3
 72
     9
 73
     5
 74
     0
 42
0.000000001
 43
0.00000001
 40
0.0
 40
0.0
 40
0.0
 40
0.0
 40
0.5599958531316087
 40
1.0
 40
1.0
 40
1.0
 40
1.0
 10
529.2506616187354
 20
446.4609031743904
 30
0.0
 10
529.0457765771537
 20
446.3050792912361
 30
0.0
 10
528.6799077221684
 20
446.0268202964901
 30
0.0
 10
528.4124199274054
 20
445.823376661591
 30
0.0
 10
528.2947241884729
 20
445.7338606185814
 30
0.0
  0
ARC
  5
7A
330
1F
100
AcDbEntity
  8
0
  6
Continuous
 62
     7
370
    25
100
AcDbCircle
 10
497.8106419585
 20
422.5490830526
 30
0.0
 40
38.29899805700015
100
AcDbArc
 50
37.2549368278
 51
217.2549368278
  0
ARC
  5
7B
330
1F
100
AcDbEntity
  8
0
  6
Continuous
 62
     7
370
    25
100
AcDbCircle
 10
497.8106419585
 20
422.5490830526
 30
0.0
 40
39.50000000000022
100
AcDbArc
 50
37.2549368278
 51
217.2549368513
  0
ARC
  5
7C
330
1F
100
AcDbEntity
  8
0
  6
Continuous
 62
     7
370
    25
100
AcDbCircle
 10
497.8106419585
 20
422.5490830526
 30
0.0
 40
38.29899805700015
100
AcDbArc
 50
217.2549368278
 51
37.2549368278
  0
ARC
  5
7D
330
1F
100
AcDbEntity
  8
0
  6
Continuous
 62
     7
370
    25
100
AcDbCircle
 10
497.8106419585
 20
422.5490830526
 30
0.0
 40
39.50000000000022
100
AcDbArc
 50
217.2549368513
 51
37.2549368176
  0
CIRCLE
  5
7E
330
1F
100
AcDbEntity
  8
0
  6
Continuous
 62
     7
370
    25
100
AcDbCircle
 10
497.8106419585
 20
422.5490830526
 30
0.0
 40
57.00000000000007
  0
SPLINE
  5
7F
330
1F
100
AcDbEntity
  8
0
  6
Continuous
 62
     7
370
    25
100
AcDbSpline
210
0.0
220
0.0
230
1.0
 70
     8
 71
     3
 72
    35
 73
    31
 74
     0
 42
0.000000001
 43
0.00000001
 40
0.0
 40
0.0
 40
0.0
 40
0.0
 40
0.0282546048690978
 40
0.058383408434677
 40
0.0903495474774307
 40
0.125861649738871
 40
0.1640104742821469
 40
0.2048405161955519
 40
0.2374624463809481
 40
0.2716127090686506
 40
0.3071914419215119
 40
0.3440550109313685
 40
0.3820151089820007
 40
0.4208413584426847
 40
0.4602672628646765
 40
0.4999999965366845
 40
0.5397327282679274
 40
0.5791586350020279
 40
0.6179848772788237
 40
0.6559450042444904
 40
0.6928085725727897
 40
0.7283873054690709
 40
0.7625375350003017
 40
0.7951594816288833
 40
0.8359928505058346
 40
0.8741416144306888
 40
0.9096504569567443
 40
0.9416198642470632
 40
0.9717470208209579
 40
1.0
 40
1.0
 40
1.0
 40
1.0
 10
541.8185021353027
 20
417.9034535951515
 30
0.0
 10
541.9224234175794
 20
419.2088120420519
 30
0.0
 10
542.1371593410269
 20
421.9061166305294
 30
0.0
 10
541.9863651908282
 20
426.0972985020875
 30
0.0
 10
541.4126116545922
 20
430.5876012105975
 30
0.0
 10
540.272127765258
 20
435.3562317278877
 30
0.0
 10
538.4496620104701
 20
440.3490340107075
 30
0.0
 10
536.0824277036859
 20
444.9608283631849
 30
0.0
 10
533.3068915695153
 20
449.1100041044696
 30
0.0
 10
530.2673244671128
 20
452.7597727975432
 30
0.0
 10
526.7047838847164
 20
456.1924122008255
 30
0.0
 10
522.6344301059629
 20
459.3062996727556
 30
0.0
 10
518.0967459977643
 20
461.9986502740772
 30
0.0
 10
513.158654256733
 20
464.1736178335902
 30
0.0
 10
507.9118977421677
 20
465.7504526950489
 30
0.0
 10
502.468356505456
 20
466.6714038685735
 30
0.0
 10
496.9525052376455
 20
466.9073661792611
 30
0.0
 10
491.4921528868999
 20
466.4608151050252
 30
0.0
 10
486.2087683479525
 20
465.3648691688498
 30
0.0
 10
481.2089401109104
 20
463.6793252676621
 30
0.0
 10
476.5781216233027
 20
461.4839650431855
 30
0.0
 10
472.3773719220625
 20
458.8708448660563
 30
0.0
 10
468.6427286277768
 20
455.9361890274661
 30
0.0
 10
465.0619003642403
 20
452.4579031326084
 30
0.0
 10
461.7838462191053
 20
448.4418848884187
 30
0.0
 10
458.9590655072348
 20
443.9396545492634
 30
0.0
 10
456.8480770186386
 20
439.5142490460298
 30
0.0
 10
455.3494019361947
 20
435.2427942982263
 30
0.0
 10
454.3269058568309
 20
431.1754572739051
 30
0.0
 10
453.973710331893
 20
428.4929233168122
 30
0.0
 10
453.8027818870804
 20
427.1947150297066
 30
0.0
  0
SPLINE
  5
80
330
1F
100
AcDbEntity
  8
0
  6
Continuous
 62
     7
370
    25
100
AcDbSpline
210
0.0
220
0.0
230
1.0
 70
     8
 71
     3
 72
    35
 73
    31
 74
     0
 42
0.000000001
 43
0.00000001
 40
0.0
 40
0.0
 40
0.0
 40
0.0
 40
0.028254603975023
 40
0.0583834601830882
 40
0.0903495450346046
 40
0.1258616461723175
 40
0.1640104695084307
 40
0.2048405217402108
 40
0.2374624658000599
 40
0.2716127068054578
 40
0.3071914385324832
 40
0.3440550063758472
 40
0.3820151169060269
 40
0.4208413651381122
 40
0.4602672683125301
 40
0.5000000007272551
 40
0.5397327307826805
 40
0.5791586388720311
 40
0.6179848799202284
 40
0.6559450056847037
 40
0.6928085728465105
 40
0.7283872904554902
 40
0.7625375189060881
 40
0.7951594831832804
 40
0.8359928299973848
 40
0.8741415927150783
 40
0.909650458320142
 40
0.9416198140253822
 40
0.9717470217149812
 40
1.0
 40
1.0
 40
1.0
 40
1.0
 10
453.8027818870804
 20
427.1947150297066
 30
0.0
 10
453.6988606839736
 20
425.8893565877604
 30
0.0
 10
453.4841247269903
 20
423.1920495333989
 30
0.0
 10
453.6349180051863
 20
419.0008675445256
 30
0.0
 10
454.2086733513038
 20
414.510565104023
 30
0.0
 10
455.3491557199412
 20
409.7419366509236
 30
0.0
 10
457.1716240679605
 20
404.7491350860905
 30
0.0
 10
459.5388503802994
 20
400.1373351176281
 30
0.0
 10
462.3143921217385
 20
395.9881623848255
 30
0.0
 10
465.3539605863726
 20
392.3383955558764
 30
0.0
 10
468.9164999008049
 20
388.9057560772364
 30
0.0
 10
472.986855036222
 20
385.7918695890797
 30
0.0
 10
477.5245368334481
 20
383.0995138519228
 30
0.0
 10
482.4626299315172
 20
380.924547372877
 30
0.0
 10
487.7093862422889
 20
379.3477120309394
 30
0.0
 10
493.1529274808988
 20
378.426761419875
 30
0.0
 10
498.6687789716589
 20
378.1907973525865
 30
0.0
 10
504.1291309207484
 20
378.6373548120129
 30
0.0
 10
509.4125156587131
 20
379.7332991820355
 30
0.0
 10
514.4123440621682
 20
381.4188431822528
 30
0.0
 10
519.0431612443288
 20
383.6142042187541
 30
0.0
 10
523.243912986811
 20
386.2273197155695
 30
0.0
 10
526.9785567167531
 20
389.1619758526329
 30
0.0
 10
530.5593811277222
 20
392.6402653717861
 30
0.0
 10
533.8374389550744
 20
396.656280164802
 30
0.0
 10
536.6622197598538
 20
401.1585111246972
 30
0.0
 10
538.7732041034162
 20
405.5839169487804
 30
0.0
 10
540.2718850070728
 20
409.8553709431798
 30
0.0
 10
541.2943770189611
 20
413.9227091842466
 30
0.0
 10
541.6475734192945
 20
416.6052453816959
 30
0.0
 10
541.8185021353027
 20
417.9034535951515
 30
0.0
  0
ARC
  5
81
330
1F
100
AcDbEntity
  8
0
  6
Continuous
 62
     7
370
    25
100
AcDbCircle
 10
497.8106419585
 20
422.5490830526
 30
0.0
 40
40.3547623089486
100
AcDbArc
 50
173.973964907
 51
353.973964907
  0
ARC
  5
82
330
1F
100
AcDbEntity
  8
0
  6
Continuous
 62
     7
370
    25
100
AcDbCircle
 10
497.8106419585
 20
422.5490830526
 30
0.0
 40
40.3547623089486
100
AcDbArc
 50
353.973964907
 51
173.973964907
  0
CIRCLE
  5
83
330
1F
100
AcDbEntity
  8
0
  6
Continuous
 62
     7
370
    25
100
AcDbCircle
 10
497.8106419585
 20
422.5490830526
 30
0.0
 40
39.93812333100002
  0
SPLINE
  5
84
330
1F
100
AcDbEntity
  8
0
  6
Continuous
 62
     7
370
    25
100
AcDbSpline
210
0.0
220
0.0
230
1.0
 70
     8
 71
     3
 72
    29
 73
    25
 74
     0
 42
0.000000001
 43
0.00000001
 40
0.0
 40
0.0
 40
0.0
 40
0.0
 40
0.0155120431063347
 40
0.0309971955008443
 40
0.0464645939623177
 40
0.0619234067494341
 40
0.0773828173961745
 40
0.0928520083717341
 40
0.1083401447498952
 40
0.1238563580326206
 40
0.1869678680665147
 40
0.2500985826998964
 40
0.313210093197178
 40
0.3763408083021846
 40
0.5000045159674564
 40
0.6236682236327278
 40
0.6867797336765997
 40
0.7499104483000751
 40
0.8130219588119032
 40
0.8761526739023383
 40
0.9071476425066969
 40
0.9380715650578578
 40
0.9689978778019969
 40
0.9999999999999999
 40
0.9999999999999999
 40
0.9999999999999999
 40
0.9999999999999999
 10
652.8106606376431
 20
545.0489892430206
 30
0.0
 10
652.9527143539747
 20
545.0479996734651
 30
0.0
 10
653.2365755311623
 20
545.0460222498102
 30
0.0
 10
653.6618322459275
 20
545.0299863552924
 30
0.0
 10
654.086100717103
 20
545.0043756081353
 30
0.0
 10
654.509380357182
 20
544.968256628648
 30
0.0
 10
654.9316714036074
 20
544.9218787785652
 30
0.0
 10
655.3529708034418
 20
544.865176836782
 30
0.0
 10
655.7732878837381
 20
544.7981628627733
 30
0.0
 10
656.6208932422928
 20
544.6418851004732
 30
0.0
 10
657.8830667064514
 20
544.3281543248472
 30
0.0
 10
659.5183192169379
 20
543.7432866204384
 30
0.0
 10
661.0885679521065
 20
543.0003222198184
 30
0.0
 10
663.0522640026677
 20
541.8189743368746
 30
0.0
 10
665.2635296946177
 20
540.001857653845
 30
0.0
 10
667.0805320451663
 20
537.790730070844
 30
0.0
 10
668.2619123504604
 20
535.8270511388195
 30
0.0
 10
669.0048122232648
 20
534.2569793212105
 30
0.0
 10
669.5898168339536
 20
532.6215401376473
 30
0.0
 10
669.9376598348872
 20
531.2216511671255
 30
0.0
 10
670.1320305018417
 20
530.0927393923965
 30
0.0
 10
670.2346158551456
 20
529.2484457981927
 30
0.0
 10
670.2988111010934
 20
528.4000787843129
 30
0.0
 10
670.3067075699826
 20
527.8329171863427
 30
0.0
 10
670.310660637643
 20
527.5489892430206
 30
0.0
  0
LINE
  5
85
330
1F
100
AcDbEntity
  8
0
  6
Continuous
 62
     7
370
    25
100
AcDbLine
 10
342.8106594456
 20
545.0489898391
 30
0.0
 11
652.8106618297
 21
545.0489898391
 31
0.0
  0
SPLINE
  5
86
330
1F
100
AcDbEntity
  8
0
  6
Continuous
 62
     7
370
    25
100
AcDbSpline
210
0.0
220
0.0
230
1.0
 70
     8
 71
     3
 72
    29
 73
    25
 74
     0
 42
0.000000001
 43
0.00000001
 40
0.0
 40
0.0
 40
0.0
 40
0.0
 40
0.0155120431059478
 40
0.0309971955001817
 40
0.0464645939614897
 40
0.0619234067485528
 40
0.0773828173953505
 40
0.0928520083710782
 40
0.1083401447495156
 40
0.1238563580326247
 40
0.186967868079238
 40
0.2500985827000597
 40
0.3132100932037237
 40
0.3763408083021626
 40
0.5000045159674491
 40
0.623668223632737
 40
0.6867797336808522
 40
0.7499104483000262
 40
0.8130219588102602
 40
0.8761526739023222
 40
0.907147642506686
 40
0.9380715650578498
 40
0.9689978778019949
 40
1.0
 40
1.0
 40
1.0
 40
1.0
 10
325.310660637643
 20
527.5489892430206
 30
0.0
 10
325.3116502071986
 20
527.6910429593487
 30
0.0
 10
325.3136276308535
 20
527.9749041365302
 30
0.0
 10
325.3296635253713
 20
528.4001608512878
 30
0.0
 10
325.3552742725285
 20
528.8244293224589
 30
0.0
 10
325.3913932520157
 20
529.2477089625362
 30
0.0
 10
325.4377711020986
 20
529.6700000089631
 30
0.0
 10
325.494473043882
 20
530.091299408802
 30
0.0
 10
325.5614870178903
 20
530.5116164891061
 30
0.0
 10
325.7177647802118
 20
531.359221847781
 30
0.0
 10
326.0314955557895
 20
532.621395311958
 30
0.0
 10
326.6163632602891
 20
534.25664782248
 30
0.0
 10
327.3593276609529
 20
535.8268965574933
 30
0.0
 10
328.5406755437832
 20
537.7905926081186
 30
0.0
 10
330.3577922268372
 20
540.0018582999805
 30
0.0
 10
332.5689198098382
 20
541.8188606505864
 30
0.0
 10
334.5325987418956
 20
543.0002409558265
 30
0.0
 10
336.1026705594736
 20
543.7431408286559
 30
0.0
 10
337.738109743001
 20
544.328145439332
 30
0.0
 10
339.1379987135237
 20
544.6759884402616
 30
0.0
 10
340.2669104882672
 20
544.8703591072194
 30
0.0
 10
341.1112040824709
 20
544.9729444605231
 30
0.0
 10
341.9595710963509
 20
545.0371397064711
 30
0.0
 10
342.5267326943209
 20
545.0450361753601
 30
0.0
 10
342.810660637643
 20
545.0489892430206
 30
0.0
  0
LINE
  5
87
330
1F
100
AcDbEntity
  8
0
  6
Continuous
 62
     7
370
    25
100
AcDbLine
 10
325.3106612337
 20
157.5489868588
 30
0.0
 11
325.3106612337
 21
527.5489916272
 31
0.0
  0
SPLINE
  5
88
330
1F
100
AcDbEntity
  8
0
  6
Continuous
 62
     7
370
    25
100
AcDbSpline
210
0.0
220
0.0
230
1.0
 70
     8
 71
     3
 72
    29
 73
    25
 74
     0
 42
0.000000001
 43
0.00000001
 40
0.0
 40
0.0
 40
0.0
 40
0.0
 40
0.0145955711837592
 40
0.0291688399713641
 40
0.0437274228249631
 40
0.0582789592671402
 40
0.0728310999180776
 40
0.0873914944455242
 40
0.1019677795222811
 40
0.1165675668856796
 40
0.1783208701529852
 40
0.2400932645303148
 40
0.3044207645012491
 40
0.3687674328824381
 40
0.5000037599882451
 40
0.631240087094052
 40
0.6955675886135484
 40
0.7599142585322222
 40
0.8216675605118633
 40
0.8834399540105787
 40
0.9126069404607794
 40
0.9417151533829772
 40
0.9708257819161533
 40
1.0
 40
1.0
 40
1.0
 40
1.0
 10
342.810660637643
 20
140.0489892430206
 30
0.0
 10
342.6770098625335
 20
140.0498661682394
 30
0.0
 10
342.4099125340262
 20
140.0516186787132
 30
0.0
 10
342.0097111320781
 20
140.0658262996825
 30
0.0
 10
341.6103304925269
 20
140.0885157932258
 30
0.0
 10
341.2117710784239
 20
140.1205145850393
 30
0.0
 10
340.8140326035098
 20
140.1616015461557
 30
0.0
 10
340.417117734198
 20
140.2118346750875
 30
0.0
 10
340.02101804453
 20
140.2712027217715
 30
0.0
 10
339.2006007195947
 20
140.4133652156603
 30
0.0
 10
337.9672296866
 20
140.7036165196919
 30
0.0
 10
336.3368422022359
 20
141.2598682447435
 30
0.0
 10
334.7467891393753
 20
141.9836039980638
 30
0.0
 10
332.6889143707918
 20
143.1857764032839
 30
0.0
 10
330.3477935516797
 20
145.086122934756
 30
0.0
 10
328.4475614073682
 20
147.4271055199384
 30
0.0
 10
327.245352879747
 20
149.4849613864019
 30
0.0
 10
326.5216797341946
 20
151.0748390405453
 30
0.0
 10
325.9652987859112
 20
152.7054118673253
 30
0.0
 10
325.6445663598315
 20
154.0687658578776
 30
0.0
 10
325.4689032970508
 20
155.1542144660666
 30
0.0
 10
325.3780341119588
 20
155.9494441962015
 30
0.0
 10
325.3211636023457
 20
156.7480777446306
 30
0.0
 10
325.3141641713683
 20
157.2818246352145
 30
0.0
 10
325.310660637643
 20
157.5489892430206
 30
0.0
  0
LINE
  5
89
330
1F
100
AcDbEntity
  8
0
  6
Continuous
 62
     7
370
    25
100
AcDbLine
 10
652.8106618297
 20
140.048988647
 30
0.0
 11
342.8106594456
 21
140.048988647
 31
0.0
  0
SPLINE
  5
8A
330
1F
100
AcDbEntity
  8
0
  6
Continuous
 62
     7
370
    25
100
AcDbSpline
210
0.0
220
0.0
230
1.0
 70
     8
 71
     3
 72
    29
 73
    25
 74
     0
 42
0.000000001
 43
0.00000001
 40
0.0
 40
0.0
 40
0.0
 40
0.0
 40
0.0145955711887273
 40
0.029168839979879
 40
0.0437274228356047
 40
0.0582789592784892
 40
0.0728310999287204
 40
0.0873914944540554
 40
0.1019677795273012
 40
0.1165675668858061
 40
0.1783208701619381
 40
0.2400932645303148
 40
0.304420764496421
 40
0.3687674328824416
 40
0.5000037599882518
 40
0.6312400870940617
 40
0.6955675886155934
 40
0.7599142585322296
 40
0.821667560519452
 40
0.8834399540106466
 40
0.912606940465847
 40
0.9417151533897249
 40
0.9708257819212185
 40
1.0
 40
1.0
 40
1.0
 40
1.0
 10
670.310660637643
 20
157.5489892430206
 30
0.0
 10
670.3097837124244
 20
157.4153384678656
 30
0.0
 10
670.3080312019507
 20
157.1482411392804
 30
0.0
 10
670.2938235809821
 20
156.7480397372346
 30
0.0
 10
670.2711340874392
 20
156.348659097625
 30
0.0
 10
670.239135295626
 20
155.9500996835025
 30
0.0
 10
670.1980483345102
 20
155.5523612086077
 30
0.0
 10
670.1478152055787
 20
155.1554463393542
 30
0.0
 10
670.0884471588961
 20
154.7593466497833
 30
0.0
 10
669.9462846649508
 20
153.9389293248537
 30
0.0
 10
669.6560333608982
 20
152.7055582919145
 30
0.0
 10
669.0997816359145
 20
151.0751708075759
 30
0.0
 10
668.3760458826167
 20
149.4851177447937
 30
0.0
 10
667.17387347741
 20
147.4272429762031
 30
0.0
 10
665.273526945907
 20
145.0861221570576
 30
0.0
 10
662.9325443607112
 20
143.1858900127338
 30
0.0
 10
660.8746884942448
 20
141.9836814851159
 30
0.0
 10
659.2848108400357
 20
141.2600083395429
 30
0.0
 10
657.6542380132781
 20
140.7036273912481
 30
0.0
 10
656.2908840226752
 20
140.3828949651755
 30
0.0
 10
655.2054354144874
 20
140.2072319024365
 30
0.0
 10
654.4102056843072
 20
140.1163627173404
 30
0.0
 10
653.6115721359248
 20
140.0594922077251
 30
0.0
 10
653.0778252454027
 20
140.0524927767464
 30
0.0
 10
652.8106606376431
 20
140.0489892430206
 30
0.0
  0
LINE
  5
8B
330
1F
100
AcDbEntity
  8
0
  6
Continuous
 62
     7
370
    25
100
AcDbLine
 10
670.3106600416
 20
527.5489916272
 30
0.0
 11
670.3106600416
 21
157.5489868588
 31
0.0
  0
CIRCLE
  5
8C
330
1F
100
AcDbEntity
  8
0
  6
Continuous
 62
     7
370
    25
100
AcDbCircle
 10
497.8106606376
 20
582.548989243
 30
0.0
 40
17.5
  0
LINE
  5
8D
330
1F
100
AcDbEntity
  8
0
  6
Continuous
 62
     7
370
    25
100
AcDbLine
 10
682.8106630218
 20
622.0489968724
 30
0.0
 11
312.8106582535
 21
622.0489968724
 31
0.0
  0
ARC
  5
8E
330
1F
100
AcDbEntity
  8
0
  6
Continuous
 62
     7
370
    25
100
AcDbCircle
 10
682.8106606366
 20
612.548989239
 30
0.0
 40
9.500000003500077
100
AcDbArc
 50
0.0000000229
 51
89.9999999943
  0
LINE
  5
8F
330
1F
100
AcDbEntity
  8
0
  6
Continuous
 62
     7
370
    25
100
AcDbLine
 10
692.3106599224
 20
127.5489856667
 30
0.0
 11
692.3106599224
 21
612.5489999719
 31
0.0
  0
ARC
  5
90
330
1F
100
AcDbEntity
  8
0
  6
Continuous
 62
     7
370
    25
100
AcDbCircle
 10
682.8106606336
 20
127.548989244
 30
0.0
 40
9.500000003500077
100
AcDbArc
 50
270.0000000181
 51
359.999999994
  0
LINE
  5
91
330
1F
100
AcDbEntity
  8
0
  6
Continuous
 62
     7
370
    25
100
AcDbLine
 10
312.8106582535
 20
118.0489887662
 30
0.0
 11
682.8106630218
 21
118.0489887662
 31
0.0
  0
ARC
  5
92
330
1F
100
AcDbEntity
  8
0
  6
Continuous
 62
     7
370
    25
100
AcDbCircle
 10
312.8106606386
 20
127.548989247
 30
0.0
 40
9.500000004
100
AcDbArc
 50
180.0000000229
 51
269.9999999943
  0
LINE
  5
93
330
1F
100
AcDbEntity
  8
0
  6
Continuous
 62
     7
370
    25
100
AcDbLine
 10
303.3106613529
 20
612.5489999719
 30
0.0
 11
303.3106613529
 21
127.5489856667
 31
0.0
  0
ARC
  5
94
330
1F
100
AcDbEntity
  8
0
  6
Continuous
 62
     7
370
    25
100
AcDbCircle
 10
312.8106606416
 20
612.548989242
 30
0.0
 40
9.500000003499906
100
AcDbArc
 50
90.0000000229
 51
179.999999994
  0
LINE
  5
95
330
1F
100
AcDbEntity
  8
0
  6
Continuous
 62
     7
370
    25
100
AcDbLine
 10
342.8106594456
 20
545.0489898391
 30
0.0
 11
342.8106594456
 21
542.5489922233
 31
0.0
  0
LINE
  5
96
330
1F
100
AcDbEntity
  8
0
  6
Continuous
 62
     7
370
    25
100
AcDbLine
 10
652.8106618297
 20
545.0489898391
 30
0.0
 11
652.8106618297
 21
542.5489922233
 31
0.0
  0
LINE
  5
97
330
1F
100
AcDbEntity
  8
0
  6
Continuous
 62
     7
370
    25
100
AcDbLine
 10
342.8106594456
 20
542.5489922233
 30
0.0
 11
652.8106618297
 21
542.5489922233
 31
0.0
  0
LINE
  5
98
330
1F
100
AcDbEntity
  8
0
  6
Continuous
 62
     7
370
    25
100
AcDbLine
 10
325.3106612337
 20
157.5489868588
 30
0.0
 11
327.8106588495
 21
157.5489868588
 31
0.0
  0
LINE
  5
99
330
1F
100
AcDbEntity
  8
0
  6
Continuous
 62
     7
370
    25
100
AcDbLine
 10
325.3106612337
 20
527.5489916272
 30
0.0
 11
327.8106588495
 21
527.5489916272
 31
0.0
  0
LINE
  5
9A
330
1F
100
AcDbEntity
  8
0
  6
Continuous
 62
     7
370
    25
100
AcDbLine
 10
327.8106588495
 20
157.5489868588
 30
0.0
 11
327.8106588495
 21
527.5489916272
 31
0.0
  0
LINE
  5
9B
330
1F
100
AcDbEntity
  8
0
  6
Continuous
 62
     7
370
    25
100
AcDbLine
 10
670.3106600416
 20
157.5489868588
 30
0.0
 11
667.8106624258
 21
157.5489868588
 31
0.0
  0
LINE
  5
9C
330
1F
100
AcDbEntity
  8
0
  6
Continuous
 62
     7
370
    25
100
AcDbLine
 10
667.8106624258
 20
527.5489916272
 30
0.0
 11
667.8106624258
 21
157.5489868588
 31
0.0
  0
LINE
  5
9D
330
1F
100
AcDbEntity
  8
0
  6
Continuous
 62
     7
370
    25
100
AcDbLine
 10
670.3106600416
 20
527.5489916272
 30
0.0
 11
667.8106624258
 21
527.5489916272
 31
0.0
  0
LINE
  5
9E
330
1F
100
AcDbEntity
  8
0
  6
Continuous
 62
     7
370
    25
100
AcDbLine
 10
652.8106618297
 20
142.5489862628
 30
0.0
 11
652.8106618297
 21
140.048988647
 31
0.0
  0
LINE
  5
9F
330
1F
100
AcDbEntity
  8
0
  6
Continuous
 62
     7
370
    25
100
AcDbLine
 10
342.8106594456
 20
140.048988647
 30
0.0
 11
342.8106594456
 21
142.5489862628
 31
0.0
  0
LINE
  5
A0
330
1F
100
AcDbEntity
  8
0
  6
Continuous
 62
     7
370
    25
100
AcDbLine
 10
652.8106618297
 20
142.5489862628
 30
0.0
 11
342.8106594456
 21
142.5489862628
 31
0.0
  0
ARC
  5
A1
330
1F
100
AcDbEntity
  8
0
  6
Continuous
 62
     7
370
    25
100
AcDbCircle
 10
652.8106606376
 20
527.548989243
 30
0.0
 40
15.0
100
AcDbArc
 50
0.0
 51
90.0
  0
ARC
  5
A2
330
1F
100
AcDbEntity
  8
0
  6
Continuous
 62
     7
370
    25
100
AcDbCircle
 10
342.8106606376
 20
527.548989243
 30
0.0
 40
15.0
100
AcDbArc
 50
90.0
 51
180.0
  0
ARC
  5
A3
330
1F
100
AcDbEntity
  8
0
  6
Continuous
 62
     7
370
    25
100
AcDbCircle
 10
342.8106606376
 20
157.548989243
 30
0.0
 40
14.99999999999997
100
AcDbArc
 50
180.0
 51
270.0
  0
ARC
  5
A4
330
1F
100
AcDbEntity
  8
0
  6
Continuous
 62
     7
370
    25
100
AcDbCircle
 10
652.8106606376
 20
157.548989243
 30
0.0
 40
15.0
100
AcDbArc
 50
270.0
 51
0.0
  0
LINE
  5
A5
330
1F
100
AcDbEntity
  8
0
  6
Continuous
 62
     7
370
    25
100
AcDbLine
 10
303.3106613529
 20
612.5489999719
 30
0.0
 11
302.8106677902
 21
612.5489999719
 31
0.0
  0
ARC
  5
A6
330
1F
100
AcDbEntity
  8
0
  6
Continuous
 62
     7
370
    25
100
AcDbCircle
 10
312.8106606416
 20
612.548989242
 30
0.0
 40
10.0000000039999
100
AcDbArc
 50
90.0000000229
 51
179.9999999943
  0
LINE
  5
A7
330
1F
100
AcDbEntity
  8
0
  6
Continuous
 62
     7
370
    25
100
AcDbLine
 10
312.8106582535
 20
622.0489968724
 30
0.0
 11
312.8106582535
 21
622.5489904351
 31
0.0
  0
ARC
  5
A8
330
1F
100
AcDbEntity
  8
0
  6
Continuous
 62
     7
370
    25
100
AcDbCircle
 10
682.8106606366
 20
612.548989239
 30
0.0
 40
10.00000000400019
100
AcDbArc
 50
0.0000000229
 51
89.9999999943
  0
LINE
  5
A9
330
1F
100
AcDbEntity
  8
0
  6
Continuous
 62
     7
370
    25
100
AcDbLine
 10
692.8106534851
 20
612.5489999719
 30
0.0
 11
692.3106599224
 21
612.5489999719
 31
0.0
  0
LINE
  5
AA
330
1F
100
AcDbEntity
  8
0
  6
Continuous
 62
     7
370
    25
100
AcDbLine
 10
682.8106630218
 20
622.0489968724
 30
0.0
 11
682.8106630218
 21
622.5489904351
 31
0.0
  0
LINE
  5
AB
330
1F
100
AcDbEntity
  8
0
  6
Continuous
 62
     7
370
    25
100
AcDbLine
 10
312.8106582535
 20
622.5489904351
 30
0.0
 11
682.8106630218
 21
622.5489904351
 31
0.0
  0
LINE
  5
AC
330
1F
100
AcDbEntity
  8
0
  6
Continuous
 62
     7
370
    25
100
AcDbLine
 10
303.3106613529
 20
127.5489856667
 30
0.0
 11
302.8106677902
 21
127.5489856667
 31
0.0
  0
LINE
  5
AD
330
1F
100
AcDbEntity
  8
0
  6
Continuous
 62
     7
370
    25
100
AcDbLine
 10
302.8106677902
 20
127.5489856667
 30
0.0
 11
302.8106677902
 21
612.5489999719
 31
0.0
  0
LINE
  5
AE
330
1F
100
AcDbEntity
  8
0
  6
Continuous
 62
     7
370
    25
100
AcDbLine
 10
692.8106534851
 20
612.5489999719
 30
0.0
 11
692.8106534851
 21
127.5489856667
 31
0.0
  0
LINE
  5
AF
330
1F
100
AcDbEntity
  8
0
  6
Continuous
 62
     7
370
    25
100
AcDbLine
 10
692.8106534851
 20
127.5489856667
 30
0.0
 11
692.3106599224
 21
127.5489856667
 31
0.0
  0
ARC
  5
B0
330
1F
100
AcDbEntity
  8
0
  6
Continuous
 62
     7
370
    25
100
AcDbCircle
 10
312.8106606386
 20
127.548989247
 30
0.0
 40
10.00000000399994
100
AcDbArc
 50
180.0000000229
 51
269.9999999943
  0
LINE
  5
B1
330
1F
100
AcDbEntity
  8
0
  6
Continuous
 62
     7
370
    25
100
AcDbLine
 10
312.8106582535
 20
117.5489952035
 30
0.0
 11
312.8106582535
 21
118.0489887662
 31
0.0
  0
ARC
  5
B2
330
1F
100
AcDbEntity
  8
0
  6
Continuous
 62
     7
370
    25
100
AcDbCircle
 10
682.8106606336
 20
127.548989244
 30
0.0
 40
10.00000000349996
100
AcDbArc
 50
270.0000000172
 51
359.9999999943
  0
LINE
  5
B3
330
1F
100
AcDbEntity
  8
0
  6
Continuous
 62
     7
370
    25
100
AcDbLine
 10
682.8106630218
 20
117.5489952035
 30
0.0
 11
682.8106630218
 21
118.0489887662
 31
0.0
  0
LINE
  5
B4
330
1F
100
AcDbEntity
  8
0
  6
Continuous
 62
     7
370
    25
100
AcDbLine
 10
682.8106630218
 20
117.5489952035
 30
0.0
 11
312.8106582535
 21
117.5489952035
 31
0.0
  0
SPLINE
  5
B5
330
1F
100
AcDbEntity
  8
0
  6
Continuous
 62
     7
370
    25
100
AcDbSpline
210
0.0
220
0.0
230
1.0
 70
     8
 71
     3
 72
    14
 73
    10
 74
     0
 42
0.000000001
 43
0.00000001
 40
0.0
 40
0.0
 40
0.0
 40
0.0
 40
0.25
 40
0.25
 40
0.5
 40
0.5
 40
0.75
 40
0.75
 40
1.0
 40
1.0
 40
1.0
 40
1.0
 10
667.8106606376431
 20
527.5489892430206
 30
0.0
 10
667.8106606384764
 20
527.5824543473627
 30
0.0
 10
667.4434582276203
 20
527.6159078561503
 30
0.0
 10
666.0268448934568
 20
527.6780395637143
 30
0.0
 10
664.9779362566046
 20
527.706695954755
 30
0.0
 10
662.3478590967865
 20
527.755119770571
 30
0.0
 10
660.7676277151564
 20
527.7748699420799
 30
0.0
 10
657.3012307842101
 20
527.8026424486712
 30
0.0
 10
655.4162817240698
 20
527.8106549477053
 30
0.0
 10
653.5134669825626
 20
527.8122243831181
 30
0.0
  0
SPLINE
  5
B6
330
1F
100
AcDbEntity
  8
0
  6
Continuous
 62
     7
370
    25
100
AcDbSpline
210
0.0
220
0.0
230
1.0
 70
     8
 71
     3
 72
    14
 73
    10
 74
     0
 42
0.000000001
 43
0.00000001
 40
0.0
 40
0.0
 40
0.0
 40
0.0
 40
0.25
 40
0.25
 40
0.5
 40
0.5
 40
0.75
 40
0.75
 40
1.0
 40
1.0
 40
1.0
 40
1.0
 10
653.5134654070147
 20
527.8122244172907
 30
0.0
 10
653.5118687441217
 20
529.7534834447126
 30
0.0
 10
653.4923913810062
 20
531.6873176513545
 30
0.0
 10
653.4205490049494
 20
535.254983929807
 30
0.0
 10
653.3682114796046
 20
536.8874647807371
 30
0.0
 10
653.2384178573842
 20
539.6090429793854
 30
0.0
 10
653.1610116986307
 20
540.6970931959474
 30
0.0
 10
652.9925927480995
 20
542.1673477131295
 30
0.0
 10
652.901643748341
 20
542.548989241354
 30
0.0
 10
652.8106606566431
 20
542.5489892430206
 30
0.0
  0
SPLINE
  5
B7
330
1F
100
AcDbEntity
  8
0
  6
Continuous
 62
     7
370
    25
100
AcDbSpline
210
0.0
220
0.0
230
1.0
 70
     8
 71
     3
 72
    14
 73
    10
 74
     0
 42
0.000000001
 43
0.00000001
 40
0.0
 40
0.0
 40
0.0
 40
0.0
 40
0.25
 40
0.25
 40
0.5
 40
0.5
 40
0.75
 40
0.75
 40
1.0
 40
1.0
 40
1.0
 40
1.0
 10
652.8106606376431
 20
142.5489892430206
 30
0.0
 10
652.8329360243097
 20
142.5489892430206
 30
0.0
 10
652.8552032578879
 20
142.9260869282862
 30
0.0
 10
652.8964757966638
 20
144.3794773989894
 30
0.0
 10
652.915465834018
 20
145.4552269329789
 30
0.0
 10
652.947385937768
 20
148.1481029275623
 30
0.0
 10
652.9603040122159
 20
149.7642177104165
 30
0.0
 10
652.9781740831795
 20
153.3002757785154
 30
0.0
 10
652.9831194044764
 20
155.218911147854
 30
0.0
 10
652.983714398643
 20
157.1483252570206
 30
0.0
  0
SPLINE
  5
B8
330
1F
100
AcDbEntity
  8
0
  6
Continuous
 62
     7
370
    25
100
AcDbSpline
210
0.0
220
0.0
230
1.0
 70
     8
 71
     3
 72
    14
 73
    10
 74
     0
 42
0.000000001
 43
0.00000001
 40
0.0
 40
0.0
 40
0.0
 40
0.0
 40
0.25
 40
0.25
 40
0.5
 40
0.5
 40
0.75
 40
0.75
 40
1.0
 40
1.0
 40
1.0
 40
1.0
 10
652.983720769643
 20
157.1483285070206
 30
0.0
 10
654.9326644588014
 20
157.1489291945206
 30
0.0
 10
656.8764288558917
 20
157.1598036066351
 30
0.0
 10
660.464808405961
 20
157.2004832276245
 30
0.0
 10
662.1080433240767
 20
157.2302726267702
 30
0.0
 10
664.8485024436671
 20
157.3043266342699
 30
0.0
 10
665.9446557091928
 20
157.3485623030407
 30
0.0
 10
667.4260227517801
 20
157.4448798177806
 30
0.0
 10
667.8106606368098
 20
157.4969246145204
 30
0.0
 10
667.8106606376431
 20
157.5489892220206
 30
0.0
  0
SPLINE
  5
B9
330
1F
100
AcDbEntity
  8
0
  6
Continuous
 62
     7
370
    25
100
AcDbSpline
210
0.0
220
0.0
230
1.0
 70
     8
 71
     3
 72
    14
 73
    10
 74
     0
 42
0.000000001
 43
0.00000001
 40
0.0
 40
0.0
 40
0.0
 40
0.0
 40
0.25
 40
0.25
 40
0.5
 40
0.5
 40
0.75
 40
0.75
 40
1.0
 40
1.0
 40
1.0
 40
1.0
 10
327.810660637643
 20
157.5489892430206
 30
0.0
 10
327.810660637643
 20
157.5000466505209
 30
0.0
 10
328.1927139948165
 20
157.4511224357086
 30
0.0
 10
329.664496240172
 20
157.3605323932088
 30
0.0
 10
330.7536605652087
 20
157.3189009515213
 30
0.0
 10
333.4778360010352
 20
157.249109386521
 30
0.0
 10
335.1117967295759
 20
157.2209761732502
 30
0.0
 10
338.682316038699
 20
157.182385799604
 30
0.0
 10
340.6175194323013
 20
157.1719434360206
 30
0.0
 10
342.559840600643
 20
157.1711250510206
 30
0.0
  0
SPLINE
  5
BA
330
1F
100
AcDbEntity
  8
0
  6
Continuous
 62
     7
370
    25
100
AcDbSpline
210
0.0
220
0.0
230
1.0
 70
     8
 71
     3
 72
    14
 73
    10
 74
     0
 42
0.000000001
 43
0.00000001
 40
0.0
 40
0.0
 40
0.0
 40
0.0
 40
0.25
 40
0.25
 40
0.5
 40
0.5
 40
0.75
 40
0.75
 40
1.0
 40
1.0
 40
1.0
 40
1.0
 10
342.559843737643
 20
157.1711234730206
 30
0.0
 10
342.5606578118097
 20
155.2397333155289
 30
0.0
 10
342.5677896546845
 20
153.3185711980633
 30
0.0
 10
342.5936467593201
 20
149.7772662340355
 30
0.0
 10
342.6123623233927
 20
148.1584384115864
 30
0.0
 10
342.6586354258927
 20
145.4608070219962
 30
0.0
 10
342.686175511278
 20
144.3830209454289
 30
0.0
 10
342.746041472476
 20
142.9268388314877
 30
0.0
 10
342.7783451153096
 20
142.5489892446872
 30
0.0
 10
342.8106606286431
 20
142.5489892430206
 30
0.0
  0
SPLINE
  5
BB
330
1F
100
AcDbEntity
  8
0
  6
Continuous
 62
     7
370
    25
100
AcDbSpline
210
0.0
220
0.0
230
1.0
 70
     8
 71
     3
 72
    14
 73
    10
 74
     0
 42
0.000000001
 43
0.00000001
 40
0.0
 40
0.0
 40
0.0
 40
0.0
 40
0.25
 40
0.25
 40
0.5
 40
0.5
 40
0.75
 40
0.75
 40
1.0
 40
1.0
 40
1.0
 40
1.0
 10
342.810660637643
 20
542.5489892430206
 30
0.0
 10
342.72734525931
 20
542.5489892430206
 30
0.0
 10
342.6440597466177
 20
542.1758435193316
 30
0.0
 10
342.4895649526858
 20
540.7371325442105
 30
0.0
 10
342.4184116466858
 20
539.6720939313299
 30
0.0
 10
342.298557667102
 20
537.0042502292533
 30
0.0
 10
342.2499010864873
 20
535.4024266132127
 30
0.0
 10
342.1821460864089
 20
531.894053527449
 30
0.0
 10
342.1630724484764
 20
529.9887749873623
 30
0.0
 10
342.160179392643
 20
528.0698514240206
 30
0.0
  0
SPLINE
  5
BC
330
1F
100
AcDbEntity
  8
0
  6
Continuous
 62
     7
370
    25
100
AcDbSpline
210
0.0
220
0.0
230
1.0
 70
     8
 71
     3
 72
    14
 73
    10
 74
     0
 42
0.000000001
 43
0.00000001
 40
0.0
 40
0.0
 40
0.0
 40
0.0
 40
0.25
 40
0.25
 40
0.5
 40
0.5
 40
0.75
 40
0.75
 40
1.0
 40
1.0
 40
1.0
 40
1.0
 10
342.160176363643
 20
528.0698474980206
 30
0.0
 10
340.252701090318
 20
528.0669697655208
 30
0.0
 10
338.3618922396753
 20
528.051283165474
 30
0.0
 10
334.8834156733558
 20
527.9965317780524
 30
0.0
 10
333.2969799138755
 20
527.9574865638131
 30
0.0
 10
330.6560574359519
 20
527.8616264467298
 30
0.0
 10
329.6025204390409
 20
527.8048460170216
 30
0.0
 10
328.1795674443705
 20
527.6816854764744
 30
0.0
 10
327.8106606393097
 20
527.6153489925209
 30
0.0
 10
327.810660637643
 20
527.5489892500207
 30
0.0
  0
SPLINE
  5
BD
330
1F
100
AcDbEntity
  8
0
  6
Continuous
 62
     7
370
    25
100
AcDbSpline
210
0.0
220
0.0
230
1.0
 70
     8
 71
     3
 72
    12
 73
     8
 74
     0
 42
0.000000001
 43
0.00000001
 40
0.0
 40
0.0
 40
0.0
 40
0.0
 40
0.4999999999999999
 40
0.4999999999999999
 40
0.7499999999999999
 40
0.7499999999999999
 40
1.0
 40
1.0
 40
1.0
 40
1.0
 10
652.983714398643
 20
157.1483252570206
 30
0.0
 10
652.0027388902512
 20
157.137524317358
 30
0.0
 10
651.0052651154679
 20
157.1265917481658
 30
0.0
 10
649.5012502066288
 20
157.1092754729331
 30
0.0
 10
648.9986996620319
 20
157.103349145574
 30
0.0
 10
647.9952076948733
 20
157.0910257054371
 30
0.0
 10
647.4928890602853
 20
157.0846116276865
 30
0.0
 10
646.9952575716662
 20
157.0778717135523
 30
0.0
  0
SPLINE
  5
BE
330
1F
100
AcDbEntity
  8
0
  6
Continuous
 62
     7
370
    25
100
AcDbSpline
210
0.0
220
0.0
230
1.0
 70
     8
 71
     3
 72
    24
 73
    20
 74
     0
 42
0.000000001
 43
0.00000001
 40
0.0
 40
0.0
 40
0.0
 40
0.0
 40
0.0312499999999999
 40
0.0312499999999999
 40
0.0624999999999998
 40
0.0624999999999998
 40
0.0937499999999997
 40
0.0937499999999997
 40
0.1249999999999996
 40
0.1249999999999996
 40
0.2499999999999989
 40
0.2499999999999989
 40
0.3749999999999982
 40
0.3749999999999982
 40
0.4999999999999974
 40
0.4999999999999974
 40
0.7499999999999987
 40
0.7499999999999987
 40
1.0
 40
1.0
 40
1.0
 40
1.0
 10
653.8346723446431
 20
187.4631663800206
 30
0.0
 10
653.7784312337806
 20
187.204139760136
 30
0.0
 10
653.7334240825543
 20
186.9082355002425
 30
0.0
 10
653.6577664746336
 20
186.2907689226922
 30
0.0
 10
653.6267415165175
 20
185.9689379168893
 30
0.0
 10
653.5724818850857
 20
185.3149388033272
 30
0.0
 10
653.5491842374735
 20
184.9818369993435
 30
0.0
 10
653.5076487074004
 20
184.3146572167278
 30
0.0
 10
653.4894279750619
 20
183.9800650880513
 30
0.0
 10
653.4065046898323
 20
182.3060487296189
 30
0.0
 10
653.3641260037367
 20
180.9761514915655
 30
0.0
 10
653.2911706688169
 20
178.329139186749
 30
0.0
 10
653.262496868007
 20
177.0184873095366
 30
0.0
 10
653.2118582314117
 20
174.4299348779792
 30
0.0
 10
653.1900598063107
 20
173.1483777168024
 30
0.0
 10
653.13028167669
 20
169.3334797526429
 30
0.0
 10
653.0978694260082
 20
166.8400667652441
 30
0.0
 10
653.0377719609421
 20
161.9342945571267
 30
0.0
 10
653.0103908620174
 20
159.5209766551485
 30
0.0
 10
652.983720769643
 20
157.1483285070206
 30
0.0
  0
SPLINE
  5
BF
330
1F
100
AcDbEntity
  8
0
  6
Continuous
 62
     7
370
    25
100
AcDbSpline
210
0.0
220
0.0
230
1.0
 70
     8
 71
     3
 72
    24
 73
    20
 74
     0
 42
0.000000001
 43
0.00000001
 40
0.0
 40
0.0
 40
0.0
 40
0.0
 40
0.2500000000000031
 40
0.2500000000000031
 40
0.5000000000000061
 40
0.5000000000000061
 40
0.6250000000000057
 40
0.6250000000000057
 40
0.7500000000000051
 40
0.7500000000000051
 40
0.8750000000000047
 40
0.8750000000000047
 40
0.9375000000000046
 40
0.9375000000000046
 40
0.9687500000000046
 40
0.9687500000000046
 40
0.9843750000000022
 40
0.9843750000000022
 40
1.0
 40
1.0
 40
1.0
 40
1.0
 10
342.559840600643
 20
157.1711250510206
 30
0.0
 10
342.5368938811116
 20
158.7366029637651
 30
0.0
 10
342.5134007680047
 20
160.3321114882016
 30
0.0
 10
342.462422937015
 20
163.5860632133997
 30
0.0
 10
342.4350444230286
 20
165.2463534524834
 30
0.0
 10
342.3865107110413
 20
167.7806662986954
 30
0.0
 10
342.3690730419158
 20
168.6326700588914
 30
0.0
 10
342.3298907976051
 20
170.351611029991
 30
0.0
 10
342.3081903971453
 20
171.2189589492107
 30
0.0
 10
342.2569408260562
 20
172.9613597581747
 30
0.0
 10
342.2276171639983
 20
173.8370068842871
 30
0.0
 10
342.1713509662064
 20
175.1414259537713
 30
0.0
 10
342.1505233025674
 20
175.5742009136819
 30
0.0
 10
342.1140801189104
 20
176.2160227756018
 30
0.0
 10
342.1011272264792
 20
176.4282978960426
 30
0.0
 10
342.0801312821247
 20
176.7420120888802
 30
0.0
 10
342.0729154210503
 20
176.845686960907
 30
0.0
 10
342.0573572723755
 20
177.0569855058576
 30
0.0
 10
342.0488660373281
 20
177.1661073086215
 30
0.0
 10
342.040549454643
 20
177.2678819930206
 30
0.0
  0
SPLINE
  5
C0
330
1F
100
AcDbEntity
  8
0
  6
Continuous
 62
     7
370
    25
100
AcDbSpline
210
0.0
220
0.0
230
1.0
 70
     8
 71
     3
 72
    12
 73
     8
 74
     0
 42
0.000000001
 43
0.00000001
 40
0.0
 40
0.0
 40
0.0
 40
0.0
 40
0.25
 40
0.25
 40
0.5
 40
0.5
 40
1.0
 40
1.0
 40
1.0
 40
1.0
 10
352.0235023516431
 20
157.0092717080206
 30
0.0
 10
351.2429572614672
 20
157.0278780657074
 30
0.0
 10
350.4418108049076
 20
157.0445425234574
 30
0.0
 10
348.8427256128308
 20
157.0744672391889
 30
0.0
 10
348.0406607302399
 20
157.0880811524952
 30
0.0
 10
345.6514553791789
 20
157.1265253919068
 30
0.0
 10
344.0812399055785
 20
157.1490971305994
 30
0.0
 10
342.559843737643
 20
157.1711234730206
 30
0.0
  0
SPLINE
  5
C1
330
1F
100
AcDbEntity
  8
0
  6
Continuous
 62
     7
370
    25
100
AcDbSpline
210
0.0
220
0.0
230
1.0
 70
     8
 71
     3
 72
    24
 73
    20
 74
     0
 42
0.000000001
 43
0.00000001
 40
0.0
 40
0.0
 40
0.0
 40
0.0
 40
0.0312500000000001
 40
0.0312500000000001
 40
0.0625000000000003
 40
0.0625000000000003
 40
0.0937500000000004
 40
0.0937500000000004
 40
0.1093750000000005
 40
0.1093750000000005
 40
0.1250000000000005
 40
0.1250000000000005
 40
0.2500000000000004
 40
0.2500000000000004
 40
0.5000000000000002
 40
0.5000000000000002
 40
0.7500000000000001
 40
0.7500000000000001
 40
1.0
 40
1.0
 40
1.0
 40
1.0
 10
646.9952575707721
 20
157.0778717761907
 30
0.0
 10
644.3383345741486
 20
157.0766061244391
 30
0.0
 10
641.6597262239881
 20
157.0753299649105
 30
0.0
 10
636.3283336711362
 20
157.0727930671499
 30
0.0
 10
633.677395081829
 20
157.0715332171405
 30
0.0
 10
628.4538997720517
 20
157.0690570069369
 30
0.0
 10
625.8831883637164
 20
157.0678415348189
 30
0.0
 10
622.0685583433783
 20
157.0660444042211
 30
0.0
 10
620.8029039643258
 20
157.0654492141314
 30
0.0
 10
618.2701428134914
 20
157.0642604442219
 30
0.0
 10
617.0038020632094
 20
157.0636672339133
 30
0.0
 10
605.6071285073117
 20
157.0583402604006
 30
0.0
 10
595.4797627788779
 20
157.0536892305577
 30
0.0
 10
565.1078563808975
 20
157.040234256454
 30
0.0
 10
544.8734377492306
 20
157.0319343511534
 30
0.0
 10
504.4066834476587
 20
157.0180452254348
 30
0.0
 10
484.1738494809393
 20
157.012474114732
 30
0.0
 10
443.7034078955391
 20
157.0051741874775
 30
0.0
 10
423.4607621772684
 20
157.0034806565239
 30
0.0
 10
403.2128560747429
 20
157.0038931532989
 30
0.0
  0
LWPOLYLINE
  5
C2
330
1F
100
AcDbEntity
  8
0
  6
Continuous
 62
     7
370
    25
100
AcDbPolyline
 90
        3
 70
   128
 43
0.0
 10
403.2128590715
 20
157.0038874812
 10
377.6327136529
 20
157.0055117078
 10
352.0234960687
 20
157.0092668004
  0
SPLINE
  5
C3
330
1F
100
AcDbEntity
  8
0
  6
Continuous
 62
     7
370
    25
100
AcDbSpline
210
0.0
220
0.0
230
1.0
 70
     8
 71
     3
 72
    14
 73
    10
 74
     0
 42
0.000000001
 43
0.00000001
 40
0.0
 40
0.0
 40
0.0
 40
0.0
 40
0.5000000000000084
 40
0.5000000000000084
 40
0.7500000000000042
 40
0.7500000000000042
 40
0.8750000000000021
 40
0.8750000000000021
 40
1.0
 40
1.0
 40
1.0
 40
1.0
 10
653.5134669825632
 20
527.8122243831182
 30
0.0
 10
653.527021688154
 20
527.0440513824142
 30
0.0
 10
653.5409290517198
 20
526.2492934755263
 30
0.0
 10
653.5627389515921
 20
525.0343480441297
 30
0.0
 10
653.5701671384237
 20
524.6257225826166
 30
0.0
 10
653.5816065425814
 20
524.01074638152
 30
0.0
 10
653.585469284357
 20
523.8054229523914
 30
0.0
 10
653.5933052605285
 20
523.3947790611373
 30
0.0
 10
653.5973266108144
 20
523.1869872819683
 30
0.0
 10
653.6013611099024
 20
522.982063030973
 30
0.0
  0
SPLINE
  5
C4
330
1F
100
AcDbEntity
  8
0
  6
Continuous
 62
     7
370
    25
100
AcDbSpline
210
0.0
220
0.0
230
1.0
 70
     8
 71
     3
 72
    32
 73
    28
 74
     0
 42
0.000000001
 43
0.00000001
 40
0.0
 40
0.0
 40
0.0
 40
0.0
 40
0.0156249999999998
 40
0.0156249999999998
 40
0.0312499999999997
 40
0.0312499999999997
 40
0.0468749999999995
 40
0.0468749999999995
 40
0.0624999999999994
 40
0.0624999999999994
 40
0.0937499999999994
 40
0.0937499999999994
 40
0.1249999999999994
 40
0.1249999999999994
 40
0.1874999999999994
 40
0.1874999999999994
 40
0.2499999999999994
 40
0.2499999999999994
 40
0.3124999999999995
 40
0.3124999999999995
 40
0.3749999999999996
 40
0.3749999999999996
 40
0.4999999999999996
 40
0.4999999999999996
 40
0.7499999999999998
 40
0.7499999999999998
 40
1.0
 40
1.0
 40
1.0
 40
1.0
 10
622.715961114643
 20
529.4167627860206
 30
0.0
 10
622.7725818981115
 20
529.3645943235372
 30
0.0
 10
622.8504476539192
 20
529.311689803321
 30
0.0
 10
623.0626172905241
 20
529.2083805579748
 30
0.0
 10
623.1963024374638
 20
529.1580014360572
 30
0.0
 10
623.5086696424445
 20
529.0646069245255
 30
0.0
 10
623.6892463888712
 20
529.0208321836714
 30
0.0
 10
624.0651100876821
 20
528.9435094773386
 30
0.0
 10
624.263168722168
 20
528.9090097603461
 30
0.0
 10
624.8653214095815
 20
528.8158429258943
 30
0.0
 10
625.2741157330178
 20
528.7672899741003
 30
0.0
 10
626.0773805843481
 20
528.683954349048
 30
0.0
 10
626.47305801469
 20
528.6493272439137
 30
0.0
 10
627.6413166189905
 20
528.5569512620441
 30
0.0
 10
628.3978610320372
 20
528.510403064427
 30
0.0
 10
629.8632685139349
 20
528.430127290143
 30
0.0
 10
630.5735591055468
 20
528.3967269198673
 30
0.0
 10
631.9746776621761
 20
528.3364844271954
 30
0.0
 10
632.6667848874636
 20
528.3098041784607
 30
0.0
 10
634.0285019636794
 20
528.2610171696099
 30
0.0
 10
634.6981147299556
 20
528.2389279502944
 30
0.0
 10
636.6792845642644
 20
528.1772504311909
 30
0.0
 10
637.9650824138812
 20
528.1420662742207
 30
0.0
 10
641.763192723643
 20
528.0454609634454
 30
0.0
 10
644.1979376605636
 20
527.9932383571129
 30
0.0
 10
648.9435773997461
 20
527.8971468213133
 30
0.0
 10
651.2546717688632
 20
527.8537605850748
 30
0.0
 10
653.5134654070147
 20
527.8122244172907
 30
0.0
  0
SPLINE
  5
C5
330
1F
100
AcDbEntity
  8
0
  6
Continuous
 62
     7
370
    25
100
AcDbSpline
210
0.0
220
0.0
230
1.0
 70
     8
 71
     3
 72
    24
 73
    20
 74
     0
 42
0.000000001
 43
0.00000001
 40
0.0
 40
0.0
 40
0.0
 40
0.0
 40
0.1250000000000001
 40
0.1250000000000001
 40
0.2500000000000002
 40
0.2500000000000002
 40
0.3750000000000002
 40
0.3750000000000002
 40
0.5000000000000001
 40
0.5000000000000001
 40
0.6250000000000001
 40
0.6250000000000001
 40
0.7500000000000001
 40
0.7500000000000001
 40
0.8750000000000002
 40
0.8750000000000002
 40
0.9375000000000001
 40
0.9375000000000001
 40
1.0
 40
1.0
 40
1.0
 40
1.0
 10
653.6013604326154
 20
522.9820630309976
 30
0.0
 10
653.6226757970461
 20
508.9103568062278
 30
0.0
 10
653.6451304411448
 20
494.8605021380044
 30
0.0
 10
653.6911771964242
 20
466.8163470024537
 30
0.0
 10
653.7147726480302
 20
452.821215046479
 30
0.0
 10
653.7611001873736
 20
424.8752444532786
 30
0.0
 10
653.7838307099651
 20
410.9229732906808
 30
0.0
 10
653.8254847719853
 20
383.0583547933298
 30
0.0
 10
653.8443724730085
 20
369.1484405171527
 30
0.0
 10
653.8750730725867
 20
341.3254205839199
 30
0.0
 10
653.886847132301
 20
327.4069789634584
 30
0.0
 10
653.9008906338715
 20
299.5610497607446
 30
0.0
 10
653.9031397733968
 20
285.6394508534777
 30
0.0
 10
653.8979226890232
 20
257.7417379176485
 30
0.0
 10
653.8904738290108
 20
243.7601384293709
 30
0.0
 10
653.873381138627
 20
222.7029872037747
 30
0.0
 10
653.8666965294542
 20
215.6714575010003
 30
0.0
 10
653.8518108359333
 20
201.5846972324149
 30
0.0
 10
653.8435292627532
 20
194.5256886671246
 30
0.0
 10
653.83467956224
 20
187.4631663581531
 30
0.0
  0
SPLINE
  5
C6
330
1F
100
AcDbEntity
  8
0
  6
Continuous
 62
     7
370
    25
100
AcDbSpline
210
0.0
220
0.0
230
1.0
 70
     8
 71
     3
 72
    24
 73
    20
 74
     0
 42
0.000000001
 43
0.00000001
 40
0.0
 40
0.0
 40
0.0
 40
0.0
 40
0.1250000000000001
 40
0.1250000000000001
 40
0.2500000000000002
 40
0.2500000000000002
 40
0.3750000000000002
 40
0.3750000000000002
 40
0.5000000000000002
 40
0.5000000000000002
 40
0.6250000000000002
 40
0.6250000000000002
 40
0.7500000000000002
 40
0.7500000000000002
 40
0.8750000000000003
 40
0.8750000000000003
 40
0.9375000000000001
 40
0.9375000000000001
 40
1.0
 40
1.0
 40
1.0
 40
1.0
 10
342.040549443643
 20
177.2678787660206
 30
0.0
 10
342.0205023503194
 20
191.5835165891184
 30
0.0
 10
341.9992996905021
 20
205.8882109008338
 30
0.0
 10
341.9554162590692
 20
234.4452451998943
 30
0.0
 10
341.9327264012651
 20
248.6991739568245
 30
0.0
 10
341.8873633370761
 20
277.1564312523461
 30
0.0
 10
341.8646882103001
 20
291.3601081499817
 30
0.0
 10
341.8217610664452
 20
319.7050182305133
 30
0.0
 10
341.8015276074469
 20
333.8477758315982
 30
0.0
 10
341.7665162189328
 20
362.1047461208814
 30
0.0
 10
341.7517745378914
 20
376.2192425906046
 30
0.0
 10
341.7306953743313
 20
404.4088935516941
 30
0.0
 10
341.7243799889512
 20
418.4857385216642
 30
0.0
 10
341.7214852475175
 20
446.6603304791811
 30
0.0
 10
341.7249373040431
 20
460.7616589304651
 30
0.0
 10
341.7368988524411
 20
481.9358240121189
 30
0.0
 10
341.741983493388
 20
488.9976216494676
 30
0.0
 10
341.7541182741124
 20
503.132477193508
 30
0.0
 10
341.7611793207107
 20
510.2059918404514
 30
0.0
 10
341.7690120646431
 20
517.2829592470207
 30
0.0
  0
SPLINE
  5
C7
330
1F
100
AcDbEntity
  8
0
  6
Continuous
 62
     7
370
    25
100
AcDbSpline
210
0.0
220
0.0
230
1.0
 70
     8
 71
     3
 72
    14
 73
    10
 74
     0
 42
0.000000001
 43
0.00000001
 40
0.0
 40
0.0
 40
0.0
 40
0.0
 40
0.1249999999999962
 40
0.1249999999999962
 40
0.2499999999999925
 40
0.2499999999999925
 40
0.4999999999999923
 40
0.4999999999999923
 40
1.0
 40
1.0
 40
1.0
 40
1.0
 10
341.769017343643
 20
517.2829552130207
 30
0.0
 10
341.7961820464328
 20
517.7649465553204
 30
0.0
 10
341.8210487888227
 20
518.2571119307856
 30
0.0
 10
341.8665035341218
 20
519.2403546871531
 30
0.0
 10
341.8871819123769
 20
519.7314450713545
 30
0.0
 10
341.9449264867565
 20
521.1855952535376
 30
0.0
 10
341.9775642903865
 20
522.1291465383194
 30
0.0
 10
342.0667198256923
 20
524.8509257272118
 30
0.0
 10
342.1149117280592
 20
526.5199163247871
 30
0.0
 10
342.160176363643
 20
528.0698474980206
 30
0.0
  0
SPLINE
  5
C8
330
1F
100
AcDbEntity
  8
0
  6
Continuous
 62
     7
370
    25
100
AcDbSpline
210
0.0
220
0.0
230
1.0
 70
     8
 71
     3
 72
    24
 73
    20
 74
     0
 42
0.000000001
 43
0.00000001
 40
0.0
 40
0.0
 40
0.0
 40
0.0
 40
0.2499999999999975
 40
0.2499999999999975
 40
0.499999999999995
 40
0.499999999999995
 40
0.7499999999999925
 40
0.7499999999999925
 40
0.8124999999999943
 40
0.8124999999999943
 40
0.8749999999999961
 40
0.8749999999999961
 40
0.937499999999998
 40
0.937499999999998
 40
0.9687499999999967
 40
0.9687499999999967
 40
0.9843749999999982
 40
0.9843749999999982
 40
1.0
 40
1.0
 40
1.0
 40
1.0
 10
342.160179392643
 20
528.0698514240206
 30
0.0
 10
343.2467203019876
 20
528.1020031136228
 30
0.0
 10
344.3724830870001
 20
528.1354794499075
 30
0.0
 10
346.7173322134502
 20
528.208447226398
 30
0.0
 10
347.9373966357446
 20
528.247779183377
 30
0.0
 10
350.5078155008057
 20
528.3402880269492
 30
0.0
 10
351.8569854645845
 20
528.3924810212824
 30
0.0
 10
353.651730139313
 20
528.4814207238604
 30
0.0
 10
354.0161096272357
 20
528.5004906605858
 30
0.0
 10
354.7576044986839
 20
528.5423396890085
 30
0.0
 10
355.1346568049066
 20
528.5651107435027
 30
0.0
 10
355.8947234223008
 20
528.6156263804767
 30
0.0
 10
356.277666681468
 20
528.6433624748292
 30
0.0
 10
356.8466309645427
 20
528.6899347429663
 30
0.0
 10
357.0353336426031
 20
528.7062906738466
 30
0.0
 10
357.3154071984816
 20
528.7322711127609
 30
0.0
 10
357.4072619778641
 20
528.7410817070478
 30
0.0
 10
357.5940585834334
 20
528.7596183046929
 30
0.0
 10
357.696157140289
 20
528.7701567097567
 30
0.0
 10
357.786798301643
 20
528.7798742080206
 30
0.0
  0
SPLINE
  5
C9
330
1F
100
AcDbEntity
  8
0
  6
Continuous
 62
     7
370
    25
100
AcDbSpline
210
0.0
220
0.0
230
1.0
 70
     8
 71
     3
 72
    26
 73
    22
 74
     0
 42
0.000000001
 43
0.00000001
 40
0.0
 40
0.0
 40
0.0
 40
0.0
 40
0.0312499999999998
 40
0.0312499999999998
 40
0.0624999999999996
 40
0.0624999999999996
 40
0.1249999999999997
 40
0.1249999999999997
 40
0.2499999999999997
 40
0.2499999999999997
 40
0.3749999999999997
 40
0.3749999999999997
 40
0.4999999999999998
 40
0.4999999999999998
 40
0.6249999999999998
 40
0.6249999999999998
 40
0.7499999999999999
 40
0.7499999999999999
 40
0.8749999999999999
 40
0.8749999999999999
 40
1.0
 40
1.0
 40
1.0
 40
1.0
 10
357.7867983020783
 20
528.7798741969798
 30
0.0
 10
360.1358075842548
 20
528.7885663710599
 30
0.0
 10
362.4865375775944
 20
528.7974165009665
 30
0.0
 10
367.1706006420674
 20
528.8153322728981
 30
0.0
 10
369.5023592858128
 20
528.8243912684808
 30
0.0
 10
376.483848398253
 20
528.8519287062227
 30
0.0
 10
381.1313729443262
 20
528.8708185138245
 30
0.0
 10
395.0523965061172
 20
528.928999115245
 30
0.0
 10
404.3041490477237
 20
528.9698353948941
 30
0.0
 10
422.7447827347982
 20
529.0544931769418
 30
0.0
 10
431.9335047214604
 20
529.0983307486276
 30
0.0
 10
450.2493926448357
 20
529.1866127905747
 30
0.0
 10
459.3745106054425
 20
529.2310588405057
 30
0.0
 10
477.5674078589631
 20
529.3164357610822
 30
0.0
 10
486.636812522753
 20
529.3573488520273
 30
0.0
 10
504.7493991871328
 20
529.430176561212
 30
0.0
 10
513.792820801467
 20
529.4619965691777
 30
0.0
 10
531.862312829504
 20
529.5108080034232
 30
0.0
 10
540.8885080807772
 20
529.5277567984836
 30
0.0
 10
558.9648309815396
 20
529.543224505093
 30
0.0
 10
568.0173106921862
 20
529.5416263642057
 30
0.0
 10
577.0938569979429
 20
529.5314548531389
 30
0.0
  0
SPLINE
  5
CA
330
1F
100
AcDbEntity
  8
0
  6
Continuous
 62
     7
370
    25
100
AcDbSpline
210
0.0
220
0.0
230
1.0
 70
     8
 71
     3
 72
    31
 73
    27
 74
     0
 42
0.000000001
 43
0.00000001
 40
0.0
 40
0.0
 40
0.0
 40
0.0
 40
0.0312500000000001
 40
0.0312500000000001
 40
0.0625000000000002
 40
0.0625000000000002
 40
0.1250000000000004
 40
0.1250000000000004
 40
0.2500000000000007
 40
0.2500000000000007
 40
0.5000000000000014
 40
0.5000000000000014
 40
0.7500000000000022
 40
0.7500000000000022
 40
0.8750000000000021
 40
0.8750000000000021
 40
0.9062500000000021
 40
0.9218750000000016
 40
0.9218750000000016
 40
0.937500000000001
 40
0.937500000000001
 40
0.9687500000000001
 40
0.9687500000000001
 40
0.9843750000000001
 40
0.9843750000000001
 40
1.0
 40
1.0
 40
1.0
 40
1.0
 10
577.0938620768418
 20
529.5314548771528
 30
0.0
 10
577.5728474089868
 20
529.5309290584023
 30
0.0
 10
578.054064723294
 20
529.5303502677534
 30
0.0
 10
579.0104637482322
 20
529.5291509489577
 30
0.0
 10
579.4849217006403
 20
529.5285334112607
 30
0.0
 10
580.900465200583
 20
529.5266409551672
 30
0.0
 10
581.8433543084147
 20
529.5252906963469
 30
0.0
 10
584.674453108326
 20
529.5209639683846
 30
0.0
 10
586.5630379283086
 20
529.5177181908446
 30
0.0
 10
592.2327325370713
 20
529.506949112527
 30
0.0
 10
596.017810493332
 20
529.4983920172484
 30
0.0
 10
603.5993610315968
 20
529.4788580028021
 30
0.0
 10
607.3957802577543
 20
529.4678819127827
 30
0.0
 10
613.099306433153
 20
529.4498975377118
 30
0.0
 10
615.0019677138492
 20
529.4436497292127
 30
0.0
 10
617.3822613164249
 20
529.4355562740849
 30
0.0
 10
618.0964973338455
 20
529.4331069658652
 30
0.0
 10
618.810959693199
 20
529.4306266808875
 30
0.0
 10
619.287318789687
 20
529.4289663777266
 30
0.0
 10
619.5247998827635
 20
529.4281348465598
 30
0.0
 10
620.2490984138333
 20
529.4255987306126
 30
0.0
 10
620.7523204568628
 20
529.4238387867756
 30
0.0
 10
621.5023845932702
 20
529.4211660484793
 30
0.0
 10
621.750600991822
 20
529.4202724919013
 30
0.0
 10
622.2383259781935
 20
529.4185023860954
 30
0.0
 10
622.4775158507842
 20
529.4176264159764
 30
0.0
 10
622.7159611446426
 20
529.4167628719871
 30
0.0
  0
SPLINE
  5
CB
330
1F
100
AcDbEntity
  8
0
  6
Continuous
 62
     7
370
    25
100
AcDbSpline
210
0.0
220
0.0
230
1.0
 70
     8
 71
     3
 72
    10
 73
     6
 74
     0
 42
0.000000001
 43
0.00000001
 40
0.0
 40
0.0
 40
0.0
 40
0.0
 40
0.5
 40
0.5
 40
1.0
 40
1.0
 40
1.0
 40
1.0
 10
497.810660637643
 20
362.5489892430206
 30
0.0
 10
495.4867551256878
 20
362.5489892430206
 30
0.0
 10
493.1704708841505
 20
362.6835656147122
 30
0.0
 10
488.554029650451
 20
363.2218024741184
 30
0.0
 10
486.2633322160601
 20
363.6248028408937
 30
0.0
 10
484.0018101914355
 20
364.1596439019888
 30
0.0
  0
SPLINE
  5
CC
330
1F
100
AcDbEntity
  8
0
  6
Continuous
 62
     7
370
    25
100
AcDbSpline
210
0.0
220
0.0
230
1.0
 70
     8
 71
     3
 72
     8
 73
     4
 74
     0
 42
0.000000001
 43
0.00000001
 40
0.0
 40
0.0
 40
0.0
 40
0.0
 40
1.0
 40
1.0
 40
1.0
 40
1.0
 10
553.9253463160786
 20
401.3088844596072
 30
0.0
 10
553.2044351097693
 20
399.4042937734209
 30
0.0
 10
552.3870257194277
 20
397.5376407566023
 30
0.0
 10
551.4762920976381
 20
395.7161735130232
 30
0.0
  0
SPLINE
  5
CD
330
1F
100
AcDbEntity
  8
0
  6
Continuous
 62
     7
370
    25
100
AcDbSpline
210
0.0
220
0.0
230
1.0
 70
     8
 71
     3
 72
     8
 73
     4
 74
     0
 42
0.000000001
 43
0.00000001
 40
0.0
 40
0.0
 40
0.0
 40
0.0
 40
1.0
 40
1.0
 40
1.0
 40
1.0
 10
484.0018101914355
 20
364.1596439019888
 30
0.0
 10
482.0201762924747
 20
364.6282925225558
 30
0.0
 10
480.0632104008747
 20
365.1976639354788
 30
0.0
 10
478.139462535043
 20
365.8652705470206
 30
0.0
  0
ARC
  5
CE
330
1F
100
AcDbEntity
  8
0
  6
Continuous
 62
     7
370
    25
100
AcDbCircle
 10
497.8106606376
 20
422.548989243
 30
0.0
 40
60.00000000000278
100
AcDbArc
 50
270.0
 51
333.4349488229
  0
SPLINE
  5
CF
330
1F
100
AcDbEntity
  8
0
  6
Continuous
 62
     7
370
    25
100
AcDbSpline
210
0.0
220
0.0
230
1.0
 70
     8
 71
     3
 72
     8
 73
     4
 74
     0
 42
0.000000001
 43
0.00000001
 40
0.0
 40
0.0
 40
0.0
 40
0.0
 40
1.0
 40
1.0
 40
1.0
 40
1.0
 10
511.6195110838505
 20
480.9383345840524
 30
0.0
 10
513.6011449828164
 20
480.4696859634843
 30
0.0
 10
515.5581108744126
 20
479.9003145505711
 30
0.0
 10
517.4818587402458
 20
479.2327079390287
 30
0.0
  0
SPLINE
  5
D0
330
1F
100
AcDbEntity
  8
0
  6
Continuous
 62
     7
370
    25
100
AcDbSpline
210
0.0
220
0.0
230
1.0
 70
     8
 71
     3
 72
    38
 73
    34
 74
     0
 42
0.000000001
 43
0.00000001
 40
0.0
 40
0.0
 40
0.0
 40
0.0
 40
0.1249999999999989
 40
0.1249999999999989
 40
0.1874999999999984
 40
0.1874999999999984
 40
0.2187499999999984
 40
0.2187499999999984
 40
0.2499999999999985
 40
0.2499999999999985
 40
0.3749999999999977
 40
0.3749999999999977
 40
0.4062499999999976
 40
0.4062499999999976
 40
0.4374999999999976
 40
0.4374999999999976
 40
0.4999999999999974
 40
0.4999999999999974
 40
0.6249999999999972
 40
0.6249999999999972
 40
0.6562499999999971
 40
0.6562499999999971
 40
0.6874999999999971
 40
0.6874999999999971
 40
0.7499999999999973
 40
0.7499999999999973
 40
0.8124999999999977
 40
0.8124999999999977
 40
0.8437499999999981
 40
0.8437499999999981
 40
0.8749999999999984
 40
0.8749999999999984
 40
1.0
 40
1.0
 40
1.0
 40
1.0
 10
517.4818587402458
 20
479.2327079390286
 30
0.0
 10
521.2911369571156
 20
477.9107575067741
 30
0.0
 10
524.9037810265988
 20
476.2311817860553
 30
0.0
 10
530.0397750555505
 20
473.1971671569091
 30
0.0
 10
531.7042492194043
 20
472.0993956939288
 30
0.0
 10
534.1279262829537
 20
470.3199087197056
 30
0.0
 10
534.9256770026924
 20
469.7028611709898
 30
0.0
 10
536.485628948211
 20
468.432089658683
 30
0.0
 10
537.2465425129608
 20
467.7796201484718
 30
0.0
 10
540.9576746240632
 20
464.4335353941072
 30
0.0
 10
543.6303370368996
 20
461.4911739936576
 30
0.0
 10
546.6023727887502
 20
457.4827101516045
 30
0.0
 10
547.1781688418251
 20
456.6643380943659
 30
0.0
 10
548.2918718067
 20
454.9936376837737
 30
0.0
 10
548.8308681477132
 20
454.1392848502765
 30
0.0
 10
550.3736603938064
 20
451.5518246273626
 30
0.0
 10
551.3083204075799
 20
449.787898814175
 30
0.0
 10
553.8385774661085
 20
444.3825349423427
 30
0.0
 10
555.1631792548102
 20
440.6286423722677
 30
0.0
 10
556.350860026303
 20
435.7420417176692
 30
0.0
 10
556.5643370795033
 20
434.7559729927977
 30
0.0
 10
556.9393347940794
 20
432.7864127569763
 30
0.0
 10
557.101545309736
 20
431.8002156616479
 30
0.0
 10
557.513526148377
 20
428.8374414850067
 30
0.0
 10
557.6888274047802
 20
426.8566916909394
 30
0.0
 10
557.8426422193727
 20
422.8841655306195
 30
0.0
 10
557.8211608837368
 20
420.8923894504803
 30
0.0
 10
557.6383589551883
 20
417.8962879105094
 30
0.0
 10
557.5522820037797
 20
416.8961785650596
 30
0.0
 10
557.3287474602189
 20
414.8930808713093
 30
0.0
 10
557.1919965400039
 20
413.8966383445905
 30
0.0
 10
556.3859623502668
 20
408.9462798374594
 30
0.0
 10
555.3527309396726
 20
405.0799223293337
 30
0.0
 10
553.9253463160786
 20
401.3088844596072
 30
0.0
  0
SPLINE
  5
D1
330
1F
100
AcDbEntity
  8
0
  6
Continuous
 62
     7
370
    25
100
AcDbSpline
210
0.0
220
0.0
230
1.0
 70
     8
 71
     3
 72
    38
 73
    34
 74
     0
 42
0.000000001
 43
0.00000001
 40
0.0
 40
0.0
 40
0.0
 40
0.0
 40
0.1250000000000001
 40
0.1250000000000001
 40
0.1875000000000001
 40
0.1875000000000001
 40
0.2187500000000001
 40
0.2187500000000001
 40
0.2500000000000002
 40
0.2500000000000002
 40
0.3750000000000003
 40
0.3750000000000003
 40
0.4062500000000004
 40
0.4062500000000004
 40
0.4375000000000005
 40
0.4375000000000005
 40
0.5000000000000003
 40
0.5000000000000003
 40
0.6250000000000004
 40
0.6250000000000004
 40
0.6562500000000004
 40
0.6562500000000004
 40
0.6875000000000004
 40
0.6875000000000004
 40
0.7500000000000006
 40
0.7500000000000006
 40
0.8125000000000006
 40
0.8125000000000006
 40
0.8437500000000004
 40
0.8437500000000004
 40
0.8750000000000002
 40
0.8750000000000002
 40
1.0
 40
1.0
 40
1.0
 40
1.0
 10
478.1394625350444
 20
365.8652705470246
 30
0.0
 10
474.3301843182107
 20
367.1872209792665
 30
0.0
 10
470.7175402487553
 20
368.8667966999536
 30
0.0
 10
465.5815462198351
 20
371.9008113290693
 30
0.0
 10
463.9170720559906
 20
372.9985827920385
 30
0.0
 10
461.4933949924563
 20
374.7780697662416
 30
0.0
 10
460.6956442727239
 20
375.395117314949
 30
0.0
 10
459.1356923272089
 20
376.6658888272454
 30
0.0
 10
458.3747787624608
 20
377.3183583374513
 30
0.0
 10
454.6636466513648
 20
380.6644430917895
 30
0.0
 10
451.9909842385277
 20
383.6068044922194
 30
0.0
 10
449.0189484866758
 20
387.6152683342414
 30
0.0
 10
448.4431524336006
 20
388.4336403914733
 30
0.0
 10
447.3294494687253
 20
390.1043408020511
 30
0.0
 10
446.7904531277101
 20
390.9586936355433
 30
0.0
 10
445.2476608816051
 20
393.5461538584511
 30
0.0
 10
444.3130008678253
 20
395.3100796716324
 30
0.0
 10
441.7827438092797
 20
400.7154435434381
 30
0.0
 10
440.4581420205697
 20
404.469336113485
 30
0.0
 10
439.2704612490607
 20
409.3559367680281
 30
0.0
 10
439.0569841958528
 20
410.3420054929067
 30
0.0
 10
438.681986481264
 20
412.3115657287337
 30
0.0
 10
438.5197759656015
 20
413.2977628240639
 30
0.0
 10
438.1077951269435
 20
416.2605370007064
 30
0.0
 10
437.93249387053
 20
418.2412867947698
 30
0.0
 10
437.7786790559156
 20
422.213812955073
 30
0.0
 10
437.8001603915399
 20
424.2055890351994
 30
0.0
 10
437.9829623200676
 20
427.2016905751429
 30
0.0
 10
438.0690392714687
 20
428.2017999205824
 30
0.0
 10
438.292573815013
 20
430.2048976143093
 30
0.0
 10
438.4293247352242
 20
431.201340141053
 30
0.0
 10
439.2353589249327
 20
436.1516986482156
 30
0.0
 10
440.2685903355061
 20
440.0180561563529
 30
0.0
 10
441.6959749590751
 20
443.7890940260842
 30
0.0
  0
SPLINE
  5
D2
330
1F
100
AcDbEntity
  8
0
  6
Continuous
 62
     7
370
    25
100
AcDbSpline
210
0.0
220
0.0
230
1.0
 70
     8
 71
     3
 72
     8
 73
     4
 74
     0
 42
0.000000001
 43
0.00000001
 40
0.0
 40
0.0
 40
0.0
 40
0.0
 40
1.0
 40
1.0
 40
1.0
 40
1.0
 10
441.6959749590751
 20
443.7890940260842
 30
0.0
 10
442.4168275634741
 20
445.6935298906702
 30
0.0
 10
443.2343695881605
 20
447.5604857940557
 30
0.0
 10
444.145029177643
 20
449.3818049730206
 30
0.0
  0
SPLINE
  5
D3
330
1F
100
AcDbEntity
  8
0
  6
Continuous
 62
     7
370
    25
100
AcDbSpline
210
0.0
220
0.0
230
1.0
 70
     8
 71
     3
 72
    32
 73
    28
 74
     0
 42
0.000000001
 43
0.00000001
 40
0.0
 40
0.0
 40
0.0
 40
0.0
 40
0.1250000000000004
 40
0.1250000000000004
 40
0.2500000000000008
 40
0.2500000000000008
 40
0.2812500000000008
 40
0.2812500000000008
 40
0.3125000000000008
 40
0.3125000000000008
 40
0.3750000000000006
 40
0.3750000000000006
 40
0.4999999999999998
 40
0.4999999999999998
 40
0.5624999999999991
 40
0.5624999999999991
 40
0.5937499999999991
 40
0.5937499999999991
 40
0.6249999999999991
 40
0.6249999999999991
 40
0.7499999999999993
 40
0.7499999999999993
 40
0.8749999999999997
 40
0.8749999999999997
 40
0.9374999999999999
 40
0.9374999999999999
 40
1.0
 40
1.0
 40
1.0
 40
1.0
 10
444.1450291776405
 20
449.3818049730219
 30
0.0
 10
445.3937954563856
 20
451.8793375305121
 30
0.0
 10
446.8012634122406
 20
454.2605905232946
 30
0.0
 10
449.9206946464657
 20
458.799995000404
 30
0.0
 10
451.6326954569507
 20
460.9581189852232
 30
0.0
 10
453.9661278740153
 20
463.5140481832393
 30
0.0
 10
454.4425292097345
 20
464.0181160212061
 30
0.0
 10
455.4150171529326
 20
465.0118284416764
 30
0.0
 10
455.9120351193448
 20
465.5023492509887
 30
0.0
 10
457.4259496886292
 20
466.9451483871567
 30
0.0
 10
458.4630297205671
 20
467.8664693454656
 30
0.0
 10
461.6555169000828
 20
470.5119523270932
 30
0.0
 10
463.8917968845938
 20
472.1181802086052
 30
0.0
 10
467.406681963083
 20
474.2935211626064
 30
0.0
 10
468.6051490383754
 20
474.9794968161326
 30
0.0
 10
470.4437944770647
 20
475.9487518322521
 30
0.0
 10
471.0635065962864
 20
476.2618764313219
 30
0.0
 10
472.3167836290675
 20
476.867924564756
 30
0.0
 10
472.9513723620652
 20
477.1612631136033
 30
0.0
 10
476.1360228347668
 20
478.5665294447718
 30
0.0
 10
478.7346168681864
 20
479.5023322581546
 30
0.0
 10
484.0301076710873
 20
481.009874340919
 30
0.0
 10
486.727009877806
 20
481.5815934735268
 30
0.0
 10
490.8478117806808
 20
482.1597487994589
 30
0.0
 10
492.2375693159128
 20
482.305884136662
 30
0.0
 10
495.0206490488694
 20
482.50031674746
 30
0.0
 10
496.4144974940016
 20
482.5489892430206
 30
0.0
 10
497.8106606376433
 20
482.5489892430206
 30
0.0
  0
SPLINE
  5
D4
330
1F
100
AcDbEntity
  8
0
  6
Continuous
 62
     7
370
    25
100
AcDbSpline
210
0.0
220
0.0
230
1.0
 70
     8
 71
     3
 72
    10
 73
     6
 74
     0
 42
0.000000001
 43
0.00000001
 40
0.0
 40
0.0
 40
0.0
 40
0.0
 40
0.5
 40
0.5
 40
1.0
 40
1.0
 40
1.0
 40
1.0
 10
497.8106606376431
 20
482.5489892430206
 30
0.0
 10
500.1345661496018
 20
482.5489892430207
 30
0.0
 10
502.4508503911399
 20
482.414412871329
 30
0.0
 10
507.0672916248467
 20
481.8761760119212
 30
0.0
 10
509.3579890592227
 20
481.4731756451483
 30
0.0
 10
511.6195110838505
 20
480.9383345840524
 30
0.0
  0
SPLINE
  5
D5
330
1F
100
AcDbEntity
  8
0
  6
Continuous
 62
     8
370
    25
100
AcDbSpline
210
0.0
220
0.0
230
1.0
 70
     8
 71
     3
 72
    12
 73
     8
 74
     0
 42
0.000000001
 43
0.00000001
 40
0.0
 40
0.0
 40
0.0
 40
0.0
 40
0.2635981172995919
 40
0.4531108683320926
 40
0.6509956528120253
 40
0.8488669459580471
 40
1.0
 40
1.0
 40
1.0
 40
1.0
 10
530.7675886523982
 20
407.3077966637512
 30
0.0
 10
530.88707657518
 20
407.2525377265176
 30
0.0
 10
531.0924698344393
 20
407.157550610185
 30
0.0
 10
531.3394177195275
 20
407.0433531233829
 30
0.0
 10
531.506808483087
 20
406.96593859103
 30
0.0
 10
531.6065404918093
 20
406.9198183461737
 30
0.0
 10
531.6119569063287
 20
406.9173101155911
 30
0.0
 10
531.614302433755
 20
406.9162239498993
 30
0.0
  0
SPLINE
  5
D6
330
1F
100
AcDbEntity
  8
0
  6
Continuous
 62
     8
370
    25
100
AcDbSpline
210
0.0
220
0.0
230
1.0
 70
     8
 71
     3
 72
    12
 73
     8
 74
     0
 42
0.000000001
 43
0.00000001
 40
0.0
 40
0.0
 40
0.0
 40
0.0
 40
0.1511324207841656
 40
0.3490028848359958
 40
0.5468868401652073
 40
0.7363987971263769
 40
0.9999999999999999
 40
0.9999999999999999
 40
0.9999999999999999
 40
0.9999999999999999
 10
464.006981588628
 20
438.1819446749588
 30
0.0
 10
464.0093271145997
 20
438.1808585060699
 30
0.0
 10
464.01474352576
 20
438.1783502681042
 30
0.0
 10
464.1144755656853
 20
438.1322300918274
 30
0.0
 10
464.2818662065276
 20
438.0548152897617
 30
0.0
 10
464.5288161762745
 20
437.9406181563
 30
0.0
 10
464.7342100314338
 20
437.8456264723662
 30
0.0
 10
464.8536990952751
 20
437.7903645105263
 30
0.0
  0
LINE
  5
D7
330
1F
100
AcDbEntity
  8
0
  6
Continuous
 62
     8
370
    25
100
AcDbLine
 10
511.7297878114
 20
480.848871655
 30
0.0
 11
512.0965081823
 21
480.848871655
 31
0.0
  0
ENDSEC
  0
SECTION
  2
OBJECTS
  0
DICTIONARY
  5
C
330
0
100
AcDbDictionary
281
     1
  3
ACAD_GROUP
350
D
  3
ACAD_LAYOUT
350
1A
  3
ACAD_MLINESTYLE
350
17
  3
ACAD_PLOTSETTINGS
350
19
  3
ACAD_PLOTSTYLENAME
350
E
  3
ACAD_SCALELIST
350
47
  0
DICTIONARY
  5
D
102
{ACAD_REACTORS
330
C
102
}
330
C
100
AcDbDictionary
281
     1
  0
DICTIONARY
  5
1A
102
{ACAD_REACTORS
330
C
102
}
330
C
100
AcDbDictionary
281
     1
  3
Layout1
350
1E
  3
Layout2
350
26
  3
Model
350
22
  0
DICTIONARY
  5
17
102
{ACAD_REACTORS
330
C
102
}
330
C
100
AcDbDictionary
281
     1
  3
Standard
350
18
  0
DICTIONARY
  5
19
102
{ACAD_REACTORS
330
C
102
}
330
C
100
AcDbDictionary
281
     1
  0
ACDBDICTIONARYWDFLT
  5
E
102
{ACAD_REACTORS
330
C
102
}
330
C
100
AcDbDictionary
281
     1
  3
Normal
350
F
100
AcDbDictionaryWithDefault
340
F
  0
DICTIONARY
  5
47
102
{ACAD_REACTORS
330
C
102
}
330
C
100
AcDbDictionary
281
     1
  3
A0
350
48
  3
A1
350
49
  3
A2
350
4A
  3
A3
350
4B
  3
A4
350
4C
  3
A5
350
4D
  3
A6
350
4E
  3
A7
350
4F
  3
A8
350
50
  3
A9
350
51
  3
B0
350
52
  3
B1
350
53
  3
B2
350
54
  3
B3
350
55
  3
B4
350
56
  3
B5
350
57
  3
B6
350
58
  3
B7
350
59
  3
B8
350
5A
  3
B9
350
5B
  3
C0
350
5C
  3
C1
350
5D
  3
C2
350
5E
  3
C3
350
5F
  3
C4
350
60
  3
C5
350
61
  3
C6
350
62
  3
C7
350
63
  3
C8
350
64
  3
C9
350
65
  3
D0
350
66
  3
D1
350
67
  3
D2
350
68
  0
LAYOUT
  5
1E
102
{ACAD_REACTORS
330
1A
102
}
330
1A
100
AcDbPlotSettings
  1

  2
none_device
  4

  6

 40
0.0
 41
0.0
 42
0.0
 43
0.0
 44
0.0
 45
0.0
 46
0.0
 47
0.0
 48
0.0
 49
0.0
140
0.0
141
0.0
142
1.0
143
1.0
 70
   688
 72
     1
 73
     0
 74
     5
  7

 75
    16
147
1.0
148
0.0
149
0.0
100
AcDbLayout
  1
Layout1
 70
     1
 71
     1
 10
0.0
 20
0.0
 11
420.0
 21
297.0
 12
0.0
 22
0.0
 32
0.0
 14
1.0000000000E+20
 24
1.0000000000E+20
 34
1.0000000000E+20
 15
-1.0000000000E+20
 25
-1.0000000000E+20
 35
-1.0000000000E+20
146
0.0
 13
0.0
 23
0.0
 33
0.0
 16
1.0
 26
0.0
 36
0.0
 17
0.0
 27
1.0
 37
0.0
 76
     0
330
1B
  0
LAYOUT
  5
26
102
{ACAD_REACTORS
330
1A
102
}
330
1A
100
AcDbPlotSettings
  1

  2
none_device
  4

  6

 40
0.0
 41
0.0
 42
0.0
 43
0.0
 44
0.0
 45
0.0
 46
0.0
 47
0.0
 48
0.0
 49
0.0
140
0.0
141
0.0
142
1.0
143
1.0
 70
   688
 72
     1
 73
     0
 74
     5
  7

 75
    16
147
1.0
148
0.0
149
0.0
100
AcDbLayout
  1
Layout2
 70
     1
 71
     2
 10
0.0
 20
0.0
 11
0.0
 21
0.0
 12
0.0
 22
0.0
 32
0.0
 14
0.0
 24
0.0
 34
0.0
 15
0.0
 25
0.0
 35
0.0
146
0.0
 13
0.0
 23
0.0
 33
0.0
 16
1.0
 26
0.0
 36
0.0
 17
0.0
 27
1.0
 37
0.0
 76
     0
330
23
  0
LAYOUT
  5
22
102
{ACAD_REACTORS
330
1A
102
}
330
1A
100
AcDbPlotSettings
  1

  2
none_device
  4
Letter_(8.50_x_11.00_Inches)
  6

 40
6.35
 41
6.35
 42
6.35000508
 43
6.35000508
 44
215.9
 45
279.4
 46
0.0
 47
0.0
 48
0.0
 49
0.0
140
0.0
141
0.0
142
1.0
143
1.0
 70
  1712
 72
     1
 73
     0
 74
     0
  7

 75
     0
147
1.0
148
0.0
149
0.0
100
AcDbLayout
  1
Model
 70
     1
 71
     0
 10
0.0
 20
0.0
 11
1000.0
 21
700.0
 12
0.0
 22
0.0
 32
0.0
 14
0.0
 24
0.0
 34
0.0
 15
1000.0
 25
700.0
 35
0.0
146
0.0
 13
0.0
 23
0.0
 33
0.0
 16
1.0
 26
0.0
 36
0.0
 17
0.0
 27
1.0
 37
0.0
 76
     0
330
1F
331
29
  0
MLINESTYLE
  5
18
102
{ACAD_REACTORS
330
17
102
}
330
17
100
AcDbMlineStyle
  2
Standard
 70
     0
  3

 62
   256
 51
90.0
 52
90.0
 71
     2
 49
0.5
 62
   256
  6
BYLAYER
 49
-0.5
 62
   256
  6
BYLAYER
  0
ACDBPLACEHOLDER
  5
F
102
{ACAD_REACTORS
330
E
102
}
330
E
  0
SCALE
  5
48
102
{ACAD_REACTORS
330
47
102
}
330
47
100
AcDbScale
 70
     0
300
1:1
140
1.0
141
1.0
290
     1
  0
SCALE
  5
49
102
{ACAD_REACTORS
330
47
102
}
330
47
100
AcDbScale
 70
     0
300
1:2
140
1.0
141
2.0
290
     0
  0
SCALE
  5
4A
102
{ACAD_REACTORS
330
47
102
}
330
47
100
AcDbScale
 70
     0
300
1:4
140
1.0
141
4.0
290
     0
  0
SCALE
  5
4B
102
{ACAD_REACTORS
330
47
102
}
330
47
100
AcDbScale
 70
     0
300
1:5
140
1.0
141
5.0
290
     0
  0
SCALE
  5
4C
102
{ACAD_REACTORS
330
47
102
}
330
47
100
AcDbScale
 70
     0
300
1:8
140
1.0
141
8.0
290
     0
  0
SCALE
  5
4D
102
{ACAD_REACTORS
330
47
102
}
330
47
100
AcDbScale
 70
     0
300
1:10
140
1.0
141
10.0
290
     0
  0
SCALE
  5
4E
102
{ACAD_REACTORS
330
47
102
}
330
47
100
AcDbScale
 70
     0
300
1:16
140
1.0
141
16.0
290
     0
  0
SCALE
  5
4F
102
{ACAD_REACTORS
330
47
102
}
330
47
100
AcDbScale
 70
     0
300
1:20
140
1.0
141
20.0
290
     0
  0
SCALE
  5
50
102
{ACAD_REACTORS
330
47
102
}
330
47
100
AcDbScale
 70
     0
300
1:30
140
1.0
141
30.0
290
     0
  0
SCALE
  5
51
102
{ACAD_REACTORS
330
47
102
}
330
47
100
AcDbScale
 70
     0
300
1:40
140
1.0
141
40.0
290
     0
  0
SCALE
  5
52
102
{ACAD_REACTORS
330
47
102
}
330
47
100
AcDbScale
 70
     0
300
1:50
140
1.0
141
50.0
290
     0
  0
SCALE
  5
53
102
{ACAD_REACTORS
330
47
102
}
330
47
100
AcDbScale
 70
     0
300
1:100
140
1.0
141
100.0
290
     0
  0
SCALE
  5
54
102
{ACAD_REACTORS
330
47
102
}
330
47
100
AcDbScale
 70
     0
300
2:1
140
2.0
141
1.0
290
     0
  0
SCALE
  5
55
102
{ACAD_REACTORS
330
47
102
}
330
47
100
AcDbScale
 70
     0
300
4:1
140
4.0
141
1.0
290
     0
  0
SCALE
  5
56
102
{ACAD_REACTORS
330
47
102
}
330
47
100
AcDbScale
 70
     0
300
8:1
140
8.0
141
1.0
290
     0
  0
SCALE
  5
57
102
{ACAD_REACTORS
330
47
102
}
330
47
100
AcDbScale
 70
     0
300
10:1
140
10.0
141
1.0
290
     0
  0
SCALE
  5
58
102
{ACAD_REACTORS
330
47
102
}
330
47
100
AcDbScale
 70
     0
300
100:1
140
100.0
141
1.0
290
     0
  0
SCALE
  5
59
102
{ACAD_REACTORS
330
47
102
}
330
47
100
AcDbScale
 70
     0
300
1/128" = 1'-0"
140
0.0078125
141
12.0
290
     0
  0
SCALE
  5
5A
102
{ACAD_REACTORS
330
47
102
}
330
47
100
AcDbScale
 70
     0
300
1/64" = 1'-0"
140
0.015625
141
12.0
290
     0
  0
SCALE
  5
5B
102
{ACAD_REACTORS
330
47
102
}
330
47
100
AcDbScale
 70
     0
300
1/32" = 1'-0"
140
0.03125
141
12.0
290
     0
  0
SCALE
  5
5C
102
{ACAD_REACTORS
330
47
102
}
330
47
100
AcDbScale
 70
     0
300
1/16" = 1'-0"
140
0.0625
141
12.0
290
     0
  0
SCALE
  5
5D
102
{ACAD_REACTORS
330
47
102
}
330
47
100
AcDbScale
 70
     0
300
3/32" = 1'-0"
140
0.09375
141
12.0
290
     0
  0
SCALE
  5
5E
102
{ACAD_REACTORS
330
47
102
}
330
47
100
AcDbScale
 70
     0
300
1/8" = 1'-0"
140
0.125
141
12.0
290
     0
  0
SCALE
  5
5F
102
{ACAD_REACTORS
330
47
102
}
330
47
100
AcDbScale
 70
     0
300
3/16" = 1'-0"
140
0.1875
141
12.0
290
     0
  0
SCALE
  5
60
102
{ACAD_REACTORS
330
47
102
}
330
47
100
AcDbScale
 70
     0
300
1/4" = 1'-0"
140
0.25
141
12.0
290
     0
  0
SCALE
  5
61
102
{ACAD_REACTORS
330
47
102
}
330
47
100
AcDbScale
 70
     0
300
3/8" = 1'-0"
140
0.375
141
12.0
290
     0
  0
SCALE
  5
62
102
{ACAD_REACTORS
330
47
102
}
330
47
100
AcDbScale
 70
     0
300
1/2" = 1'-0"
140
0.5
141
12.0
290
     0
  0
SCALE
  5
63
102
{ACAD_REACTORS
330
47
102
}
330
47
100
AcDbScale
 70
     0
300
3/4" = 1'-0"
140
0.75
141
12.0
290
     0
  0
SCALE
  5
64
102
{ACAD_REACTORS
330
47
102
}
330
47
100
AcDbScale
 70
     0
300
1" = 1'-0"
140
1.0
141
12.0
290
     0
  0
SCALE
  5
65
102
{ACAD_REACTORS
330
47
102
}
330
47
100
AcDbScale
 70
     0
300
1-1/2" = 1'-0"
140
1.5
141
12.0
290
     0
  0
SCALE
  5
66
102
{ACAD_REACTORS
330
47
102
}
330
47
100
AcDbScale
 70
     0
300
3" = 1'-0"
140
3.0
141
12.0
290
     0
  0
SCALE
  5
67
102
{ACAD_REACTORS
330
47
102
}
330
47
100
AcDbScale
 70
     0
300
6" = 1'-0"
140
6.0
141
12.0
290
     0
  0
SCALE
  5
68
102
{ACAD_REACTORS
330
47
102
}
330
47
100
AcDbScale
 70
     0
300
1'-0" = 1'-0"
140
12.0
141
12.0
290
     0
  0
ENDSEC
  0
EOF
