  0
SECTION
  2
HEADER
  9
$ACADVER
  1
AC1015
  9
$ACADMAINTVER
 70
     6
  9
$DWGCODEPAGE
  3
ANSI_1252
  9
$INSBASE
 10
0.0
 20
0.0
 30
0.0
  9
$EXTMIN
 10
0.0
 20
0.0
 30
0.0
  9
$EXTMAX
 10
1000.0
 20
700.0
 30
0.0
  9
$LIMMIN
 10
0.0
 20
0.0
  9
$LIMMAX
 10
1000.0
 20
700.0
  9
$ORTHOMODE
 70
     0
  9
$REGENMODE
 70
     1
  9
$FILLMODE
 70
     1
  9
$QTEXTMODE
 70
     0
  9
$MIRRTEXT
 70
     1
  9
$LTSCALE
 40
1.0
  9
$ATTMODE
 70
     1
  9
$TEXTSIZE
 40
5.0
  9
$TRACEWID
 40
1.0
  9
$TEXTSTYLE
  7
Standard
  9
$CLAYER
  8
0
  9
$CELTYPE
  6
ByLayer
  9
$CECOLOR
 62
   256
  9
$CELTSCALE
 40
1.0
  9
$DISPSILH
 70
     0
  9
$DIMSCALE
 40
1.0
  9
$DIMASZ
 40
6.0
  9
$DIMEXO
 40
1.0
  9
$DIMDLI
 40
3.75
  9
$DIMRND
 40
0.0
  9
$DIMDLE
 40
0.0
  9
$DIMEXE
 40
1.0
  9
$DIMTP
 40
0.0
  9
$DIMTM
 40
0.0
  9
$DIMTXT
 40
5.0
  9
$DIMCEN
 40
2.5
  9
$DIMTSZ
 40
0.0
  9
$DIMTOL
 70
     0
  9
$DIMLIM
 70
     0
  9
$DIMTIH
 70
     1
  9
$DIMTOH
 70
     1
  9
$DIMSE1
 70
     0
  9
$DIMSE2
 70
     0
  9
$DIMTAD
 70
     1
  9
$DIMZIN
 70
     0
  9
$DIMBLK
  1

  9
$DIMASO
 70
     1
  9
$DIMSHO
 70
     1
  9
$DIMPOST
  1

  9
$DIMAPOST
  1

  9
$DIMALT
 70
     0
  9
$DIMALTD
 70
     3
  9
$DIMALTF
 40
0.0393700787
  9
$DIMLFAC
 40
1.0
  9
$DIMTOFL
 70
     1
  9
$DIMTVP
 40
0.0
  9
$DIMTIX
 70
     0
  9
$DIMSOXD
 70
     0
  9
$DIMSAH
 70
     0
  9
$DIMBLK1
  1

  9
$DIMBLK2
  1

  9
$DIMSTYLE
  2
ISO-25
  9
$DIMCLRD
 70
     0
  9
$DIMCLRE
 70
     0
  9
$DIMCLRT
 70
     0
  9
$DIMTFAC
 40
1.0
  9
$DIMGAP
 40
1.524
  9
$DIMJUST
 70
     0
  9
$DIMSD1
 70
     0
  9
$DIMSD2
 70
     0
  9
$DIMTOLJ
 70
     0
  9
$DIMTZIN
 70
     0
  9
$DIMALTZ
 70
     0
  9
$DIMALTTZ
 70
     0
  9
$DIMUPT
 70
     0
  9
$DIMDEC
 70
     2
  9
$DIMTDEC
 70
     2
  9
$DIMALTU
 70
     2
  9
$DIMALTTD
 70
     3
  9
$DIMTXSTY
  7
Standard
  9
$DIMAUNIT
 70
     0
  9
$DIMADEC
 70
     2
  9
$DIMALTRND
 40
0.0
  9
$DIMAZIN
 70
     0
  9
$DIMDSEP
 70
    44
  9
$DIMATFIT
 70
     3
  9
$DIMFRAC
 70
     0
  9
$DIMLDRBLK
  1

  9
$DIMLUNIT
 70
     2
  9
$DIMLWD
 70
    -2
  9
$DIMLWE
 70
    -2
  9
$DIMTMOVE
 70
     0
  9
$LUNITS
 70
     2
  9
$LUPREC
 70
     2
  9
$SKETCHINC
 40
1.0
  9
$FILLETRAD
 40
10.0
  9
$AUNITS
 70
     0
  9
$AUPREC
 70
     2
  9
$MENU
  1
.
  9
$ELEVATION
 40
0.0
  9
$PELEVATION
 40
0.0
  9
$THICKNESS
 40
0.0
  9
$LIMCHECK
 70
     0
  9
$CHAMFERA
 40
0.0
  9
$CHAMFERB
 40
0.0
  9
$CHAMFERC
 40
0.0
  9
$CHAMFERD
 40
0.0
  9
$SKPOLY
 70
     0
  9
$TDCREATE
 40
2458582.613720879
  9
$TDUCREATE
 40
2458582.488720879
  9
$TDUPDATE
 40
2458582.613722338
  9
$TDUUPDATE
 40
2458582.488722338
  9
$TDINDWG
 40
0.0000000116
  9
$TDUSRTIMER
 40
0.0000000116
  9
$USRTIMER
 70
     1
  9
$ANGBASE
 50
0.0
  9
$ANGDIR
 70
     0
  9
$PDMODE
 70
     0
  9
$PDSIZE
 40
-1.0
  9
$PLINEWID
 40
0.0
  9
$SPLFRAME
 70
     0
  9
$SPLINETYPE
 70
     6
  9
$SPLINESEGS
 70
     8
  9
$HANDSEED
  5
173
  9
$SURFTAB1
 70
     6
  9
$SURFTAB2
 70
     6
  9
$SURFTYPE
 70
     6
  9
$SURFU
 70
     6
  9
$SURFV
 70
     6
  9
$UCSBASE
  2

  9
$UCSNAME
  2

  9
$UCSORG
 10
0.0
 20
0.0
 30
0.0
  9
$UCSXDIR
 10
1.0
 20
0.0
 30
0.0
  9
$UCSYDIR
 10
0.0
 20
1.0
 30
0.0
  9
$UCSORTHOREF
  2

  9
$UCSORTHOVIEW
 70
     0
  9
$UCSORGTOP
 10
0.0
 20
0.0
 30
0.0
  9
$UCSORGBOTTOM
 10
0.0
 20
0.0
 30
0.0
  9
$UCSORGLEFT
 10
0.0
 20
0.0
 30
0.0
  9
$UCSORGRIGHT
 10
0.0
 20
0.0
 30
0.0
  9
$UCSORGFRONT
 10
0.0
 20
0.0
 30
0.0
  9
$UCSORGBACK
 10
0.0
 20
0.0
 30
0.0
  9
$PUCSBASE
  2

  9
$PUCSNAME
  2

  9
$PUCSORG
 10
0.0
 20
0.0
 30
0.0
  9
$PUCSXDIR
 10
1.0
 20
0.0
 30
0.0
  9
$PUCSYDIR
 10
0.0
 20
1.0
 30
0.0
  9
$PUCSORTHOREF
  2

  9
$PUCSORTHOVIEW
 70
     0
  9
$PUCSORGTOP
 10
0.0
 20
0.0
 30
0.0
  9
$PUCSORGBOTTOM
 10
0.0
 20
0.0
 30
0.0
  9
$PUCSORGLEFT
 10
0.0
 20
0.0
 30
0.0
  9
$PUCSORGRIGHT
 10
0.0
 20
0.0
 30
0.0
  9
$PUCSORGFRONT
 10
0.0
 20
0.0
 30
0.0
  9
$PUCSORGBACK
 10
0.0
 20
0.0
 30
0.0
  9
$USERI1
 70
     0
  9
$USERI2
 70
     0
  9
$USERI3
 70
     0
  9
$USERI4
 70
     0
  9
$USERI5
 70
     0
  9
$USERR1
 40
0.0
  9
$USERR2
 40
0.0
  9
$USERR3
 40
0.0
  9
$USERR4
 40
0.0
  9
$USERR5
 40
0.0
  9
$WORLDVIEW
 70
     1
  9
$SHADEDGE
 70
     3
  9
$SHADEDIF
 70
    70
  9
$TILEMODE
 70
     1
  9
$MAXACTVP
 70
    64
  9
$PINSBASE
 10
0.0
 20
0.0
 30
0.0
  9
$PLIMCHECK
 70
     0
  9
$PEXTMIN
 10
1.0000000000E+20
 20
1.0000000000E+20
 30
1.0000000000E+20
  9
$PEXTMAX
 10
-1.0000000000E+20
 20
-1.0000000000E+20
 30
-1.0000000000E+20
  9
$PLIMMIN
 10
0.0
 20
0.0
  9
$PLIMMAX
 10
420.0
 20
297.0
  9
$UNITMODE
 70
     0
  9
$VISRETAIN
 70
     1
  9
$PLINEGEN
 70
     0
  9
$PSLTSCALE
 70
     1
  9
$TREEDEPTH
 70
  3020
  9
$CMLSTYLE
  2
Standard
  9
$CMLJUST
 70
     0
  9
$CMLSCALE
 40
20.0
  9
$PROXYGRAPHICS
 70
     1
  9
$MEASUREMENT
 70
     1
  9
$CELWEIGHT
370
    -1
  9
$ENDCAPS
280
     0
  9
$JOINSTYLE
280
     0
  9
$LWDISPLAY
290
     1
  9
$INSUNITS
 70
     4
  9
$HYPERLINKBASE
  1

  9
$STYLESHEET
  1

  9
$XEDIT
290
     1
  9
$CEPSNTYPE
380
     0
  9
$PSTYLEMODE
290
     1
  9
$FINGERPRINTGUID
  2
{A54EA799-D2E1-4A52-9F56-7C732844AD3D}
  9
$VERSIONGUID
  2
{FAEB1C32-E019-11D5-929B-00C0DF256EC4}
  9
$EXTNAMES
290
     1
  9
$PSVPSCALE
 40
0.0
  9
$OLESTARTUP
290
     0
  0
ENDSEC
  0
SECTION
  2
CLASSES
  0
CLASS
  1
ACDBDICTIONARYWDFLT
  2
AcDbDictionaryWithDefault
  3
ObjectDBX Classes
 90
        0
280
     0
281
     0
  0
CLASS
  1
VISUALSTYLE
  2
AcDbVisualStyle
  3
ObjectDBX Classes
 90
     4095
280
     0
281
     0
  0
CLASS
  1
MATERIAL
  2
AcDbMaterial
  3
ObjectDBX Classes
 90
     1153
280
     0
281
     0
  0
CLASS
  1
SCALE
  2
AcDbScale
  3
ObjectDBX Classes
 90
     1153
280
     0
281
     0
  0
CLASS
  1
TABLESTYLE
  2
AcDbTableStyle
  3
ObjectDBX Classes
 90
     4095
280
     0
281
     0
  0
CLASS
  1
MLEADERSTYLE
  2
AcDbMLeaderStyle
  3
ACDB_MLEADERSTYLE_CLASS
 90
     4095
280
     0
281
     0
  0
CLASS
  1
SUN
  2
AcDbSun
  3
SCENEOE
 90
     1153
280
     0
281
     0
  0
CLASS
  1
ACDBPLACEHOLDER
  2
AcDbPlaceHolder
  3
ObjectDBX Classes
 90
        0
280
     0
281
     0
  0
CLASS
  1
LAYOUT
  2
AcDbLayout
  3
ObjectDBX Classes
 90
        0
280
     0
281
     0
  0
ENDSEC
  0
SECTION
  2
TABLES
  0
TABLE
  2
VPORT
  5
8
330
0
100
AcDbSymbolTable
 70
     1
  0
VPORT
  5
29
330
8
100
AcDbSymbolTableRecord
100
AcDbViewportTableRecord
  2
*Active
 70
     0
 10
0.0
 20
0.0
 11
1.0
 21
1.0
 12
500.0
 22
350.0
 13
0.0
 23
0.0
 14
10.0
 24
10.0
 15
10.0
 25
10.0
 16
0.0
 26
0.0
 36
1.0
 17
0.0
 27
0.0
 37
0.0
 40
700.0
 41
1.4285714286
 42
50.0
 43
0.0
 44
0.0
 50
0.0
 51
0.0
 71
     0
 72
  2000
 73
     1
 74
     3
 75
     0
 76
     0
 77
     0
 78
     0
281
     0
 65
     1
110
0.0
120
0.0
130
0.0
111
1.0
121
0.0
131
0.0
112
0.0
122
1.0
132
0.0
 79
     0
146
0.0
  0
ENDTAB
  0
TABLE
  2
LTYPE
  5
5
330
0
100
AcDbSymbolTable
 70
     6
  0
LTYPE
  5
14
330
5
100
AcDbSymbolTableRecord
100
AcDbLinetypeTableRecord
  2
ByBlock
 70
     0
  3

 72
    65
 73
     0
 40
0.0
  0
LTYPE
  5
15
330
5
100
AcDbSymbolTableRecord
100
AcDbLinetypeTableRecord
  2
ByLayer
 70
     0
  3

 72
    65
 73
     0
 40
0.0
  0
LTYPE
  5
16
330
5
100
AcDbSymbolTableRecord
100
AcDbLinetypeTableRecord
  2
Continuous
 70
     0
  3
Solid line
 72
    65
 73
     0
 40
0.0
  0
LTYPE
  5
6E
330
5
100
AcDbSymbolTableRecord
100
AcDbLinetypeTableRecord
  2
HIDDEN
 70
     0
  3
Hidden __ __ __ __ __ __ __ __ __ __ __ __ __ __
 72
    65
 73
     2
 40
1.905
 49
1.27
 74
     0
 49
-0.635
 74
     0
  0
LTYPE
  5
6F
330
5
100
AcDbSymbolTableRecord
100
AcDbLinetypeTableRecord
  2
PHANTOM
 70
     0
  3
Phantom ______  __  __  ______  __  __  ______
 72
    65
 73
     6
 40
12.7
 49
6.35
 74
     0
 49
-1.27
 74
     0
 49
1.27
 74
     0
 49
-1.27
 74
     0
 49
1.27
 74
     0
 49
-1.27
 74
     0
  0
LTYPE
  5
70
330
5
100
AcDbSymbolTableRecord
100
AcDbLinetypeTableRecord
  2
CENTER
 70
     0
  3
Center ____ _ ____ _ ____ _ ____ _ ____ _ ____
 72
    65
 73
     4
 40
10.16
 49
6.35
 74
     0
 49
-1.27
 74
     0
 49
1.27
 74
     0
 49
-1.27
 74
     0
  0
LTYPE
  5
71
330
5
100
AcDbSymbolTableRecord
100
AcDbLinetypeTableRecord
  2
CENTERX2
 70
     0
  3
Center (2x) ________  __  ________  __  _____
 72
    65
 73
     4
 40
20.32
 49
12.7
 74
     0
 49
-2.54
 74
     0
 49
2.54
 74
     0
 49
-2.54
 74
     0
  0
LTYPE
  5
72
330
5
100
AcDbSymbolTableRecord
100
AcDbLinetypeTableRecord
  2
DOT2
 70
     0
  3
Dot (.5x) ........................................
 72
    65
 73
     2
 40
0.635
 49
0.0
 74
     0
 49
-0.635
 74
     0
  0
ENDTAB
  0
TABLE
  2
LAYER
  5
2
330
0
100
AcDbSymbolTable
 70
     2
  0
LAYER
  5
10
330
2
100
AcDbSymbolTableRecord
100
AcDbLayerTableRecord
  2
0
 70
     0
 62
     7
  6
Continuous
370
    -3
390
F
  0
LAYER
  5
73
330
2
100
AcDbSymbolTableRecord
100
AcDbLayerTableRecord
  2
TABLE_BL1
 70
     0
 62
   179
  6
Continuous
370
    -3
390
F
  0
ENDTAB
  0
TABLE
  2
STYLE
  5
3
330
0
100
AcDbSymbolTable
 70
     1
  0
STYLE
  5
11
330
3
100
AcDbSymbolTableRecord
100
AcDbTextStyleTableRecord
  2
Standard
 70
     0
 40
0.0
 41
1.0
 50
0.0
 71
     0
 42
5.0
  3
txt
  4

  0
ENDTAB
  0
TABLE
  2
VIEW
  5
6
330
0
100
AcDbSymbolTable
 70
     0
  0
ENDTAB
  0
TABLE
  2
UCS
  5
7
330
0
100
AcDbSymbolTable
 70
     0
  0
ENDTAB
  0
TABLE
  2
APPID
  5
9
330
0
100
AcDbSymbolTable
 70
     1
  0
APPID
  5
12
330
9
100
AcDbSymbolTableRecord
100
AcDbRegAppTableRecord
  2
ACAD
 70
     0
  0
ENDTAB
  0
TABLE
  2
DIMSTYLE
  5
A
330
0
100
AcDbSymbolTable
 70
     1
100
AcDbDimStyleTable
  0
DIMSTYLE
105
27
330
A
100
AcDbSymbolTableRecord
100
AcDbDimStyleTableRecord
  2
ISO-25
 70
     0
 41
2.5
 42
0.625
 43
3.75
 44
1.25
 73
     0
 74
     0
 77
     1
 78
     8
140
2.5
141
2.5
143
0.0393700787
147
0.625
171
     3
172
     1
178
     0
271
     2
272
     2
274
     3
278
    44
283
     0
284
     8
340
11
  0
ENDTAB
  0
TABLE
  2
BLOCK_RECORD
  5
1
330
0
100
AcDbSymbolTable
 70
     1
  0
BLOCK_RECORD
  5
1F
330
1
100
AcDbSymbolTableRecord
100
AcDbBlockTableRecord
  2
*Model_Space
340
22
  0
BLOCK_RECORD
  5
1B
330
1
100
AcDbSymbolTableRecord
100
AcDbBlockTableRecord
  2
*Paper_Space
340
1E
  0
BLOCK_RECORD
  5
23
330
1
100
AcDbSymbolTableRecord
100
AcDbBlockTableRecord
  2
*Paper_Space0
340
26
  0
ENDTAB
  0
ENDSEC
  0
SECTION
  2
BLOCKS
  0
BLOCK
  5
20
330
1F
100
AcDbEntity
  8
0
100
AcDbBlockBegin
  2
*Model_Space
 70
     0
 10
0.0
 20
0.0
 30
0.0
  3
*Model_Space
  1

  0
ENDBLK
  5
21
330
1F
100
AcDbEntity
  8
0
100
AcDbBlockEnd
  0
BLOCK
  5
1C
330
1B
100
AcDbEntity
 67
     1
  8
0
100
AcDbBlockBegin
  2
*Paper_Space
 70
     0
 10
0.0
 20
0.0
 30
0.0
  3
*Paper_Space
  1

  0
ENDBLK
  5
1D
330
1B
100
AcDbEntity
 67
     1
  8
0
100
AcDbBlockEnd
  0
BLOCK
  5
24
330
23
100
AcDbEntity
  8
0
100
AcDbBlockBegin
  2
*Paper_Space0
 70
     0
 10
0.0
 20
0.0
 30
0.0
  3
*Paper_Space0
  1

  0
ENDBLK
  5
25
330
23
100
AcDbEntity
  8
0
100
AcDbBlockEnd
  0
ENDSEC
  0
SECTION
  2
ENTITIES
  0
SPLINE
  5
74
330
1F
100
AcDbEntity
  8
0
  6
Continuous
 62
     7
370
    25
100
AcDbSpline
210
0.0
220
0.0
230
1.0
 70
     8
 71
     3
 72
    29
 73
    25
 74
     0
 42
0.000000001
 43
0.00000001
 40
0.0
 40
0.0
 40
0.0
 40
0.0
 40
0.0349321406882635
 40
0.0633980643159913
 40
0.0838985515737894
 40
0.1410481598295769
 40
0.1993926718331193
 40
0.2579538570990187
 40
0.3167358876867428
 40
0.3756685440136572
 40
0.4347110736298802
 40
0.4938368192040536
 40
0.5530116495173842
 40
0.6120983013386022
 40
0.6710428299972756
 40
0.7298261731686599
 40
0.7884258360426925
 40
0.846795814520617
 40
0.8655669647427026
 40
0.8834823951604174
 40
0.9012873219477364
 40
0.9267778521638323
 40
0.9604934909203237
 40
0.9999999999999999
 40
0.9999999999999999
 40
0.9999999999999999
 40
0.9999999999999999
 10
612.8654921863254
 20
437.0435771294998
 30
0.0
 10
613.3985395149351
 20
438.2973901850169
 30
0.0
 10
614.3659628722454
 20
440.5729255277624
 30
0.0
 10
615.2497899315853
 20
443.7279012202133
 30
0.0
 10
616.0838542576657
 20
447.77828401357
 30
0.0
 10
616.5081701733919
 20
453.0927516754311
 30
0.0
 10
615.8181485188397
 20
459.8760484431232
 30
0.0
 10
613.8817589130446
 20
466.482507000495
 30
0.0
 10
610.7567470028968
 20
472.6423876257488
 30
0.0
 10
606.540550802556
 20
478.137757030606
 30
0.0
 10
601.3736405365995
 20
482.7709814742773
 30
0.0
 10
595.4320096269789
 20
486.3757328654063
 30
0.0
 10
588.9248516084263
 20
488.8209625582982
 30
0.0
 10
582.085055528694
 20
490.0206405144104
 30
0.0
 10
575.1569471474387
 20
489.9388142151263
 30
0.0
 10
568.3806957447329
 20
488.5876283320712
 30
0.0
 10
561.9894172180127
 20
486.026264714082
 30
0.0
 10
557.4947552060638
 20
483.1761651890383
 30
0.0
 10
554.6283450563112
 20
480.8286556527423
 30
0.0
 10
553.0650636079154
 20
479.3903111487039
 30
0.0
 10
551.4016028633872
 20
477.6793247128485
 30
0.0
 10
549.4636722262517
 20
475.3859255197819
 30
0.0
 10
547.2323608307157
 20
472.2387222395886
 30
0.0
 10
545.9423064797896
 20
469.6899641425412
 30
0.0
 10
545.246266477765
 20
468.3147991428992
 30
0.0
  0
SPLINE
  5
75
330
1F
100
AcDbEntity
  8
0
  6
Continuous
 62
     7
370
    25
100
AcDbSpline
210
0.0
220
0.0
230
1.0
 70
     8
 71
     3
 72
    29
 73
    25
 74
     0
 42
0.000000001
 43
0.00000001
 40
0.0
 40
0.0
 40
0.0
 40
0.0
 40
0.0349321406882635
 40
0.0633980643159913
 40
0.0838985515737896
 40
0.1410481598295769
 40
0.1993926718331193
 40
0.2579538570990187
 40
0.3167358876867428
 40
0.3756685440136572
 40
0.4347110736298801
 40
0.4938368192040536
 40
0.5530116495173841
 40
0.6120983013386021
 40
0.6710428299972753
 40
0.7298261731686598
 40
0.7884258360426925
 40
0.846795814520617
 40
0.8655669647427024
 40
0.8834823951604174
 40
0.9012873219477362
 40
0.9267778521638323
 40
0.9604934909203237
 40
1.0
 40
1.0
 40
1.0
 40
1.0
 10
545.246266477765
 20
468.3147991428992
 30
0.0
 10
544.7132191491551
 20
467.0609860873821
 30
0.0
 10
543.7457957918448
 20
464.7854507446366
 30
0.0
 10
542.8619687325049
 20
461.6304750521858
 30
0.0
 10
542.0279044064245
 20
457.5800922588289
 30
0.0
 10
541.6035884906984
 20
452.2656245969679
 30
0.0
 10
542.2936101452505
 20
445.4823278292758
 30
0.0
 10
544.2299997510457
 20
438.875869271904
 30
0.0
 10
547.3550116611934
 20
432.7159886466501
 30
0.0
 10
551.5712078615343
 20
427.2206192417929
 30
0.0
 10
556.7381181274907
 20
422.5873947981217
 30
0.0
 10
562.6797490371112
 20
418.9826434069926
 30
0.0
 10
569.1869070556639
 20
416.5374137141009
 30
0.0
 10
576.026703135396
 20
415.3377357579886
 30
0.0
 10
582.9548115166515
 20
415.4195620572726
 30
0.0
 10
589.7310629193574
 20
416.7707479403279
 30
0.0
 10
596.1223414460777
 20
419.332111558317
 30
0.0
 10
600.6170034580263
 20
422.1822110833608
 30
0.0
 10
603.4834136077791
 20
424.5297206196567
 30
0.0
 10
605.0466950561748
 20
425.9680651236952
 30
0.0
 10
606.710155800703
 20
427.6790515595506
 30
0.0
 10
608.6480864378385
 20
429.9724507526171
 30
0.0
 10
610.8793978333746
 20
433.1196540328104
 30
0.0
 10
612.1694521843007
 20
435.6684121298579
 30
0.0
 10
612.8654921863254
 20
437.0435771294998
 30
0.0
  0
SPLINE
  5
76
330
1F
100
AcDbEntity
  8
0
  6
Continuous
 62
     7
370
    25
100
AcDbSpline
210
0.0
220
0.0
230
1.0
 70
     8
 71
     3
 72
    29
 73
    25
 74
     0
 42
0.000000001
 43
0.00000001
 40
0.0
 40
0.0
 40
0.0
 40
0.0
 40
0.0349321406882635
 40
0.0633980643159913
 40
0.0838985515737895
 40
0.1410481598295768
 40
0.1993926718331194
 40
0.2579538570990187
 40
0.3167358876867428
 40
0.3756685440136572
 40
0.4347110736298804
 40
0.4938368192040539
 40
0.5530116495173846
 40
0.6120983013386024
 40
0.6710428299972758
 40
0.7298261731686602
 40
0.7884258360426926
 40
0.8467958145206171
 40
0.8655669647427026
 40
0.8834823951604173
 40
0.9012873219477361
 40
0.9267778521638321
 40
0.9604934909203238
 40
1.0
 40
1.0
 40
1.0
 40
1.0
 10
332.8654791260431
 20
437.0436427201429
 30
0.0
 10
333.3985264546529
 20
438.29745577566
 30
0.0
 10
334.3659498119631
 20
440.5729911184055
 30
0.0
 10
335.2497768713031
 20
443.7279668108563
 30
0.0
 10
336.0838411973835
 20
447.7783496042132
 30
0.0
 10
336.5081571131097
 20
453.0928172660742
 30
0.0
 10
335.8181354585575
 20
459.8761140337663
 30
0.0
 10
333.8817458527623
 20
466.4825725911381
 30
0.0
 10
330.7567339426144
 20
472.6424532163919
 30
0.0
 10
326.5405377422737
 20
478.1378226212492
 30
0.0
 10
321.3736274763172
 20
482.7710470649204
 30
0.0
 10
315.4319965666967
 20
486.3757984560495
 30
0.0
 10
308.9248385481439
 20
488.8210281489413
 30
0.0
 10
302.0850424684118
 20
490.0207061050535
 30
0.0
 10
295.1569340871563
 20
489.9388798057694
 30
0.0
 10
288.3806826844507
 20
488.5876939227143
 30
0.0
 10
281.9894041577302
 20
486.0263303047251
 30
0.0
 10
277.4947421457816
 20
483.1762307796814
 30
0.0
 10
274.628331996029
 20
480.8287212433854
 30
0.0
 10
273.0650505476332
 20
479.3903767393469
 30
0.0
 10
271.401589803105
 20
477.6793903034916
 30
0.0
 10
269.4636591659694
 20
475.385991110425
 30
0.0
 10
267.2323477704333
 20
472.2387878302318
 30
0.0
 10
265.9422934195072
 20
469.6900297331842
 30
0.0
 10
265.2462534174826
 20
468.3148647335423
 30
0.0
  0
SPLINE
  5
77
330
1F
100
AcDbEntity
  8
0
  6
Continuous
 62
     7
370
    25
100
AcDbSpline
210
0.0
220
0.0
230
1.0
 70
     8
 71
     3
 72
    29
 73
    25
 74
     0
 42
0.000000001
 43
0.00000001
 40
0.0
 40
0.0
 40
0.0
 40
0.0
 40
0.0349321406882635
 40
0.0633980643159913
 40
0.0838985515737896
 40
0.1410481598295769
 40
0.1993926718331193
 40
0.2579538570990187
 40
0.3167358876867428
 40
0.3756685440136573
 40
0.4347110736298802
 40
0.4938368192040535
 40
0.5530116495173841
 40
0.6120983013386024
 40
0.6710428299972753
 40
0.72982617316866
 40
0.7884258360426925
 40
0.846795814520617
 40
0.8655669647427026
 40
0.8834823951604175
 40
0.9012873219477363
 40
0.9267778521638323
 40
0.9604934909203235
 40
1.0
 40
1.0
 40
1.0
 40
1.0
 10
265.2462534174826
 20
468.3148647335423
 30
0.0
 10
264.7132060888728
 20
467.0610516780252
 30
0.0
 10
263.7457827315627
 20
464.7855163352796
 30
0.0
 10
262.8619556722226
 20
461.6305406428288
 30
0.0
 10
262.0278913461422
 20
457.580157849472
 30
0.0
 10
261.6035754304161
 20
452.265690187611
 30
0.0
 10
262.2935970849681
 20
445.4823934199189
 30
0.0
 10
264.2299866907636
 20
438.8759348625471
 30
0.0
 10
267.3549986009111
 20
432.7160542372932
 30
0.0
 10
271.5711948012521
 20
427.220684832436
 30
0.0
 10
276.7381050672084
 20
422.5874603887648
 30
0.0
 10
282.679735976829
 20
418.9827089976357
 30
0.0
 10
289.1868939953817
 20
416.537479304744
 30
0.0
 10
296.0266900751138
 20
415.3378013486316
 30
0.0
 10
302.9547984563694
 20
415.4196276479157
 30
0.0
 10
309.731049859075
 20
416.7708135309709
 30
0.0
 10
316.1223283857954
 20
419.3321771489601
 30
0.0
 10
320.616990397744
 20
422.1822766740039
 30
0.0
 10
323.4834005474968
 20
424.5297862102997
 30
0.0
 10
325.0466819958925
 20
425.9681307143383
 30
0.0
 10
326.7101427404207
 20
427.6791171501936
 30
0.0
 10
328.6480733775562
 20
429.9725163432603
 30
0.0
 10
330.8793847730923
 20
433.1197196234535
 30
0.0
 10
332.1694391240184
 20
435.668477720501
 30
0.0
 10
332.8654791260431
 20
437.0436427201429
 30
0.0
  0
LINE
  5
78
330
1F
100
AcDbEntity
  8
0
  6
Continuous
 62
     7
370
    25
100
AcDbLine
 10
564.305879332
 20
510.9789805982
 30
0.0
 11
564.305879332
 21
510.7692186358
 31
0.0
  0
LINE
  5
79
330
1F
100
AcDbEntity
  8
0
  6
Continuous
 62
     7
370
    25
100
AcDbLine
 10
593.805879332
 20
510.7544914807
 30
0.0
 11
593.805879332
 21
510.9789805982
 31
0.0
  0
LINE
  5
7A
330
1F
100
AcDbEntity
  8
0
  6
Continuous
 62
     7
370
    25
100
AcDbLine
 10
284.3058662718
 20
510.9790461888
 30
0.0
 11
284.3058662718
 21
510.7692150109
 31
0.0
  0
LINE
  5
7B
330
1F
100
AcDbEntity
  8
0
  6
Continuous
 62
     7
370
    25
100
AcDbLine
 10
313.8058662718
 20
510.7544956768
 30
0.0
 11
313.8058662718
 21
510.9790461888
 31
0.0
  0
ARC
  5
7C
330
1F
100
AcDbEntity
  8
0
  6
Continuous
 62
     7
370
    25
100
AcDbCircle
 10
579.055879332
 20
452.6791881362
 30
0.0
 40
36.31056399417623
100
AcDbArc
 50
155.1813223123
 51
335.1813223292
  0
ARC
  5
7D
330
1F
100
AcDbEntity
  8
0
  6
Continuous
 62
     7
370
    25
100
AcDbCircle
 10
579.055879332
 20
452.6791881362
 30
0.0
 40
36.31056399417623
100
AcDbArc
 50
335.1813223292
 51
155.1813223123
  0
ARC
  5
7E
330
1F
100
AcDbEntity
  8
0
  6
Continuous
 62
     7
370
    25
100
AcDbCircle
 10
299.0558662718
 20
452.6792537268
 30
0.0
 40
36.31056399417613
100
AcDbArc
 50
155.1813223123
 51
335.1813223292
  0
ARC
  5
7F
330
1F
100
AcDbEntity
  8
0
  6
Continuous
 62
     7
370
    25
100
AcDbCircle
 10
299.0558662718
 20
452.6792537268
 30
0.0
 40
36.31056399417613
100
AcDbArc
 50
335.1813223292
 51
155.1813223123
  0
SPLINE
  5
80
330
1F
100
AcDbEntity
  8
0
  6
Continuous
 62
     7
370
    25
100
AcDbSpline
210
0.0
220
0.0
230
1.0
 70
    24
 71
     3
 72
     9
 73
     5
 74
     0
 42
0.000000001
 43
0.00000001
 40
0.0
 40
0.0
 40
0.0
 40
0.0
 40
0.5599999999871768
 40
1.0
 40
1.0
 40
1.0
 40
1.0
 10
268.5717847007363
 20
429.4944737410622
 30
0.0
 10
268.4169234506546
 20
429.3766934496303
 30
0.0
 10
268.1403855040738
 20
429.1663715006402
 30
0.0
 10
267.7761229254265
 20
428.8893302611555
 30
0.0
 10
267.6158473908171
 20
428.7674321157787
 30
0.0
  0
SPLINE
  5
81
330
1F
100
AcDbEntity
  8
0
  6
Continuous
 62
     7
370
    25
100
AcDbSpline
210
0.0
220
0.0
230
1.0
 70
    24
 71
     3
 72
     9
 73
     5
 74
     0
 42
0.000000001
 43
0.00000001
 40
0.0
 40
0.0
 40
0.0
 40
0.0
 40
0.5600000000054222
 40
1.0
 40
1.0
 40
1.0
 40
1.0
 10
330.4958851527085
 20
476.5910753379063
 30
0.0
 10
330.2910011573985
 20
476.4352500642205
 30
0.0
 10
329.9251368800628
 20
476.1569906469269
 30
0.0
 10
329.6576444926662
 20
475.9535483311329
 30
0.0
 10
329.5399478422131
 20
475.8640337121846
 30
0.0
  0
ARC
  5
82
330
1F
100
AcDbEntity
  8
0
  6
Continuous
 62
     7
370
    25
100
AcDbCircle
 10
299.0558662718
 20
452.6792537268
 30
0.0
 40
38.29899805700023
100
AcDbArc
 50
37.2549368278
 51
217.2549368278
  0
ARC
  5
83
330
1F
100
AcDbEntity
  8
0
  6
Continuous
 62
     7
370
    25
100
AcDbCircle
 10
299.0558662718
 20
452.6792537268
 30
0.0
 40
39.50000000000038
100
AcDbArc
 50
37.2549368278
 51
217.2549368513
  0
ARC
  5
84
330
1F
100
AcDbEntity
  8
0
  6
Continuous
 62
     7
370
    25
100
AcDbCircle
 10
299.0558662718
 20
452.6792537268
 30
0.0
 40
38.29899805700023
100
AcDbArc
 50
217.2549368278
 51
37.2549368278
  0
ARC
  5
85
330
1F
100
AcDbEntity
  8
0
  6
Continuous
 62
     7
370
    25
100
AcDbCircle
 10
299.0558662718
 20
452.6792537268
 30
0.0
 40
39.50000000000038
100
AcDbArc
 50
217.2549368513
 51
37.2549368176
  0
SPLINE
  5
86
330
1F
100
AcDbEntity
  8
0
  6
Continuous
 62
     7
370
    25
100
AcDbSpline
210
0.0
220
0.0
230
1.0
 70
    24
 71
     3
 72
     9
 73
     5
 74
     0
 42
0.000000001
 43
0.00000001
 40
0.0
 40
0.0
 40
0.0
 40
0.0
 40
0.559999999987182
 40
0.9999999999999999
 40
0.9999999999999999
 40
0.9999999999999999
 40
0.9999999999999999
 10
548.5717977610185
 20
429.4944081504191
 30
0.0
 10
548.4169365109368
 20
429.3766278589872
 30
0.0
 10
548.1403985643559
 20
429.1663059099971
 30
0.0
 10
547.7761359857087
 20
428.8892646705124
 30
0.0
 10
547.6158604510994
 20
428.7673665251356
 30
0.0
  0
SPLINE
  5
87
330
1F
100
AcDbEntity
  8
0
  6
Continuous
 62
     7
370
    25
100
AcDbSpline
210
0.0
220
0.0
230
1.0
 70
    24
 71
     3
 72
     9
 73
     5
 74
     0
 42
0.000000001
 43
0.00000001
 40
0.0
 40
0.0
 40
0.0
 40
0.0
 40
0.5600000000054194
 40
1.0
 40
1.0
 40
1.0
 40
1.0
 10
610.4958982129907
 20
476.5910097472633
 30
0.0
 10
610.2910142176808
 20
476.4351844735774
 30
0.0
 10
609.9251499403451
 20
476.1569250562838
 30
0.0
 10
609.6576575529484
 20
475.9534827404898
 30
0.0
 10
609.5399609024954
 20
475.8639681215415
 30
0.0
  0
ARC
  5
88
330
1F
100
AcDbEntity
  8
0
  6
Continuous
 62
     7
370
    25
100
AcDbCircle
 10
579.055879332
 20
452.6791881362
 30
0.0
 40
38.29899805700022
100
AcDbArc
 50
37.2549368278
 51
217.2549368278
  0
ARC
  5
89
330
1F
100
AcDbEntity
  8
0
  6
Continuous
 62
     7
370
    25
100
AcDbCircle
 10
579.055879332
 20
452.6791881362
 30
0.0
 40
39.50000000000038
100
AcDbArc
 50
37.2549368278
 51
217.2549368513
  0
ARC
  5
8A
330
1F
100
AcDbEntity
  8
0
  6
Continuous
 62
     7
370
    25
100
AcDbCircle
 10
579.055879332
 20
452.6791881362
 30
0.0
 40
38.29899805700022
100
AcDbArc
 50
217.2549368278
 51
37.2549368278
  0
ARC
  5
8B
330
1F
100
AcDbEntity
  8
0
  6
Continuous
 62
     7
370
    25
100
AcDbCircle
 10
579.055879332
 20
452.6791881362
 30
0.0
 40
39.50000000000038
100
AcDbArc
 50
217.2549368513
 51
37.2549368176
  0
CIRCLE
  5
8C
330
1F
100
AcDbEntity
  8
0
  6
Continuous
 62
     7
370
    25
100
AcDbCircle
 10
299.0558662718
 20
452.6792537268
 30
0.0
 40
57.00000000000012
  0
SPLINE
  5
8D
330
1F
100
AcDbEntity
  8
0
  6
Continuous
 62
     7
370
    25
100
AcDbSpline
210
0.0
220
0.0
230
1.0
 70
     8
 71
     3
 72
    35
 73
    31
 74
     0
 42
0.000000001
 43
0.00000001
 40
0.0
 40
0.0
 40
0.0
 40
0.0
 40
0.0282546077220527
 40
0.058383442663794
 40
0.0903495399278271
 40
0.1258616479012823
 40
0.1640104750491879
 40
0.2048405213069455
 40
0.237462481584744
 40
0.2716127104071187
 40
0.3071914351681353
 40
0.3440550017625771
 40
0.3820151215667332
 40
0.4208413631481727
 40
0.4602672732901845
 40
0.5000000044809542
 40
0.5397327356717239
 40
0.5791586458137361
 40
0.6179848873951755
 40
0.6559450071993316
 40
0.6928085737937731
 40
0.7283872985547899
 40
0.7625375273771648
 40
0.7951594876549632
 40
0.835992837618201
 40
0.8741415922595376
 40
0.9096504660940498
 40
0.9416198397637139
 40
0.9717470283705448
 40
1.0
 40
1.0
 40
1.0
 40
1.0
 10
343.0637271765221
 20
448.0336221997898
 30
0.0
 10
343.1676487363167
 20
449.3389807889827
 30
0.0
 10
343.382385337422
 20
452.0362869805089
 30
0.0
 10
343.2315887611237
 20
456.2274685197703
 30
0.0
 10
342.6578355870168
 20
460.7177709908241
 30
0.0
 10
341.5173523396435
 20
465.486400254702
 30
0.0
 10
339.6948850277771
 20
470.4792024912259
 30
0.0
 10
337.3276541991984
 20
475.0910005917593
 30
0.0
 10
334.5521161598953
 20
479.2401755602058
 30
0.0
 10
331.5125453753812
 20
482.8899402435368
 30
0.0
 10
327.9500085517388
 20
486.3225807036633
 30
0.0
 10
323.8796531500515
 20
489.4364666116397
 30
0.0
 10
319.341973193797
 20
492.1288259434892
 30
0.0
 10
314.4038769728556
 20
494.3037855437378
 30
0.0
 10
309.1571233089397
 20
495.8806296061209
 30
0.0
 10
303.7135801902754
 20
496.8015705896959
 30
0.0
 10
298.1977293262851
 20
497.0375435107431
 30
0.0
 10
292.7373774121349
 20
496.5909808631529
 30
0.0
 10
287.4539927496007
 20
495.4950383450627
 30
0.0
 10
282.4541651029863
 20
493.8094933811038
 30
0.0
 10
277.8233464827143
 20
491.6141353272096
 30
0.0
 10
273.6225967466377
 20
489.0010161130093
 30
0.0
 10
269.887951569201
 20
486.0663619079123
 30
0.0
 10
266.307127565837
 20
482.5880719878404
 30
0.0
 10
263.0290704147936
 20
478.5720573191662
 30
0.0
 10
260.2042900174517
 20
474.0698261559398
 30
0.0
 10
258.0933040478506
 20
469.6444201400994
 30
0.0
 10
256.5946260008698
 20
465.3729649691205
 30
0.0
 10
255.5721301558981
 20
461.3056282013169
 30
0.0
 10
255.218933999872
 20
458.6230931696839
 30
0.0
 10
255.0480053670033
 20
457.3248852538955
 30
0.0
  0
SPLINE
  5
8E
330
1F
100
AcDbEntity
  8
0
  6
Continuous
 62
     7
370
    25
100
AcDbSpline
210
0.0
220
0.0
230
1.0
 70
     8
 71
     3
 72
    35
 73
    31
 74
     0
 42
0.000000001
 43
0.00000001
 40
0.0
 40
0.0
 40
0.0
 40
0.0
 40
0.028254607722473
 40
0.0583834426636161
 40
0.0903495399278292
 40
0.1258616479030817
 40
0.1640104750499178
 40
0.2048405213069401
 40
0.2374624815847386
 40
0.2716127104071137
 40
0.3071914351681301
 40
0.3440550017625722
 40
0.3820151215667285
 40
0.4208413631481681
 40
0.4602672732901804
 40
0.5000000044809503
 40
0.5397327356717201
 40
0.5791586458137321
 40
0.6179848873951717
 40
0.655945007199328
 40
0.69280857379377
 40
0.7283872985547867
 40
0.7625375273771617
 40
0.7951594876549601
 40
0.8359928376182583
 40
0.8741415922594719
 40
0.9096504660940465
 40
0.9416198397647851
 40
0.9717470283710188
 40
1.0
 40
1.0
 40
1.0
 40
1.0
 10
255.0480053670033
 20
457.3248852538955
 30
0.0
 10
254.9440838072039
 20
456.0195266646832
 30
0.0
 10
254.7293472060923
 20
453.3222204731652
 30
0.0
 10
254.8801437824224
 20
449.1310389339051
 30
0.0
 10
255.4538969565141
 20
444.6407364627862
 30
0.0
 10
256.5943802039043
 20
439.8721071988655
 30
0.0
 10
258.4168475158231
 20
434.8793049623632
 30
0.0
 10
260.7840783443413
 20
430.2675068618946
 30
0.0
 10
263.5596163836314
 20
426.1183318934793
 30
0.0
 10
266.5991871681441
 20
422.4685672101477
 30
0.0
 10
270.1617239917869
 20
419.0359267500213
 30
0.0
 10
274.2320793934741
 20
415.9220408420447
 30
0.0
 10
278.7697593497285
 20
413.2296815101953
 30
0.0
 10
283.70785557067
 20
411.0547219099467
 30
0.0
 10
288.954609234586
 20
409.4778778475635
 30
0.0
 10
294.3981523532502
 20
408.5569368639887
 30
0.0
 10
299.9140032172404
 20
408.3209639429414
 30
0.0
 10
305.3743551313905
 20
408.7675265905316
 30
0.0
 10
310.657739793925
 20
409.8634691086219
 30
0.0
 10
315.6575674405393
 20
411.5490140725807
 30
0.0
 10
320.2883860608114
 20
413.744372126475
 30
0.0
 10
324.4891357968877
 20
416.3574913406753
 30
0.0
 10
328.2237809743248
 20
419.2921455457721
 30
0.0
 10
331.8046049776896
 20
422.7704354658468
 30
0.0
 10
335.082662128736
 20
426.7864501345153
 30
0.0
 10
337.9074425260686
 20
431.2886812977474
 30
0.0
 10
340.0184284956947
 20
435.7140873136273
 30
0.0
 10
341.5171065426838
 20
439.9855424846313
 30
0.0
 10
342.5396023876286
 20
444.052879252441
 30
0.0
 10
342.8927985436537
 20
446.7354142840236
 30
0.0
 10
343.0637271765221
 20
448.0336221997898
 30
0.0
  0
ARC
  5
8F
330
1F
100
AcDbEntity
  8
0
  6
Continuous
 62
     7
370
    25
100
AcDbCircle
 10
299.0558662718
 20
452.6792537268
 30
0.0
 40
40.3547623089488
100
AcDbArc
 50
353.973964907
 51
173.973964907
  0
ARC
  5
90
330
1F
100
AcDbEntity
  8
0
  6
Continuous
 62
     7
370
    25
100
AcDbCircle
 10
299.0558662718
 20
452.6792537268
 30
0.0
 40
40.3547623089488
100
AcDbArc
 50
173.973964907
 51
353.973964907
  0
CIRCLE
  5
91
330
1F
100
AcDbEntity
  8
0
  6
Continuous
 62
     7
370
    25
100
AcDbCircle
 10
299.0558662718
 20
452.6792537268
 30
0.0
 40
39.93812333100008
  0
CIRCLE
  5
92
330
1F
100
AcDbEntity
  8
0
  6
Continuous
 62
     7
370
    25
100
AcDbCircle
 10
579.055879332
 20
452.6791881362
 30
0.0
 40
57.00000000000012
  0
SPLINE
  5
93
330
1F
100
AcDbEntity
  8
0
  6
Continuous
 62
     7
370
    25
100
AcDbSpline
210
0.0
220
0.0
230
1.0
 70
     8
 71
     3
 72
    35
 73
    31
 74
     0
 42
0.000000001
 43
0.00000001
 40
0.0
 40
0.0
 40
0.0
 40
0.0
 40
0.0282546077220525
 40
0.0583834426637939
 40
0.0903495399278271
 40
0.1258616479012822
 40
0.1640104750491879
 40
0.2048405213069454
 40
0.237462481584744
 40
0.2716127104071188
 40
0.3071914351681353
 40
0.344055001762577
 40
0.3820151215667331
 40
0.4208413631481727
 40
0.4602672732901846
 40
0.5000000044809544
 40
0.5397327356717241
 40
0.5791586458137359
 40
0.6179848873951754
 40
0.6559450071993316
 40
0.6928085737937734
 40
0.7283872985547899
 40
0.7625375273771647
 40
0.7951594876549631
 40
0.8359928376182009
 40
0.8741415922595376
 40
0.9096504660940496
 40
0.9416198397637138
 40
0.9717470283705448
 40
1.0
 40
1.0
 40
1.0
 40
1.0
 10
623.0637402368043
 20
448.0335566091467
 30
0.0
 10
623.1676617965988
 20
449.3389151983396
 30
0.0
 10
623.3823983977043
 20
452.0362213898658
 30
0.0
 10
623.2316018214059
 20
456.2274029291272
 30
0.0
 10
622.6578486472991
 20
460.7177054001811
 30
0.0
 10
621.5173653999258
 20
465.4863346640589
 30
0.0
 10
619.6948980880594
 20
470.4791369005828
 30
0.0
 10
617.3276672594806
 20
475.0909350011162
 30
0.0
 10
614.5521292201777
 20
479.2401099695627
 30
0.0
 10
611.5125584356633
 20
482.8898746528937
 30
0.0
 10
607.950021612021
 20
486.3225151130202
 30
0.0
 10
603.8796662103337
 20
489.4364010209966
 30
0.0
 10
599.3419862540793
 20
492.1287603528461
 30
0.0
 10
594.4038900331377
 20
494.3037199530947
 30
0.0
 10
589.1571363692218
 20
495.8805640154779
 30
0.0
 10
583.7135932505576
 20
496.8015049990528
 30
0.0
 10
578.1977423865674
 20
497.0374779201
 30
0.0
 10
572.7373904724172
 20
496.5909152725098
 30
0.0
 10
567.4540058098829
 20
495.4949727544196
 30
0.0
 10
562.4541781632685
 20
493.8094277904607
 30
0.0
 10
557.8233595429965
 20
491.6140697365664
 30
0.0
 10
553.6226098069199
 20
489.0009505223663
 30
0.0
 10
549.8879646294832
 20
486.0662963172692
 30
0.0
 10
546.3071406261192
 20
482.5880063971973
 30
0.0
 10
543.0290834750759
 20
478.5719917285231
 30
0.0
 10
540.2043030777339
 20
474.0697605652967
 30
0.0
 10
538.0933171081329
 20
469.6443545494563
 30
0.0
 10
536.5946390611522
 20
465.3728993784774
 30
0.0
 10
535.5721432161803
 20
461.3055626106738
 30
0.0
 10
535.2189470601542
 20
458.6230275790408
 30
0.0
 10
535.0480184272856
 20
457.3248196632524
 30
0.0
  0
SPLINE
  5
94
330
1F
100
AcDbEntity
  8
0
  6
Continuous
 62
     7
370
    25
100
AcDbSpline
210
0.0
220
0.0
230
1.0
 70
     8
 71
     3
 72
    35
 73
    31
 74
     0
 42
0.000000001
 43
0.00000001
 40
0.0
 40
0.0
 40
0.0
 40
0.0
 40
0.028254607722473
 40
0.0583834426636161
 40
0.0903495399278292
 40
0.1258616479030815
 40
0.1640104750499178
 40
0.20484052130694
 40
0.2374624815847385
 40
0.2716127104071135
 40
0.3071914351681301
 40
0.3440550017625721
 40
0.3820151215667283
 40
0.4208413631481679
 40
0.4602672732901801
 40
0.5000000044809499
 40
0.5397327356717199
 40
0.5791586458137319
 40
0.6179848873951717
 40
0.6559450071993279
 40
0.6928085737937699
 40
0.7283872985547866
 40
0.7625375273771615
 40
0.7951594876549601
 40
0.8359928376182582
 40
0.8741415922594716
 40
0.9096504660940465
 40
0.941619839764785
 40
0.9717470283710186
 40
1.0
 40
1.0
 40
1.0
 40
1.0
 10
535.0480184272856
 20
457.3248196632524
 30
0.0
 10
534.944096867486
 20
456.0194610740401
 30
0.0
 10
534.7293602663744
 20
453.3221548825222
 30
0.0
 10
534.8801568427047
 20
449.1309733432619
 30
0.0
 10
535.4539100167963
 20
444.6406708721432
 30
0.0
 10
536.5943932641866
 20
439.8720416082223
 30
0.0
 10
538.4168605761051
 20
434.87923937172
 30
0.0
 10
540.7840914046236
 20
430.2674412712515
 30
0.0
 10
543.5596294439135
 20
426.1182663028362
 30
0.0
 10
546.5992002284263
 20
422.4685016195045
 30
0.0
 10
550.161737052069
 20
419.0358611593782
 30
0.0
 10
554.2320924537564
 20
415.9219752514017
 30
0.0
 10
558.7697724100107
 20
413.2296159195523
 30
0.0
 10
563.7078686309522
 20
411.0546563193037
 30
0.0
 10
568.9546222948682
 20
409.4778122569205
 30
0.0
 10
574.3981654135324
 20
408.5568712733456
 30
0.0
 10
579.9140162775227
 20
408.3208983522983
 30
0.0
 10
585.3743681916728
 20
408.7674609998886
 30
0.0
 10
590.6577528542072
 20
409.8634035179788
 30
0.0
 10
595.6575805008215
 20
411.5489484819377
 30
0.0
 10
600.2883991210934
 20
413.7443065358319
 30
0.0
 10
604.48914885717
 20
416.3574257500322
 30
0.0
 10
608.2237940346071
 20
419.292079955129
 30
0.0
 10
611.8046180379719
 20
422.7703698752036
 30
0.0
 10
615.0826751890182
 20
426.7863845438721
 30
0.0
 10
617.9074555863508
 20
431.2886157071044
 30
0.0
 10
620.0184415559769
 20
435.7140217229842
 30
0.0
 10
621.5171196029661
 20
439.9854768939882
 30
0.0
 10
622.5396154479108
 20
444.0528136617979
 30
0.0
 10
622.8928116039359
 20
446.7353486933806
 30
0.0
 10
623.0637402368043
 20
448.0335566091467
 30
0.0
  0
ARC
  5
95
330
1F
100
AcDbEntity
  8
0
  6
Continuous
 62
     7
370
    25
100
AcDbCircle
 10
579.055879332
 20
452.6791881362
 30
0.0
 40
40.3547623089488
100
AcDbArc
 50
353.973964907
 51
173.973964907
  0
ARC
  5
96
330
1F
100
AcDbEntity
  8
0
  6
Continuous
 62
     7
370
    25
100
AcDbCircle
 10
579.055879332
 20
452.6791881362
 30
0.0
 40
40.3547623089488
100
AcDbArc
 50
173.973964907
 51
353.973964907
  0
CIRCLE
  5
97
330
1F
100
AcDbEntity
  8
0
  6
Continuous
 62
     7
370
    25
100
AcDbCircle
 10
579.055879332
 20
452.6791881362
 30
0.0
 40
39.93812333100013
  0
SPLINE
  5
98
330
1F
100
AcDbEntity
  8
0
  6
Continuous
 62
     7
370
    25
100
AcDbSpline
210
0.0
220
0.0
230
1.0
 70
     8
 71
     3
 72
     8
 73
     4
 74
     0
 42
0.000000001
 43
0.00000001
 40
0.0
 40
0.0
 40
0.0
 40
0.0
 40
1.0
 40
1.0
 40
1.0
 40
1.0
 10
760.8915171002691
 20
592.0002167458572
 30
0.0
 10
760.2871275808723
 20
592.1192742234053
 30
0.0
 10
759.6718672828033
 20
592.1792259891356
 30
0.0
 10
759.0558662708904
 20
592.1792537307412
 30
0.0
  0
LINE
  5
99
330
1F
100
AcDbEntity
  8
0
  6
Continuous
 62
     7
370
    25
100
AcDbLine
 10
759.0558662709
 20
592.1792537307
 30
0.0
 11
759.0558662709
 21
592.6792537312
 31
0.0
  0
SPLINE
  5
9A
330
1F
100
AcDbEntity
  8
0
  6
Continuous
 62
     7
370
    25
100
AcDbSpline
210
0.0
220
0.0
230
1.0
 70
     8
 71
     3
 72
     8
 73
     4
 74
     0
 42
0.000000001
 43
0.00000001
 40
0.0
 40
0.0
 40
0.0
 40
0.0
 40
1.0
 40
1.0
 40
1.0
 40
1.0
 10
759.0558662708905
 20
592.6792537312231
 30
0.0
 10
759.7046982711613
 20
592.679225954439
 30
0.0
 10
760.3515959605627
 20
592.6161834661208
 30
0.0
 10
760.9881539789056
 20
592.4907891805573
 30
0.0
  0
SPLINE
  5
9B
330
1F
100
AcDbEntity
  8
0
  6
Continuous
 62
     7
370
    25
100
AcDbSpline
210
0.0
220
0.0
230
1.0
 70
    24
 71
     3
 72
    10
 73
     6
 74
     0
 42
0.000000001
 43
0.00000001
 40
0.0
 40
0.0
 40
0.0
 40
0.0
 40
0.5
 40
0.5
 40
1.0
 40
1.0
 40
1.0
 40
1.0
 10
760.9881552537108
 20
592.4907889294153
 30
0.0
 10
760.9881552537108
 20
592.4907889294153
 30
0.0
 10
760.9777402606846
 20
592.4379184461883
 30
0.0
 10
760.9419609270917
 20
592.2562888808262
 30
0.0
 10
760.916816909676
 20
592.1286482431706
 30
0.0
 10
760.8915171002661
 20
592.000216745839
 30
0.0
  0
SPLINE
  5
9C
330
1F
100
AcDbEntity
  8
0
  6
Continuous
 62
     7
370
    25
100
AcDbSpline
210
0.0
220
0.0
230
1.0
 70
     8
 71
     3
 72
    10
 73
     6
 74
     0
 42
0.000000001
 43
0.00000001
 40
0.0
 40
0.0
 40
0.0
 40
0.0
 40
0.5
 40
0.5
 40
1.0
 40
1.0
 40
1.0
 40
1.0
 10
760.9881458988905
 20
592.4907907722231
 30
0.0
 10
761.6317359114563
 20
592.3640101807745
 30
0.0
 10
762.2682624053306
 20
592.1725038293234
 30
0.0
 10
763.4914674788431
 20
591.6660811340911
 30
0.0
 10
764.0781024480865
 20
591.3521388131636
 30
0.0
 10
764.6273909258887
 20
590.9833666972244
 30
0.0
  0
LINE
  5
9D
330
1F
100
AcDbEntity
  8
0
  6
Continuous
 62
     7
370
    25
100
AcDbLine
 10
764.6273909259
 20
590.9833666972
 30
0.0
 11
764.3486925133
 21
590.5682435895
 31
0.0
  0
SPLINE
  5
9E
330
1F
100
AcDbEntity
  8
0
  6
Continuous
 62
     7
370
    25
100
AcDbSpline
210
0.0
220
0.0
230
1.0
 70
     8
 71
     3
 72
    10
 73
     6
 74
     0
 42
0.000000001
 43
0.00000001
 40
0.0
 40
0.0
 40
0.0
 40
0.0
 40
0.5
 40
0.5
 40
1.0
 40
1.0
 40
1.0
 40
1.0
 10
764.3486925131676
 20
590.5682435892832
 30
0.0
 10
763.8265903098584
 20
590.9187638387182
 30
0.0
 10
763.2706236708382
 20
591.2162289667743
 30
0.0
 10
762.1098514722431
 20
591.6970565695028
 30
0.0
 10
761.508489170033
 20
591.8786789914674
 30
0.0
 10
760.8915171002654
 20
592.0002167458392
 30
0.0
  0
SPLINE
  5
9F
330
1F
100
AcDbEntity
  8
0
  6
Continuous
 62
     7
370
    25
100
AcDbSpline
210
0.0
220
0.0
230
1.0
 70
     8
 71
     3
 72
    10
 73
     6
 74
     0
 42
0.000000001
 43
0.00000001
 40
0.0
 40
0.0
 40
0.0
 40
0.0
 40
0.5
 40
0.5
 40
1.0
 40
1.0
 40
1.0
 40
1.0
 10
191.1668764129707
 20
587.9720799737089
 30
0.0
 10
190.8163561638073
 20
587.449977770237
 30
0.0
 10
190.5188910374863
 20
586.8940111303896
 30
0.0
 10
190.0380634331924
 20
585.7332389324735
 30
0.0
 10
189.8564410122125
 20
585.1318766300963
 30
0.0
 10
189.7349032563242
 20
584.5149045608512
 30
0.0
  0
SPLINE
  5
A0
330
1F
100
AcDbEntity
  8
0
  6
Continuous
 62
     7
370
    25
100
AcDbSpline
210
0.0
220
0.0
230
1.0
 70
    24
 71
     3
 72
    10
 73
     6
 74
     0
 42
0.000000001
 43
0.00000001
 40
0.0
 40
0.0
 40
0.0
 40
0.0
 40
0.5
 40
0.5
 40
1.0
 40
1.0
 40
1.0
 40
1.0
 10
189.7349032563063
 20
584.514904560855
 30
0.0
 10
189.6064716932185
 20
584.5402040364589
 30
0.0
 10
189.4788309902115
 20
584.5653477221242
 30
0.0
 10
189.2972013318558
 20
584.6011265836441
 30
0.0
 10
189.2443308215596
 20
584.6115414392548
 30
0.0
 10
189.2443308215596
 20
584.6115414392548
 30
0.0
  0
SPLINE
  5
A1
330
1F
100
AcDbEntity
  8
0
  6
Continuous
 62
     7
370
    25
100
AcDbSpline
210
0.0
220
0.0
230
1.0
 70
     8
 71
     3
 72
    10
 73
     6
 74
     0
 42
0.000000001
 43
0.00000001
 40
0.0
 40
0.0
 40
0.0
 40
0.0
 40
0.5
 40
0.5
 40
1.0
 40
1.0
 40
1.0
 40
1.0
 10
189.2443292298905
 20
584.6115333592231
 30
0.0
 10
189.3711098236527
 20
585.2551233754846
 30
0.0
 10
189.5626161634307
 20
585.8916498375952
 30
0.0
 10
190.0690388625103
 20
587.1148549238612
 30
0.0
 10
190.382981186367
 20
587.7014899039754
 30
0.0
 10
190.7517533048905
 20
588.250778386223
 30
0.0
  0
LINE
  5
A2
330
1F
100
AcDbEntity
  8
0
  6
Continuous
 62
     7
370
    25
100
AcDbLine
 10
191.1668764134
 20
587.9720799734
 30
0.0
 11
190.7517533049
 21
588.2507783862
 31
0.0
  0
SPLINE
  5
A3
330
1F
100
AcDbEntity
  8
0
  6
Continuous
 62
     7
370
    25
100
AcDbSpline
210
0.0
220
0.0
230
1.0
 70
     8
 71
     3
 72
    10
 73
     6
 74
     0
 42
0.000000001
 43
0.00000001
 40
0.0
 40
0.0
 40
0.0
 40
0.0
 40
0.5
 40
0.5
 40
1.0
 40
1.0
 40
1.0
 40
1.0
 10
197.2201013739464
 20
592.0002052840188
 30
0.0
 10
196.6030641204129
 20
591.8788785210177
 30
0.0
 10
195.9995967326616
 20
591.696090344369
 30
0.0
 10
194.8388103804024
 20
591.215296912676
 30
0.0
 10
194.2851565731083
 20
590.9184959969712
 30
0.0
 10
193.7629512670458
 20
590.5681710361971
 30
0.0
  0
SPLINE
  5
A4
330
1F
100
AcDbEntity
  8
0
  6
Continuous
 62
     7
370
    25
100
AcDbSpline
210
0.0
220
0.0
230
1.0
 70
    24
 71
     3
 72
    10
 73
     6
 74
     0
 42
0.000000001
 43
0.00000001
 40
0.0
 40
0.0
 40
0.0
 40
0.0
 40
0.5
 40
0.5
 40
1.0
 40
1.0
 40
1.0
 40
1.0
 10
193.762951267036
 20
590.5681710362128
 30
0.0
 10
193.6900258684147
 20
590.676875296014
 30
0.0
 10
193.6175495321985
 20
590.7849101731679
 30
0.0
 10
193.5144174444268
 20
590.9386412116664
 30
0.0
 10
193.4843967630149
 20
590.9833907229929
 30
0.0
 10
193.4843967630149
 20
590.9833907229928
 30
0.0
  0
SPLINE
  5
A5
330
1F
100
AcDbEntity
  8
0
  6
Continuous
 62
     7
370
    25
100
AcDbSpline
210
0.0
220
0.0
230
1.0
 70
     8
 71
     3
 72
    10
 73
     6
 74
     0
 42
0.000000001
 43
0.00000001
 40
0.0
 40
0.0
 40
0.0
 40
0.0
 40
0.5
 40
0.5
 40
1.0
 40
1.0
 40
1.0
 40
1.0
 10
193.4843899228905
 20
590.9833861342232
 30
0.0
 10
194.0291242090478
 20
591.3488255818785
 30
0.0
 10
194.6146317907213
 20
591.6635023141954
 30
0.0
 10
195.83766334495
 20
592.1703440097043
 30
0.0
 10
196.474467668344
 20
592.3631668412982
 30
0.0
 10
197.1236345468905
 20
592.4908111862231
 30
0.0
  0
LINE
  5
A6
330
1F
100
AcDbEntity
  8
0
  6
Continuous
 62
     7
370
    25
100
AcDbLine
 10
197.2201013738
 20
592.0002052849
 30
0.0
 11
197.1236345469
 21
592.4908111862
 31
0.0
  0
SPLINE
  5
A7
330
1F
100
AcDbEntity
  8
0
  6
Continuous
 62
     7
370
    25
100
AcDbSpline
210
0.0
220
0.0
230
1.0
 70
     8
 71
     3
 72
     8
 73
     4
 74
     0
 42
0.000000001
 43
0.00000001
 40
0.0
 40
0.0
 40
0.0
 40
0.0
 40
1.0
 40
1.0
 40
1.0
 40
1.0
 10
766.1269340828904
 20
589.7503215432232
 30
0.0
 10
766.5857079491531
 20
589.2915083951277
 30
0.0
 10
766.998555919423
 20
588.7895048796152
 30
0.0
 10
767.3600032621914
 20
588.2507232397973
 30
0.0
  0
SPLINE
  5
A8
330
1F
100
AcDbEntity
  8
0
  6
Continuous
 62
     7
370
    25
100
AcDbSpline
210
0.0
220
0.0
230
1.0
 70
    24
 71
     3
 72
    10
 73
     6
 74
     0
 42
0.000000001
 43
0.00000001
 40
0.0
 40
0.0
 40
0.0
 40
0.0
 40
0.5
 40
0.5
 40
1.0
 40
1.0
 40
1.0
 40
1.0
 10
767.3600039886749
 20
588.250722156848
 30
0.0
 10
767.3600039886747
 20
588.250722156848
 30
0.0
 10
767.3152543990515
 20
588.2207015921479
 30
0.0
 10
767.161523091574
 20
588.1175699053233
 30
0.0
 10
767.0534880253945
 20
588.0450938508739
 30
0.0
 10
766.9447835753966
 20
587.9721687357651
 30
0.0
  0
SPLINE
  5
A9
330
1F
100
AcDbEntity
  8
0
  6
Continuous
 62
     7
370
    25
100
AcDbSpline
210
0.0
220
0.0
230
1.0
 70
     8
 71
     3
 72
     8
 73
     4
 74
     0
 42
0.000000001
 43
0.00000001
 40
0.0
 40
0.0
 40
0.0
 40
0.0
 40
1.0
 40
1.0
 40
1.0
 40
1.0
 10
766.944783575412
 20
587.9721687357755
 30
0.0
 10
766.6015977919991
 20
588.4837292793512
 30
0.0
 10
766.2089298915837
 20
588.9611816594402
 30
0.0
 10
765.7733647126048
 20
589.3967841330425
 30
0.0
  0
LINE
  5
AA
330
1F
100
AcDbEntity
  8
0
  6
Continuous
 62
     7
370
    25
100
AcDbLine
 10
766.1269340829
 20
589.7503215432
 30
0.0
 11
765.7733647126
 21
589.396784133
 31
0.0
  0
SPLINE
  5
AB
330
1F
100
AcDbEntity
  8
0
  6
Continuous
 62
     7
370
    25
100
AcDbSpline
210
0.0
220
0.0
230
1.0
 70
     8
 71
     3
 72
     8
 73
     4
 74
     0
 42
0.000000001
 43
0.00000001
 40
0.0
 40
0.0
 40
0.0
 40
0.0
 40
1.0
 40
1.0
 40
1.0
 40
1.0
 10
193.7629512670354
 20
590.5681710362124
 30
0.0
 10
193.2513907232434
 20
590.2249852526405
 30
0.0
 10
192.7739383428752
 20
589.8323173521181
 30
0.0
 10
192.3383358690707
 20
589.3967521729371
 30
0.0
  0
LINE
  5
AC
330
1F
100
AcDbEntity
  8
0
  6
Continuous
 62
     7
370
    25
100
AcDbLine
 10
192.3383358691
 20
589.3967521729
 30
0.0
 11
191.9847984589
 21
589.7503215432
 31
0.0
  0
SPLINE
  5
AD
330
1F
100
AcDbEntity
  8
0
  6
Continuous
 62
     7
370
    25
100
AcDbSpline
210
0.0
220
0.0
230
1.0
 70
     8
 71
     3
 72
     8
 73
     4
 74
     0
 42
0.000000001
 43
0.00000001
 40
0.0
 40
0.0
 40
0.0
 40
0.0
 40
1.0
 40
1.0
 40
1.0
 40
1.0
 10
191.9847984588905
 20
589.7503215432232
 30
0.0
 10
192.4436116071817
 20
590.2090954096815
 30
0.0
 10
192.9456151229285
 20
590.6219433800698
 30
0.0
 10
193.4843967630059
 20
590.9833907229868
 30
0.0
  0
SPLINE
  5
AE
330
1F
100
AcDbEntity
  8
0
  6
Continuous
 62
     7
370
    25
100
AcDbSpline
210
0.0
220
0.0
230
1.0
 70
     8
 71
     3
 72
    10
 73
     6
 74
     0
 42
0.000000001
 43
0.00000001
 40
0.0
 40
0.0
 40
0.0
 40
0.0
 40
0.5
 40
0.5
 40
1.0
 40
1.0
 40
1.0
 40
1.0
 10
767.3599986738905
 20
588.2507300792231
 30
0.0
 10
767.7254381289954
 20
587.7059957801439
 30
0.0
 10
768.0401148459528
 20
587.1204882283924
 30
0.0
 10
768.5469565441554
 20
585.8974566715958
 30
0.0
 10
768.7397793789132
 20
585.2606523455945
 30
0.0
 10
768.8674237268904
 20
584.6114854562236
 30
0.0
  0
LINE
  5
AF
330
1F
100
AcDbEntity
  8
0
  6
Continuous
 62
     7
370
    25
100
AcDbLine
 10
768.8674237269
 20
584.6114854562
 30
0.0
 11
768.3768178245
 21
584.5150186284
 31
0.0
  0
SPLINE
  5
B0
330
1F
100
AcDbEntity
  8
0
  6
Continuous
 62
     7
370
    25
100
AcDbSpline
210
0.0
220
0.0
230
1.0
 70
     8
 71
     3
 72
    10
 73
     6
 74
     0
 42
0.000000001
 43
0.00000001
 40
0.0
 40
0.0
 40
0.0
 40
0.0
 40
0.5
 40
0.5
 40
1.0
 40
1.0
 40
1.0
 40
1.0
 10
768.3768178248182
 20
584.5150186284952
 30
0.0
 10
768.2554910609416
 20
585.1320558820167
 30
0.0
 10
768.0727028835363
 20
585.7355232696627
 30
0.0
 10
767.591909452345
 20
586.8963096224553
 30
0.0
 10
767.2951085353566
 20
587.4499634291828
 30
0.0
 10
766.9447835753966
 20
587.9721687357652
 30
0.0
  0
SPLINE
  5
B1
330
1F
100
AcDbEntity
  8
0
  6
Continuous
 62
     7
370
    25
100
AcDbSpline
210
0.0
220
0.0
230
1.0
 70
     8
 71
     3
 72
     8
 73
     4
 74
     0
 42
0.000000001
 43
0.00000001
 40
0.0
 40
0.0
 40
0.0
 40
0.0
 40
1.0
 40
1.0
 40
1.0
 40
1.0
 10
189.7349032563063
 20
584.5149045608548
 30
0.0
 10
189.6158457790384
 20
583.9105150413207
 30
0.0
 10
189.5558940129781
 20
583.29525474322
 30
0.0
 10
189.5558662713726
 20
582.6792537312231
 30
0.0
  0
LINE
  5
B2
330
1F
100
AcDbEntity
  8
0
  6
Continuous
 62
     7
370
    25
100
AcDbLine
 10
189.5558662714
 20
582.6792537312
 30
0.0
 11
189.0558662709
 21
582.6792537312
 31
0.0
  0
SPLINE
  5
B3
330
1F
100
AcDbEntity
  8
0
  6
Continuous
 62
     7
370
    25
100
AcDbSpline
210
0.0
220
0.0
230
1.0
 70
     8
 71
     3
 72
     8
 73
     4
 74
     0
 42
0.000000001
 43
0.00000001
 40
0.0
 40
0.0
 40
0.0
 40
0.0
 40
1.0
 40
1.0
 40
1.0
 40
1.0
 10
189.0558662708905
 20
582.6792537312231
 30
0.0
 10
189.0558940476747
 20
583.3280857314937
 30
0.0
 10
189.1189365360038
 20
583.9749834192377
 30
0.0
 10
189.2443308215564
 20
584.611541439238
 30
0.0
  0
SPLINE
  5
B4
330
1F
100
AcDbEntity
  8
0
  6
Continuous
 62
     7
370
    25
100
AcDbSpline
210
0.0
220
0.0
230
1.0
 70
     8
 71
     3
 72
     8
 73
     4
 74
     0
 42
0.000000001
 43
0.00000001
 40
0.0
 40
0.0
 40
0.0
 40
0.0
 40
1.0
 40
1.0
 40
1.0
 40
1.0
 10
769.0558662708905
 20
162.6792537312231
 30
0.0
 10
769.055838495773
 20
162.0304217309525
 30
0.0
 10
768.9927960051091
 20
161.3835240415509
 30
0.0
 10
768.8674017212247
 20
160.7469660232086
 30
0.0
  0
SPLINE
  5
B5
330
1F
100
AcDbEntity
  8
0
  6
Continuous
 62
     7
370
    25
100
AcDbSpline
210
0.0
220
0.0
230
1.0
 70
    24
 71
     3
 72
    10
 73
     6
 74
     0
 42
0.000000001
 43
0.00000001
 40
0.0
 40
0.0
 40
0.0
 40
0.0
 40
0.5
 40
0.5
 40
1.0
 40
1.0
 40
1.0
 40
1.0
 10
768.8674014694496
 20
160.7469647451903
 30
0.0
 10
768.8674014694496
 20
160.7469647451903
 30
0.0
 10
768.8145309862648
 20
160.7573797384296
 30
0.0
 10
768.6329014210469
 20
160.7931590727549
 30
0.0
 10
768.5052607834926
 20
160.8183030906853
 30
0.0
 10
768.376829286263
 20
160.8436029006131
 30
0.0
  0
SPLINE
  5
B6
330
1F
100
AcDbEntity
  8
0
  6
Continuous
 62
     7
370
    25
100
AcDbSpline
210
0.0
220
0.0
230
1.0
 70
     8
 71
     3
 72
     8
 73
     4
 74
     0
 42
0.000000001
 43
0.00000001
 40
0.0
 40
0.0
 40
0.0
 40
0.0
 40
1.0
 40
1.0
 40
1.0
 40
1.0
 10
768.3768292862813
 20
160.8436029006099
 30
0.0
 10
768.4958867623784
 20
161.4479924206702
 30
0.0
 10
768.5558385304673
 20
162.0632527188912
 30
0.0
 10
768.5558662704086
 20
162.6792537312231
 30
0.0
  0
LINE
  5
B7
330
1F
100
AcDbEntity
  8
0
  6
Continuous
 62
     7
370
    25
100
AcDbLine
 10
769.0558662709
 20
162.6792537312
 30
0.0
 11
768.5558662704
 21
162.6792537312
 31
0.0
  0
SPLINE
  5
B8
330
1F
100
AcDbEntity
  8
0
  6
Continuous
 62
     7
370
    25
100
AcDbSpline
210
0.0
220
0.0
230
1.0
 70
     8
 71
     3
 72
    10
 73
     6
 74
     0
 42
0.000000001
 43
0.00000001
 40
0.0
 40
0.0
 40
0.0
 40
0.0
 40
0.5
 40
0.5
 40
1.0
 40
1.0
 40
1.0
 40
1.0
 10
189.7349147180313
 20
160.8434888346023
 30
0.0
 10
189.856241481477
 20
160.2264515809552
 30
0.0
 10
190.0390296555382
 20
159.6229841921335
 30
0.0
 10
190.5198230885277
 20
158.4621978400467
 30
0.0
 10
190.8166240043716
 20
157.9085440323336
 30
0.0
 10
191.166948966385
 20
157.38633872668
 30
0.0
  0
SPLINE
  5
B9
330
1F
100
AcDbEntity
  8
0
  6
Continuous
 62
     7
370
    25
100
AcDbSpline
210
0.0
220
0.0
230
1.0
 70
    24
 71
     3
 72
    10
 73
     6
 74
     0
 42
0.000000001
 43
0.00000001
 40
0.0
 40
0.0
 40
0.0
 40
0.0
 40
0.5
 40
0.5
 40
1.0
 40
1.0
 40
1.0
 40
1.0
 10
191.1669489663688
 20
157.3863387266711
 30
0.0
 10
191.0582447065669
 20
157.313413328051
 30
0.0
 10
190.950209829412
 20
157.2409369918363
 30
0.0
 10
190.7964787909122
 20
157.1378049040664
 30
0.0
 10
190.7517292795854
 20
157.1077842226551
 30
0.0
 10
190.7517292795854
 20
157.1077842226552
 30
0.0
  0
SPLINE
  5
BA
330
1F
100
AcDbEntity
  8
0
  6
Continuous
 62
     7
370
    25
100
AcDbSpline
210
0.0
220
0.0
230
1.0
 70
     8
 71
     3
 72
    10
 73
     6
 74
     0
 42
0.000000001
 43
0.00000001
 40
0.0
 40
0.0
 40
0.0
 40
0.0
 40
0.5
 40
0.5
 40
1.0
 40
1.0
 40
1.0
 40
1.0
 10
190.7517338678905
 20
157.1077773832231
 30
0.0
 10
190.3862944158399
 20
157.6525116738003
 30
0.0
 10
190.0716176861054
 20
158.2380192524777
 30
0.0
 10
189.564775990727
 20
159.4610508032328
 30
0.0
 10
189.3719531621514
 20
160.0978551241419
 30
0.0
 10
189.2443088158905
 20
160.7470220072231
 30
0.0
  0
LINE
  5
BB
330
1F
100
AcDbEntity
  8
0
  6
Continuous
 62
     7
370
    25
100
AcDbLine
 10
189.7349147172
 20
160.8434888344
 30
0.0
 11
189.2443088159
 21
160.7470220072
 31
0.0
  0
SPLINE
  5
BC
330
1F
100
AcDbEntity
  8
0
  6
Continuous
 62
     7
370
    25
100
AcDbSpline
210
0.0
220
0.0
230
1.0
 70
     8
 71
     3
 72
    10
 73
     6
 74
     0
 42
0.000000001
 43
0.00000001
 40
0.0
 40
0.0
 40
0.0
 40
0.0
 40
0.5
 40
0.5
 40
1.0
 40
1.0
 40
1.0
 40
1.0
 10
768.8674033128904
 20
160.7469741032231
 30
0.0
 10
768.7406227178354
 20
160.1033840849025
 30
0.0
 10
768.5491163758358
 20
159.4668576163753
 30
0.0
 10
768.0426936791218
 20
158.2436525346958
 30
0.0
 10
767.7287513564645
 20
157.6570175595043
 30
0.0
 10
767.3599792368897
 20
157.107729076222
 30
0.0
  0
LINE
  5
BD
330
1F
100
AcDbEntity
  8
0
  6
Continuous
 62
     7
370
    25
100
AcDbLine
 10
767.3599792369
 20
157.1077290762
 30
0.0
 11
766.9448561291
 21
157.3864274888
 31
0.0
  0
SPLINE
  5
BE
330
1F
100
AcDbEntity
  8
0
  6
Continuous
 62
     7
370
    25
100
AcDbSpline
210
0.0
220
0.0
230
1.0
 70
     8
 71
     3
 72
    10
 73
     6
 74
     0
 42
0.000000001
 43
0.00000001
 40
0.0
 40
0.0
 40
0.0
 40
0.0
 40
0.5
 40
0.5
 40
1.0
 40
1.0
 40
1.0
 40
1.0
 10
766.9448561289352
 20
157.386427488923
 30
0.0
 10
767.2953763782446
 20
157.9085296921075
 30
0.0
 10
767.5928415058057
 20
158.4644963311752
 30
0.0
 10
768.0736691088729
 20
159.6252685292503
 30
0.0
 10
768.2552915294717
 20
160.2266308316825
 30
0.0
 10
768.3768292862634
 20
160.8436029006134
 30
0.0
  0
SPLINE
  5
BF
330
1F
100
AcDbEntity
  8
0
  6
Continuous
 62
     7
370
    25
100
AcDbSpline
210
0.0
220
0.0
230
1.0
 70
     8
 71
     3
 72
     8
 73
     4
 74
     0
 42
0.000000001
 43
0.00000001
 40
0.0
 40
0.0
 40
0.0
 40
0.0
 40
1.0
 40
1.0
 40
1.0
 40
1.0
 10
766.1269340828906
 20
155.6081859192231
 30
0.0
 10
765.6681209345993
 20
155.1494120527649
 30
0.0
 10
765.1661174187998
 20
154.7365640823799
 30
0.0
 10
764.627335778775
 20
154.3751167394595
 30
0.0
  0
SPLINE
  5
C0
330
1F
100
AcDbEntity
  8
0
  6
Continuous
 62
     7
370
    25
100
AcDbSpline
210
0.0
220
0.0
230
1.0
 70
    24
 71
     3
 72
    10
 73
     6
 74
     0
 42
0.000000001
 43
0.00000001
 40
0.0
 40
0.0
 40
0.0
 40
0.0
 40
0.5
 40
0.5
 40
1.0
 40
1.0
 40
1.0
 40
1.0
 10
764.6273346965833
 20
154.3751160134841
 30
0.0
 10
764.6273346965833
 20
154.3751160134841
 30
0.0
 10
764.5973141318017
 20
154.4198656030529
 30
0.0
 10
764.4941824446975
 20
154.5735969103428
 30
0.0
 10
764.4217063900518
 20
154.6816319763904
 30
0.0
 10
764.3487812747452
 20
154.7903364262558
 30
0.0
  0
SPLINE
  5
C1
330
1F
100
AcDbEntity
  8
0
  6
Continuous
 62
     7
370
    25
100
AcDbSpline
210
0.0
220
0.0
230
1.0
 70
     8
 71
     3
 72
     8
 73
     4
 74
     0
 42
0.000000001
 43
0.00000001
 40
0.0
 40
0.0
 40
0.0
 40
0.0
 40
1.0
 40
1.0
 40
1.0
 40
1.0
 10
764.3487812747546
 20
154.7903364262398
 30
0.0
 10
764.8603418189844
 20
155.1335222100802
 30
0.0
 10
765.337794199628
 20
155.5261901110504
 30
0.0
 10
765.7733966737808
 20
155.9617552905796
 30
0.0
  0
LINE
  5
C2
330
1F
100
AcDbEntity
  8
0
  6
Continuous
 62
     7
370
    25
100
AcDbLine
 10
766.1269340829
 20
155.6081859192
 30
0.0
 11
765.7733966738
 21
155.9617552906
 31
0.0
  0
SPLINE
  5
C3
330
1F
100
AcDbEntity
  8
0
  6
Continuous
 62
     7
370
    25
100
AcDbSpline
210
0.0
220
0.0
230
1.0
 70
     8
 71
     3
 72
    10
 73
     6
 74
     0
 42
0.000000001
 43
0.00000001
 40
0.0
 40
0.0
 40
0.0
 40
0.0
 40
0.5
 40
0.5
 40
1.0
 40
1.0
 40
1.0
 40
1.0
 10
764.6273426188906
 20
154.3751213282231
 30
0.0
 10
764.0826081979617
 20
154.0096817899442
 30
0.0
 10
763.4971004945826
 20
153.6950050110102
 30
0.0
 10
762.2740686205276
 20
153.1881632492579
 30
0.0
 10
761.6372641170504
 20
152.9953404718753
 30
0.0
 10
760.98809707872
 20
152.8676960960783
 30
0.0
  0
LINE
  5
C4
330
1F
100
AcDbEntity
  8
0
  6
Continuous
 62
     7
370
    25
100
AcDbLine
 10
760.9880970789
 20
152.8676960952
 30
0.0
 11
760.8916302522
 21
153.3583019975
 31
0.0
  0
SPLINE
  5
C5
330
1F
100
AcDbEntity
  8
0
  6
Continuous
 62
     7
370
    25
100
AcDbSpline
210
0.0
220
0.0
230
1.0
 70
     8
 71
     3
 72
    10
 73
     6
 74
     0
 42
0.000000001
 43
0.00000001
 40
0.0
 40
0.0
 40
0.0
 40
0.0
 40
0.5
 40
0.5
 40
1.0
 40
1.0
 40
1.0
 40
1.0
 10
760.8916302520636
 20
153.3583019983613
 30
0.0
 10
761.5086676561244
 20
153.4796287904429
 30
0.0
 10
762.1121352226274
 20
153.6624169114095
 30
0.0
 10
763.2729218902707
 20
154.1432104056194
 30
0.0
 10
763.8265758386834
 20
154.4400113780567
 30
0.0
 10
764.3487812747443
 20
154.7903364262552
 30
0.0
  0
SPLINE
  5
C6
330
1F
100
AcDbEntity
  8
0
  6
Continuous
 62
     7
370
    25
100
AcDbSpline
210
0.0
220
0.0
230
1.0
 70
     8
 71
     3
 72
     8
 73
     4
 74
     0
 42
0.000000001
 43
0.00000001
 40
0.0
 40
0.0
 40
0.0
 40
0.0
 40
1.0
 40
1.0
 40
1.0
 40
1.0
 10
191.1669489663697
 20
157.3863387266698
 30
0.0
 10
191.5101347497776
 20
156.8747781831037
 30
0.0
 10
191.902802650194
 20
156.3973258030092
 30
0.0
 10
192.3383678291766
 20
155.9617233294032
 30
0.0
  0
LINE
  5
C7
330
1F
100
AcDbEntity
  8
0
  6
Continuous
 62
     7
370
    25
100
AcDbLine
 10
192.3383678292
 20
155.9617233294
 30
0.0
 11
191.9847984589
 21
155.6081859192
 31
0.0
  0
SPLINE
  5
C8
330
1F
100
AcDbEntity
  8
0
  6
Continuous
 62
     7
370
    25
100
AcDbSpline
210
0.0
220
0.0
230
1.0
 70
     8
 71
     3
 72
     8
 73
     4
 74
     0
 42
0.000000001
 43
0.00000001
 40
0.0
 40
0.0
 40
0.0
 40
0.0
 40
1.0
 40
1.0
 40
1.0
 40
1.0
 10
191.9847984588905
 20
155.6081859192231
 30
0.0
 10
191.526024592628
 20
156.0669990673185
 30
0.0
 10
191.1131766223412
 20
156.5690025828351
 30
0.0
 10
190.7517292795894
 20
157.1077842226489
 30
0.0
  0
SPLINE
  5
C9
330
1F
100
AcDbEntity
  8
0
  6
Continuous
 62
     7
370
    25
100
AcDbSpline
210
0.0
220
0.0
230
1.0
 70
     8
 71
     3
 72
    10
 73
     6
 74
     0
 42
0.000000001
 43
0.00000001
 40
0.0
 40
0.0
 40
0.0
 40
0.0
 40
0.5
 40
0.5
 40
1.0
 40
1.0
 40
1.0
 40
1.0
 10
193.7630400282417
 20
154.7902638734126
 30
0.0
 10
194.2851422318788
 20
154.4397436244354
 30
0.0
 10
194.841108873175
 20
154.1422785009718
 30
0.0
 10
196.001881070725
 20
153.6614508952917
 30
0.0
 10
196.6032433717893
 20
153.4798284709079
 30
0.0
 10
197.2202154415122
 20
153.3582907166077
 30
0.0
  0
SPLINE
  5
CA
330
1F
100
AcDbEntity
  8
0
  6
Continuous
 62
     7
370
    25
100
AcDbSpline
210
0.0
220
0.0
230
1.0
 70
    24
 71
     3
 72
    10
 73
     6
 74
     0
 42
0.000000001
 43
0.00000001
 40
0.0
 40
0.0
 40
0.0
 40
0.0
 40
0.5
 40
0.5
 40
1.0
 40
1.0
 40
1.0
 40
1.0
 10
197.2202154415081
 20
153.3582907165897
 30
0.0
 10
197.1949159658429
 20
153.229859153514
 30
0.0
 10
197.1697722801165
 20
153.102218450519
 30
0.0
 10
197.1339934185098
 20
152.9205887921806
 30
0.0
 10
197.1235785628739
 20
152.8677182818892
 30
0.0
 10
197.1235785628739
 20
152.8677182818893
 30
0.0
  0
SPLINE
  5
CB
330
1F
100
AcDbEntity
  8
0
  6
Continuous
 62
     7
370
    25
100
AcDbSpline
210
0.0
220
0.0
230
1.0
 70
     8
 71
     3
 72
    10
 73
     6
 74
     0
 42
0.000000001
 43
0.00000001
 40
0.0
 40
0.0
 40
0.0
 40
0.0
 40
0.5
 40
0.5
 40
1.0
 40
1.0
 40
1.0
 40
1.0
 10
197.1235866428905
 20
152.8677166902231
 30
0.0
 10
196.4799966306043
 20
152.9944972815536
 30
0.0
 10
195.8434701658149
 20
153.1860036253204
 30
0.0
 10
194.6202650766017
 20
153.6924263273977
 30
0.0
 10
194.0336300934744
 20
154.0063686501435
 30
0.0
 10
193.4843416158907
 20
154.3751407652232
 30
0.0
  0
LINE
  5
CC
330
1F
100
AcDbEntity
  8
0
  6
Continuous
 62
     7
370
    25
100
AcDbLine
 10
193.7630400281
 20
154.7902638732
 30
0.0
 11
193.4843416159
 21
154.3751407652
 31
0.0
  0
SPLINE
  5
CD
330
1F
100
AcDbEntity
  8
0
  6
Continuous
 62
     7
370
    25
100
AcDbSpline
210
0.0
220
0.0
230
1.0
 70
     8
 71
     3
 72
     8
 73
     4
 74
     0
 42
0.000000001
 43
0.00000001
 40
0.0
 40
0.0
 40
0.0
 40
0.0
 40
1.0
 40
1.0
 40
1.0
 40
1.0
 10
197.2202154415086
 20
153.3582907165896
 30
0.0
 10
197.8246119737687
 20
153.2392318575833
 30
0.0
 10
198.4398795171985
 20
153.179280102346
 30
0.0
 10
199.0558876761111
 20
153.1792537307649
 30
0.0
  0
LWPOLYLINE
  5
CE
330
1F
100
AcDbEntity
  8
0
  6
Continuous
 62
     7
370
    25
100
AcDbPolyline
 90
        9
 70
   128
 43
0.0
 10
199.0558662709
 20
152.6792537312
 10
199.0558704468
 20
152.688861091
 10
199.0558744623
 20
152.717313965
 10
199.055878163
 20
152.7635189251
 10
199.0558814067
 20
152.8257003406
 10
199.0558840687
 20
152.9014686147
 10
199.0558860467
 20
152.987912015
 10
199.0558872648
 20
153.0817085702
 10
199.0558876761
 20
153.1792537312
  0
SPLINE
  5
CF
330
1F
100
AcDbEntity
  8
0
  6
Continuous
 62
     7
370
    25
100
AcDbSpline
210
0.0
220
0.0
230
1.0
 70
     8
 71
     3
 72
     8
 73
     4
 74
     0
 42
0.000000001
 43
0.00000001
 40
0.0
 40
0.0
 40
0.0
 40
0.0
 40
1.0
 40
1.0
 40
1.0
 40
1.0
 10
199.0558662708905
 20
152.6792537312231
 30
0.0
 10
198.4070342706198
 20
152.6792815080073
 30
0.0
 10
197.7601365812108
 20
152.7423239963354
 30
0.0
 10
197.1235785628755
 20
152.867718281889
 30
0.0
  0
SPLINE
  5
D0
330
1F
100
AcDbEntity
  8
0
  6
Continuous
 62
     7
370
    25
100
AcDbSpline
210
0.0
220
0.0
230
1.0
 70
     8
 71
     3
 72
    16
 73
    12
 74
     0
 42
0.000000001
 43
0.00000001
 40
0.0
 40
0.0
 40
0.0
 40
0.0
 40
0.1113852814910087
 40
0.2225654941257963
 40
0.3335989404127788
 40
0.4445441542409662
 40
0.5554598091890582
 40
0.6664046257327341
 40
0.7774372780807115
 40
0.8886163013769537
 40
1.0
 40
1.0
 40
1.0
 40
1.0
 10
412.0350451508905
 20
175.6584364082231
 30
0.0
 10
411.9435463908465
 20
175.7511454133795
 30
0.0
 10
411.7607173270017
 20
175.9363927392949
 30
0.0
 10
411.4948095932689
 20
176.2219001104587
 30
0.0
 10
411.2354058144514
 20
176.5126063999017
 30
0.0
 10
410.9830729819777
 20
176.809079391125
 30
0.0
 10
410.7376717487386
 20
177.1111747774633
 30
0.0
 10
410.4991948156434
 20
177.4189015410285
 30
0.0
 10
410.2678119870067
 20
177.7323665069542
 30
0.0
 10
410.0428513281217
 20
178.0511310459547
 30
0.0
 10
409.8989995287714
 20
178.2680365805308
 30
0.0
 10
409.8270074838904
 20
178.3765890842231
 30
0.0
  0
SPLINE
  5
D1
330
1F
100
AcDbEntity
  8
0
  6
Continuous
 62
     7
370
    25
100
AcDbSpline
210
0.0
220
0.0
230
1.0
 70
     8
 71
     3
 72
    16
 73
    12
 74
     0
 42
0.000000001
 43
0.00000001
 40
0.0
 40
0.0
 40
0.0
 40
0.0
 40
0.1113837596158343
 40
0.2225628289031765
 40
0.3335955120992618
 40
0.4445403442300946
 40
0.5554559994102471
 40
0.666401198045616
 40
0.7774346136695613
 40
0.8886147801503498
 40
1.0
 40
1.0
 40
1.0
 40
1.0
 10
414.7532005718905
 20
173.450395100223
 30
0.0
 10
414.6446479024137
 20
173.5223873215297
 30
0.0
 10
414.4277420510844
 20
173.6662394637838
 30
0.0
 10
414.1089770633737
 20
173.891200619977
 30
0.0
 10
413.7955116964267
 20
174.1225839150878
 30
0.0
 10
413.487784579662
 20
174.3610612833933
 30
0.0
 10
413.1856888879647
 20
174.6064629207574
 30
0.0
 10
412.8892156391236
 20
174.8587961261515
 30
0.0
 10
412.5985091401511
 20
175.1182002469498
 30
0.0
 10
412.3130016063945
 20
175.384108290925
 30
0.0
 10
412.1277541932818
 20
175.5669375545282
 30
0.0
 10
412.0350451508905
 20
175.6584364082231
 30
0.0
  0
SPLINE
  5
D2
330
1F
100
AcDbEntity
  8
0
  6
Continuous
 62
     7
370
    25
100
AcDbSpline
210
0.0
220
0.0
230
1.0
 70
     8
 71
     3
 72
    15
 73
    11
 74
     0
 42
0.000000001
 43
0.00000001
 40
0.0
 40
0.0
 40
0.0
 40
0.0
 40
0.1252798335518219
 40
0.2503199197952613
 40
0.3751999260479855
 40
0.4999998261942702
 40
0.6247997481184643
 40
0.7496798196630332
 40
0.8747200145868372
 40
1.0
 40
1.0
 40
1.0
 40
1.0
 10
417.7981485478905
 20
171.8728955282231
 30
0.0
 10
417.6651499227689
 20
171.9266655268652
 30
0.0
 10
417.3994071912418
 20
172.0341026248074
 30
0.0
 10
417.006390554427
 20
172.2077875452209
 30
0.0
 10
416.6180874286966
 20
172.3904045861357
 30
0.0
 10
416.2348687549534
 20
172.5828791945247
 30
0.0
 10
415.8566003034265
 20
172.7849090671633
 30
0.0
 10
415.4834515996845
 20
172.9967782209303
 30
0.0
 10
415.1148806120519
 20
173.2176498485734
 30
0.0
 10
414.8738375531473
 20
173.3727638199667
 30
0.0
 10
414.7532005718905
 20
173.4503951002231
 30
0.0
  0
SPLINE
  5
D3
330
1F
100
AcDbEntity
  8
0
  6
Continuous
 62
     7
370
    25
100
AcDbSpline
210
0.0
220
0.0
230
1.0
 70
     8
 71
     3
 72
    15
 73
    11
 74
     0
 42
0.000000001
 43
0.00000001
 40
0.0
 40
0.0
 40
0.0
 40
0.0
 40
0.1252579468303276
 40
0.2502949661560025
 40
0.3751844767733091
 40
0.5000001577805013
 40
0.6248158190214739
 40
0.7497052703751984
 40
0.8747421910447197
 40
0.9999999999999999
 40
0.9999999999999999
 40
0.9999999999999999
 40
0.9999999999999999
 10
420.9623406728905
 20
170.9630907792231
 30
0.0
 10
420.8271308128385
 20
170.9890858814465
 30
0.0
 10
420.5569495732281
 20
171.0410302362429
 30
0.0
 10
420.1544926856508
 20
171.1312771453284
 30
0.0
 10
419.7546719471655
 20
171.2304467912882
 30
0.0
 10
419.357658322425
 20
171.3394425534233
 30
0.0
 10
418.9633845083786
 20
171.4579668140011
 30
0.0
 10
418.5719515606775
 20
171.5863074862931
 30
0.0
 10
418.1830245027522
 20
171.723608347618
 30
0.0
 10
417.9265159901872
 20
171.8231038660008
 30
0.0
 10
417.7981485478905
 20
171.8728955282231
 30
0.0
  0
SPLINE
  5
D4
330
1F
100
AcDbEntity
  8
0
  6
Continuous
 62
     7
370
    25
100
AcDbSpline
210
0.0
220
0.0
230
1.0
 70
     8
 71
     3
 72
    15
 73
    11
 74
     0
 42
0.000000001
 43
0.00000001
 40
0.0
 40
0.0
 40
0.0
 40
0.0
 40
0.1252294125578024
 40
0.250262274876047
 40
0.3751639342109835
 40
0.4999999438594584
 40
0.6248359605393174
 40
0.7497376409573213
 40
0.8747705383771422
 40
0.9999999999999999
 40
0.9999999999999999
 40
0.9999999999999999
 40
0.9999999999999999
 10
424.0558662708905
 20
170.6792537312231
 30
0.0
 10
423.9260086688418
 20
170.6801056034213
 30
0.0
 10
423.6664972790262
 20
170.6818080107861
 30
0.0
 10
423.2776703509512
 20
170.6956115112544
 30
0.0
 10
422.8896564537973
 20
170.7176522270238
 30
0.0
 10
422.5024586802016
 20
170.7487491719719
 30
0.0
 10
422.1160668773409
 20
170.7886305901977
 30
0.0
 10
421.7305205138259
 20
170.837565547677
 30
0.0
 10
421.345673593201
 20
170.8947481428405
 30
0.0
 10
421.0901852026267
 20
170.9402979749886
 30
0.0
 10
420.9623406728905
 20
170.9630907792231
 30
0.0
  0
LINE
  5
D5
330
1F
100
AcDbEntity
  8
0
  6
Continuous
 62
     7
370
    25
100
AcDbLine
 10
424.0558662709
 20
170.6792537312
 30
0.0
 11
734.0558662709
 21
170.6792537312
 31
0.0
  0
SPLINE
  5
D6
330
1F
100
AcDbEntity
  8
0
  6
Continuous
 62
     7
370
    25
100
AcDbSpline
210
0.0
220
0.0
230
1.0
 70
     8
 71
     3
 72
    29
 73
    25
 74
     0
 42
0.000000001
 43
0.00000001
 40
0.0
 40
0.0
 40
0.0
 40
0.0
 40
0.0145955623119791
 40
0.0291688247660639
 40
0.0437274038237533
 40
0.0582789390030041
 40
0.072831080915367
 40
0.0873914792159875
 40
0.1019677705611318
 40
0.1165675666677521
 40
0.1783204639708478
 40
0.2400932608697348
 40
0.3044204214006968
 40
0.3687674336035568
 40
0.5000037607096917
 40
0.6312400878158264
 40
0.6955672452296782
 40
0.7599142548709634
 40
0.8216671545112942
 40
0.8834399537938423
 40
0.9126069252268654
 40
0.9417151331123297
 40
0.9708257667057997
 40
0.9999999999999999
 40
0.9999999999999999
 40
0.9999999999999999
 40
0.9999999999999999
 10
751.0558662708905
 20
187.6792537312231
 30
0.0
 10
751.0550144005175
 20
187.5494216286066
 30
0.0
 10
751.0533119613032
 20
187.2899557876007
 30
0.0
 10
751.0395102713998
 20
186.9011888805707
 30
0.0
 10
751.0174690483426
 20
186.5132192180248
 30
0.0
 10
750.9863845072124
 20
186.126047249677
 30
0.0
 10
750.9464714574724
 20
185.739672697854
 30
0.0
 10
750.8976735640442
 20
185.354098151257
 30
0.0
 10
750.8400017317159
 20
184.9693154303718
 30
0.0
 10
750.7019018137844
 20
184.1723419856594
 30
0.0
 10
750.4199420945739
 20
182.9742104248183
 30
0.0
 10
749.8795862824041
 20
181.3904077260978
 30
0.0
 10
749.1765292428573
 20
179.8457804368447
 30
0.0
 10
748.0087026266699
 20
177.8467030945676
 30
0.0
 10
746.1626508283805
 20
175.5724687067051
 30
0.0
 10
743.8885561991543
 20
173.7265297893481
 30
0.0
 10
741.8894952080853
 20
172.5586720769025
 30
0.0
 10
740.3450469461245
 20
171.8556747428287
 30
0.0
 10
738.7610596149727
 20
171.3151874313908
 30
0.0
 10
737.4366583460339
 20
171.0036201157837
 30
0.0
 10
736.382219239863
 20
170.8329751145316
 30
0.0
 10
735.60971048034
 20
170.7447022467101
 30
0.0
 10
734.8338948999178
 20
170.6894566035837
 30
0.0
 10
734.3153977397212
 20
170.6826571618312
 30
0.0
 10
734.0558662708905
 20
170.6792537312231
 30
0.0
  0
LINE
  5
D7
330
1F
100
AcDbEntity
  8
0
  6
Continuous
 62
     7
370
    25
100
AcDbLine
 10
751.0558662709
 20
187.6792537312
 30
0.0
 11
751.0558662709
 21
557.6792537312
 31
0.0
  0
SPLINE
  5
D8
330
1F
100
AcDbEntity
  8
0
  6
Continuous
 62
     7
370
    25
100
AcDbSpline
210
0.0
220
0.0
230
1.0
 70
     8
 71
     3
 72
    22
 73
    18
 74
     0
 42
0.000000001
 43
0.00000001
 40
0.0
 40
0.0
 40
0.0
 40
0.0
 40
0.125
 40
0.125
 40
0.25
 40
0.25
 40
0.375
 40
0.375
 40
0.5
 40
0.5
 40
0.625
 40
0.625
 40
0.75
 40
0.75
 40
0.875
 40
0.875
 40
1.0
 40
1.0
 40
1.0
 40
1.0
 10
734.0558662708905
 20
574.6792537311368
 30
0.0
 10
735.0576008776003
 20
574.6792537311369
 30
0.0
 10
736.0967968163026
 20
574.5902018275425
 30
0.0
 10
738.2016795076269
 20
574.2006881609218
 30
0.0
 10
739.2671522552732
 20
573.8998850102877
 30
0.0
 10
741.3598004118068
 20
573.071424688208
 30
0.0
 10
742.3865516533604
 20
572.5435720455057
 30
0.0
 10
744.3303125036999
 20
571.2727827983987
 30
0.0
 10
745.246817431164
 20
570.5299331314113
 30
0.0
 10
746.9065456710786
 20
568.8702048914967
 30
0.0
 10
747.649395338066
 20
567.9536999640326
 30
0.0
 10
748.9201845851729
 20
566.0099391136929
 30
0.0
 10
749.4480372278754
 20
564.9831878721393
 30
0.0
 10
750.2764975499549
 20
562.8905397156059
 30
0.0
 10
750.5773007005891
 20
561.8250669679594
 30
0.0
 10
750.96681436721
 20
559.7201842766353
 30
0.0
 10
751.0558662708041
 20
558.6809883379331
 30
0.0
 10
751.0558662708041
 20
557.6792537312231
 30
0.0
  0
LINE
  5
D9
330
1F
100
AcDbEntity
  8
0
  6
Continuous
 62
     7
370
    25
100
AcDbLine
 10
734.0558662709
 20
574.6792537312
 30
0.0
 11
424.0558662709
 21
574.6792537312
 31
0.0
  0
SPLINE
  5
DA
330
1F
100
AcDbEntity
  8
0
  6
Continuous
 62
     7
370
    25
100
AcDbSpline
210
0.0
220
0.0
230
1.0
 70
     8
 71
     3
 72
     8
 73
     4
 74
     0
 42
0.000000001
 43
0.00000001
 40
0.0
 40
0.0
 40
0.0
 40
0.0
 40
1.0
 40
1.0
 40
1.0
 40
1.0
 10
420.9623332870955
 20
574.3954151829032
 30
0.0
 10
422.0148296042397
 20
574.5901926790131
 30
0.0
 10
423.0540805537929
 20
574.6792537312095
 30
0.0
 10
424.0558662708905
 20
574.6792537312095
 30
0.0
  0
SPLINE
  5
DB
330
1F
100
AcDbEntity
  8
0
  6
Continuous
 62
     7
370
    25
100
AcDbSpline
210
0.0
220
0.0
230
1.0
 70
     8
 71
     3
 72
     8
 73
     4
 74
     0
 42
0.000000001
 43
0.00000001
 40
0.0
 40
0.0
 40
0.0
 40
0.0
 40
1.0
 40
1.0
 40
1.0
 40
1.0
 10
417.7981471098645
 20
573.4856116577907
 30
0.0
 10
418.8444528054561
 20
573.89984289497
 30
0.0
 10
419.9099077863632
 20
574.2006507922038
 30
0.0
 10
420.9623332871037
 20
574.3954151828598
 30
0.0
  0
SPLINE
  5
DC
330
1F
100
AcDbEntity
  8
0
  6
Continuous
 62
     7
370
    25
100
AcDbSpline
210
0.0
220
0.0
230
1.0
 70
     8
 71
     3
 72
     8
 73
     4
 74
     0
 42
0.000000001
 43
0.00000001
 40
0.0
 40
0.0
 40
0.0
 40
0.0
 40
1.0
 40
1.0
 40
1.0
 40
1.0
 10
414.7532015804991
 20
571.9081125855922
 30
0.0
 10
415.7250774881167
 20
572.5435139049471
 30
0.0
 10
416.7518253122579
 20
573.0713738761757
 30
0.0
 10
417.7981471679338
 20
573.4856115111139
 30
0.0
  0
SPLINE
  5
DD
330
1F
100
AcDbEntity
  8
0
  6
Continuous
 62
     7
370
    25
100
AcDbSpline
210
0.0
220
0.0
230
1.0
 70
     8
 71
     3
 72
     8
 73
     4
 74
     0
 42
0.000000001
 43
0.00000001
 40
0.0
 40
0.0
 40
0.0
 40
0.0
 40
1.0
 40
1.0
 40
1.0
 40
1.0
 10
412.0350530578694
 20
569.7000707432429
 30
0.0
 10
412.8648884950977
 20
570.529905918214
 30
0.0
 10
413.7813586630228
 20
571.2727327398859
 30
0.0
 10
414.7532016239773
 20
571.9081125190902
 30
0.0
  0
SPLINE
  5
DE
330
1F
100
AcDbEntity
  8
0
  6
Continuous
 62
     7
370
    25
100
AcDbSpline
210
0.0
220
0.0
230
1.0
 70
     8
 71
     3
 72
     8
 73
     4
 74
     0
 42
0.000000001
 43
0.00000001
 40
0.0
 40
0.0
 40
0.0
 40
0.0
 40
1.0
 40
1.0
 40
1.0
 40
1.0
 10
409.8270078134122
 20
566.9819193167766
 30
0.0
 10
410.4623884537782
 20
567.9537634742928
 30
0.0
 10
411.2052164053067
 20
568.8702346882557
 30
0.0
 10
412.0350528902103
 20
569.700070910902
 30
0.0
  0
SPLINE
  5
DF
330
1F
100
AcDbEntity
  8
0
  6
Continuous
 62
     7
370
    25
100
AcDbSpline
210
0.0
220
0.0
230
1.0
 70
     8
 71
     3
 72
     8
 73
     4
 74
     0
 42
0.000000001
 43
0.00000001
 40
0.0
 40
0.0
 40
0.0
 40
0.0
 40
1.0
 40
1.0
 40
1.0
 40
1.0
 10
408.2495078147505
 20
563.936971554441
 30
0.0
 10
408.6637456491798
 20
564.983294172755
 30
0.0
 10
409.1916059820572
 20
566.0100427467354
 30
0.0
 10
409.8270078133777
 20
566.9819193167992
 30
0.0
  0
SPLINE
  5
E0
330
1F
100
AcDbEntity
  8
0
  6
Continuous
 62
     7
370
    25
100
AcDbSpline
210
0.0
220
0.0
230
1.0
 70
     8
 71
     3
 72
     8
 73
     4
 74
     0
 42
0.000000001
 43
0.00000001
 40
0.0
 40
0.0
 40
0.0
 40
0.0
 40
1.0
 40
1.0
 40
1.0
 40
1.0
 10
407.3397037158284
 20
560.772779255765
 30
0.0
 10
407.5344679841178
 20
561.8252067024108
 30
0.0
 10
407.8352761376185
 20
562.8906637490529
 30
0.0
 10
408.2495080679441
 20
563.936971454202
 30
0.0
  0
SPLINE
  5
E1
330
1F
100
AcDbEntity
  8
0
  6
Continuous
 62
     7
370
    25
100
AcDbSpline
210
0.0
220
0.0
230
1.0
 70
     8
 71
     3
 72
     8
 73
     4
 74
     0
 42
0.000000001
 43
0.00000001
 40
0.0
 40
0.0
 40
0.0
 40
0.0
 40
1.0
 40
1.0
 40
1.0
 40
1.0
 10
407.0558662709041
 20
557.6792537312231
 30
0.0
 10
407.0558662709041
 20
558.6810370974297
 30
0.0
 10
407.1449269022878
 20
559.7202855166801
 30
0.0
 10
407.3397034479589
 20
560.7727793053374
 30
0.0
  0
LINE
  5
E2
330
1F
100
AcDbEntity
  8
0
  6
Continuous
 62
     7
370
    25
100
AcDbLine
 10
407.0558662709
 20
557.6792537312
 30
0.0
 11
407.0558662709
 21
187.6792537312
 31
0.0
  0
SPLINE
  5
E3
330
1F
100
AcDbEntity
  8
0
  6
Continuous
 62
     7
370
    25
100
AcDbSpline
210
0.0
220
0.0
230
1.0
 70
     8
 71
     3
 72
    15
 73
    11
 74
     0
 42
0.000000001
 43
0.00000001
 40
0.0
 40
0.0
 40
0.0
 40
0.0
 40
0.1252294417176733
 40
0.2502623241044411
 40
0.3751639947791047
 40
0.5000000074159389
 40
0.6248360191239611
 40
0.7497376870136533
 40
0.8747705647636302
 40
0.9999999999999999
 40
0.9999999999999999
 40
0.9999999999999999
 40
0.9999999999999999
 10
407.3397048018905
 20
184.585720744223
 30
0.0
 10
407.3169118784119
 20
184.7135655510623
 30
0.0
 10
407.2713618070817
 20
184.9690545003497
 30
0.0
 10
407.214178913413
 20
185.3539022822258
 30
0.0
 10
407.1652437003124
 20
185.7394495316101
 30
0.0
 10
407.1253620738717
 20
186.1258422462267
 30
0.0
 10
407.0942649666286
 20
186.5130409571171
 30
0.0
 10
407.0722241358771
 20
186.9010558171918
 30
0.0
 10
407.0584205635885
 20
187.2898837337855
 30
0.0
 10
407.0567181474858
 20
187.549395791314
 30
0.0
 10
407.0558662708905
 20
187.6792537312231
 30
0.0
  0
SPLINE
  5
E4
330
1F
100
AcDbEntity
  8
0
  6
Continuous
 62
     7
370
    25
100
AcDbSpline
210
0.0
220
0.0
230
1.0
 70
     8
 71
     3
 72
    15
 73
    11
 74
     0
 42
0.000000001
 43
0.00000001
 40
0.0
 40
0.0
 40
0.0
 40
0.0
 40
0.1252578479182093
 40
0.2502947970128908
 40
0.3751842659331124
 40
0.4999999335790358
 40
0.624815609545961
 40
0.7497051034144101
 40
0.8747420940404622
 40
1.0
 40
1.0
 40
1.0
 40
1.0
 10
408.2495084908905
 20
181.421534628223
 30
0.0
 10
408.199716905412
 20
181.5499018731641
 30
0.0
 10
408.100221544543
 20
181.8064099806371
 30
0.0
 10
407.9629208776199
 20
182.1953363972832
 30
0.0
 10
407.8345803768026
 20
182.5867686602262
 30
0.0
 10
407.7160562611277
 20
182.9810417445954
 30
0.0
 10
407.6070606184984
 20
183.3780545951536
 30
0.0
 10
407.5078910656777
 20
183.777874514801
 30
0.0
 10
407.4176442261858
 20
184.1803305391137
 30
0.0
 10
407.3656998923618
 20
184.4505111868868
 30
0.0
 10
407.3397048018905
 20
184.585720744223
 30
0.0
  0
SPLINE
  5
E5
330
1F
100
AcDbEntity
  8
0
  6
Continuous
 62
     7
370
    25
100
AcDbSpline
210
0.0
220
0.0
230
1.0
 70
     8
 71
     3
 72
    15
 73
    11
 74
     0
 42
0.000000001
 43
0.00000001
 40
0.0
 40
0.0
 40
0.0
 40
0.0
 40
0.1252798985138778
 40
0.250320031020064
 40
0.3752000648608974
 40
0.4999999739811438
 40
0.624799886361564
 40
0.7496799299766426
 40
0.874720078752368
 40
1.0
 40
1.0
 40
1.0
 40
1.0
 10
409.8270074838904
 20
178.3765890842231
 30
0.0
 10
409.7493762746561
 20
178.4972258726276
 30
0.0
 10
409.5942624301033
 20
178.7382685696111
 30
0.0
 10
409.3733909770451
 20
179.1068390593402
 30
0.0
 10
409.1615219568515
 20
179.4799873424467
 30
0.0
 10
408.9594921776851
 20
179.8582554515919
 30
0.0
 10
408.7670176224699
 20
180.2414738609276
 30
0.0
 10
408.584400594092
 20
180.6297768001936
 30
0.0
 10
408.4107156468736
 20
181.0227933287945
 30
0.0
 10
408.3032785129232
 20
181.2885360133361
 30
0.0
 10
408.2495084908905
 20
181.421534628223
 30
0.0
  0
SPLINE
  5
E6
330
1F
100
AcDbEntity
  8
0
  6
Continuous
 62
     7
370
    25
100
AcDbSpline
210
0.0
220
0.0
230
1.0
 70
     8
 71
     3
 72
    15
 73
    11
 74
     0
 42
0.000000001
 43
0.00000001
 40
0.0
 40
0.0
 40
0.0
 40
0.0
 40
0.1252578480049508
 40
0.25029479716058
 40
0.3751842661164076
 40
0.4999999337730919
 40
0.6248156097264649
 40
0.7497051035576378
 40
0.8747420941232831
 40
0.9999999999999999
 40
0.9999999999999999
 40
0.9999999999999999
 40
0.9999999999999999
 10
389.8622240498905
 20
563.9369728342231
 30
0.0
 10
389.9120156353981
 20
563.8086055892016
 30
0.0
 10
390.011510996315
 20
563.5520974815944
 30
0.0
 10
390.14881166326
 20
563.1631710647736
 30
0.0
 10
390.2771521640419
 20
562.771738801726
 30
0.0
 10
390.3956762796224
 20
562.3774657173211
 30
0.0
 10
390.5046719220986
 20
561.9804528667971
 30
0.0
 10
390.6038414747065
 20
561.5806329472533
 30
0.0
 10
390.69408831393
 20
561.1781769231137
 30
0.0
 10
390.7460326475324
 20
560.9079962754784
 30
0.0
 10
390.7720277378905
 20
560.7727867182231
 30
0.0
  0
SPLINE
  5
E7
330
1F
100
AcDbEntity
  8
0
  6
Continuous
 62
     7
370
    25
100
AcDbSpline
210
0.0
220
0.0
230
1.0
 70
     8
 71
     3
 72
    15
 73
    11
 74
     0
 42
0.000000001
 43
0.00000001
 40
0.0
 40
0.0
 40
0.0
 40
0.0
 40
0.1252798987353788
 40
0.2503200314023784
 40
0.3752000653419315
 40
0.4999999744973951
 40
0.6247998868483547
 40
0.7496799303682005
 40
0.8747200789819395
 40
1.0
 40
1.0
 40
1.0
 40
1.0
 10
388.2847250588905
 20
566.9819183782231
 30
0.0
 10
388.3623562680742
 20
566.8612815895344
 30
0.0
 10
388.5174701124885
 20
566.6202388920412
 30
0.0
 10
388.7383415653835
 20
566.2516684017203
 30
0.0
 10
388.9502105853753
 20
565.8785201182563
 30
0.0
 10
389.1522403643098
 20
565.5002520089945
 30
0.0
 10
389.3447149192601
 20
565.1170335997817
 30
0.0
 10
389.5273319473419
 20
564.7287306608783
 30
0.0
 10
389.7010168942289
 20
564.3357141328785
 30
0.0
 10
389.8084540279747
 20
564.0699714488283
 30
0.0
 10
389.8622240498905
 20
563.9369728342231
 30
0.0
  0
SPLINE
  5
E8
330
1F
100
AcDbEntity
  8
0
  6
Continuous
 62
     7
370
    25
100
AcDbSpline
210
0.0
220
0.0
230
1.0
 70
     8
 71
     3
 72
    16
 73
    12
 74
     0
 42
0.000000001
 43
0.00000001
 40
0.0
 40
0.0
 40
0.0
 40
0.0
 40
0.1113852809969712
 40
0.2225654932608272
 40
0.3335989393004666
 40
0.4445441530051825
 40
0.5554598079536942
 40
0.666404624621594
 40
0.7774372772172434
 40
0.8886163008841074
 40
0.9999999999999999
 40
0.9999999999999999
 40
0.9999999999999999
 40
0.9999999999999999
 10
386.0766873898904
 20
569.700071052223
 30
0.0
 10
386.1681861496266
 20
569.6073620475905
 30
0.0
 10
386.3510152129569
 20
569.42211472262
 30
0.0
 10
386.6169229460465
 20
569.1366073526802
 30
0.0
 10
386.8763267245099
 20
568.8459010641293
 30
0.0
 10
387.1286595569152
 20
568.5494280734608
 30
0.0
 10
387.3740607903725
 20
568.2473326873419
 30
0.0
 10
387.6125377239724
 20
567.9396059236601
 30
0.0
 10
387.8439205534016
 20
567.6261409572826
 30
0.0
 10
388.0688812133606
 20
567.3073764174923
 30
0.0
 10
388.2127330135503
 20
567.0904708822886
 30
0.0
 10
388.2847250588905
 20
566.9819183782231
 30
0.0
  0
SPLINE
  5
E9
330
1F
100
AcDbEntity
  8
0
  6
Continuous
 62
     7
370
    25
100
AcDbSpline
210
0.0
220
0.0
230
1.0
 70
     8
 71
     3
 72
    16
 73
    12
 74
     0
 42
0.000000001
 43
0.00000001
 40
0.0
 40
0.0
 40
0.0
 40
0.0
 40
0.1113837596828756
 40
0.2225628290179862
 40
0.3335955122436667
 40
0.4445403443869605
 40
0.5554559995634681
 40
0.6664011981801686
 40
0.7774346137716242
 40
0.8886147802071577
 40
1.0
 40
1.0
 40
1.0
 40
1.0
 10
383.3585319698905
 20
571.9081123602231
 30
0.0
 10
383.46708463946
 20
571.8361201389588
 30
0.0
 10
383.6839904909561
 20
571.6922679968017
 30
0.0
 10
384.0027554788413
 20
571.4673068406892
 30
0.0
 10
384.3162208458702
 20
571.2359235456353
 30
0.0
 10
384.6239479626207
 20
570.9974461773571
 30
0.0
 10
384.9260436542088
 20
570.7520445399923
 30
0.0
 10
385.2225169028457
 20
570.4997113345694
 30
0.0
 10
385.5132234015173
 20
570.2403072137129
 30
0.0
 10
385.7987309348826
 20
569.974399169655
 30
0.0
 10
385.9839783476679
 20
569.7915699059595
 30
0.0
 10
386.0766873898905
 20
569.700071052223
 30
0.0
  0
SPLINE
  5
EA
330
1F
100
AcDbEntity
  8
0
  6
Continuous
 62
     7
370
    25
100
AcDbSpline
210
0.0
220
0.0
230
1.0
 70
     8
 71
     3
 72
    15
 73
    11
 74
     0
 42
0.000000001
 43
0.00000001
 40
0.0
 40
0.0
 40
0.0
 40
0.0
 40
0.1252798335668165
 40
0.2503199198218827
 40
0.3751999260823842
 40
0.499999826232174
 40
0.624799748155105
 40
0.749679819693225
 40
0.8747200146049676
 40
1.0
 40
1.0
 40
1.0
 40
1.0
 10
380.3135839938905
 20
573.4856119342231
 30
0.0
 10
380.4465826190199
 20
573.4318419354553
 30
0.0
 10
380.7123253505587
 20
573.3244048372632
 30
0.0
 10
381.10534198739
 20
573.1507199165151
 30
0.0
 10
381.4936451131298
 20
572.9681028752987
 30
0.0
 10
381.8768637868759
 20
572.7756282666427
 30
0.0
 10
382.2551322383987
 20
572.5735983937718
 30
0.0
 10
382.6282809421303
 20
572.3617292398077
 30
0.0
 10
382.9968519297448
 20
572.1408576120004
 30
0.0
 10
383.2378949886408
 20
571.9857436405207
 30
0.0
 10
383.3585319698905
 20
571.9081123602231
 30
0.0
  0
SPLINE
  5
EB
330
1F
100
AcDbEntity
  8
0
  6
Continuous
 62
     7
370
    25
100
AcDbSpline
210
0.0
220
0.0
230
1.0
 70
     8
 71
     3
 72
    15
 73
    11
 74
     0
 42
0.000000001
 43
0.00000001
 40
0.0
 40
0.0
 40
0.0
 40
0.0
 40
0.1252579463552561
 40
0.2502949653423051
 40
0.3751844757573428
 40
0.5000001566983365
 40
0.624815818008691
 40
0.7497052695665957
 40
0.8747421905741354
 40
1.0
 40
1.0
 40
1.0
 40
1.0
 10
377.1493918688905
 20
574.3954166832231
 30
0.0
 10
377.284601728427
 20
574.3694215810939
 30
0.0
 10
377.5547829671537
 20
574.3174772264578
 30
0.0
 10
377.9572398536253
 20
574.2272303175699
 30
0.0
 10
378.3570605914464
 20
574.128060671728
 30
0.0
 10
378.7540742159637
 20
574.0190649096287
 30
0.0
 10
379.148348030228
 20
573.9005406490047
 30
0.0
 10
379.5397809785893
 20
573.7721999765873
 30
0.0
 10
379.9287080376124
 20
573.6348991150481
 30
0.0
 10
380.1852165510764
 20
573.5354035965362
 30
0.0
 10
380.3135839938905
 20
573.4856119342231
 30
0.0
  0
SPLINE
  5
EC
330
1F
100
AcDbEntity
  8
0
  6
Continuous
 62
     7
370
    25
100
AcDbSpline
210
0.0
220
0.0
230
1.0
 70
     8
 71
     3
 72
    15
 73
    11
 74
     0
 42
0.000000001
 43
0.00000001
 40
0.0
 40
0.0
 40
0.0
 40
0.0
 40
0.1252294125578202
 40
0.2502622748760648
 40
0.375163934211019
 40
0.4999999438595117
 40
0.624835960539353
 40
0.7497376409573568
 40
0.8747705383771512
 40
1.0
 40
1.0
 40
1.0
 40
1.0
 10
374.0558662708905
 20
574.6792537312231
 30
0.0
 10
374.1857238729392
 20
574.6784018590249
 30
0.0
 10
374.4452352627548
 20
574.67669945166
 30
0.0
 10
374.8340621908299
 20
574.6628959511918
 30
0.0
 10
375.2220760879837
 20
574.6408552354226
 30
0.0
 10
375.6092738615795
 20
574.6097582904744
 30
0.0
 10
375.9956656644401
 20
574.5698768722485
 30
0.0
 10
376.3812120279551
 20
574.5209419147692
 30
0.0
 10
376.7660589485801
 20
574.4637593196059
 30
0.0
 10
377.0215473391542
 20
574.4182094874577
 30
0.0
 10
377.1493918688905
 20
574.3954166832231
 30
0.0
  0
LINE
  5
ED
330
1F
100
AcDbEntity
  8
0
  6
Continuous
 62
     7
370
    25
100
AcDbLine
 10
224.0558662709
 20
574.6792537312
 30
0.0
 11
374.0558662709
 21
574.6792537312
 31
0.0
  0
SPLINE
  5
EE
330
1F
100
AcDbEntity
  8
0
  6
Continuous
 62
     7
370
    25
100
AcDbSpline
210
0.0
220
0.0
230
1.0
 70
     8
 71
     3
 72
    15
 73
    11
 74
     0
 42
0.000000001
 43
0.00000001
 40
0.0
 40
0.0
 40
0.0
 40
0.0
 40
0.1252294413687616
 40
0.2502623235032306
 40
0.3751639940239372
 40
0.5000000066067584
 40
0.6248360183620848
 40
0.7497376864016839
 40
0.8747705644053211
 40
1.0
 40
1.0
 40
1.0
 40
1.0
 10
220.9623332838905
 20
574.3954151982231
 30
0.0
 10
221.0901780903447
 20
574.4182081218654
 30
0.0
 10
221.3456670389608
 20
574.4637581935402
 30
0.0
 10
221.730514820022
 20
574.520941087605
 30
0.0
 10
222.1160620689164
 20
574.5698763010486
 30
0.0
 10
222.5024547833718
 20
574.6097579277665
 30
0.0
 10
222.8896534944283
 20
574.6408550352254
 30
0.0
 10
223.2776683549972
 20
574.6628958661288
 30
0.0
 10
223.6664962724129
 20
574.6766994385101
 30
0.0
 10
223.9260083305985
 20
574.6784018546227
 30
0.0
 10
224.0558662708905
 20
574.6792537312231
 30
0.0
  0
SPLINE
  5
EF
330
1F
100
AcDbEntity
  8
0
  6
Continuous
 62
     7
370
    25
100
AcDbSpline
210
0.0
220
0.0
230
1.0
 70
     8
 71
     3
 72
    15
 73
    11
 74
     0
 42
0.000000001
 43
0.00000001
 40
0.0
 40
0.0
 40
0.0
 40
0.0
 40
0.1252578477699476
 40
0.2502947967571846
 40
0.3751842656116258
 40
0.4999999332342173
 40
0.6248156092210232
 40
0.7497051031532116
 40
0.8747420938873867
 40
1.0
 40
1.0
 40
1.0
 40
1.0
 10
217.7981471678905
 20
573.4856115112232
 30
0.0
 10
217.9265144126627
 20
573.5354030966283
 30
0.0
 10
218.1830225198396
 20
573.6348984573672
 30
0.0
 10
218.5719489361295
 20
573.7721991240497
 30
0.0
 10
218.9633811988583
 20
573.900539624625
 30
0.0
 10
219.3576542831572
 20
574.0190637400513
 30
0.0
 10
219.7546671337891
 20
574.1280593824263
 30
0.0
 10
220.1544870536529
 20
574.227228934987
 30
0.0
 10
220.5569430783268
 20
574.3174757742144
 30
0.0
 10
220.8271237263866
 20
574.3694201078442
 30
0.0
 10
220.9623332838905
 20
574.3954151982231
 30
0.0
  0
SPLINE
  5
F0
330
1F
100
AcDbEntity
  8
0
  6
Continuous
 62
     7
370
    25
100
AcDbSpline
210
0.0
220
0.0
230
1.0
 70
     8
 71
     3
 72
    15
 73
    11
 74
     0
 42
0.000000001
 43
0.00000001
 40
0.0
 40
0.0
 40
0.0
 40
0.0
 40
0.1252798986245929
 40
0.2503200312111618
 40
0.3752000651013576
 40
0.4999999742392087
 40
0.6247998866048908
 40
0.7496799301723669
 40
0.8747200788671348
 40
1.0
 40
1.0
 40
1.0
 40
1.0
 10
214.7532016238906
 20
571.9081125192231
 30
0.0
 10
214.8738384124371
 20
571.9857437284321
 30
0.0
 10
215.1148811096753
 20
572.1408575729157
 30
0.0
 10
215.4834515997003
 20
572.3617290258923
 30
0.0
 10
215.8565998829857
 20
572.5735980459848
 30
0.0
 10
216.234867992189
 20
572.7756278250354
 30
0.0
 10
216.6180864014634
 20
572.9681023801181
 30
0.0
 10
217.0063893405481
 20
573.1507194083481
 30
0.0
 10
217.3994058688485
 20
573.3244043554007
 30
0.0
 10
217.6651485531444
 20
573.4318414892488
 30
0.0
 10
217.7981471678905
 20
573.4856115112232
 30
0.0
  0
SPLINE
  5
F1
330
1F
100
AcDbEntity
  8
0
  6
Continuous
 62
     7
370
    25
100
AcDbSpline
210
0.0
220
0.0
230
1.0
 70
     8
 71
     3
 72
    16
 73
    12
 74
     0
 42
0.000000001
 43
0.00000001
 40
0.0
 40
0.0
 40
0.0
 40
0.0
 40
0.1113852810547043
 40
0.222565493360182
 40
0.3335989394260275
 40
0.444544153142215
 40
0.5554598080882265
 40
0.6664046247403762
 40
0.7774372773078368
 40
0.8886163009348294
 40
1.0
 40
1.0
 40
1.0
 40
1.0
 10
212.0350489498905
 20
569.7000748502231
 30
0.0
 10
212.1277579545213
 20
569.7915736100616
 30
0.0
 10
212.3130052794749
 20
569.974402673583
 30
0.0
 10
212.5985126494194
 20
570.2403104068967
 30
0.0
 10
212.8892189379714
 20
570.4997141855116
 30
0.0
 10
213.1856919286415
 20
570.7520470179928
 30
0.0
 10
213.4877873147611
 20
570.9974482514514
 30
0.0
 10
213.7955140784428
 20
571.2359251849779
 30
0.0
 10
214.1089790448202
 20
571.4673080142578
 30
0.0
 10
214.4277435846077
 20
571.6922686739965
 30
0.0
 10
214.644649119824
 20
571.8361204739864
 30
0.0
 10
214.7532016238906
 20
571.9081125192231
 30
0.0
  0
SPLINE
  5
F2
330
1F
100
AcDbEntity
  8
0
  6
Continuous
 62
     7
370
    25
100
AcDbSpline
210
0.0
220
0.0
230
1.0
 70
     8
 71
     3
 72
    16
 73
    12
 74
     0
 42
0.000000001
 43
0.00000001
 40
0.0
 40
0.0
 40
0.0
 40
0.0
 40
0.1113837598894244
 40
0.2225628293799093
 40
0.3335955127094254
 40
0.4445403449048057
 40
0.5554560000815327
 40
0.6664011986465054
 40
0.7774346141342795
 40
0.8886147804143293
 40
1.0
 40
1.0
 40
1.0
 40
1.0
 10
209.8270076398906
 20
566.981919430223
 30
0.0
 10
209.8989998613883
 20
567.0904720999836
 30
0.0
 10
210.042852003979
 20
567.3073779518118
 30
0.0
 10
210.2678131606664
 20
567.6261429401286
 30
0.0
 10
210.4991964561783
 20
567.9396083074449
 30
0.0
 10
210.7376738247957
 20
568.2473354243399
 30
0.0
 10
210.983075462381
 20
568.5494311159292
 30
0.0
 10
211.2354086679059
 20
568.8459043644243
 30
0.0
 10
211.4948127887462
 20
569.1366108628101
 30
0.0
 10
211.7607208326681
 20
569.4221183957482
 30
0.0
 10
211.943550096238
 20
569.6073658081925
 30
0.0
 10
212.0350489498904
 20
569.7000748502231
 30
0.0
  0
SPLINE
  5
F3
330
1F
100
AcDbEntity
  8
0
  6
Continuous
 62
     7
370
    25
100
AcDbSpline
210
0.0
220
0.0
230
1.0
 70
     8
 71
     3
 72
    15
 73
    11
 74
     0
 42
0.000000001
 43
0.00000001
 40
0.0
 40
0.0
 40
0.0
 40
0.0
 40
0.125279833551853
 40
0.2503199197953225
 40
0.3751999260480596
 40
0.4999998261943424
 40
0.6247997481185347
 40
0.7496798196630797
 40
0.8747200145868749
 40
0.9999999999999999
 40
0.9999999999999999
 40
0.9999999999999999
 40
0.9999999999999999
 10
208.2495080678906
 20
563.9369714542231
 30
0.0
 10
208.3032780665327
 20
564.0699700793447
 30
0.0
 10
208.410715164475
 20
564.3357128108717
 30
0.0
 10
208.5844000848884
 20
564.7287294476869
 30
0.0
 10
208.7670171258032
 20
565.1170325734172
 30
0.0
 10
208.9594917341924
 20
565.5002512471605
 30
0.0
 10
209.1615216068309
 20
565.8785196986873
 30
0.0
 10
209.3733907605977
 20
566.2516684024295
 30
0.0
 10
209.5942623882407
 20
566.6202393900619
 30
0.0
 10
209.7493763596343
 20
566.8612824489662
 30
0.0
 10
209.8270076398906
 20
566.981919430223
 30
0.0
  0
SPLINE
  5
F4
330
1F
100
AcDbEntity
  8
0
  6
Continuous
 62
     7
370
    25
100
AcDbSpline
210
0.0
220
0.0
230
1.0
 70
     8
 71
     3
 72
    15
 73
    11
 74
     0
 42
0.000000001
 43
0.00000001
 40
0.0
 40
0.0
 40
0.0
 40
0.0
 40
0.1252579463552757
 40
0.250294965342318
 40
0.3751844757573572
 40
0.5000001566983627
 40
0.6248158180087131
 40
0.7497052695666112
 40
0.8747421905741445
 40
0.9999999999999999
 40
0.9999999999999999
 40
0.9999999999999999
 40
0.9999999999999999
 10
207.3397033188905
 20
560.7727793292231
 30
0.0
 10
207.3656984210197
 20
560.9079891887596
 30
0.0
 10
207.4176427756558
 20
561.1781704274863
 30
0.0
 10
207.5078896845436
 20
561.580627313958
 30
0.0
 10
207.6070593303855
 20
561.9804480517789
 30
0.0
 10
207.7160550924849
 20
562.3774616762964
 30
0.0
 10
207.8345793531088
 20
562.7717354905606
 30
0.0
 10
207.9629200255262
 20
563.163168438922
 30
0.0
 10
208.1002208870656
 20
563.552095497945
 30
0.0
 10
208.1997164055775
 20
563.808604011409
 30
0.0
 10
208.2495080678906
 20
563.9369714542231
 30
0.0
  0
SPLINE
  5
F5
330
1F
100
AcDbEntity
  8
0
  6
Continuous
 62
     7
370
    25
100
AcDbSpline
210
0.0
220
0.0
230
1.0
 70
     8
 71
     3
 72
    15
 73
    11
 74
     0
 42
0.000000001
 43
0.00000001
 40
0.0
 40
0.0
 40
0.0
 40
0.0
 40
0.1252294125578035
 40
0.2502622748760321
 40
0.3751639342109783
 40
0.4999999438594455
 40
0.6248359605393119
 40
0.7497376409573092
 40
0.8747705383771338
 40
1.0
 40
1.0
 40
1.0
 40
1.0
 10
207.0558662708905
 20
557.6792537312231
 30
0.0
 10
207.0567181430887
 20
557.8091113332719
 30
0.0
 10
207.0584205504535
 20
558.0686227230874
 30
0.0
 10
207.0722240509218
 20
558.4574496511623
 30
0.0
 10
207.0942647666913
 20
558.8454635483162
 30
0.0
 10
207.1253617116392
 20
559.2326613219119
 30
0.0
 10
207.1652431298651
 20
559.6190531247726
 30
0.0
 10
207.2141780873445
 20
560.0045994882876
 30
0.0
 10
207.2713606825079
 20
560.3894464089126
 30
0.0
 10
207.3169105146559
 20
560.6449347994868
 30
0.0
 10
207.3397033188905
 20
560.7727793292231
 30
0.0
  0
LINE
  5
F6
330
1F
100
AcDbEntity
  8
0
  6
Continuous
 62
     7
370
    25
100
AcDbLine
 10
207.0558662709
 20
187.6792537312
 30
0.0
 11
207.0558662709
 21
557.6792537312
 31
0.0
  0
SPLINE
  5
F7
330
1F
100
AcDbEntity
  8
0
  6
Continuous
 62
     7
370
    25
100
AcDbSpline
210
0.0
220
0.0
230
1.0
 70
     8
 71
     3
 72
    15
 73
    11
 74
     0
 42
0.000000001
 43
0.00000001
 40
0.0
 40
0.0
 40
0.0
 40
0.0
 40
0.1252294413688098
 40
0.250262323503295
 40
0.3751639940240293
 40
0.500000006606834
 40
0.6248360183621526
 40
0.749737686401744
 40
0.8747705644053557
 40
1.0
 40
1.0
 40
1.0
 40
1.0
 10
207.3397048038905
 20
184.5857207442231
 30
0.0
 10
207.3169118802482
 20
184.7135655506774
 30
0.0
 10
207.2713618085731
 20
184.9690544992934
 30
0.0
 10
207.2141789145087
 20
185.3539022803549
 30
0.0
 10
207.1652437010649
 20
185.7394495292492
 30
0.0
 10
207.1253620743472
 20
186.1258422437046
 30
0.0
 10
207.0942649668884
 20
186.5130409547612
 30
0.0
 10
207.0722241359846
 20
186.9010558153299
 30
0.0
 10
207.0584205636035
 20
187.2898837327456
 30
0.0
 10
207.056718147491
 20
187.5493957909311
 30
0.0
 10
207.0558662708905
 20
187.6792537312231
 30
0.0
  0
SPLINE
  5
F8
330
1F
100
AcDbEntity
  8
0
  6
Continuous
 62
     7
370
    25
100
AcDbSpline
210
0.0
220
0.0
230
1.0
 70
     8
 71
     3
 72
    15
 73
    11
 74
     0
 42
0.000000001
 43
0.00000001
 40
0.0
 40
0.0
 40
0.0
 40
0.0
 40
0.1252578477699327
 40
0.2502947967571771
 40
0.3751842656115987
 40
0.4999999332342157
 40
0.6248156092210183
 40
0.7497051031532016
 40
0.8747420938873977
 40
1.0
 40
1.0
 40
1.0
 40
1.0
 10
208.2495084908905
 20
181.4215346282231
 30
0.0
 10
208.1997169054853
 20
181.5499018729952
 30
0.0
 10
208.1002215447465
 20
181.8064099801721
 30
0.0
 10
207.9629208780639
 20
182.195336396462
 30
0.0
 10
207.8345803774885
 20
182.5867686591908
 30
0.0
 10
207.7160562620624
 20
182.9810417434899
 30
0.0
 10
207.6070606196872
 20
183.3780545941215
 30
0.0
 10
207.507891067127
 20
183.7778745139858
 30
0.0
 10
207.4176442278993
 20
184.1803305386593
 30
0.0
 10
207.3656998942693
 20
184.4505111867192
 30
0.0
 10
207.3397048038905
 20
184.5857207442231
 30
0.0
  0
SPLINE
  5
F9
330
1F
100
AcDbEntity
  8
0
  6
Continuous
 62
     7
370
    25
100
AcDbSpline
210
0.0
220
0.0
230
1.0
 70
     8
 71
     3
 72
    15
 73
    11
 74
     0
 42
0.000000001
 43
0.00000001
 40
0.0
 40
0.0
 40
0.0
 40
0.0
 40
0.125279898513877
 40
0.2503200310200734
 40
0.3752000648609199
 40
0.4999999739811726
 40
0.6247998863615847
 40
0.7496799299766624
 40
0.8747200787523869
 40
0.9999999999999999
 40
0.9999999999999999
 40
0.9999999999999999
 40
0.9999999999999999
 10
209.8270074838905
 20
178.3765890842231
 30
0.0
 10
209.7493762746561
 20
178.4972258726277
 30
0.0
 10
209.5942624301033
 20
178.7382685696111
 30
0.0
 10
209.3733909770451
 20
179.1068390593403
 30
0.0
 10
209.1615219568512
 20
179.4799873424467
 30
0.0
 10
208.9594921776853
 20
179.8582554515922
 30
0.0
 10
208.7670176224699
 20
180.2414738609277
 30
0.0
 10
208.5844005940919
 20
180.6297768001937
 30
0.0
 10
208.4107156468736
 20
181.0227933287946
 30
0.0
 10
208.3032785129232
 20
181.2885360133362
 30
0.0
 10
208.2495084908905
 20
181.4215346282231
 30
0.0
  0
SPLINE
  5
FA
330
1F
100
AcDbEntity
  8
0
  6
Continuous
 62
     7
370
    25
100
AcDbSpline
210
0.0
220
0.0
230
1.0
 70
     8
 71
     3
 72
    16
 73
    12
 74
     0
 42
0.000000001
 43
0.00000001
 40
0.0
 40
0.0
 40
0.0
 40
0.0
 40
0.1113852811871609
 40
0.2225654935912397
 40
0.3335989397220425
 40
0.4445441534698446
 40
0.5554598084144963
 40
0.6664046250327235
 40
0.7774372775341367
 40
0.8886163010634877
 40
0.9999999999999999
 40
0.9999999999999999
 40
0.9999999999999999
 40
0.9999999999999999
 10
212.0350451518904
 20
175.6584364102231
 30
0.0
 10
211.9435463919587
 20
175.7511454149489
 30
0.0
 10
211.760717328279
 20
175.9363927400645
 30
0.0
 10
211.4948095947853
 20
176.221900110225
 30
0.0
 10
211.2354058160865
 20
176.5126063989209
 30
0.0
 10
210.9830729836181
 20
176.8090793896626
 30
0.0
 10
210.7376717502692
 20
177.1111747757819
 30
0.0
 10
210.4991948169491
 20
177.4189015393914
 30
0.0
 10
210.2678119879731
 20
177.7323665056248
 30
0.0
 10
210.0428513286319
 20
178.0511310451949
 30
0.0
 10
209.8989995289587
 20
178.2680365802515
 30
0.0
 10
209.8270074838905
 20
178.3765890842231
 30
0.0
  0
SPLINE
  5
FB
330
1F
100
AcDbEntity
  8
0
  6
Continuous
 62
     7
370
    25
100
AcDbSpline
210
0.0
220
0.0
230
1.0
 70
     8
 71
     3
 72
    16
 73
    12
 74
     0
 42
0.000000001
 43
0.00000001
 40
0.0
 40
0.0
 40
0.0
 40
0.0
 40
0.111383759632118
 40
0.2225628289273934
 40
0.3335955121248814
 40
0.4445403442523979
 40
0.5554559994263985
 40
0.6664011980546033
 40
0.7774346136722424
 40
0.888614780149431
 40
1.0
 40
1.0
 40
1.0
 40
1.0
 10
214.7532005718905
 20
173.4503951022231
 30
0.0
 10
214.6446479023199
 20
173.522387323384
 30
0.0
 10
214.4277420508112
 20
173.6662394653413
 30
0.0
 10
214.1089770629286
 20
173.8912006212335
 30
0.0
 10
213.7955116959
 20
174.1225839161379
 30
0.0
 10
213.4877845791497
 20
174.3610612843428
 30
0.0
 10
213.1856888875609
 20
174.6064629217087
 30
0.0
 10
212.8892156389225
 20
174.8587961272077
 30
0.0
 10
212.5985091402495
 20
175.1182002482157
 30
0.0
 10
212.3130016068794
 20
175.3841082924977
 30
0.0
 10
212.1277541941112
 20
175.5669375563844
 30
0.0
 10
212.0350451518904
 20
175.6584364102231
 30
0.0
  0
SPLINE
  5
FC
330
1F
100
AcDbEntity
  8
0
  6
Continuous
 62
     7
370
    25
100
AcDbSpline
210
0.0
220
0.0
230
1.0
 70
     8
 71
     3
 72
    15
 73
    11
 74
     0
 42
0.000000001
 43
0.00000001
 40
0.0
 40
0.0
 40
0.0
 40
0.0
 40
0.1252798337814127
 40
0.2503199201868613
 40
0.3751999265348199
 40
0.4999998267105736
 40
0.6247997485995519
 40
0.7496798200453814
 40
0.8747200148083619
 40
1.0
 40
1.0
 40
1.0
 40
1.0
 10
217.7981485478906
 20
171.8728955282231
 30
0.0
 10
217.6651499224873
 20
171.9266655269821
 30
0.0
 10
217.3994071904687
 20
172.0341026251289
 30
0.0
 10
217.0063905530528
 20
172.2077875458739
 30
0.0
 10
216.6180874269594
 20
172.3904045870848
 30
0.0
 10
216.2348687530938
 20
172.5828791957388
 30
0.0
 10
215.856600301683
 20
172.7849090686093
 30
0.0
 10
215.4834515982986
 20
172.9967782225779
 30
0.0
 10
215.1148806112579
 20
173.2176498503841
 30
0.0
 10
214.8738375528631
 20
173.3727638219162
 30
0.0
 10
214.7532005718905
 20
173.4503951022231
 30
0.0
  0
SPLINE
  5
FD
330
1F
100
AcDbEntity
  8
0
  6
Continuous
 62
     7
370
    25
100
AcDbSpline
210
0.0
220
0.0
230
1.0
 70
     8
 71
     3
 72
    15
 73
    11
 74
     0
 42
0.000000001
 43
0.00000001
 40
0.0
 40
0.0
 40
0.0
 40
0.0
 40
0.1252579463552417
 40
0.2502949653422745
 40
0.3751844757573202
 40
0.5000001566983154
 40
0.6248158180086925
 40
0.7497052695665849
 40
0.8747421905741284
 40
1.0
 40
1.0
 40
1.0
 40
1.0
 10
220.9623406728905
 20
170.9630907792231
 30
0.0
 10
220.827130813354
 20
170.9890858813522
 30
0.0
 10
220.5569495746274
 20
171.0410302359884
 30
0.0
 10
220.1544926881559
 20
171.1312771448762
 30
0.0
 10
219.7546719503348
 20
171.2304467907182
 30
0.0
 10
219.3576583258173
 20
171.3394425528174
 30
0.0
 10
218.9633845115531
 20
171.4579668134413
 30
0.0
 10
218.5719515631918
 20
171.5863074858588
 30
0.0
 10
218.1830245041688
 20
171.7236083473981
 30
0.0
 10
217.9265159907048
 20
171.82310386591
 30
0.0
 10
217.7981485478906
 20
171.8728955282231
 30
0.0
  0
SPLINE
  5
FE
330
1F
100
AcDbEntity
  8
0
  6
Continuous
 62
     7
370
    25
100
AcDbSpline
210
0.0
220
0.0
230
1.0
 70
     8
 71
     3
 72
    15
 73
    11
 74
     0
 42
0.000000001
 43
0.00000001
 40
0.0
 40
0.0
 40
0.0
 40
0.0
 40
0.1252294125578023
 40
0.2502622748760824
 40
0.3751639342109653
 40
0.4999999438594578
 40
0.6248359605393354
 40
0.7497376409573381
 40
0.8747705383771336
 40
1.0
 40
1.0
 40
1.0
 40
1.0
 10
224.0558662708905
 20
170.6792537312231
 30
0.0
 10
223.9260086688419
 20
170.6801056034213
 30
0.0
 10
223.6664972790262
 20
170.6818080107861
 30
0.0
 10
223.2776703509512
 20
170.6956115112544
 30
0.0
 10
222.8896564537972
 20
170.7176522270238
 30
0.0
 10
222.5024586802016
 20
170.7487491719718
 30
0.0
 10
222.1160668773411
 20
170.7886305901978
 30
0.0
 10
221.7305205138258
 20
170.837565547677
 30
0.0
 10
221.345673593201
 20
170.8947481428404
 30
0.0
 10
221.0901852026267
 20
170.9402979749886
 30
0.0
 10
220.9623406728905
 20
170.9630907792231
 30
0.0
  0
LINE
  5
FF
330
1F
100
AcDbEntity
  8
0
  6
Continuous
 62
     7
370
    25
100
AcDbLine
 10
374.0558662709
 20
170.6792537312
 30
0.0
 11
224.0558662709
 21
170.6792537312
 31
0.0
  0
SPLINE
  5
100
330
1F
100
AcDbEntity
  8
0
  6
Continuous
 62
     7
370
    25
100
AcDbSpline
210
0.0
220
0.0
230
1.0
 70
     8
 71
     3
 72
    15
 73
    11
 74
     0
 42
0.000000001
 43
0.00000001
 40
0.0
 40
0.0
 40
0.0
 40
0.0
 40
0.1252294413687616
 40
0.2502623235032305
 40
0.3751639940239371
 40
0.5000000066067406
 40
0.6248360183620493
 40
0.7497376864016839
 40
0.8747705644053032
 40
1.0
 40
1.0
 40
1.0
 40
1.0
 10
377.1493992578905
 20
170.9630922642231
 30
0.0
 10
377.0215544514363
 20
170.9402993405808
 30
0.0
 10
376.7660655028203
 20
170.8947492689059
 30
0.0
 10
376.3812177217589
 20
170.8375663748412
 30
0.0
 10
375.9956704728645
 20
170.7886311613976
 30
0.0
 10
375.6092777584093
 20
170.7487495346798
 30
0.0
 10
375.2220790473527
 20
170.7176524272208
 30
0.0
 10
374.8340641867839
 20
170.6956115963173
 30
0.0
 10
374.4452362693682
 20
170.6818080239361
 30
0.0
 10
374.1857242111826
 20
170.6801056078235
 30
0.0
 10
374.0558662708905
 20
170.6792537312231
 30
0.0
  0
SPLINE
  5
101
330
1F
100
AcDbEntity
  8
0
  6
Continuous
 62
     7
370
    25
100
AcDbSpline
210
0.0
220
0.0
230
1.0
 70
     8
 71
     3
 72
    15
 73
    11
 74
     0
 42
0.000000001
 43
0.00000001
 40
0.0
 40
0.0
 40
0.0
 40
0.0
 40
0.1252578479132093
 40
0.2502947970024573
 40
0.3751842659176955
 40
0.499999933560092
 40
0.6248156095258554
 40
0.7497051033964687
 40
0.8747420940288848
 40
1.0
 40
1.0
 40
1.0
 40
1.0
 10
380.3135853738905
 20
171.8728959522231
 30
0.0
 10
380.1852181289771
 20
171.8231043667129
 30
0.0
 10
379.9287100215597
 20
171.7236090057809
 30
0.0
 10
379.539783604966
 20
171.5863083388369
 30
0.0
 10
379.1483513420552
 20
171.4579678380543
 30
0.0
 10
378.7540782576954
 20
171.3394437224747
 30
0.0
 10
378.3570654071245
 20
171.2304480799994
 30
0.0
 10
377.9572454874425
 20
171.1312785273934
 30
0.0
 10
377.5547894630728
 20
171.0410316881716
 30
0.0
 10
377.284608815253
 20
170.9890873545791
 30
0.0
 10
377.1493992578905
 20
170.9630922642231
 30
0.0
  0
SPLINE
  5
102
330
1F
100
AcDbEntity
  8
0
  6
Continuous
 62
     7
370
    25
100
AcDbSpline
210
0.0
220
0.0
230
1.0
 70
     8
 71
     3
 72
    15
 73
    11
 74
     0
 42
0.000000001
 43
0.00000001
 40
0.0
 40
0.0
 40
0.0
 40
0.0
 40
0.1252798982113932
 40
0.2503200305034197
 40
0.3752000642177246
 40
0.4999999732981031
 40
0.6247998857242196
 40
0.749679929469356
 40
0.8747200784580483
 40
0.9999999999999999
 40
0.9999999999999999
 40
0.9999999999999999
 40
0.9999999999999999
 10
383.3585309178905
 20
173.4503949432231
 30
0.0
 10
383.2378941297375
 20
173.3727637343156
 30
0.0
 10
382.9968514331722
 20
173.2176498903617
 30
0.0
 10
382.628280943989
 20
172.996778438071
 30
0.0
 10
382.2551326612087
 20
172.7849094184407
 30
0.0
 10
381.8768645521725
 20
172.5828796396314
 30
0.0
 10
381.493646142728
 20
172.3904050845681
 30
0.0
 10
381.105343203136
 20
172.2077880561337
 30
0.0
 10
380.7123266739886
 20
172.0341031086618
 30
0.0
 10
380.4465839890293
 20
171.9266659744193
 30
0.0
 10
380.3135853738905
 20
171.8728959522231
 30
0.0
  0
SPLINE
  5
103
330
1F
100
AcDbEntity
  8
0
  6
Continuous
 62
     7
370
    25
100
AcDbSpline
210
0.0
220
0.0
230
1.0
 70
     8
 71
     3
 72
    16
 73
    12
 74
     0
 42
0.000000001
 43
0.00000001
 40
0.0
 40
0.0
 40
0.0
 40
0.0
 40
0.1113852809392069
 40
0.2225654931614317
 40
0.3335989391748712
 40
0.4445441528680749
 40
0.5554598078190941
 40
0.6664046245027442
 40
0.7774372771266066
 40
0.8886163008333395
 40
1.0
 40
1.0
 40
1.0
 40
1.0
 10
386.0766835918905
 20
175.658432612223
 30
0.0
 10
385.983974587256
 20
175.5669338525891
 30
0.0
 10
385.7987272622684
 20
175.3841047894502
 30
0.0
 10
385.5132198923336
 20
175.1181970565847
 30
0.0
 10
385.2225136037843
 20
174.8587932782728
 30
0.0
 10
384.9260406131172
 20
174.6064604459436
 30
0.0
 10
384.6239452269991
 20
174.3610592124874
 30
0.0
 10
384.316218463317
 20
174.1225822788142
 30
0.0
 10
384.0027534969394
 20
173.8911994492356
 30
0.0
 10
383.683988957146
 20
173.6662387890564
 30
0.0
 10
383.467083421955
 20
173.5223869886668
 30
0.0
 10
383.3585309178905
 20
173.4503949432231
 30
0.0
  0
SPLINE
  5
104
330
1F
100
AcDbEntity
  8
0
  6
Continuous
 62
     7
370
    25
100
AcDbSpline
210
0.0
220
0.0
230
1.0
 70
     8
 71
     3
 72
    16
 73
    12
 74
     0
 42
0.000000001
 43
0.00000001
 40
0.0
 40
0.0
 40
0.0
 40
0.0
 40
0.1113837593925781
 40
0.2225628285104123
 40
0.3335955115917615
 40
0.4445403436635478
 40
0.5554559988411908
 40
0.6664011975313384
 40
0.7774346132680335
 40
0.8886147799200839
 40
0.9999999999999999
 40
0.9999999999999999
 40
0.9999999999999999
 40
0.9999999999999999
 10
388.2847248998905
 20
178.3765880322231
 30
0.0
 10
388.2127326788121
 20
178.2680353629392
 30
0.0
 10
388.0688805369797
 20
178.0511295119431
 30
0.0
 10
387.8439193812838
 20
177.7323645247018
 30
0.0
 10
387.6125360865078
 20
177.4188991581025
 30
0.0
 10
387.3740587183673
 20
177.1111720415682
 30
0.0
 10
387.1286570810007
 20
176.8090763499822
 30
0.0
 10
386.8763238754361
 20
176.5126031011342
 30
0.0
 10
386.616919754299
 20
176.2218966020366
 30
0.0
 10
386.351011709818
 20
175.9363890680349
 30
0.0
 10
386.1681824458113
 20
175.7511416547332
 30
0.0
 10
386.0766835918905
 20
175.6584326122231
 30
0.0
  0
SPLINE
  5
105
330
1F
100
AcDbEntity
  8
0
  6
Continuous
 62
     7
370
    25
100
AcDbSpline
210
0.0
220
0.0
230
1.0
 70
     8
 71
     3
 72
    15
 73
    11
 74
     0
 42
0.000000001
 43
0.00000001
 40
0.0
 40
0.0
 40
0.0
 40
0.0
 40
0.1252798335820334
 40
0.2503199198471827
 40
0.37519992611308
 40
0.4999998262638646
 40
0.6247997481838349
 40
0.749679819715407
 40
0.8747200146174492
 40
1.0
 40
1.0
 40
1.0
 40
1.0
 10
389.8622244728905
 20
181.4215360082231
 30
0.0
 10
389.8084544741862
 20
181.2885373830688
 30
0.0
 10
389.7010173761236
 20
181.0227946514852
 30
0.0
 10
389.5273324555428
 20
180.6297780146003
 30
0.0
 10
389.3447154144774
 20
180.241474888828
 30
0.0
 10
389.1522408059552
 20
179.8582562150707
 30
0.0
 10
388.9502109332005
 20
179.4799877635577
 30
0.0
 10
388.7383417793347
 20
179.1068390598574
 30
0.0
 10
388.5174701516099
 20
178.7382680722946
 30
0.0
 10
388.3623561801682
 20
178.4972250134471
 30
0.0
 10
388.2847248998905
 20
178.3765880322231
 30
0.0
  0
SPLINE
  5
106
330
1F
100
AcDbEntity
  8
0
  6
Continuous
 62
     7
370
    25
100
AcDbSpline
210
0.0
220
0.0
230
1.0
 70
     8
 71
     3
 72
    15
 73
    11
 74
     0
 42
0.000000001
 43
0.00000001
 40
0.0
 40
0.0
 40
0.0
 40
0.0
 40
0.1252579464063197
 40
0.2502949654293739
 40
0.3751844758655776
 40
0.5000001568131255
 40
0.6248158181156447
 40
0.7497052696516054
 40
0.8747421906233767
 40
1.0
 40
1.0
 40
1.0
 40
1.0
 10
390.7720292228905
 20
184.5857281332231
 30
0.0
 10
390.7460341207253
 20
184.4505182736238
 30
0.0
 10
390.6940897660199
 20
184.1803370347879
 30
0.0
 10
390.6038428570166
 20
183.7778801481823
 30
0.0
 10
390.5046732110561
 20
183.3780594102805
 30
0.0
 10
390.3956774488338
 20
182.9810457857359
 30
0.0
 10
390.2771531880837
 20
182.5867719714977
 30
0.0
 10
390.1488125155352
 20
182.1953390232161
 30
0.0
 10
390.0115116538632
 20
181.8064119643255
 30
0.0
 10
389.9120161352511
 20
181.549903450974
 30
0.0
 10
389.8622244728905
 20
181.4215360082231
 30
0.0
  0
SPLINE
  5
107
330
1F
100
AcDbEntity
  8
0
  6
Continuous
 62
     7
370
    25
100
AcDbSpline
210
0.0
220
0.0
230
1.0
 70
     8
 71
     3
 72
    15
 73
    11
 74
     0
 42
0.000000001
 43
0.00000001
 40
0.0
 40
0.0
 40
0.0
 40
0.0
 40
0.1252294124536827
 40
0.2502622746976803
 40
0.3751639339882623
 40
0.4999999436221751
 40
0.6248359603172162
 40
0.7497376407799543
 40
0.8747705382738797
 40
1.0
 40
1.0
 40
1.0
 40
1.0
 10
391.0558662708905
 20
187.6792537312231
 30
0.0
 10
391.055014398692
 20
187.5493961292827
 30
0.0
 10
391.0533119913267
 20
187.2898847396527
 30
0.0
 10
391.039508490857
 20
186.9010578118099
 30
0.0
 10
391.0174677750867
 20
186.5130439147954
 30
0.0
 10
390.9863708301374
 20
186.1258461412464
 30
0.0
 10
390.9464894119105
 20
185.7394543383397
 30
0.0
 10
390.8975544544306
 20
185.3539079746857
 30
0.0
 10
390.840371859265
 20
184.9690610538294
 30
0.0
 10
390.794822027124
 20
184.7135726630679
 30
0.0
 10
390.7720292228905
 20
184.5857281332231
 30
0.0
  0
LINE
  5
108
330
1F
100
AcDbEntity
  8
0
  6
Continuous
 62
     7
370
    25
100
AcDbLine
 10
391.0558662709
 20
557.6792537312
 30
0.0
 11
391.0558662709
 21
187.6792537312
 31
0.0
  0
SPLINE
  5
109
330
1F
100
AcDbEntity
  8
0
  6
Continuous
 62
     7
370
    25
100
AcDbSpline
210
0.0
220
0.0
230
1.0
 70
     8
 71
     3
 72
    15
 73
    11
 74
     0
 42
0.000000001
 43
0.00000001
 40
0.0
 40
0.0
 40
0.0
 40
0.0
 40
0.1252294413687716
 40
0.2502623235032507
 40
0.3751639940239652
 40
0.500000006606761
 40
0.6248360183620901
 40
0.7497376864016995
 40
0.8747705644053196
 40
1.0
 40
1.0
 40
1.0
 40
1.0
 10
390.7720277378905
 20
560.7727867182231
 30
0.0
 10
390.7948206615328
 20
560.6449419117688
 30
0.0
 10
390.8403707332077
 20
560.3894529631527
 30
0.0
 10
390.8975536272724
 20
560.0046051820915
 30
0.0
 10
390.9464888407159
 20
559.6190579331972
 30
0.0
 10
390.9863704674338
 20
559.2326652187417
 30
0.0
 10
391.0174675748927
 20
558.8454665076852
 30
0.0
 10
391.0395084057963
 20
558.4574516471164
 30
0.0
 10
391.0533119781774
 20
558.0686237297009
 30
0.0
 10
391.0550143942901
 20
557.8091116715151
 30
0.0
 10
391.0558662708905
 20
557.6792537312231
 30
0.0
  0
SPLINE
  5
10A
330
1F
100
AcDbEntity
  8
0
  6
Continuous
 62
     7
370
    25
100
AcDbSpline
210
0.0
220
0.0
230
1.0
 70
     8
 71
     3
 72
     8
 73
     4
 74
     0
 42
0.000000001
 43
0.00000001
 40
0.0
 40
0.0
 40
0.0
 40
0.0
 40
1.0
 40
1.0
 40
1.0
 40
1.0
 10
192.3383678291756
 20
155.9617233294022
 30
0.0
 10
192.7739555805651
 20
155.5260962004807
 30
0.0
 10
193.2515831857585
 20
155.1336378868198
 30
0.0
 10
193.7630400280995
 20
154.7902638732008
 30
0.0
  0
SPLINE
  5
10B
330
1F
100
AcDbEntity
  8
0
  6
Continuous
 62
     7
370
    25
100
AcDbSpline
210
0.0
220
0.0
230
1.0
 70
     8
 71
     3
 72
     8
 73
     4
 74
     0
 42
0.000000001
 43
0.00000001
 40
0.0
 40
0.0
 40
0.0
 40
0.0
 40
1.0
 40
1.0
 40
1.0
 40
1.0
 10
189.5558662703799
 20
162.6792311331254
 30
0.0
 10
189.5558384276275
 20
162.0631891833939
 30
0.0
 10
189.616062205892
 20
161.4479455290631
 30
0.0
 10
189.734914717175
 20
160.8434888344339
 30
0.0
  0
LINE
  5
10C
330
1F
100
AcDbEntity
  8
0
  6
Continuous
 62
     7
370
    25
100
AcDbLine
 10
189.5558662714
 20
582.6792537312
 30
0.0
 11
189.5558662709
 21
162.6792311331
 31
0.0
  0
SPLINE
  5
10D
330
1F
100
AcDbEntity
  8
0
  6
Continuous
 62
     7
370
    25
100
AcDbSpline
210
0.0
220
0.0
230
1.0
 70
     8
 71
     3
 72
     8
 73
     4
 74
     0
 42
0.000000001
 43
0.00000001
 40
0.0
 40
0.0
 40
0.0
 40
0.0
 40
1.0
 40
1.0
 40
1.0
 40
1.0
 10
192.3383358690695
 20
589.3967521729382
 30
0.0
 10
191.9027087399476
 20
588.9611644213477
 30
0.0
 10
191.5102504234717
 20
588.4835368185642
 30
0.0
 10
191.1668764134481
 20
587.9720799733884
 30
0.0
  0
SPLINE
  5
10E
330
1F
100
AcDbEntity
  8
0
  6
Continuous
 62
     7
370
    25
100
AcDbSpline
210
0.0
220
0.0
230
1.0
 70
     8
 71
     3
 72
     8
 73
     4
 74
     0
 42
0.000000001
 43
0.00000001
 40
0.0
 40
0.0
 40
0.0
 40
0.0
 40
1.0
 40
1.0
 40
1.0
 40
1.0
 10
199.055843670652
 20
592.1792537317339
 30
0.0
 10
198.4398017217984
 20
592.1792815771239
 30
0.0
 10
197.8245580674931
 20
592.1190577955804
 30
0.0
 10
197.220101373778
 20
592.000205284875
 30
0.0
  0
LINE
  5
10F
330
1F
100
AcDbEntity
  8
0
  6
Continuous
 62
     7
370
    25
100
AcDbLine
 10
759.0558662709
 20
592.1792537307
 30
0.0
 11
199.0558436707
 21
592.1792537312
 31
0.0
  0
SPLINE
  5
110
330
1F
100
AcDbEntity
  8
0
  6
Continuous
 62
     7
370
    25
100
AcDbSpline
210
0.0
220
0.0
230
1.0
 70
     8
 71
     3
 72
     8
 73
     4
 74
     0
 42
0.000000001
 43
0.00000001
 40
0.0
 40
0.0
 40
0.0
 40
0.0
 40
1.0
 40
1.0
 40
1.0
 40
1.0
 10
765.7733647126059
 20
589.3967841330435
 30
0.0
 10
765.3377769611998
 20
589.8324112619806
 30
0.0
 10
764.8601493556583
 20
590.22486957576
 30
0.0
 10
764.3486925133099
 20
590.568243589495
 30
0.0
  0
SPLINE
  5
111
330
1F
100
AcDbEntity
  8
0
  6
Continuous
 62
     7
370
    25
100
AcDbSpline
210
0.0
220
0.0
230
1.0
 70
     8
 71
     3
 72
     8
 73
     4
 74
     0
 42
0.000000001
 43
0.00000001
 40
0.0
 40
0.0
 40
0.0
 40
0.0
 40
1.0
 40
1.0
 40
1.0
 40
1.0
 10
768.5558662714012
 20
582.6792763314616
 30
0.0
 10
768.5558941167911
 20
583.2953182807495
 30
0.0
 10
768.4956703341949
 20
583.9105619341412
 30
0.0
 10
768.3768178245225
 20
584.515018628437
 30
0.0
  0
LINE
  5
112
330
1F
100
AcDbEntity
  8
0
  6
Continuous
 62
     7
370
    25
100
AcDbLine
 10
768.5558662704
 20
162.6792537312
 30
0.0
 11
768.5558662709
 21
582.6792763315
 31
0.0
  0
SPLINE
  5
113
330
1F
100
AcDbEntity
  8
0
  6
Continuous
 62
     7
370
    25
100
AcDbSpline
210
0.0
220
0.0
230
1.0
 70
     8
 71
     3
 72
     8
 73
     4
 74
     0
 42
0.000000001
 43
0.00000001
 40
0.0
 40
0.0
 40
0.0
 40
0.0
 40
1.0
 40
1.0
 40
1.0
 40
1.0
 10
765.7733966737818
 20
155.9617552905785
 30
0.0
 10
766.2090238040284
 20
156.397343040656
 30
0.0
 10
766.6014821176093
 20
156.8749706450332
 30
0.0
 10
766.944856129147
 20
157.3864274887808
 30
0.0
  0
SPLINE
  5
114
330
1F
100
AcDbEntity
  8
0
  6
Continuous
 62
     7
370
    25
100
AcDbSpline
210
0.0
220
0.0
230
1.0
 70
     8
 71
     3
 72
     8
 73
     4
 74
     0
 42
0.000000001
 43
0.00000001
 40
0.0
 40
0.0
 40
0.0
 40
0.0
 40
1.0
 40
1.0
 40
1.0
 40
1.0
 10
759.0558888711287
 20
153.1792537307123
 30
0.0
 10
759.6719305087122
 20
153.1792258853368
 30
0.0
 10
760.2871738569426
 20
153.239449575709
 30
0.0
 10
760.8916302522317
 20
153.3583019975057
 30
0.0
  0
LINE
  5
115
330
1F
100
AcDbEntity
  8
0
  6
Continuous
 62
     7
370
    25
100
AcDbLine
 10
199.0558876761
 20
153.1792537312
 30
0.0
 11
759.0558888711
 21
153.1792537312
 31
0.0
  0
LINE
  5
116
330
1F
100
AcDbEntity
  8
0
  6
Continuous
 62
     7
370
    25
100
AcDbLine
 10
374.0558662709
 20
173.6792537312
 30
0.0
 11
224.0558662709
 21
173.6792537312
 31
0.0
  0
SPLINE
  5
117
330
1F
100
AcDbEntity
  8
0
  6
Continuous
 62
     7
370
    25
100
AcDbSpline
210
0.0
220
0.0
230
1.0
 70
    24
 71
     3
 72
    14
 73
    10
 74
     0
 42
0.000000001
 43
0.00000001
 40
0.0
 40
0.0
 40
0.0
 40
0.0
 40
0.25
 40
0.25
 40
0.5
 40
0.5
 40
0.75
 40
0.75
 40
1.0
 40
1.0
 40
1.0
 40
1.0
 10
374.0558662708905
 20
173.6792537312231
 30
0.0
 10
374.0558662708905
 20
173.6792537312231
 30
0.0
 10
374.0558662708905
 20
173.601171761228
 30
0.0
 10
374.0558662708905
 20
173.3006128962859
 30
0.0
 10
374.0558662708905
 20
173.0782542584176
 30
0.0
 10
374.0558662708905
 20
172.5228938911478
 30
0.0
 10
374.0558662708905
 20
172.1901106723357
 30
0.0
 10
374.0558662708905
 20
171.464497384301
 30
0.0
 10
374.0558662708905
 20
171.0719528129218
 30
0.0
 10
374.0558662708905
 20
170.6792537312231
 30
0.0
  0
SPLINE
  5
118
330
1F
100
AcDbEntity
  8
0
  6
Continuous
 62
     7
370
    25
100
AcDbSpline
210
0.0
220
0.0
230
1.0
 70
    24
 71
     3
 72
    11
 73
     7
 74
     0
 42
0.000000001
 43
0.00000001
 40
0.0
 40
0.0
 40
0.0
 40
0.0
 40
0.25
 40
0.5
 40
0.75
 40
1.0
 40
1.0
 40
1.0
 40
1.0
 10
224.0558662708905
 20
173.6792537312231
 30
0.0
 10
224.0558662708905
 20
173.6792638742231
 30
0.0
 10
224.0558662708905
 20
173.5230465372231
 30
0.0
 10
224.0558662708905
 20
172.855811377222
 30
0.0
 10
224.0558662708905
 20
171.8571792822207
 30
0.0
 10
224.0558662708904
 20
171.0719187782223
 30
0.0
 10
224.0558662708905
 20
170.6792537312231
 30
0.0
  0
SPLINE
  5
119
330
1F
100
AcDbEntity
  8
0
  6
Continuous
 62
     7
370
    25
100
AcDbSpline
210
0.0
220
0.0
230
1.0
 70
    24
 71
     3
 72
    14
 73
    10
 74
     0
 42
0.000000001
 43
0.00000001
 40
0.0
 40
0.0
 40
0.0
 40
0.0
 40
0.25
 40
0.25
 40
0.5
 40
0.5
 40
0.75
 40
0.75
 40
1.0
 40
1.0
 40
1.0
 40
1.0
 10
424.0558662708905
 20
571.6792537312231
 30
0.0
 10
424.0558662708905
 20
571.6792537312231
 30
0.0
 10
424.0558662708905
 20
571.7573357012183
 30
0.0
 10
424.0558662708905
 20
572.0578945661603
 30
0.0
 10
424.0558662708905
 20
572.2802532040286
 30
0.0
 10
424.0558662708905
 20
572.8356135712984
 30
0.0
 10
424.0558662708905
 20
573.1683967901105
 30
0.0
 10
424.0558662708905
 20
573.8940100781452
 30
0.0
 10
424.0558662708905
 20
574.2865546495244
 30
0.0
 10
424.0558662708905
 20
574.6792537312231
 30
0.0
  0
SPLINE
  5
11A
330
1F
100
AcDbEntity
  8
0
  6
Continuous
 62
     7
370
    25
100
AcDbSpline
210
0.0
220
0.0
230
1.0
 70
    24
 71
     3
 72
    14
 73
    10
 74
     0
 42
0.000000001
 43
0.00000001
 40
0.0
 40
0.0
 40
0.0
 40
0.0
 40
0.25
 40
0.25
 40
0.5
 40
0.5
 40
0.75
 40
0.75
 40
1.0
 40
1.0
 40
1.0
 40
1.0
 10
734.0558662708905
 20
574.6792537312231
 30
0.0
 10
734.0558662708905
 20
574.2865546495244
 30
0.0
 10
734.0558662708905
 20
573.8940100781452
 30
0.0
 10
734.0558662708905
 20
573.1683967901104
 30
0.0
 10
734.0558662708905
 20
572.8356135712984
 30
0.0
 10
734.0558662708905
 20
572.2802532040286
 30
0.0
 10
734.0558662708905
 20
572.0578945661603
 30
0.0
 10
734.0558662708905
 20
571.7573357012183
 30
0.0
 10
734.0558662708905
 20
571.6792537312231
 30
0.0
 10
734.0558662708905
 20
571.6792537312231
 30
0.0
  0
LINE
  5
11B
330
1F
100
AcDbEntity
  8
0
  6
Continuous
 62
     7
370
    25
100
AcDbLine
 10
424.0558662709
 20
571.6792537312
 30
0.0
 11
734.0558662709
 21
571.6792537312
 31
0.0
  0
SPLINE
  5
11C
330
1F
100
AcDbEntity
  8
0
  6
Continuous
 62
     7
370
    25
100
AcDbSpline
210
0.0
220
0.0
230
1.0
 70
    24
 71
     3
 72
    14
 73
    10
 74
     0
 42
0.000000001
 43
0.00000001
 40
0.0
 40
0.0
 40
0.0
 40
0.0
 40
0.25
 40
0.25
 40
0.5
 40
0.5
 40
0.75
 40
0.75
 40
1.0
 40
1.0
 40
1.0
 40
1.0
 10
751.0558662708905
 20
187.6792537312231
 30
0.0
 10
750.6631671891918
 20
187.6792537312231
 30
0.0
 10
750.2706226178126
 20
187.6792537312231
 30
0.0
 10
749.5450093297777
 20
187.6792537312231
 30
0.0
 10
749.2122261109658
 20
187.6792537312231
 30
0.0
 10
748.6568657436959
 20
187.6792537312231
 30
0.0
 10
748.4345071058277
 20
187.6792537312231
 30
0.0
 10
748.1339482408855
 20
187.6792537312231
 30
0.0
 10
748.0558662708905
 20
187.6792537312231
 30
0.0
 10
748.0558662708905
 20
187.6792537312231
 30
0.0
  0
LINE
  5
11D
330
1F
100
AcDbEntity
  8
0
  6
Continuous
 62
     7
370
    25
100
AcDbLine
 10
748.0558662709
 20
557.6792537312
 30
0.0
 11
748.0558662709
 21
187.6792537312
 31
0.0
  0
SPLINE
  5
11E
330
1F
100
AcDbEntity
  8
0
  6
Continuous
 62
     7
370
    25
100
AcDbSpline
210
0.0
220
0.0
230
1.0
 70
    24
 71
     3
 72
    14
 73
    10
 74
     0
 42
0.000000001
 43
0.00000001
 40
0.0
 40
0.0
 40
0.0
 40
0.0
 40
0.25
 40
0.25
 40
0.5
 40
0.5
 40
0.75
 40
0.75
 40
1.0
 40
1.0
 40
1.0
 40
1.0
 10
748.0558662708905
 20
557.6792537312231
 30
0.0
 10
748.0558662708905
 20
557.6792537312231
 30
0.0
 10
748.1339482408855
 20
557.6792537312232
 30
0.0
 10
748.4345071058277
 20
557.6792537312231
 30
0.0
 10
748.6568657436959
 20
557.6792537312232
 30
0.0
 10
749.2122261109657
 20
557.6792537312231
 30
0.0
 10
749.5450093297778
 20
557.6792537312232
 30
0.0
 10
750.2706226178126
 20
557.6792537312231
 30
0.0
 10
750.6631671891918
 20
557.6792537312232
 30
0.0
 10
751.0558662708905
 20
557.6792537312231
 30
0.0
  0
SPLINE
  5
11F
330
1F
100
AcDbEntity
  8
0
  6
Continuous
 62
     7
370
    25
100
AcDbSpline
210
0.0
220
0.0
230
1.0
 70
    24
 71
     3
 72
    14
 73
    10
 74
     0
 42
0.000000001
 43
0.00000001
 40
0.0
 40
0.0
 40
0.0
 40
0.0
 40
0.25
 40
0.25
 40
0.5
 40
0.5
 40
0.75
 40
0.75
 40
1.0
 40
1.0
 40
1.0
 40
1.0
 10
424.0558662708905
 20
170.6792537312231
 30
0.0
 10
424.0558662708905
 20
171.0719528129218
 30
0.0
 10
424.0558662708905
 20
171.464497384301
 30
0.0
 10
424.0558662708905
 20
172.1901106723359
 30
0.0
 10
424.0558662708905
 20
172.5228938911478
 30
0.0
 10
424.0558662708905
 20
173.0782542584177
 30
0.0
 10
424.0558662708905
 20
173.3006128962859
 30
0.0
 10
424.0558662708905
 20
173.601171761228
 30
0.0
 10
424.0558662708905
 20
173.6792537312231
 30
0.0
 10
424.0558662708905
 20
173.6792537312231
 30
0.0
  0
LINE
  5
120
330
1F
100
AcDbEntity
  8
0
  6
Continuous
 62
     7
370
    25
100
AcDbLine
 10
734.0558662709
 20
173.6792537312
 30
0.0
 11
424.0558662709
 21
173.6792537312
 31
0.0
  0
SPLINE
  5
121
330
1F
100
AcDbEntity
  8
0
  6
Continuous
 62
     7
370
    25
100
AcDbSpline
210
0.0
220
0.0
230
1.0
 70
    24
 71
     3
 72
    14
 73
    10
 74
     0
 42
0.000000001
 43
0.00000001
 40
0.0
 40
0.0
 40
0.0
 40
0.0
 40
0.25
 40
0.25
 40
0.5
 40
0.5
 40
0.75
 40
0.75
 40
1.0
 40
1.0
 40
1.0
 40
1.0
 10
734.0558662708905
 20
173.6792537312231
 30
0.0
 10
734.0558662708905
 20
173.6792537312231
 30
0.0
 10
734.0558662708905
 20
173.601171761228
 30
0.0
 10
734.0558662708905
 20
173.3006128962859
 30
0.0
 10
734.0558662708905
 20
173.0782542584176
 30
0.0
 10
734.0558662708905
 20
172.5228938911478
 30
0.0
 10
734.0558662708905
 20
172.1901106723357
 30
0.0
 10
734.0558662708905
 20
171.464497384301
 30
0.0
 10
734.0558662708905
 20
171.0719528129218
 30
0.0
 10
734.0558662708905
 20
170.6792537312231
 30
0.0
  0
LINE
  5
122
330
1F
100
AcDbEntity
  8
0
  6
Continuous
 62
     7
370
    25
100
AcDbLine
 10
410.0558662709
 20
187.6792537312
 30
0.0
 11
410.0558662709
 21
557.6792537352
 31
0.0
  0
SPLINE
  5
123
330
1F
100
AcDbEntity
  8
0
  6
Continuous
 62
     7
370
    25
100
AcDbSpline
210
0.0
220
0.0
230
1.0
 70
    24
 71
     3
 72
    14
 73
    10
 74
     0
 42
0.000000001
 43
0.00000001
 40
0.0
 40
0.0
 40
0.0
 40
0.0
 40
0.25
 40
0.25
 40
0.5
 40
0.5
 40
0.75
 40
0.75
 40
1.0
 40
1.0
 40
1.0
 40
1.0
 10
410.0558662708905
 20
187.6792537312231
 30
0.0
 10
410.0558662708905
 20
187.6792537312231
 30
0.0
 10
409.9777843008955
 20
187.6792537312231
 30
0.0
 10
409.6772254359533
 20
187.6792537312231
 30
0.0
 10
409.454866798085
 20
187.6792537312231
 30
0.0
 10
408.8995064308152
 20
187.6792537312231
 30
0.0
 10
408.5667232120032
 20
187.6792537312231
 30
0.0
 10
407.8411099239683
 20
187.6792537312231
 30
0.0
 10
407.4485653525892
 20
187.6792537312231
 30
0.0
 10
407.0558662708905
 20
187.6792537312231
 30
0.0
  0
SPLINE
  5
124
330
1F
100
AcDbEntity
  8
0
  6
Continuous
 62
     7
370
    25
100
AcDbSpline
210
0.0
220
0.0
230
1.0
 70
    24
 71
     3
 72
    14
 73
    10
 74
     0
 42
0.000000001
 43
0.00000001
 40
0.0
 40
0.0
 40
0.0
 40
0.0
 40
0.25
 40
0.25
 40
0.5
 40
0.5
 40
0.75
 40
0.75
 40
1.0
 40
1.0
 40
1.0
 40
1.0
 10
407.0558662708905
 20
557.6792537312231
 30
0.0
 10
407.4485653525892
 20
557.6792537312231
 30
0.0
 10
407.8411099239684
 20
557.6792537312232
 30
0.0
 10
408.5667232120032
 20
557.6792537312231
 30
0.0
 10
408.8995064308152
 20
557.6792537312232
 30
0.0
 10
409.454866798085
 20
557.6792537312231
 30
0.0
 10
409.6772254359533
 20
557.6792537312232
 30
0.0
 10
409.9777843008955
 20
557.6792537312231
 30
0.0
 10
410.0558662708905
 20
557.6792537312232
 30
0.0
 10
410.0558662708905
 20
557.6792537312231
 30
0.0
  0
LINE
  5
125
330
1F
100
AcDbEntity
  8
0
  6
Continuous
 62
     7
370
    25
100
AcDbLine
 10
224.0558662709
 20
571.6792537312
 30
0.0
 11
374.0558662709
 21
571.6792537312
 31
0.0
  0
SPLINE
  5
126
330
1F
100
AcDbEntity
  8
0
  6
Continuous
 62
     7
370
    25
100
AcDbSpline
210
0.0
220
0.0
230
1.0
 70
    24
 71
     3
 72
    14
 73
    10
 74
     0
 42
0.000000001
 43
0.00000001
 40
0.0
 40
0.0
 40
0.0
 40
0.0
 40
0.25
 40
0.25
 40
0.5
 40
0.5
 40
0.75
 40
0.75
 40
1.0
 40
1.0
 40
1.0
 40
1.0
 10
224.0558662708905
 20
571.6792537312231
 30
0.0
 10
224.0558662708905
 20
571.6792537312231
 30
0.0
 10
224.0558662708905
 20
571.7573357012183
 30
0.0
 10
224.0558662708907
 20
572.0578945661603
 30
0.0
 10
224.0558662708905
 20
572.2802532040286
 30
0.0
 10
224.0558662708905
 20
572.8356135712984
 30
0.0
 10
224.0558662708905
 20
573.1683967901105
 30
0.0
 10
224.0558662708905
 20
573.8940100781452
 30
0.0
 10
224.0558662708905
 20
574.2865546495244
 30
0.0
 10
224.0558662708905
 20
574.6792537312231
 30
0.0
  0
SPLINE
  5
127
330
1F
100
AcDbEntity
  8
0
  6
Continuous
 62
     7
370
    25
100
AcDbSpline
210
0.0
220
0.0
230
1.0
 70
     8
 71
     3
 72
    11
 73
     7
 74
     0
 42
0.000000001
 43
0.00000001
 40
0.0
 40
0.0
 40
0.0
 40
0.0
 40
0.25
 40
0.5
 40
0.75
 40
1.0
 40
1.0
 40
1.0
 40
1.0
 10
374.0558662698904
 20
571.6792537312232
 30
0.0
 10
374.0558662698904
 20
571.6792435882232
 30
0.0
 10
374.0558662698904
 20
571.8354609252225
 30
0.0
 10
374.0558662708904
 20
572.5026960852217
 30
0.0
 10
374.0558662708904
 20
573.5013281802225
 30
0.0
 10
374.0558662708904
 20
574.2865886842241
 30
0.0
 10
374.0558662708904
 20
574.6792537312232
 30
0.0
  0
LINE
  5
128
330
1F
100
AcDbEntity
  8
0
  6
Continuous
 62
     7
370
    25
100
AcDbLine
 10
388.0558662709
 20
557.6792537312
 30
0.0
 11
388.0558662709
 21
187.6792537312
 31
0.0
  0
SPLINE
  5
129
330
1F
100
AcDbEntity
  8
0
  6
Continuous
 62
     7
370
    25
100
AcDbSpline
210
0.0
220
0.0
230
1.0
 70
    24
 71
     3
 72
    14
 73
    10
 74
     0
 42
0.000000001
 43
0.00000001
 40
0.0
 40
0.0
 40
0.0
 40
0.0
 40
0.25
 40
0.25
 40
0.5
 40
0.5
 40
0.75
 40
0.75
 40
1.0
 40
1.0
 40
1.0
 40
1.0
 10
388.0558662708905
 20
557.6792537312231
 30
0.0
 10
388.0558662708905
 20
557.6792537312231
 30
0.0
 10
388.1339482408856
 20
557.6792537312232
 30
0.0
 10
388.4345071058278
 20
557.6792537312231
 30
0.0
 10
388.656865743696
 20
557.6792537312232
 30
0.0
 10
389.2122261109657
 20
557.6792537312231
 30
0.0
 10
389.5450093297778
 20
557.6792537312232
 30
0.0
 10
390.2706226178126
 20
557.6792537312231
 30
0.0
 10
390.6631671891918
 20
557.6792537312232
 30
0.0
 10
391.0558662708905
 20
557.6792537312231
 30
0.0
  0
SPLINE
  5
12A
330
1F
100
AcDbEntity
  8
0
  6
Continuous
 62
     7
370
    25
100
AcDbSpline
210
0.0
220
0.0
230
1.0
 70
    24
 71
     3
 72
    14
 73
    10
 74
     0
 42
0.000000001
 43
0.00000001
 40
0.0
 40
0.0
 40
0.0
 40
0.0
 40
0.25
 40
0.25
 40
0.5
 40
0.5
 40
0.75
 40
0.75
 40
1.0
 40
1.0
 40
1.0
 40
1.0
 10
391.0558662708905
 20
187.6792537312231
 30
0.0
 10
390.6631671891918
 20
187.6792537312231
 30
0.0
 10
390.2706226178126
 20
187.6792537312231
 30
0.0
 10
389.5450093297778
 20
187.6792537312231
 30
0.0
 10
389.2122261109658
 20
187.6792537312231
 30
0.0
 10
388.656865743696
 20
187.6792537312231
 30
0.0
 10
388.4345071058277
 20
187.6792537312231
 30
0.0
 10
388.1339482408856
 20
187.6792537312231
 30
0.0
 10
388.0558662708905
 20
187.6792537312231
 30
0.0
 10
388.0558662708905
 20
187.6792537312231
 30
0.0
  0
SPLINE
  5
12B
330
1F
100
AcDbEntity
  8
0
  6
Continuous
 62
     7
370
    25
100
AcDbSpline
210
0.0
220
0.0
230
1.0
 70
    24
 71
     3
 72
    11
 73
     7
 74
     0
 42
0.000000001
 43
0.00000001
 40
0.0
 40
0.0
 40
0.0
 40
0.0
 40
0.25
 40
0.5
 40
0.75
 40
1.0
 40
1.0
 40
1.0
 40
1.0
 10
210.0558662708905
 20
557.6792537312231
 30
0.0
 10
210.0558764138905
 20
557.6792537312231
 30
0.0
 10
209.8996590768906
 20
557.6792537312231
 30
0.0
 10
209.2324239168893
 20
557.6792537312231
 30
0.0
 10
208.2337918218882
 20
557.6792537312232
 30
0.0
 10
207.4485313178896
 20
557.6792537312232
 30
0.0
 10
207.0558662708905
 20
557.6792537312231
 30
0.0
  0
LINE
  5
12C
330
1F
100
AcDbEntity
  8
0
  6
Continuous
 62
     7
370
    25
100
AcDbLine
 10
210.0558662709
 20
187.6792537312
 30
0.0
 11
210.0558662709
 21
557.6792537312
 31
0.0
  0
SPLINE
  5
12D
330
1F
100
AcDbEntity
  8
0
  6
Continuous
 62
     7
370
    25
100
AcDbSpline
210
0.0
220
0.0
230
1.0
 70
    24
 71
     3
 72
    14
 73
    10
 74
     0
 42
0.000000001
 43
0.00000001
 40
0.0
 40
0.0
 40
0.0
 40
0.0
 40
0.25
 40
0.25
 40
0.5
 40
0.5
 40
0.75
 40
0.75
 40
1.0
 40
1.0
 40
1.0
 40
1.0
 10
210.0558662708905
 20
187.6792537312231
 30
0.0
 10
210.0558662708904
 20
187.6792537312231
 30
0.0
 10
209.9777843008954
 20
187.6792537312231
 30
0.0
 10
209.6772254359534
 20
187.6792537312231
 30
0.0
 10
209.454866798085
 20
187.6792537312231
 30
0.0
 10
208.8995064308152
 20
187.6792537312231
 30
0.0
 10
208.5667232120032
 20
187.6792537312231
 30
0.0
 10
207.8411099239684
 20
187.6792537312231
 30
0.0
 10
207.4485653525892
 20
187.6792537312231
 30
0.0
 10
207.0558662708905
 20
187.6792537312231
 30
0.0
  0
ARC
  5
12E
330
1F
100
AcDbEntity
  8
0
  6
Continuous
 62
     7
370
    25
100
AcDbCircle
 10
424.0558662709
 20
187.6792537312
 30
0.0
 40
14.0
100
AcDbArc
 50
180.0
 51
270.0
  0
ARC
  5
12F
330
1F
100
AcDbEntity
  8
0
  6
Continuous
 62
     7
370
    25
100
AcDbCircle
 10
424.0558662709
 20
557.6792537312
 30
0.0
 40
14.0
100
AcDbArc
 50
90.0
 51
179.9999999673
  0
ARC
  5
130
330
1F
100
AcDbEntity
  8
0
  6
Continuous
 62
     7
370
    25
100
AcDbCircle
 10
224.0558662709
 20
187.6792537312
 30
0.0
 40
14.00000000000003
100
AcDbArc
 50
180.0
 51
270.0
  0
ARC
  5
131
330
1F
100
AcDbEntity
  8
0
  6
Continuous
 62
     7
370
    25
100
AcDbCircle
 10
224.0558662709
 20
557.6792537312
 30
0.0
 40
14.00000000000003
100
AcDbArc
 50
90.0
 51
180.0
  0
ARC
  5
132
330
1F
100
AcDbEntity
  8
0
  6
Continuous
 62
     7
370
    25
100
AcDbCircle
 10
374.0558662679
 20
187.6792537342
 30
0.0
 40
14.00000000290004
100
AcDbArc
 50
270.0
 51
359.9999999877
  0
ARC
  5
133
330
1F
100
AcDbEntity
  8
0
  6
Continuous
 62
     7
370
    25
100
AcDbCircle
 10
374.0558662679
 20
557.6792537282
 30
0.0
 40
14.00000000289998
100
AcDbArc
 50
0.0000000123
 51
89.9999999877
  0
ARC
  5
134
330
1F
100
AcDbEntity
  8
0
  6
Continuous
 62
     7
370
    25
100
AcDbCircle
 10
734.0558662709
 20
557.6792537312
 30
0.0
 40
14.0
100
AcDbArc
 50
0.0
 51
90.0
  0
ARC
  5
135
330
1F
100
AcDbEntity
  8
0
  6
Continuous
 62
     7
370
    25
100
AcDbCircle
 10
734.0558662709
 20
187.6792537312
 30
0.0
 40
14.00000000000011
100
AcDbArc
 50
270.0
 51
0.0
  0
SPLINE
  5
136
330
1F
100
AcDbEntity
  8
0
  6
Continuous
 62
     7
370
    25
100
AcDbSpline
210
0.0
220
0.0
230
1.0
 70
     8
 71
     3
 72
     8
 73
     4
 74
     0
 42
0.000000001
 43
0.00000001
 40
0.0
 40
0.0
 40
0.0
 40
0.0
 40
1.0
 40
1.0
 40
1.0
 40
1.0
 10
197.1236354628905
 20
592.4908113672232
 30
0.0
 10
197.7592889345126
 20
592.6157980070046
 30
0.0
 10
198.4074454705285
 20
592.6792830401527
 30
0.0
 10
199.0558662708905
 20
592.6792537312231
 30
0.0
  0
LINE
  5
137
330
1F
100
AcDbEntity
  8
0
  6
Continuous
 62
     7
370
    25
100
AcDbLine
 10
199.0558436707
 20
592.1792537312
 30
0.0
 11
199.0558662709
 21
592.6792537312
 31
0.0
  0
LINE
  5
138
330
1F
100
AcDbEntity
  8
0
  6
Continuous
 62
     7
370
    25
100
AcDbLine
 10
199.0558662709
 20
592.6792537312
 30
0.0
 11
759.0558662709
 21
592.6792537312
 31
0.0
  0
SPLINE
  5
139
330
1F
100
AcDbEntity
  8
0
  6
Continuous
 62
     7
370
    25
100
AcDbSpline
210
0.0
220
0.0
230
1.0
 70
     8
 71
     3
 72
     8
 73
     4
 74
     0
 42
0.000000001
 43
0.00000001
 40
0.0
 40
0.0
 40
0.0
 40
0.0
 40
1.0
 40
1.0
 40
1.0
 40
1.0
 10
764.6273917008905
 20
590.9833661772232
 30
0.0
 10
765.1652454794587
 20
590.6222701952014
 30
0.0
 10
765.6684520609682
 20
590.208845012339
 30
0.0
 10
766.1269340828904
 20
589.7503215432232
 30
0.0
  0
SPLINE
  5
13A
330
1F
100
AcDbEntity
  8
0
  6
Continuous
 62
     7
370
    25
100
AcDbSpline
210
0.0
220
0.0
230
1.0
 70
     8
 71
     3
 72
     8
 73
     4
 74
     0
 42
0.000000001
 43
0.00000001
 40
0.0
 40
0.0
 40
0.0
 40
0.0
 40
1.0
 40
1.0
 40
1.0
 40
1.0
 10
190.7517538258905
 20
588.2507791612231
 30
0.0
 10
191.1128498032457
 20
588.7886329416272
 30
0.0
 10
191.526274989651
 20
589.2918395211784
 30
0.0
 10
191.9847984588905
 20
589.7503215432232
 30
0.0
  0
SPLINE
  5
13B
330
1F
100
AcDbEntity
  8
0
  6
Continuous
 62
     7
370
    25
100
AcDbSpline
210
0.0
220
0.0
230
1.0
 70
     8
 71
     3
 72
     8
 73
     4
 74
     0
 42
0.000000001
 43
0.00000001
 40
0.0
 40
0.0
 40
0.0
 40
0.0
 40
1.0
 40
1.0
 40
1.0
 40
1.0
 10
768.8674239068904
 20
584.6114845392232
 30
0.0
 10
768.9924105452817
 20
583.975831068536
 30
0.0
 10
769.0558955798199
 20
583.3276745320057
 30
0.0
 10
769.0558662708905
 20
582.6792537312231
 30
0.0
  0
LINE
  5
13C
330
1F
100
AcDbEntity
  8
0
  6
Continuous
 62
     7
370
    25
100
AcDbLine
 10
769.0558662709
 20
582.6792537312
 30
0.0
 11
768.5558662709
 21
582.6792763315
 31
0.0
  0
LINE
  5
13D
330
1F
100
AcDbEntity
  8
0
  6
Continuous
 62
     7
370
    25
100
AcDbLine
 10
769.0558662709
 20
582.6792537312
 30
0.0
 11
769.0558662709
 21
162.6792537312
 31
0.0
  0
LINE
  5
13E
330
1F
100
AcDbEntity
  8
0
  6
Continuous
 62
     7
370
    25
100
AcDbLine
 10
189.5558662709
 20
162.6792311331
 30
0.0
 11
189.0558662709
 21
162.6792537312
 31
0.0
  0
LINE
  5
13F
330
1F
100
AcDbEntity
  8
0
  6
Continuous
 62
     7
370
    25
100
AcDbLine
 10
189.0558662709
 20
162.6792537312
 30
0.0
 11
189.0558662709
 21
582.6792537312
 31
0.0
  0
SPLINE
  5
140
330
1F
100
AcDbEntity
  8
0
  6
Continuous
 62
     7
370
    25
100
AcDbSpline
210
0.0
220
0.0
230
1.0
 70
     8
 71
     3
 72
     8
 73
     4
 74
     0
 42
0.000000001
 43
0.00000001
 40
0.0
 40
0.0
 40
0.0
 40
0.0
 40
1.0
 40
1.0
 40
1.0
 40
1.0
 10
189.2443086348905
 20
160.7470229232231
 30
0.0
 10
189.1193219949076
 20
161.3826763937416
 30
0.0
 10
189.0558369647373
 20
162.0308329305689
 30
0.0
 10
189.0558662708905
 20
162.6792537312231
 30
0.0
  0
SPLINE
  5
141
330
1F
100
AcDbEntity
  8
0
  6
Continuous
 62
     7
370
    25
100
AcDbSpline
210
0.0
220
0.0
230
1.0
 70
     8
 71
     3
 72
     8
 73
     4
 74
     0
 42
0.000000001
 43
0.00000001
 40
0.0
 40
0.0
 40
0.0
 40
0.0
 40
1.0
 40
1.0
 40
1.0
 40
1.0
 10
767.3599787168905
 20
157.1077283012231
 30
0.0
 10
766.9988827378038
 20
156.5698745221134
 30
0.0
 10
766.5854575537642
 20
156.0666679401256
 30
0.0
 10
766.1269340828906
 20
155.6081859192231
 30
0.0
  0
SPLINE
  5
142
330
1F
100
AcDbEntity
  8
0
  6
Continuous
 62
     7
370
    25
100
AcDbSpline
210
0.0
220
0.0
230
1.0
 70
     8
 71
     3
 72
     8
 73
     4
 74
     0
 42
0.000000001
 43
0.00000001
 40
0.0
 40
0.0
 40
0.0
 40
0.0
 40
1.0
 40
1.0
 40
1.0
 40
1.0
 10
193.4843408408905
 20
154.3751412852232
 30
0.0
 10
192.9464870624924
 20
154.7362372670139
 30
0.0
 10
192.4432804809051
 20
155.1496624500133
 30
0.0
 10
191.9847984588905
 20
155.6081859192231
 30
0.0
  0
SPLINE
  5
143
330
1F
100
AcDbEntity
  8
0
  6
Continuous
 62
     7
370
    25
100
AcDbSpline
210
0.0
220
0.0
230
1.0
 70
     8
 71
     3
 72
     8
 73
     4
 74
     0
 42
0.000000001
 43
0.00000001
 40
0.0
 40
0.0
 40
0.0
 40
0.0
 40
1.0
 40
1.0
 40
1.0
 40
1.0
 10
760.9880970788905
 20
152.8676960952231
 30
0.0
 10
760.3524436079099
 20
152.7427094584005
 30
0.0
 10
759.7042870716792
 20
152.679224422294
 30
0.0
 10
759.0558662708905
 20
152.6792537312231
 30
0.0
  0
LINE
  5
144
330
1F
100
AcDbEntity
  8
0
  6
Continuous
 62
     7
370
    25
100
AcDbLine
 10
759.0558662709
 20
152.6792537312
 30
0.0
 11
759.0558888711
 21
153.1792537312
 31
0.0
  0
LINE
  5
145
330
1F
100
AcDbEntity
  8
0
  6
Continuous
 62
     7
370
    25
100
AcDbLine
 10
759.0558662709
 20
152.6792537312
 30
0.0
 11
199.0558662709
 21
152.6792537312
 31
0.0
  0
SPLINE
  5
146
330
1F
100
AcDbEntity
  8
0
  6
Continuous
 62
     7
370
    25
100
AcDbSpline
210
0.0
220
0.0
230
1.0
 70
     8
 71
     3
 72
    35
 73
    31
 74
     0
 42
0.000000001
 43
0.00000001
 40
0.0
 40
0.0
 40
0.0
 40
0.0
 40
0.0165279521037376
 40
0.0330860016549089
 40
0.0496741820754639
 40
0.0662925318579539
 40
0.0829410929696602
 40
0.0996199095073441
 40
0.1163290265941983
 40
0.1330684895082657
 40
0.1498383430295132
 40
0.166638630990439
 40
0.1834693960130636
 40
0.2003306794129557
 40
0.2172225212489267
 40
0.2341449604950896
 40
0.2510980353098896
 40
0.3116164448599692
 40
0.3735247896850737
 40
0.4368246662205755
 40
0.5015176730591556
 40
0.5976897302449292
 40
0.7011284035854322
 40
0.7718590333607112
 40
0.8506051448379414
 40
0.8866387141545496
 40
0.9195950160528985
 40
0.9494740240313769
 40
0.9762757006391873
 40
1.0
 40
1.0
 40
1.0
 40
1.0
 10
210.0558662708905
 20
187.6792428612231
 30
0.0
 10
210.0568363158193
 20
187.6788788902529
 30
0.0
 10
210.0587781721316
 20
187.6781502855202
 30
0.0
 10
210.0745042642396
 20
187.6779196256625
 30
0.0
 10
210.0996641928157
 20
187.6783193782767
 30
0.0
 10
210.1352174065925
 20
187.6794126727881
 30
0.0
 10
210.1809476445803
 20
187.6811836647184
 30
0.0
 10
210.2369452474033
 20
187.6836377382967
 30
0.0
 10
210.3032088132237
 20
187.6867745833754
 30
0.0
 10
210.3797521532732
 20
187.6905954288699
 30
0.0
 10
210.4665754728058
 20
187.6951010976852
 30
0.0
 10
210.5636730771638
 20
187.7002925325959
 30
0.0
 10
210.6710311005718
 20
187.7061706398931
 30
0.0
 10
210.7886285339294
 20
187.7127363848443
 30
0.0
 10
210.9164350581007
 20
187.7199905629955
 30
0.0
 10
211.0544183787943
 20
187.7279346183235
 30
0.0
 10
211.3292862821669
 20
187.7439572636196
 30
0.0
 10
211.7967136403939
 20
187.771870804164
 30
0.0
 10
212.5428588148112
 20
187.8174584708949
 30
0.0
 10
213.4276031169906
 20
187.8723395070773
 30
0.0
 10
214.6081791107934
 20
187.9465162016033
 30
0.0
 10
216.1855318000766
 20
188.0471999257624
 30
0.0
 10
217.9958991387484
 20
188.1638439868255
 30
0.0
 10
219.8100816511154
 20
188.2820207245757
 30
0.0
 10
221.2016029643313
 20
188.3732493429776
 30
0.0
 10
222.3330611572655
 20
188.4475723591848
 30
0.0
 10
223.0978609486524
 20
188.497730579085
 30
0.0
 10
223.7956296786125
 20
188.5437453771441
 30
0.0
 10
224.4237987542165
 20
188.5854748979343
 30
0.0
 10
224.8191438095017
 20
188.6122210600495
 30
0.0
 10
225.0047767292543
 20
188.6247796290749
 30
0.0
  0
SPLINE
  5
147
330
1F
100
AcDbEntity
  8
0
  6
Continuous
 62
     7
370
    25
100
AcDbSpline
210
0.0
220
0.0
230
1.0
 70
     8
 71
     3
 72
    33
 73
    29
 74
     0
 42
0.000000001
 43
0.00000001
 40
0.0
 40
0.0
 40
0.0
 40
0.0
 40
0.0155270768665427
 40
0.037081187530911
 40
0.0646603015543629
 40
0.0982610053535683
 40
0.1378784920887585
 40
0.1835066264942194
 40
0.2351373445820465
 40
0.2927579207225006
 40
0.3563499349335987
 40
0.4258940475133328
 40
0.5013645972492368
 40
0.534694490639671
 40
0.5680090315394765
 40
0.6013087989588691
 40
0.634593964988986
 40
0.6678649627084292
 40
0.7011224975827266
 40
0.734367454955066
 40
0.7676008080036759
 40
0.8008235276895072
 40
0.8340364958411955
 40
0.8672404226130863
 40
0.9004357693985314
 40
0.9336199985068119
 40
0.9667623254065972
 40
1.0
 40
1.0
 40
1.0
 40
1.0
 10
224.0558662708906
 20
173.6792537308799
 30
0.0
 10
224.0555459908479
 20
173.6801313257233
 30
0.0
 10
224.054781109961
 20
173.6822271650913
 30
0.0
 10
224.0546523284043
 20
173.7039413464466
 30
0.0
 10
224.0560680197024
 20
173.7553684322559
 30
0.0
 10
224.0603530352953
 20
173.8562579301165
 30
0.0
 10
224.0689461587186
 20
174.0279616079778
 30
0.0
 10
224.083568320299
 20
174.2959115848195
 30
0.0
 10
224.1061166069491
 20
174.6879774552007
 30
0.0
 10
224.1386289777826
 20
175.2338839428947
 30
0.0
 10
224.1832019579772
 20
175.963906017292
 30
0.0
 10
224.241861089338
 20
176.9069349478043
 30
0.0
 10
224.300656756145
 20
177.8383022018104
 30
0.0
 10
224.3521193446188
 20
178.6468139999394
 30
0.0
 10
224.3902013295844
 20
179.2427478087398
 30
0.0
 10
224.4300562818229
 20
179.8640096306403
 30
0.0
 10
224.4715788091756
 20
180.5088994114045
 30
0.0
 10
224.5146590430267
 20
181.1756334499122
 30
0.0
 10
224.5591833038738
 20
181.8623885878389
 30
0.0
 10
224.6050345206229
 20
182.5672961797918
 30
0.0
 10
224.6520928352453
 20
183.2884477245294
 30
0.0
 10
224.7002353082102
 20
184.0238973001857
 30
0.0
 10
224.7493390341252
 20
184.7716646228567
 30
0.0
 10
224.7992715349022
 20
185.5297388917442
 30
0.0
 10
224.849927263591
 20
186.296058298291
 30
0.0
 10
224.9010739733569
 20
187.0683070898097
 30
0.0
 10
224.953011834102
 20
187.845176406738
 30
0.0
 10
224.9875052732625
 20
188.3646631568821
 30
0.0
 10
225.0047767658904
 20
188.6247796252231
 30
0.0
  0
SPLINE
  5
148
330
1F
100
AcDbEntity
  8
0
  6
Continuous
 62
     7
370
    25
100
AcDbSpline
210
0.0
220
0.0
230
1.0
 70
     8
 71
     3
 72
    18
 73
    14
 74
     0
 42
0.000000001
 43
0.00000001
 40
0.0
 40
0.0
 40
0.0
 40
0.0
 40
0.2499999999999999
 40
0.2499999999999999
 40
0.4999999999999998
 40
0.4999999999999998
 40
0.7499999999999997
 40
0.7499999999999997
 40
0.8749999999999998
 40
0.8749999999999998
 40
0.9374999999999999
 40
0.9374999999999999
 40
1.0
 40
1.0
 40
1.0
 40
1.0
 10
224.0558621768905
 20
571.6792537312231
 30
0.0
 10
224.0277543778979
 20
571.6792537760797
 30
0.0
 10
224.0253849313002
 20
571.2935398121743
 30
0.0
 10
224.0719698749714
 20
569.8130900700926
 30
0.0
 10
224.1208883090652
 20
568.7192892811478
 30
0.0
 10
224.2620121795825
 20
565.9955869963841
 30
0.0
 10
224.3541336782798
 20
564.3670146077444
 30
0.0
 10
224.514346293131
 20
561.7054600300171
 30
0.0
 10
224.5713867825557
 20
560.7822757576847
 30
0.0
 10
224.6608334070868
 20
559.3687008499945
 30
0.0
 10
224.6912958633402
 20
558.8927374738281
 30
0.0
 10
224.753212748537
 20
557.9351779939537
 30
0.0
 10
224.7840565330239
 20
557.4517093936648
 30
0.0
 10
224.8165919478905
 20
556.9732865612232
 30
0.0
  0
SPLINE
  5
149
330
1F
100
AcDbEntity
  8
0
  6
Continuous
 62
     7
370
    25
100
AcDbSpline
210
0.0
220
0.0
230
1.0
 70
     8
 71
     3
 72
    29
 73
    25
 74
     0
 42
0.000000001
 43
0.00000001
 40
0.0
 40
0.0
 40
0.0
 40
0.0
 40
0.0155628942784822
 40
0.0311226809433663
 40
0.0466793744829153
 40
0.0622329935665368
 40
0.0835741925874187
 40
0.1244458699023365
 40
0.1900424290524143
 40
0.2489554775394379
 40
0.3797918776683832
 40
0.4982612335283922
 40
0.5630025372200007
 40
0.626335120740207
 40
0.6882592544518685
 40
0.7487752717292987
 40
0.780573520181321
 40
0.8122586180286905
 40
0.84383067245634
 40
0.8752898065267374
 40
0.9066361597946042
 40
0.9378698825194344
 40
0.9689911220165046
 40
1.0
 40
1.0
 40
1.0
 40
1.0
 10
224.8165919097941
 20
556.973286560884
 30
0.0
 10
224.6960806241783
 20
556.9809842028822
 30
0.0
 10
224.4550821167552
 20
556.9963779498055
 30
0.0
 10
224.0940340607789
 20
557.019672952326
 30
0.0
 10
223.7336207626895
 20
557.0430339192494
 30
0.0
 10
223.3294712071834
 20
557.0697529698758
 30
0.0
 10
222.7320957181576
 20
557.1077568057943
 30
0.0
 10
221.7571046652811
 20
557.1686504169506
 30
0.0
 10
220.5166939030411
 20
557.2445452985583
 30
0.0
 10
218.6608229498045
 20
557.354496731354
 30
0.0
 10
216.5526668164948
 20
557.4722871230085
 30
0.0
 10
214.6752504045452
 20
557.5683443689804
 30
0.0
 10
213.3959412800311
 20
557.6272159953415
 30
0.0
 10
212.5233664303696
 20
557.6635557827781
 30
0.0
 10
211.7871623291896
 20
557.6901310192276
 30
0.0
 10
211.2763170795316
 20
557.7046650412341
 30
0.0
 10
210.9294558380652
 20
557.7116040049618
 30
0.0
 10
210.6977260227087
 20
557.7144403249276
 30
0.0
 10
210.5013354537014
 20
557.7148030504728
 30
0.0
 10
210.3404439262649
 20
557.7127197205011
 30
0.0
 10
210.2148387381677
 20
557.708236006426
 30
0.0
 10
210.1253033369594
 20
557.7013237253462
 30
0.0
 10
210.0684868498831
 20
557.6922277903857
 30
0.0
 10
210.0601270964047
 20
557.6841791449878
 30
0.0
 10
210.0559547789185
 20
557.6801621002244
 30
0.0
  0
SPLINE
  5
14A
330
1F
100
AcDbEntity
  8
0
  6
Continuous
 62
     7
370
    25
100
AcDbSpline
210
0.0
220
0.0
230
1.0
 70
     8
 71
     3
 72
    86
 73
    82
 74
     0
 42
0.000000001
 43
0.00000001
 40
0.0
 40
0.0
 40
0.0
 40
0.0
 40
0.0078124999999999
 40
0.0078124999999999
 40
0.0156249999999998
 40
0.0156249999999998
 40
0.0234374999999998
 40
0.0234374999999998
 40
0.0312499999999997
 40
0.0312499999999997
 40
0.0624999999999998
 40
0.0624999999999998
 40
0.1250000000000001
 40
0.1250000000000001
 40
0.1875000000000003
 40
0.1875000000000003
 40
0.2031250000000004
 40
0.2031250000000004
 40
0.2109375000000004
 40
0.2109375000000004
 40
0.2187500000000004
 40
0.2187500000000004
 40
0.2265625000000004
 40
0.2265625000000004
 40
0.2343750000000004
 40
0.2343750000000004
 40
0.2500000000000004
 40
0.2500000000000004
 40
0.2812500000000004
 40
0.2812500000000004
 40
0.3125000000000004
 40
0.3125000000000004
 40
0.3281250000000004
 40
0.3281250000000004
 40
0.3359375000000004
 40
0.3359375000000004
 40
0.3437500000000003
 40
0.3437500000000003
 40
0.3750000000000001
 40
0.3750000000000001
 40
0.4062499999999999
 40
0.4062499999999999
 40
0.4374999999999997
 40
0.4374999999999997
 40
0.4999999999999993
 40
0.4999999999999993
 40
0.5624999999999989
 40
0.5624999999999989
 40
0.6249999999999986
 40
0.6249999999999986
 40
0.6874999999999981
 40
0.6874999999999981
 40
0.718749999999998
 40
0.718749999999998
 40
0.7226562499999981
 40
0.7226562499999981
 40
0.7265624999999982
 40
0.7265624999999982
 40
0.7304687499999982
 40
0.7304687499999982
 40
0.7343749999999983
 40
0.7343749999999983
 40
0.7421874999999983
 40
0.7421874999999983
 40
0.7499999999999983
 40
0.7499999999999983
 40
0.7539062499999984
 40
0.7539062499999984
 40
0.7578124999999986
 40
0.7578124999999986
 40
0.7617187499999986
 40
0.7617187499999986
 40
0.7656249999999987
 40
0.7656249999999987
 40
0.7812499999999989
 40
0.7812499999999989
 40
0.8124999999999991
 40
0.8124999999999991
 40
0.8749999999999994
 40
0.8749999999999994
 40
1.0
 40
1.0
 40
1.0
 40
1.0
 10
224.8165919328756
 20
556.973286560464
 30
0.0
 10
224.7988877665564
 20
556.0164408035815
 30
0.0
 10
224.780596433734
 20
555.0587988307594
 30
0.0
 10
224.7429282324949
 20
553.1491907838384
 30
0.0
 10
224.7235732559249
 20
552.1983176781047
 30
0.0
 10
224.6837443568641
 20
550.2996814018155
 30
0.0
 10
224.6632562024328
 20
549.3511881020615
 30
0.0
 10
224.6210366459515
 20
547.4470054510324
 30
0.0
 10
224.5992908555057
 20
546.4905755644135
 30
0.0
 10
224.4878961686804
 20
541.6956780483727
 30
0.0
 10
224.3911222898217
 20
537.8554443307338
 30
0.0
 10
224.0862245639045
 20
526.3302749660575
 30
0.0
 10
223.8637185320709
 20
518.6384005207242
 30
0.0
 10
223.4147629053268
 20
503.2470035345135
 30
0.0
 10
223.1853968867913
 20
495.5466017953448
 30
0.0
 10
222.9241089774323
 20
485.9051591458921
 30
0.0
 10
222.8732746835276
 20
483.9760641199005
 30
0.0
 10
222.800280678475
 20
481.0809796738575
 30
0.0
 10
222.7765089452807
 20
480.1163682681541
 30
0.0
 10
222.730176400682
 20
478.1818346345019
 30
0.0
 10
222.7076036022623
 20
477.2113614685347
 30
0.0
 10
222.6640064408914
 20
475.2691553012376
 30
0.0
 10
222.6429963886295
 20
474.2981047862228
 30
0.0
 10
222.6029504299092
 20
472.3612373506523
 30
0.0
 10
222.5839024619273
 20
471.3948551396266
 30
0.0
 10
222.5299831937935
 20
468.4927089489734
 30
0.0
 10
222.4984270182712
 20
466.5566159695536
 30
0.0
 10
222.4203204435392
 20
460.7456633965429
 30
0.0
 10
222.3908447407684
 20
456.8679643365243
 30
0.0
 10
222.3845217516347
 20
449.1120743937662
 30
0.0
 10
222.4078047681582
 20
445.2342217711343
 30
0.0
 10
222.4744987419022
 20
439.4260829785874
 30
0.0
 10
222.501877592109
 20
437.4883061457289
 30
0.0
 10
222.5479335415008
 20
434.6113900070387
 30
0.0
 10
222.5641490027779
 20
433.6556550886622
 30
0.0
 10
222.5981914076048
 20
431.7385124336774
 30
0.0
 10
222.6160343724427
 20
430.7761908174948
 30
0.0
 10
222.7084984871702
 20
425.951369357114
 30
0.0
 10
222.7918639469299
 20
422.0962732226256
 30
0.0
 10
222.9594095051591
 20
414.4082951208647
 30
0.0
 10
223.0435542929268
 20
410.5729016055928
 30
0.0
 10
223.2018939822699
 20
402.8999225755402
 30
0.0
 10
223.2760238499588
 20
399.0607915502228
 30
0.0
 10
223.4802947169131
 20
387.5348901263956
 30
0.0
 10
223.5941564532029
 20
379.8497497473741
 30
0.0
 10
223.7905597176093
 20
364.476320726976
 30
0.0
 10
223.8732537753798
 20
356.7855238039881
 30
0.0
 10
224.02058591446
 20
341.3886027175336
 30
0.0
 10
224.0852686403926
 20
333.6840108975833
 30
0.0
 10
224.2064048293091
 20
318.2801180991804
 30
0.0
 10
224.2629029369159
 20
310.5823494642441
 30
0.0
 10
224.3454273711364
 20
299.0391873327143
 30
0.0
 10
224.3725242478937
 20
295.1914062676417
 30
0.0
 10
224.4026107577259
 20
290.862773921758
 30
0.0
 10
224.4059479550696
 20
290.3818166670475
 30
0.0
 10
224.4126106895321
 20
289.4199068170104
 30
0.0
 10
224.4159449866128
 20
288.9376645854912
 30
0.0
 10
224.4225502159708
 20
287.9807602011366
 30
0.0
 10
224.4258091711347
 20
287.5078598503213
 30
0.0
 10
224.4321612706406
 20
286.5847154353741
 30
0.0
 10
224.4352551229038
 20
286.1343674759797
 30
0.0
 10
224.44428116022
 20
284.8183626796867
 30
0.0
 10
224.4499449169783
 20
283.98963723712
 30
0.0
 10
224.4610567951325
 20
282.3576180991412
 30
0.0
 10
224.4665275700141
 20
281.5509997553382
 30
0.0
 10
224.475080592026
 20
280.2858225922335
 30
0.0
 10
224.4779883889883
 20
279.8550388900946
 30
0.0
 10
224.4839557484621
 20
278.9698107224171
 30
0.0
 10
224.4870160188951
 20
278.5152623616164
 30
0.0
 10
224.4932730420518
 20
277.5848117199063
 30
0.0
 10
224.496470502697
 20
277.1088055437351
 30
0.0
 10
224.5029104999761
 20
276.1489224074496
 30
0.0
 10
224.5061383805194
 20
275.6671960274031
 30
0.0
 10
224.5222329481055
 20
273.2621981916881
 30
0.0
 10
224.5350456502722
 20
271.3381461058761
 30
0.0
 10
224.5733256969967
 20
265.5659072515654
 30
0.0
 10
224.5986435689652
 20
261.7176408526269
 30
0.0
 10
224.6738817136979
 20
250.1730471348854
 30
0.0
 10
224.7231508627631
 20
242.4769773683388
 30
0.0
 10
224.8636217856852
 20
219.3921806543311
 30
0.0
 10
224.9464589033851
 20
204.0078064301659
 30
0.0
 10
225.0047767292556
 20
188.6247796290748
 30
0.0
  0
SPLINE
  5
14B
330
1F
100
AcDbEntity
  8
0
  6
Continuous
 62
     7
370
    25
100
AcDbSpline
210
0.0
220
0.0
230
1.0
 70
     8
 71
     3
 72
    11
 73
     7
 74
     0
 42
0.000000001
 43
0.00000001
 40
39.19021690258225
 40
39.19021690258225
 40
39.19021690258225
 40
39.19021690258225
 40
39.1902237496
 40
39.1902237496
 40
39.1902237496
 40
39.2235239385
 40
39.2235239385
 40
39.2235239385
 40
39.2235239385
 10
210.0559537462863
 20
557.6801621529625
 30
0.0
 10
210.0559537341544
 20
557.6801620907161
 30
0.0
 10
210.0559537220225
 20
557.6801620284696
 30
0.0
 10
210.0559537098906
 20
557.6801619662231
 30
0.0
 10
210.0558947068905
 20
557.679859233223
 30
0.0
 10
210.0558652018905
 20
557.6795564982231
 30
0.0
 10
210.0558651958905
 20
557.6792537632232
 30
0.0
  0
SPLINE
  5
14C
330
1F
100
AcDbEntity
  8
0
  6
Continuous
 62
     7
370
    25
100
AcDbSpline
210
0.0
220
0.0
230
1.0
 70
     8
 71
     3
 72
    36
 73
    32
 74
     0
 42
0.000000001
 43
0.00000001
 40
0.0
 40
0.0
 40
0.0
 40
0.0
 40
0.0093403740513896
 40
0.0191040292673788
 40
0.0292909721805828
 40
0.0399011903573905
 40
0.0509346708270371
 40
0.0623913831245349
 40
0.0896474198671417
 40
0.1249462587885091
 40
0.140601861424427
 40
0.1562571194192375
 40
0.1876007790628627
 40
0.2190198363986912
 40
0.2505069684940572
 40
0.2820159575755135
 40
0.3135204366576849
 40
0.3448879957031715
 40
0.3762169207621691
 40
0.4074300332316105
 40
0.4386439378815411
 40
0.501121450957732
 40
0.563644761642309
 40
0.6262400799870844
 40
0.6819436063846673
 40
0.7501652293291611
 40
0.8173039090315687
 40
0.8749440103792945
 40
0.920184360739018
 40
0.9618696748178498
 40
1.0
 40
1.0
 40
1.0
 40
1.0
 10
373.2949232358912
 20
556.9746673612241
 30
0.0
 10
373.3167078608624
 20
555.8279883979196
 30
0.0
 10
373.3612643326632
 20
553.4826659991878
 30
0.0
 10
373.4368555131035
 20
549.8870777342293
 30
0.0
 10
373.5205593840228
 20
546.1358460014907
 30
0.0
 10
373.6129364871981
 20
542.2289934451823
 30
0.0
 10
373.7138056158984
 20
538.1665169603771
 30
0.0
 10
373.8720514093033
 20
532.0613663871744
 30
0.0
 10
374.1231644601651
 20
522.9788642508489
 30
0.0
 10
374.4003375702849
 20
513.3814332994748
 30
0.0
 10
374.638756078523
 20
505.2074456903632
 30
0.0
 10
374.8635749810377
 20
497.5186727243782
 30
0.0
 10
375.1383550665247
 20
487.8948467623376
 30
0.0
 10
375.4357263424528
 20
476.3260962346293
 30
0.0
 10
375.6597626368652
 20
464.7339295156258
 30
0.0
 10
375.750139550618
 20
453.1281150229609
 30
0.0
 10
375.6821020301321
 20
441.5367074283984
 30
0.0
 10
375.4895283490062
 20
429.9698039104499
 30
0.0
 10
375.2409402491306
 20
418.4406850713252
 30
0.0
 10
374.9880427043611
 20
406.930882608793
 30
0.0
 10
374.6915339688898
 20
391.5960738607268
 30
0.0
 10
374.4072816254364
 20
372.4148119764887
 30
0.0
 10
374.1589701380763
 20
349.3782751237017
 30
0.0
 10
373.9727905665645
 20
327.1726202803048
 30
0.0
 10
373.802638327391
 20
304.2668550286994
 30
0.0
 10
373.6395913903203
 20
280.8029938496661
 30
0.0
 10
373.4819417156139
 20
257.1011850374487
 30
0.0
 10
373.3489835034305
 20
236.2216053717273
 30
0.0
 10
373.2458103569363
 20
218.4677580940136
 30
0.0
 10
373.166265551871
 20
203.1097328178143
 30
0.0
 10
373.1261461389469
 20
193.3075193021598
 30
0.0
 10
373.1069798918921
 20
188.6247078592214
 30
0.0
  0
SPLINE
  5
14D
330
1F
100
AcDbEntity
  8
0
  6
Continuous
 62
     7
370
    25
100
AcDbSpline
210
0.0
220
0.0
230
1.0
 70
     8
 71
     3
 72
    24
 73
    20
 74
     0
 42
0.000000001
 43
0.00000001
 40
0.0
 40
0.0
 40
0.0
 40
0.0
 40
0.2500000000000009
 40
0.2500000000000009
 40
0.5000000000000019
 40
0.5000000000000019
 40
0.7500000000000029
 40
0.7500000000000029
 40
0.8750000000000009
 40
0.8750000000000009
 40
0.9374999999999986
 40
0.9374999999999986
 40
0.9687499999999993
 40
0.9687499999999993
 40
0.9843749999999997
 40
0.9843749999999997
 40
0.9921874999999998
 40
0.9921874999999998
 40
1.0
 40
1.0
 40
1.0
 40
1.0
 10
388.05577238322
 20
557.6801939460125
 30
0.0
 10
388.0488695543049
 20
557.7147570913401
 30
0.0
 10
387.6562817591327
 20
557.7235760374548
 30
0.0
 10
386.163041423951
 20
557.6892117243506
 30
0.0
 10
385.0633497371954
 20
557.6460735867794
 30
0.0
 10
382.3296896439737
 20
557.5151253353274
 30
0.0
 10
380.6970135295732
 20
557.4273902015942
 30
0.0
 10
378.0310301707061
 20
557.2721318402616
 30
0.0
 10
377.1066338338554
 20
557.2164746679944
 30
0.0
 10
375.6919795978531
 20
557.1286179967498
 30
0.0
 10
375.215737959104
 20
557.0986078567449
 30
0.0
 10
374.4981685961533
 20
557.0526632755717
 30
0.0
 10
374.2581318421359
 20
557.0372143391055
 30
0.0
 10
373.8981109536541
 20
557.0138080616663
 30
0.0
 10
373.7780060384617
 20
557.0059706343958
 30
0.0
 10
373.6000488112116
 20
556.9940687166342
 30
0.0
 10
373.5412039684287
 20
556.9900709416876
 30
0.0
 10
373.4202847113782
 20
556.9820526593824
 30
0.0
 10
373.3536703560335
 20
556.978318010297
 30
0.0
 10
373.2949234028905
 20
556.9746674422231
 30
0.0
  0
SPLINE
  5
14E
330
1F
100
AcDbEntity
  8
0
  6
Continuous
 62
     7
370
    25
100
AcDbSpline
210
0.0
220
0.0
230
1.0
 70
     8
 71
     3
 72
     8
 73
     4
 74
     0
 42
0.000000001
 43
0.00000001
 40
0.0
 40
0.0
 40
0.0
 40
0.0
 40
1.0
 40
1.0
 40
1.0
 40
1.0
 10
388.0557724025587
 20
557.6801939582244
 30
0.0
 10
388.0558349826324
 20
557.6798929762605
 30
0.0
 10
388.0558662709587
 20
557.6795919935588
 30
0.0
 10
388.0558662708905
 20
557.6792910122232
 30
0.0
  0
SPLINE
  5
14F
330
1F
100
AcDbEntity
  8
0
  6
Continuous
 62
     7
370
    25
100
AcDbSpline
210
0.0
220
0.0
230
1.0
 70
     8
 71
     3
 72
    39
 73
    35
 74
     0
 42
0.000000001
 43
0.00000001
 40
0.0
 40
0.0
 40
0.0
 40
0.0
 40
0.0624999999999976
 40
0.0624999999999976
 40
0.1249999999999951
 40
0.1249999999999951
 40
0.1874999999999927
 40
0.1874999999999927
 40
0.2499999999999903
 40
0.2499999999999903
 40
0.3124999999999878
 40
0.3124999999999878
 40
0.3749999999999855
 40
0.4999999999999806
 40
0.4999999999999806
 40
0.5624999999999781
 40
0.5624999999999781
 40
0.593749999999978
 40
0.593749999999978
 40
0.6249999999999779
 40
0.6249999999999779
 40
0.68749999999998
 40
0.68749999999998
 40
0.7499999999999821
 40
0.7499999999999821
 40
0.7812499999999845
 40
0.7812499999999845
 40
0.8124999999999867
 40
0.8124999999999867
 40
0.8437499999999889
 40
0.8437499999999889
 40
0.8749999999999911
 40
0.8749999999999911
 40
1.0
 40
1.0
 40
1.0
 40
1.0
 10
299.0558670320384
 20
188.336957636928
 30
0.0
 10
297.4844785044334
 20
188.3418041511752
 30
0.0
 10
295.9154951190883
 20
188.3467508675234
 30
0.0
 10
292.8045637153502
 20
188.3568093156805
 30
0.0
 10
291.2615822302459
 20
188.3619243894797
 30
0.0
 10
288.1839307570766
 20
188.3723935572459
 30
0.0
 10
286.6482273022998
 20
188.3777509932005
 30
0.0
 10
283.5585300023005
 20
188.3887813397793
 30
0.0
 10
282.0035026903665
 20
188.3944575923883
 30
0.0
 10
278.8716817723502
 20
188.4061042169814
 30
0.0
 10
277.2980099938025
 20
188.4120624660452
 30
0.0
 10
274.1556197260364
 20
188.4241428401812
 30
0.0
 10
269.4421170439354
 20
188.44253639829
 30
0.0
 10
264.7288692891617
 20
188.4616394845915
 30
0.0
 10
260.0158102315359
 20
188.4810475329748
 30
0.0
 10
258.4446971481462
 20
188.487567877004
 30
0.0
 10
256.0884595580611
 20
188.4973951575267
 30
0.0
 10
255.30462109109
 20
188.5006722246843
 30
0.0
 10
253.7579066069984
 20
188.5071484201151
 30
0.0
 10
252.9949082632479
 20
188.5103480742268
 30
0.0
 10
250.7437687900812
 20
188.5197960952156
 30
0.0
 10
249.2960939807588
 20
188.5258824671577
 30
0.0
 10
246.4407758617071
 20
188.5378763284296
 30
0.0
 10
245.0292180998149
 20
188.5438006445664
 30
0.0
 10
242.8590015501793
 20
188.5528763430345
 30
0.0
 10
242.1268639851128
 20
188.5559327216054
 30
0.0
 10
240.6382155755855
 20
188.5621314652842
 30
0.0
 10
239.8815824044948
 20
188.5652743562293
 30
0.0
 10
238.34551265912
 20
188.5716330330776
 30
0.0
 10
237.5659537582056
 20
188.5748493448177
 30
0.0
 10
235.9979959400983
 20
188.5812881582728
 30
0.0
 10
235.2119336264572
 20
188.5845006608546
 30
0.0
 10
231.2859241659853
 20
188.6004466547323
 30
0.0
 10
228.1453112179642
 20
188.612880181954
 30
0.0
 10
225.0047767153749
 20
188.624779614275
 30
0.0
  0
SPLINE
  5
150
330
1F
100
AcDbEntity
  8
0
  6
Continuous
 62
     7
370
    25
100
AcDbSpline
210
0.0
220
0.0
230
1.0
 70
     8
 71
     3
 72
    37
 73
    33
 74
     0
 42
0.000000001
 43
0.00000001
 40
0.0
 40
0.0
 40
0.0
 40
0.0
 40
0.015624999999998
 40
0.015624999999998
 40
0.0234374999999978
 40
0.0234374999999978
 40
0.0312499999999976
 40
0.0312499999999976
 40
0.0390624999999974
 40
0.0390624999999974
 40
0.0468749999999972
 40
0.0624999999999969
 40
0.0624999999999969
 40
0.1249999999999976
 40
0.1249999999999976
 40
0.2499999999999992
 40
0.2499999999999992
 40
0.3750000000000007
 40
0.3750000000000007
 40
0.5000000000000022
 40
0.5000000000000022
 40
0.5625000000000023
 40
0.5625000000000023
 40
0.6250000000000026
 40
0.6250000000000026
 40
0.7500000000000017
 40
0.7500000000000017
 40
0.8125000000000013
 40
0.8125000000000013
 40
0.8750000000000009
 40
0.8750000000000009
 40
1.0
 40
1.0
 40
1.0
 40
1.0
 10
299.0558667398904
 20
188.3369564452434
 30
0.0
 10
299.63454724519
 20
188.3387825925299
 30
0.0
 10
300.2129857731954
 20
188.3406156139379
 30
0.0
 10
300.9894411231329
 20
188.3430882652394
 30
0.0
 10
301.233516512308
 20
188.3438677638339
 30
0.0
 10
301.6892174752867
 20
188.3453277491174
 30
0.0
 10
301.9006779116967
 20
188.3460077135621
 30
0.0
 10
302.3024128382183
 20
188.3473039056487
 30
0.0
 10
302.4936808681317
 20
188.347923255101
 30
0.0
 10
302.8802306663592
 20
188.3491775173172
 30
0.0
 10
303.4600765846375
 20
188.3510634120702
 30
0.0
 10
304.0402095837973
 20
188.3529640828779
 30
0.0
 10
305.9754276816283
 20
188.3593371365895
 30
0.0
 10
307.5288749128524
 20
188.3645590932663
 30
0.0
 10
312.2188020681066
 20
188.380682441724
 30
0.0
 10
315.3879361151051
 20
188.3920608437888
 30
0.0
 10
321.7452175936324
 20
188.4157526627163
 30
0.0
 10
324.9268666838064
 20
188.4280345826563
 30
0.0
 10
331.2099459962011
 20
188.4528994351847
 30
0.0
 10
334.3086946113384
 20
188.4654672910925
 30
0.0
 10
338.9412789810258
 20
188.4845411375456
 30
0.0
 10
340.4722324476721
 20
188.4908904469348
 30
0.0
 10
343.4577954215252
 20
188.5033253044234
 30
0.0
 10
344.9136350848103
 20
188.5094161754452
 30
0.0
 10
349.2015284574143
 20
188.5273915194984
 30
0.0
 10
351.9592210923637
 20
188.5390036706884
 30
0.0
 10
356.2733711943879
 20
188.5570388178998
 30
0.0
 10
357.7415521850591
 20
188.5631551012992
 30
0.0
 10
360.7495315342884
 20
188.5755978691066
 30
0.0
 10
362.2905600489245
 20
188.5819296764374
 30
0.0
 10
366.9263590237674
 20
188.6007519690127
 30
0.0
 10
370.0167067652687
 20
188.6129867436831
 30
0.0
 10
373.1069798945336
 20
188.6247078564023
 30
0.0
  0
SPLINE
  5
151
330
1F
100
AcDbEntity
  8
0
  6
Continuous
 62
     7
370
    25
100
AcDbSpline
210
0.0
220
0.0
230
1.0
 70
     8
 71
     3
 72
    17
 73
    13
 74
     0
 42
0.000000001
 43
0.00000001
 40
0.0
 40
0.0
 40
0.0
 40
0.0
 40
0.0636382104767522
 40
0.1305233462023992
 40
0.2006560344527569
 40
0.3631546194243201
 40
0.4972221291929027
 40
0.6264302946694036
 40
0.7484106182831941
 40
0.8324917810823553
 40
0.9163543694115095
 40
1.0
 40
1.0
 40
1.0
 40
1.0
 10
224.8165919078858
 20
556.9732865632285
 30
0.0
 10
226.3912474539873
 20
557.0021332378521
 30
0.0
 10
229.6209000393381
 20
557.061298391468
 30
0.0
 10
234.5858327227583
 20
557.1508929979983
 30
0.0
 10
241.9968803795575
 20
557.2837109834768
 30
0.0
 10
251.0703406032898
 20
557.4413688511146
 30
0.0
 10
261.6061325130242
 20
557.6095223776775
 30
0.0
 10
271.1399321505789
 20
557.7392343816749
 30
0.0
 10
279.4372670790564
 20
557.8298202801975
 30
0.0
 10
286.6127175761688
 20
557.8885621372505
 30
0.0
 10
292.8395995655758
 20
557.926382231441
 30
0.0
 10
296.9855734883391
 20
557.9396176722328
 30
0.0
 10
299.0558755034509
 20
557.9462268213139
 30
0.0
  0
SPLINE
  5
152
330
1F
100
AcDbEntity
  8
0
  6
Continuous
 62
     7
370
    25
100
AcDbSpline
210
0.0
220
0.0
230
1.0
 70
     8
 71
     3
 72
    24
 73
    20
 74
     0
 42
0.000000001
 43
0.00000001
 40
0.0
 40
0.0
 40
0.0
 40
0.0
 40
0.0078125000000009
 40
0.0078125000000009
 40
0.0156250000000018
 40
0.0156250000000018
 40
0.0312500000000038
 40
0.0312500000000038
 40
0.062500000000004
 40
0.062500000000004
 40
0.1250000000000042
 40
0.1250000000000042
 40
0.2500000000000043
 40
0.2500000000000043
 40
0.5000000000000029
 40
0.5000000000000029
 40
0.7500000000000014
 40
0.7500000000000014
 40
1.0
 40
1.0
 40
1.0
 40
1.0
 10
373.2949233968905
 20
556.9746674482232
 30
0.0
 10
373.2992167884636
 20
557.0362706071139
 30
0.0
 10
373.3033387467519
 20
557.0895897121977
 30
0.0
 10
373.3110981103772
 20
557.2091046380523
 30
0.0
 10
373.3150028806749
 20
557.2706394293276
 30
0.0
 10
373.326757443381
 20
557.4536683482008
 30
0.0
 10
373.3346301148345
 20
557.574083556023
 30
0.0
 10
373.3581761986746
 20
557.9350910324034
 30
0.0
 10
373.3737892521212
 20
558.1750189983231
 30
0.0
 10
373.4202032787026
 20
558.8934826122369
 30
0.0
 10
373.4506623217919
 20
559.3694450928664
 30
0.0
 10
373.5400991189931
 20
560.7830573486416
 30
0.0
 10
373.5971375040243
 20
561.7062418863201
 30
0.0
 10
373.7573572328645
 20
564.3676795596931
 30
0.0
 10
373.8494922723277
 20
565.9960828060733
 30
0.0
 10
373.9906513720989
 20
568.7194990965784
 30
0.0
 10
374.0395986585436
 20
569.8131918841854
 30
0.0
 10
374.0862556943291
 20
571.2935527699618
 30
0.0
 10
374.0839215393675
 20
571.6792537327183
 30
0.0
 10
374.0558600118941
 20
571.6792537312231
 30
0.0
  0
SPLINE
  5
153
330
1F
100
AcDbEntity
  8
0
  6
Continuous
 62
     7
370
    25
100
AcDbSpline
210
0.0
220
0.0
230
1.0
 70
     8
 71
     3
 72
    18
 73
    14
 74
     0
 42
0.000000001
 43
0.00000001
 40
0.0
 40
0.0
 40
0.0
 40
0.0
 40
0.0441718469276575
 40
0.0859275628327414
 40
0.1252677763187558
 40
0.186922658520551
 40
0.2504179937539354
 40
0.3719905081509586
 40
0.5004218100898858
 40
0.6302683708308958
 40
0.7861231481876202
 40
0.8965716298640805
 40
1.0
 40
1.0
 40
1.0
 40
1.0
 10
299.055875503892
 20
557.9462268102596
 30
0.0
 10
300.1491644961696
 20
557.9430033300528
 30
0.0
 10
302.2759412807615
 20
557.9367326889708
 30
0.0
 10
305.3763847767167
 20
557.9236521787224
 30
0.0
 10
308.9095023379891
 20
557.9047250486866
 30
0.0
 10
312.9806081833833
 20
557.8764646369362
 30
0.0
 10
319.0867956332448
 20
557.8243762718648
 30
0.0
 10
326.845327887402
 20
557.7402245594051
 30
0.0
 10
336.2453322382431
 20
557.6127788114718
 30
0.0
 10
346.4930443667429
 20
557.4504009929491
 30
0.0
 10
356.2952420733868
 20
557.2811555738413
 30
0.0
 10
365.4436072603717
 20
557.1179134393105
 30
0.0
 10
370.7357191680099
 20
557.0213596541962
 30
0.0
 10
373.2949232358912
 20
556.9746673612241
 30
0.0
  0
LWPOLYLINE
  5
154
330
1F
100
AcDbEntity
  8
0
  6
Continuous
 62
     7
370
    25
100
AcDbPolyline
 90
        3
 70
   128
 43
0.0
 10
299.0558662604
 20
512.679229049
 10
299.0558610724
 20
512.75466691
 10
299.0558559709
 20
512.830104771
  0
SPLINE
  5
155
330
1F
100
AcDbEntity
  8
0
  6
Continuous
 62
     7
370
    25
100
AcDbSpline
210
0.0
220
0.0
230
1.0
 70
     8
 71
     3
 72
    72
 73
    68
 74
     0
 42
0.000000001
 43
0.00000001
 40
0.0
 40
0.0
 40
0.0
 40
0.0
 40
0.0624999999999977
 40
0.0624999999999977
 40
0.0937499999999965
 40
0.0937499999999965
 40
0.109374999999996
 40
0.109374999999996
 40
0.1249999999999955
 40
0.1249999999999955
 40
0.1874999999999945
 40
0.1874999999999945
 40
0.2031249999999944
 40
0.2031249999999944
 40
0.2187499999999943
 40
0.2187499999999943
 40
0.2499999999999948
 40
0.2499999999999948
 40
0.3124999999999964
 40
0.3124999999999964
 40
0.3281249999999969
 40
0.3281249999999969
 40
0.3437499999999974
 40
0.3437499999999974
 40
0.3749999999999977
 40
0.3749999999999977
 40
0.406249999999998
 40
0.406249999999998
 40
0.4218749999999979
 40
0.4218749999999979
 40
0.4374999999999978
 40
0.4374999999999978
 40
0.499999999999998
 40
0.499999999999998
 40
0.531249999999998
 40
0.531249999999998
 40
0.5468749999999978
 40
0.5468749999999978
 40
0.5624999999999977
 40
0.5624999999999977
 40
0.6249999999999971
 40
0.6249999999999971
 40
0.640624999999997
 40
0.640624999999997
 40
0.6562499999999969
 40
0.6562499999999969
 40
0.687499999999997
 40
0.687499999999997
 40
0.7499999999999976
 40
0.7499999999999976
 40
0.7656249999999977
 40
0.7656249999999977
 40
0.7812499999999978
 40
0.7812499999999978
 40
0.8124999999999979
 40
0.8124999999999979
 40
0.8437499999999981
 40
0.8437499999999981
 40
0.8749999999999982
 40
0.8749999999999982
 40
0.9374999999999987
 40
0.9374999999999987
 40
0.9531249999999992
 40
0.9531249999999992
 40
0.9687499999999997
 40
0.9687499999999997
 40
1.0
 40
1.0
 40
1.0
 40
1.0
 10
299.0558662629628
 20
512.6792537312232
 30
0.0
 10
295.0923405779999
 20
512.6792537306994
 30
0.0
 10
291.1950421315057
 20
512.2903746107826
 30
0.0
 10
285.4443724432005
 20
511.1475939500605
 30
0.0
 10
283.5434802722157
 20
510.6727301612537
 30
0.0
 10
280.7166859042245
 20
509.8163154375446
 30
0.0
 10
279.7769202601668
 20
509.5062020424552
 30
0.0
 10
277.9129065788422
 20
508.8393380359343
 30
0.0
 10
276.9929238154324
 20
508.4842093197197
 30
0.0
 10
272.4519089700578
 20
506.6022861419306
 30
0.0
 10
269.0058974077788
 20
504.7596778433336
 30
0.0
 10
264.9297854323224
 20
502.038865833353
 30
0.0
 10
264.1262373265012
 20
501.4736378894107
 30
0.0
 10
262.5428626531735
 20
500.3003779344808
 30
0.0
 10
261.7610303149014
 20
499.690668043674
 30
0.0
 10
259.4676345805653
 20
497.8088822494962
 30
0.0
 10
258.0124556536252
 20
496.4887048180623
 30
0.0
 10
253.8612605414107
 20
492.3373657824447
 30
0.0
 10
251.3775575160093
 20
489.3172032130914
 30
0.0
 10
248.6360761271658
 20
485.2187265467186
 30
0.0
 10
248.1047399658384
 20
484.3803377231499
 30
0.0
 10
247.0886979064861
 20
482.6857431993736
 30
0.0
 10
246.6034862954046
 20
481.8290698887865
 30
0.0
 10
245.2150162533984
 20
479.2314411711284
 30
0.0
 10
244.3787640207736
 20
477.462942169433
 30
0.0
 10
242.8823381951406
 20
473.8535652098742
 30
0.0
 10
242.2221653591546
 20
472.0126869407758
 30
0.0
 10
241.3657596000475
 20
469.1963476661429
 30
0.0
 10
241.1026394424642
 20
468.2483813538922
 30
0.0
 10
240.6218946488015
 20
466.3337473222303
 30
0.0
 10
240.4039629292737
 20
465.3650113863539
 30
0.0
 10
239.4401570164568
 20
460.5249287280566
 30
0.0
 10
239.0585238219485
 20
456.6323467209841
 30
0.0
 10
239.0545580432524
 20
450.7635235173574
 30
0.0
 10
239.1486654966767
 20
448.8022214843368
 30
0.0
 10
239.4373169152795
 20
445.8524980124422
 30
0.0
 10
239.5584162468166
 20
444.8673430169169
 30
0.0
 10
239.8472763511805
 20
442.9162937243873
 30
0.0
 10
240.0152481907961
 20
441.9476594326524
 30
0.0
 10
240.9708593414028
 20
437.1383669643739
 30
0.0
 10
242.1024545189417
 20
433.398379897378
 30
0.0
 10
243.9783393254847
 20
428.8584387587651
 30
0.0
 10
244.3767928060342
 20
427.9572632452476
 30
0.0
 10
245.2211737974374
 20
426.1688072081533
 30
0.0
 10
245.6665617887535
 20
425.2830304402945
 30
0.0
 10
247.0591038370271
 20
422.6755834362833
 30
0.0
 10
248.0668548420771
 20
420.994214770534
 30
0.0
 10
251.3225452753854
 20
416.1167867951374
 30
0.0
 10
253.8006543802712
 20
413.0857793373842
 30
0.0
 10
257.2977998278827
 20
409.5835030641748
 30
0.0
 10
258.0141976162452
 20
408.9008255718749
 30
0.0
 10
259.472641293897
 20
407.5778386926501
 30
0.0
 10
260.2158732161277
 20
406.9363341648551
 30
0.0
 10
262.4869772251356
 20
405.0708998660011
 30
0.0
 10
264.0561601691584
 20
403.905910435153
 30
0.0
 10
267.303868943489
 20
401.7319367341071
 30
0.0
 10
268.9823914287475
 20
400.7229476913601
 30
0.0
 10
272.4510648403054
 20
398.8642356858109
 30
0.0
 10
274.2492889043498
 20
398.0120313546702
 30
0.0
 10
279.7016416803528
 20
395.7503513833153
 30
0.0
 10
283.4410232242308
 20
394.6143499311053
 30
0.0
 10
288.2442142896382
 20
393.6532598388766
 30
0.0
 10
289.2113588772056
 20
393.4841943931738
 30
0.0
 10
291.1588565769884
 20
393.1930653026988
 30
0.0
 10
292.1403295520547
 20
393.0708936863573
 30
0.0
 10
295.0975006604066
 20
392.7771979811453
 30
0.0
 10
297.0741033828597
 20
392.6792537337078
 30
0.0
 10
299.055866195664
 20
392.6792537312231
 30
0.0
  0
LWPOLYLINE
  5
156
330
1F
100
AcDbEntity
  8
0
  6
Continuous
 62
     7
370
    25
100
AcDbPolyline
 90
        3
 70
   128
 43
0.0
 10
299.0558598208
 20
392.1688521811
 10
299.0558630487
 20
392.4240552898
 10
299.0558661886
 20
392.6792583986
  0
SPLINE
  5
157
330
1F
100
AcDbEntity
  8
0
  6
Continuous
 62
     7
370
    25
100
AcDbSpline
210
0.0
220
0.0
230
1.0
 70
     8
 71
     3
 72
    72
 73
    68
 74
     0
 42
0.000000001
 43
0.00000001
 40
0.0
 40
0.0
 40
0.0
 40
0.0
 40
0.062500000000001
 40
0.062500000000001
 40
0.0937500000000015
 40
0.0937500000000015
 40
0.1093750000000013
 40
0.1093750000000013
 40
0.1250000000000011
 40
0.1250000000000011
 40
0.1875000000000005
 40
0.1875000000000005
 40
0.2031250000000004
 40
0.2031250000000004
 40
0.2187500000000003
 40
0.2187500000000003
 40
0.2500000000000002
 40
0.2500000000000002
 40
0.3125000000000002
 40
0.3125000000000002
 40
0.3281250000000003
 40
0.3281250000000003
 40
0.3437500000000003
 40
0.3437500000000003
 40
0.3750000000000002
 40
0.3750000000000002
 40
0.4062500000000001
 40
0.4062500000000001
 40
0.4218749999999998
 40
0.4218749999999998
 40
0.4374999999999995
 40
0.4374999999999995
 40
0.4999999999999986
 40
0.4999999999999986
 40
0.5312499999999981
 40
0.5312499999999981
 40
0.546874999999998
 40
0.546874999999998
 40
0.5624999999999978
 40
0.5624999999999978
 40
0.6249999999999972
 40
0.6249999999999972
 40
0.6406249999999974
 40
0.6406249999999974
 40
0.6562499999999976
 40
0.6562499999999976
 40
0.6874999999999979
 40
0.6874999999999979
 40
0.7499999999999984
 40
0.7499999999999984
 40
0.7656249999999986
 40
0.7656249999999986
 40
0.7812499999999989
 40
0.7812499999999989
 40
0.812499999999999
 40
0.812499999999999
 40
0.843749999999999
 40
0.843749999999999
 40
0.874999999999999
 40
0.874999999999999
 40
0.9374999999999982
 40
0.9374999999999982
 40
0.9531249999999987
 40
0.9531249999999987
 40
0.9687499999999992
 40
0.9687499999999992
 40
1.0
 40
1.0
 40
1.0
 40
1.0
 10
299.0558662464376
 20
392.6792537312231
 30
0.0
 10
303.0193919168352
 20
392.6792537296078
 30
0.0
 10
306.9166903975469
 20
393.0681328470236
 30
0.0
 10
312.6673601516952
 20
394.2109135239961
 30
0.0
 10
314.5682523505055
 20
394.6857773215951
 30
0.0
 10
317.3950467695311
 20
395.5421920669447
 30
0.0
 10
318.3348124598249
 20
395.8523054808875
 30
0.0
 10
320.1988260920684
 20
396.5191694755686
 30
0.0
 10
321.1188088368154
 20
396.8742981866417
 30
0.0
 10
325.6598236156652
 20
398.7562213461883
 30
0.0
 10
329.1058352097402
 20
400.5988296539066
 30
0.0
 10
333.1819472991017
 20
403.3196417596208
 30
0.0
 10
333.9854954314485
 20
403.8848697269535
 30
0.0
 10
335.568870164619
 20
405.0581297387469
 30
0.0
 10
336.3507025550157
 20
405.6678396801477
 30
0.0
 10
338.6440981608779
 20
407.549625392514
 30
0.0
 10
340.0992770330748
 20
408.8698027818949
 30
0.0
 10
344.2504720514599
 20
413.0211417459197
 30
0.0
 10
346.7341751071605
 20
416.0413043382345
 30
0.0
 10
349.475656587018
 20
420.1397811816664
 30
0.0
 10
350.0069927608355
 20
420.9781700379745
 30
0.0
 10
351.0230347617334
 20
422.6727644836442
 30
0.0
 10
351.508246349662
 20
423.5294377606291
 30
0.0
 10
352.8967163369946
 20
426.1270663947917
 30
0.0
 10
353.7329685528274
 20
427.895565363834
 30
0.0
 10
355.2293943682438
 20
431.5049423106103
 30
0.0
 10
355.8895672109059
 20
433.3458205995835
 30
0.0
 10
356.7459729861509
 20
436.1621599499152
 30
0.0
 10
357.0090931501269
 20
437.1101262950648
 30
0.0
 10
357.4898379564435
 20
439.0247604088191
 30
0.0
 10
357.7077696696205
 20
439.9934963437001
 30
0.0
 10
358.6715755195171
 20
444.8335787820513
 30
0.0
 10
359.0532087223544
 20
448.7261607262853
 30
0.0
 10
359.0571744973066
 20
454.5949840109325
 30
0.0
 10
358.9630670401068
 20
456.55628610052
 30
0.0
 10
358.6744155981787
 20
459.506009703766
 30
0.0
 10
358.5533162662057
 20
460.4911646589428
 30
0.0
 10
358.2644561693264
 20
462.4422138625815
 30
0.0
 10
358.0964843344385
 20
463.4108481182124
 30
0.0
 10
357.1408732067424
 20
468.2201404454473
 30
0.0
 10
356.0092780452879
 20
471.9601275251232
 30
0.0
 10
354.1333931706494
 20
476.5000688105578
 30
0.0
 10
353.7349396720332
 20
477.4012443600575
 30
0.0
 10
352.8905586331156
 20
479.1897004819722
 30
0.0
 10
352.445170673521
 20
480.075477175499
 30
0.0
 10
351.0526286822924
 20
482.682924059268
 30
0.0
 10
350.0448777072593
 20
484.3642926782501
 30
0.0
 10
346.7891873178027
 20
489.2417205949821
 30
0.0
 10
344.3110781819707
 20
492.2727281221211
 30
0.0
 10
340.8139325428087
 20
495.7750045652242
 30
0.0
 10
340.0975348381912
 20
496.4576819715051
 30
0.0
 10
338.6390912214394
 20
497.7806687920825
 30
0.0
 10
337.8958593249835
 20
498.4221732975983
 30
0.0
 10
335.6247553775509
 20
500.2876075475045
 30
0.0
 10
334.0555724536276
 20
501.4525969695254
 30
0.0
 10
330.8078636675886
 20
503.626570685497
 30
0.0
 10
329.1293411505582
 20
504.6355597520806
 30
0.0
 10
325.660667611715
 20
506.4942718236316
 30
0.0
 10
323.8624435481124
 20
507.3464761454342
 30
0.0
 10
318.4100909926042
 20
509.6081560235017
 30
0.0
 10
314.6707094897067
 20
510.7441574909444
 30
0.0
 10
309.8675183185794
 20
511.7052476117633
 30
0.0
 10
308.9003737019268
 20
511.8743130636889
 30
0.0
 10
306.9528759274277
 20
512.165442165333
 30
0.0
 10
305.9714028613639
 20
512.287613790678
 30
0.0
 10
303.0142318069177
 20
512.5813094850148
 30
0.0
 10
301.0376291163706
 20
512.6792537313249
 30
0.0
 10
299.0558662677996
 20
512.679253731223
 30
0.0
  0
SPLINE
  5
158
330
1F
100
AcDbEntity
  8
0
  6
Continuous
 62
     7
370
    25
100
AcDbSpline
210
0.0
220
0.0
230
1.0
 70
     8
 71
     3
 72
    34
 73
    30
 74
     0
 42
0.000000001
 43
0.00000001
 40
0.0
 40
0.0
 40
0.0
 40
0.0
 40
0.0165334631225519
 40
0.0330963148557852
 40
0.0496885914098695
 40
0.0663103341295701
 40
0.0829615878853446
 40
0.0996423997177928
 40
0.1163528177266774
 40
0.1330928901936064
 40
0.1498626649251706
 40
0.1666621888011941
 40
0.1834915075106653
 40
0.2003506654556549
 40
0.217239705801803
 40
0.2341586706515368
 40
0.2511076013147378
 40
0.3116205379910785
 40
0.3735294202626815
 40
0.436836014662535
 40
0.5015420977991512
 40
0.6200489452832385
 40
0.7508718981938014
 40
0.8098120239921497
 40
0.8754480817565592
 40
0.9065911658953618
 40
0.9377308496173802
 40
0.968867137750811
 40
1.0
 40
1.0
 40
1.0
 40
1.0
 10
410.0558662708906
 20
187.679253731223
 30
0.0
 10
410.0568384465719
 20
187.679112440435
 30
0.0
 10
410.0587845259993
 20
187.6788296077115
 30
0.0
 10
410.0745490627731
 20
187.6792693928481
 30
0.0
 10
410.099769538553
 20
187.6803411480312
 30
0.0
 10
410.1354064441601
 20
187.6821076738076
 30
0.0
 10
410.1812416475042
 20
187.6845526581569
 30
0.0
 10
410.2373643485471
 20
187.6876810491808
 30
0.0
 10
410.3037717856693
 20
187.6914920882957
 30
0.0
 10
410.3804764432756
 20
187.6959865552199
 30
0.0
 10
410.4674771704981
 20
187.701164820133
 30
0.0
 10
410.5647669075428
 20
187.7070273707112
 30
0.0
 10
410.6723304116817
 20
187.7135746551047
 30
0.0
 10
410.79014529384
 20
187.7208071802693
 30
0.0
 10
410.9181798368579
 20
187.728725273827
 30
0.0
 10
411.0564003987328
 20
187.7373299385596
 30
0.0
 10
411.3317519879024
 20
187.7545733315685
 30
0.0
 10
411.8000216295159
 20
187.7842625916456
 30
0.0
 10
412.5475270192006
 20
187.8321304087239
 30
0.0
 10
413.4339783035915
 20
187.8892416106736
 30
0.0
 10
414.7344363324225
 20
187.9734839490575
 30
0.0
 10
416.6433449322129
 20
188.0985472042044
 30
0.0
 10
418.7861541778022
 20
188.2391284779747
 30
0.0
 10
420.6705801277331
 20
188.3637002679704
 30
0.0
 10
421.8554439267547
 20
188.4421653235105
 30
0.0
 10
422.8428756720081
 20
188.5076260615901
 30
0.0
 10
423.569334524763
 20
188.5557833633173
 30
0.0
 10
424.299203466154
 20
188.6042881838336
 30
0.0
 10
424.7869529042655
 20
188.636936845794
 30
0.0
 10
425.0308142059782
 20
188.6532602786527
 30
0.0
  0
SPLINE
  5
159
330
1F
100
AcDbEntity
  8
0
  6
Continuous
 62
     7
370
    25
100
AcDbSpline
210
0.0
220
0.0
230
1.0
 70
     8
 71
     3
 72
    28
 73
    24
 74
     0
 42
0.000000001
 43
0.00000001
 40
0.0
 40
0.0
 40
0.0
 40
0.0
 40
0.0156632870786075
 40
0.0348855329611827
 40
0.057666634492492
 40
0.0840064655716503
 40
0.1139048875810795
 40
0.1585639435584781
 40
0.1993577510099405
 40
0.3584844932539539
 40
0.4983566829399012
 40
0.5630788983509973
 40
0.626404041105948
 40
0.6883338881063343
 40
0.7488702063592965
 40
0.7806309345417719
 40
0.8122855013755168
 40
0.8438341866457182
 40
0.8752772845189749
 40
0.9066151038459949
 40
0.9378479615573168
 40
0.9689761675766384
 40
1.0
 40
1.0
 40
1.0
 40
1.0
 10
425.0308150498379
 20
188.653260284721
 30
0.0
 10
425.0225229300722
 20
188.5306232436662
 30
0.0
 10
425.0040545832973
 20
188.2574839902956
 30
0.0
 10
424.9739829074081
 20
187.8062705870472
 30
0.0
 10
424.9385654903936
 20
187.2724896773731
 30
0.0
 10
424.8978886050664
 20
186.657477153859
 30
0.0
 10
424.8461585600073
 20
185.8768352245256
 30
0.0
 10
424.7875671719148
 20
184.9935046580369
 30
0.0
 10
424.66568946644
 20
183.1531893329826
 30
0.0
 10
424.5056775892107
 20
180.7147855929717
 30
0.0
 10
424.3580146777682
 20
178.4695804420441
 30
0.0
 10
424.266427602945
 20
177.0568846702284
 30
0.0
 10
424.2092356052145
 20
176.1704928337601
 30
0.0
 10
424.1612910388498
 20
175.4230277248821
 30
0.0
 10
424.1283844886984
 20
174.9050978763509
 30
0.0
 10
424.1064028191979
 20
174.5540474432108
 30
0.0
 10
424.0919132758556
 20
174.3199518840102
 30
0.0
 10
424.0798329040811
 20
174.1218716679503
 30
0.0
 10
424.070161613168
 20
173.9599968837012
 30
0.0
 10
424.0628808796125
 20
173.83413654826
 30
0.0
 10
424.0580470302535
 20
173.7451171361102
 30
0.0
 10
424.0554369294732
 20
173.6895358784279
 30
0.0
 10
424.0557233173974
 20
173.682677274345
 30
0.0
 10
424.05586627089
 20
173.6792537312232
 30
0.0
  0
SPLINE
  5
15A
330
1F
100
AcDbEntity
  8
0
  6
Continuous
 62
     7
370
    25
100
AcDbSpline
210
0.0
220
0.0
230
1.0
 70
     8
 71
     3
 72
    38
 73
    34
 74
     0
 42
0.000000001
 43
0.00000001
 40
0.0
 40
0.0
 40
0.0
 40
0.0
 40
0.1250000000000001
 40
0.1250000000000001
 40
0.1562500000000001
 40
0.1562500000000001
 40
0.1875000000000002
 40
0.1875000000000002
 40
0.2187500000000002
 40
0.2187500000000002
 40
0.2500000000000003
 40
0.2500000000000003
 40
0.2812500000000003
 40
0.2812500000000003
 40
0.3125000000000004
 40
0.3125000000000004
 40
0.3437500000000005
 40
0.3437500000000005
 40
0.3750000000000006
 40
0.3750000000000006
 40
0.5000000000000006
 40
0.5000000000000006
 40
0.5625000000000007
 40
0.5625000000000007
 40
0.6250000000000009
 40
0.6250000000000009
 40
0.7500000000000009
 40
0.7500000000000009
 40
0.8125000000000008
 40
0.8125000000000008
 40
0.8750000000000007
 40
0.8750000000000007
 40
1.0
 40
1.0
 40
1.0
 40
1.0
 10
579.0558639580397
 20
188.3369259024154
 30
0.0
 10
585.4877885479564
 20
188.3443929147408
 30
0.0
 10
591.919203310582
 20
188.3535217599551
 30
0.0
 10
599.9586961376236
 20
188.3668019473257
 30
0.0
 10
601.5662685528301
 20
188.3695460836456
 30
0.0
 10
604.7828543687666
 20
188.3751913556911
 30
0.0
 10
606.3955845701148
 20
188.3780987750574
 30
0.0
 10
609.6479006474563
 20
188.3840935428993
 30
0.0
 10
611.2868972529052
 20
188.3871798270019
 30
0.0
 10
614.579771746389
 20
188.3934936204469
 30
0.0
 10
616.2330603638795
 20
188.3967200654162
 30
0.0
 10
619.5314456668596
 20
188.4032604703792
 30
0.0
 10
621.175953081805
 20
188.4065733659998
 30
0.0
 10
624.4402820589097
 20
188.4132498869019
 30
0.0
 10
626.0595143505248
 20
188.4166124478102
 30
0.0
 10
629.2810565703137
 20
188.423400369976
 30
0.0
 10
630.8871057523762
 20
188.4268328191106
 30
0.0
 10
634.1027044171448
 20
188.4337982475977
 30
0.0
 10
635.7104957892944
 20
188.4373279685715
 30
0.0
 10
643.7494141090763
 20
188.4552098941807
 30
0.0
 10
650.1804174737048
 20
188.4702986928094
 30
0.0
 10
659.8268275500983
 20
188.4937715841722
 30
0.0
 10
663.0392738953116
 20
188.5017161372717
 30
0.0
 10
669.4182137332497
 20
188.5176040791312
 30
0.0
 10
672.585651204425
 20
188.5255499311748
 30
0.0
 10
682.0399441080862
 20
188.5492209234106
 30
0.0
 10
688.2839526290763
 20
188.5647973523341
 30
0.0
 10
697.770276615305
 20
188.5874440485973
 30
0.0
 10
700.9525592962556
 20
188.5948725212671
 30
0.0
 10
707.3554819401502
 20
188.6093110329647
 30
0.0
 10
710.5739395427487
 20
188.6163140702658
 30
0.0
 10
720.2178812296844
 20
188.6362536356572
 30
0.0
 10
726.6469729685828
 20
188.6481268984303
 30
0.0
 10
733.0760889745941
 20
188.6582237916014
 30
0.0
  0
SPLINE
  5
15B
330
1F
100
AcDbEntity
  8
0
  6
Continuous
 62
     7
370
    25
100
AcDbSpline
210
0.0
220
0.0
230
1.0
 70
     8
 71
     3
 72
    37
 73
    33
 74
     0
 42
0.000000001
 43
0.00000001
 40
0.0
 40
0.0
 40
0.0
 40
0.0
 40
0.0312500000000001
 40
0.0312500000000001
 40
0.0625000000000002
 40
0.0625000000000002
 40
0.1250000000000001
 40
0.1250000000000001
 40
0.1875000000000001
 40
0.1875000000000001
 40
0.2500000000000001
 40
0.2500000000000001
 40
0.3125
 40
0.3125
 40
0.375
 40
0.375
 40
0.5
 40
0.5
 40
0.625
 40
0.625
 40
0.75
 40
0.75
 40
0.8750000000000001
 40
0.8750000000000001
 40
0.9062500000000001
 40
0.9218750000000001
 40
0.9218750000000001
 40
0.9375000000000001
 40
0.9375000000000001
 40
0.9687500000000001
 40
0.9687500000000001
 40
1.0
 40
1.0
 40
1.0
 40
1.0
 10
424.9727068853492
 20
556.7596765068813
 30
0.0
 10
424.9502717901871
 20
552.944963493454
 30
0.0
 10
424.926044565526
 20
549.1246833919811
 30
0.0
 10
424.875565002277
 20
541.4698316934831
 30
0.0
 10
424.8495602698126
 20
537.639747548305
 30
0.0
 10
424.7703796965292
 20
526.1512557637873
 30
0.0
 10
424.7173685533262
 20
518.4907913770919
 30
0.0
 10
424.6180913129014
 20
503.1669691850333
 30
0.0
 10
424.5724236200322
 20
495.5037617393304
 30
0.0
 10
424.4946352501549
 20
480.176064736917
 30
0.0
 10
424.4625130767334
 20
472.5147753982928
 30
0.0
 10
424.4141750886992
 20
457.2073984152342
 30
0.0
 10
424.3978978253236
 20
449.5573014635517
 30
0.0
 10
424.3800523905745
 20
434.2395362342614
 30
0.0
 10
424.3785410939245
 20
426.5733279047901
 30
0.0
 10
424.3908515471881
 20
403.5833866756852
 30
0.0
 10
424.4197298388222
 20
388.2597972406285
 30
0.0
 10
424.4973153538383
 20
357.6131732981315
 30
0.0
 10
424.5473408698625
 20
342.2867041013758
 30
0.0
 10
424.6545154562754
 20
311.6249337019441
 30
0.0
 10
424.7116777768707
 20
296.2947249051783
 30
0.0
 10
424.8210326308515
 20
265.6536916876018
 30
0.0
 10
424.8732020293432
 20
250.3371876765638
 30
0.0
 10
424.9297052460041
 20
231.1909087220955
 30
0.0
 10
424.9460146768135
 20
225.4470889737002
 30
0.0
 10
424.9612353771125
 20
219.7033457477309
 30
0.0
 10
424.9711274468041
 20
215.8741982381057
 30
0.0
 10
424.975945406164
 20
213.9599087772479
 30
0.0
 10
424.9900445129716
 20
208.1964752898803
 30
0.0
 10
424.9989802738884
 20
204.3229004733511
 30
0.0
 10
425.0157855895615
 20
196.5123667013513
 30
0.0
 10
425.0236453004321
 20
192.5786311387178
 30
0.0
 10
425.0308142059778
 20
188.6532602786527
 30
0.0
  0
SPLINE
  5
15C
330
1F
100
AcDbEntity
  8
0
  6
Continuous
 62
     7
370
    25
100
AcDbSpline
210
0.0
220
0.0
230
1.0
 70
     8
 71
     3
 72
    49
 73
    45
 74
     0
 42
0.000000001
 43
0.00000001
 40
0.0
 40
0.0
 40
0.0
 40
0.0
 40
0.0156249999999999
 40
0.0156249999999999
 40
0.0312499999999999
 40
0.0625
 40
0.0625
 40
0.125
 40
0.125
 40
0.25
 40
0.25
 40
0.3749999999999999
 40
0.3749999999999999
 40
0.4999999999999999
 40
0.4999999999999999
 40
0.5624999999999999
 40
0.5624999999999999
 40
0.5937499999999999
 40
0.5937499999999999
 40
0.6249999999999999
 40
0.6249999999999999
 40
0.6562499999999998
 40
0.6562499999999998
 40
0.6874999999999998
 40
0.6874999999999998
 40
0.7499999999999998
 40
0.7499999999999998
 40
0.8749999999999998
 40
0.8749999999999998
 40
0.8906249999999998
 40
0.8906249999999998
 40
0.8984374999999998
 40
0.8984374999999998
 40
0.9062499999999998
 40
0.9062499999999998
 40
0.9140624999999998
 40
0.9140624999999998
 40
0.9218749999999998
 40
0.9218749999999998
 40
0.9296874999999998
 40
0.9296874999999998
 40
0.9374999999999998
 40
0.9374999999999998
 40
1.0
 40
1.0
 40
1.0
 40
1.0
 10
733.0760889620836
 20
188.658223814563
 30
0.0
 10
733.079101836573
 20
190.5772306424432
 30
0.0
 10
733.0822931851859
 20
192.4905896184731
 30
0.0
 10
733.0890417623124
 20
196.3211086632419
 30
0.0
 10
733.0997047377109
 20
202.0669167739886
 30
0.0
 10
733.1119235262775
 20
207.812819506309
 30
0.0
 10
733.1382530076404
 20
219.3047663240029
 30
0.0
 10
733.1583327030243
 20
226.9662529390184
 30
0.0
 10
733.2245484161244
 20
249.951390761768
 30
0.0
 10
733.2767315453708
 20
265.2743869709291
 30
0.0
 10
733.3869548797685
 20
295.9290185421197
 30
0.0
 10
733.4450365293076
 20
311.267269638739
 30
0.0
 10
733.5540034715386
 20
341.9456495768869
 30
0.0
 10
733.6048169540177
 20
357.2800090495106
 30
0.0
 10
733.6643078432826
 20
380.2752582169416
 30
0.0
 10
733.6813373210887
 20
387.9406075663936
 30
0.0
 10
733.7013199265584
 20
399.4389849502992
 30
0.0
 10
733.707077842879
 20
403.2700044864939
 30
0.0
 10
733.7164052064174
 20
410.9445957030978
 30
0.0
 10
733.7199520032742
 20
414.7896973993282
 30
0.0
 10
733.7242205104633
 20
422.4745968088003
 30
0.0
 10
733.7249364460665
 20
426.3110118267666
 30
0.0
 10
733.7230406477651
 20
433.9783766043674
 30
0.0
 10
733.7204310306126
 20
437.8118772360441
 30
0.0
 10
733.7070584452624
 20
449.3080953121982
 30
0.0
 10
733.6906539348429
 20
456.9662014802803
 30
0.0
 10
733.6174644512149
 20
479.9474146942423
 30
0.0
 10
733.5348558823749
 20
495.2883965232401
 30
0.0
 10
733.4230002074767
 20
512.5350537958011
 30
0.0
 10
733.4103660391114
 20
514.4488403988303
 30
0.0
 10
733.3911593360413
 20
517.327448450156
 30
0.0
 10
733.3846930091756
 20
518.2919095502816
 30
0.0
 10
733.3716239576493
 20
520.2351027046242
 30
0.0
 10
733.3650240971009
 20
521.2133608750055
 30
0.0
 10
733.3517772531724
 20
523.1719132877448
 30
0.0
 10
733.3451331339049
 20
524.1517336462674
 30
0.0
 10
733.3318928836331
 20
526.0996841657388
 30
0.0
 10
733.3252996167415
 20
527.0673404428519
 30
0.0
 10
733.3121760950658
 20
528.989961657582
 30
0.0
 10
733.3056351977543
 20
529.9463642829741
 30
0.0
 10
733.2925397591061
 20
531.8619444059356
 30
0.0
 10
733.2859959082213
 20
532.8197124155645
 30
0.0
 10
733.2272898001779
 20
541.4393453394297
 30
0.0
 10
733.1767326313872
 20
549.0989140802524
 30
0.0
 10
733.1336881972398
 20
556.7544780280568
 30
0.0
  0
SPLINE
  5
15D
330
1F
100
AcDbEntity
  8
0
  6
Continuous
 62
     7
370
    25
100
AcDbSpline
210
0.0
220
0.0
230
1.0
 70
     8
 71
     3
 72
    33
 73
    29
 74
     0
 42
0.000000001
 43
0.00000001
 40
0.0
 40
0.0
 40
0.0
 40
0.0
 40
0.2499999999999961
 40
0.2499999999999961
 40
0.3749999999999941
 40
0.3749999999999941
 40
0.4062499999999936
 40
0.4062499999999936
 40
0.4218749999999934
 40
0.4218749999999934
 40
0.4374999999999933
 40
0.4374999999999933
 40
0.4687499999999934
 40
0.4687499999999934
 40
0.4999999999999934
 40
0.4999999999999934
 40
0.5156249999999934
 40
0.5156249999999934
 40
0.5312499999999934
 40
0.5312499999999934
 40
0.5468749999999933
 40
0.5468749999999933
 40
0.5624999999999933
 40
0.6249999999999942
 40
0.6249999999999942
 40
0.7499999999999961
 40
0.7499999999999961
 40
1.0
 40
1.0
 40
1.0
 40
1.0
 10
579.0558645602151
 20
188.3369302952581
 30
0.0
 10
566.2842008472284
 20
188.3514514434127
 30
0.0
 10
553.512795582533
 20
188.3727043109353
 30
0.0
 10
534.3563312421059
 20
188.4083500282279
 30
0.0
 10
527.9709760113902
 20
188.420895651
 30
0.0
 10
519.9893969201714
 20
188.4374832925126
 30
0.0
 10
518.3930855972548
 20
188.440847404284
 30
0.0
 10
515.9986237792481
 20
188.4459651513648
 30
0.0
 10
515.2019461621912
 20
188.4476795652879
 30
0.0
 10
513.5959448010411
 20
188.4511611293347
 30
0.0
 10
512.785726414113
 20
188.4529303368317
 30
0.0
 10
510.3222153949837
 20
188.4583491220639
 30
0.0
 10
508.6331305333471
 20
188.4621167632464
 30
0.0
 10
505.218825573403
 20
188.4698302932786
 30
0.0
 10
503.4982107259077
 20
188.4737658679512
 30
0.0
 10
500.9691353980462
 20
188.4796156642705
 30
0.0
 10
500.1346220542343
 20
188.4815568774934
 30
0.0
 10
498.4872444250552
 20
188.4854087947908
 30
0.0
 10
497.6745240537757
 20
188.4873191765479
 30
0.0
 10
496.0651122614918
 20
188.4911186577181
 30
0.0
 10
495.2680795662242
 20
188.4930084580762
 30
0.0
 10
493.6717719217021
 20
188.4968039766821
 30
0.0
 10
489.6810272405645
 20
188.5063205910583
 30
0.0
 10
485.6904092741858
 20
188.5159707705464
 30
0.0
 10
476.1131734163276
 20
188.5392609787221
 30
0.0
 10
469.7286849952112
 20
188.5549714874906
 30
0.0
 10
450.5759959750208
 20
188.6010256372969
 30
0.0
 10
437.8079587317766
 20
188.6299729609627
 30
0.0
 10
425.0308150498378
 20
188.653260284721
 30
0.0
  0
SPLINE
  5
15E
330
1F
100
AcDbEntity
  8
0
  6
Continuous
 62
     7
370
    25
100
AcDbSpline
210
0.0
220
0.0
230
1.0
 70
     8
 71
     3
 72
    38
 73
    34
 74
     0
 42
0.000000001
 43
0.00000001
 40
0.0
 40
0.0
 40
0.0
 40
0.0
 40
0.1249999999999995
 40
0.1249999999999995
 40
0.2499999999999989
 40
0.2499999999999989
 40
0.3749999999999984
 40
0.3749999999999984
 40
0.4999999999999979
 40
0.4999999999999979
 40
0.531249999999998
 40
0.531249999999998
 40
0.5624999999999981
 40
0.5624999999999981
 40
0.5937499999999981
 40
0.5937499999999981
 40
0.6249999999999982
 40
0.6249999999999982
 40
0.6874999999999986
 40
0.6874999999999986
 40
0.7499999999999988
 40
0.7499999999999988
 40
0.8749999999999994
 40
0.8749999999999994
 40
0.9374999999999997
 40
0.9374999999999997
 40
0.9687499999999998
 40
0.9687499999999998
 40
0.9843749999999999
 40
0.9843749999999999
 40
0.9921874999999999
 40
0.9921874999999999
 40
1.0
 40
1.0
 40
1.0
 40
1.0
 10
733.1336897124967
 20
556.7544780493503
 30
0.0
 10
726.7233682291668
 20
556.7905308690899
 30
0.0
 10
720.3121239909142
 20
556.8331509619908
 30
0.0
 10
707.487840781701
 20
556.9301016894528
 30
0.0
 10
701.0743050046126
 20
556.9843371669812
 30
0.0
 10
688.2073619529122
 20
557.1012816652852
 30
0.0
 10
681.7582673825425
 20
557.1639577434759
 30
0.0
 10
668.8808098063433
 20
557.2933938095666
 30
0.0
 10
662.4573791037247
 20
557.3601197324973
 30
0.0
 10
654.4359851108951
 20
557.4432647642732
 30
0.0
 10
652.8344743065082
 20
557.4598545865015
 30
0.0
 10
649.6450341095967
 20
557.4927851854333
 30
0.0
 10
648.0565204649314
 20
557.5091316041302
 30
0.0
 10
644.8811130970057
 20
557.541594218281
 30
0.0
 10
643.293635121605
 20
557.5577160557441
 30
0.0
 10
640.107026756283
 20
557.5897572852708
 30
0.0
 10
638.5073121142219
 20
557.6056823193596
 30
0.0
 10
633.6951061404659
 20
557.652954962862
 30
0.0
 10
630.4832435570014
 20
557.6836917186479
 30
0.0
 10
624.0617034247596
 20
557.7424270381191
 30
0.0
 10
620.850435088004
 20
557.770432125517
 30
0.0
 10
611.2147610986768
 20
557.847983053705
 30
0.0
 10
604.7884435818531
 20
557.8910329684088
 30
0.0
 10
595.1446437006833
 20
557.9317036899517
 30
0.0
 10
591.9293396465429
 20
557.9412713907248
 30
0.0
 10
587.1053161692379
 20
557.9484879146758
 30
0.0
 10
585.4976284315428
 20
557.9497080479105
 30
0.0
 10
583.0844256343005
 20
557.9496468082641
 30
0.0
 10
582.2798542434667
 20
557.9493115312039
 30
0.0
 10
581.0734237861047
 20
557.9483270933005
 30
0.0
 10
580.6718649624461
 20
557.9479196857947
 30
0.0
 10
579.8676149023668
 20
557.9469398719087
 30
0.0
 10
579.4651653271029
 20
557.9463679369139
 30
0.0
 10
579.0558688498146
 20
557.945700169309
 30
0.0
  0
SPLINE
  5
15F
330
1F
100
AcDbEntity
  8
0
  6
Continuous
 62
     7
370
    25
100
AcDbSpline
210
0.0
220
0.0
230
1.0
 70
     8
 71
     3
 72
    32
 73
    28
 74
     0
 42
0.000000001
 43
0.00000001
 40
0.0
 40
0.0
 40
0.0
 40
0.0
 40
0.0156249999999999
 40
0.0156249999999999
 40
0.03125
 40
0.03125
 40
0.0625
 40
0.0625
 40
0.125
 40
0.125
 40
0.2500000000000001
 40
0.2500000000000001
 40
0.3750000000000001
 40
0.3750000000000001
 40
0.5000000000000002
 40
0.5000000000000002
 40
0.6250000000000003
 40
0.6250000000000003
 40
0.6875000000000003
 40
0.6875000000000003
 40
0.7500000000000004
 40
0.7500000000000004
 40
0.8125000000000004
 40
0.8125000000000004
 40
0.8750000000000004
 40
0.8750000000000004
 40
1.0
 40
1.0
 40
1.0
 40
1.0
 10
579.0558689071402
 20
557.9457040331591
 30
0.0
 10
578.2781698284585
 20
557.9469590022977
 30
0.0
 10
577.4955097042448
 20
557.9479442733408
 30
0.0
 10
575.8977704179741
 20
557.9493531079855
 30
0.0
 10
575.0910781999041
 20
557.9497663871825
 30
0.0
 10
572.6802697390239
 20
557.9500882935636
 30
0.0
 10
571.0732819566047
 20
557.9490946529075
 30
0.0
 10
566.252912783722
 20
557.9425986229901
 30
0.0
 10
563.0401227420483
 20
557.9335584718848
 30
0.0
 10
553.4038704333683
 20
557.8942326991914
 30
0.0
 10
546.9825142082826
 20
557.8517260208371
 30
0.0
 10
534.1446135445304
 20
557.7494152694435
 30
0.0
 10
527.7281975420834
 20
557.690056587895
 30
0.0
 10
514.8980558239365
 20
557.5655497034902
 30
0.0
 10
508.488320272213
 20
557.4997590232678
 30
0.0
 10
495.6233420005495
 20
557.3675463477695
 30
0.0
 10
489.1681601315118
 20
557.301130280574
 30
0.0
 10
479.4947839609301
 20
557.2047641627496
 30
0.0
 10
476.2725159542557
 20
557.1731733304737
 30
0.0
 10
469.8387081977867
 20
557.1115279543101
 30
0.0
 10
466.627375554212
 20
557.081473535686
 30
0.0
 10
460.2135274398993
 20
557.0232725230329
 30
0.0
 10
457.0100440130368
 20
556.9951177772198
 30
0.0
 10
450.6015620151326
 20
556.9410267535281
 30
0.0
 10
447.3975115555125
 20
556.9150994100917
 30
0.0
 10
437.7859179248003
 20
556.8412552702775
 30
0.0
 10
431.3789343341921
 20
556.7973878615863
 30
0.0
 10
424.97270453823
 20
556.7596793600735
 30
0.0
  0
SPLINE
  5
160
330
1F
100
AcDbEntity
  8
0
  6
Continuous
 62
     7
370
    25
100
AcDbSpline
210
0.0
220
0.0
230
1.0
 70
     8
 71
     3
 72
    72
 73
    68
 74
     0
 42
0.000000001
 43
0.00000001
 40
0.0
 40
0.0
 40
0.0
 40
0.0
 40
0.0624999999999998
 40
0.0624999999999998
 40
0.0937499999999997
 40
0.0937499999999997
 40
0.1093749999999998
 40
0.1093749999999998
 40
0.1249999999999998
 40
0.1249999999999998
 40
0.1875000000000003
 40
0.1875000000000003
 40
0.2031250000000004
 40
0.2031250000000004
 40
0.2187500000000006
 40
0.2187500000000006
 40
0.2500000000000007
 40
0.2500000000000007
 40
0.312500000000001
 40
0.312500000000001
 40
0.3281250000000011
 40
0.3281250000000011
 40
0.3437500000000011
 40
0.3437500000000011
 40
0.3750000000000009
 40
0.3750000000000009
 40
0.4062500000000007
 40
0.4062500000000007
 40
0.4218750000000007
 40
0.4218750000000007
 40
0.4375000000000006
 40
0.4375000000000006
 40
0.5000000000000006
 40
0.5000000000000006
 40
0.5312500000000006
 40
0.5312500000000006
 40
0.5468750000000007
 40
0.5468750000000007
 40
0.5625000000000007
 40
0.5625000000000007
 40
0.625000000000001
 40
0.625000000000001
 40
0.6406250000000011
 40
0.6406250000000011
 40
0.6562500000000012
 40
0.6562500000000012
 40
0.6875000000000012
 40
0.6875000000000012
 40
0.7500000000000013
 40
0.7500000000000013
 40
0.7656250000000013
 40
0.7656250000000013
 40
0.7812500000000012
 40
0.7812500000000012
 40
0.812500000000001
 40
0.812500000000001
 40
0.8437500000000008
 40
0.8437500000000008
 40
0.8750000000000006
 40
0.8750000000000006
 40
0.9375000000000002
 40
0.9375000000000002
 40
0.9531250000000001
 40
0.9531250000000001
 40
0.9687500000000001
 40
0.9687500000000001
 40
1.0
 40
1.0
 40
1.0
 40
1.0
 10
579.0558662683887
 20
512.6792537312233
 30
0.0
 10
575.0923405623771
 20
512.679253731058
 30
0.0
 10
571.195042139045
 20
512.2903746139835
 30
0.0
 10
565.4443724017164
 20
511.1475939409653
 30
0.0
 10
563.5434802076563
 20
510.6727301450359
 30
0.0
 10
560.716685796629
 20
509.8163154032765
 30
0.0
 10
559.776920113769
 20
509.5062019924278
 30
0.0
 10
557.9129064729539
 20
508.8393379957046
 30
0.0
 10
556.9929237248873
 20
508.484209283725
 30
0.0
 10
552.4519089338738
 20
506.6022861208162
 30
0.0
 10
549.0058973441785
 20
504.7596778141654
 30
0.0
 10
544.9297852724131
 20
502.0388657232918
 30
0.0
 10
544.1262371441968
 20
501.4736377596052
 30
0.0
 10
542.5428624203934
 20
500.3003777567139
 30
0.0
 10
541.7610300382388
 20
499.6906678233055
 30
0.0
 10
539.4676344115753
 20
497.8088820975561
 30
0.0
 10
538.0124555305746
 20
496.4887047013316
 30
0.0
 10
533.8612604966751
 20
492.3373657250594
 30
0.0
 10
531.377557444293
 20
489.3172031344329
 30
0.0
 10
528.6360759772591
 20
485.2187263154709
 30
0.0
 10
528.1047398052445
 20
484.3803374637576
 30
0.0
 10
527.0886977956036
 20
482.6857430059878
 30
0.0
 10
526.6034862041782
 20
481.8290697236953
 30
0.0
 10
525.2150162084932
 20
479.2314410759554
 30
0.0
 10
524.3787639899316
 20
477.4629421009488
 30
0.0
 10
522.8823381727589
 20
473.8535651499809
 30
0.0
 10
522.222165331113
 20
472.0126868628549
 30
0.0
 10
521.3657595585821
 20
469.1963475226352
 30
0.0
 10
521.1026393957025
 20
468.2483811820775
 30
0.0
 10
520.6218945915804
 20
466.3337470799175
 30
0.0
 10
520.4039628776634
 20
465.3650111447122
 30
0.0
 10
519.440157019599
 20
460.5249286736882
 30
0.0
 10
519.0585238187591
 20
456.6323467183826
 30
0.0
 10
519.0545580447979
 20
450.7635234453255
 30
0.0
 10
519.1486655019671
 20
448.8022213644714
 30
0.0
 10
519.437316941063
 20
445.8524977818601
 30
0.0
 10
519.5584162733248
 20
444.8673428197004
 30
0.0
 10
519.8472763721039
 20
442.916293601237
 30
0.0
 10
520.0152482080848
 20
441.947659339736
 30
0.0
 10
520.9708593409102
 20
437.1383669904909
 30
0.0
 10
522.1024545053017
 20
433.3983799167517
 30
0.0
 10
523.9783393668512
 20
428.8584386620614
 30
0.0
 10
524.3767928620056
 20
427.9572631198976
 30
0.0
 10
525.2211738918462
 20
426.1688070149876
 30
0.0
 10
525.6665618583037
 20
425.2830303060161
 30
0.0
 10
527.0591038621105
 20
422.6755833974157
 30
0.0
 10
528.0668548437312
 20
420.9942147690947
 30
0.0
 10
531.3225452425828
 20
416.116786842201
 30
0.0
 10
533.8006543710802
 20
413.0857793320765
 30
0.0
 10
537.297799967426
 20
409.5835029280552
 30
0.0
 10
538.0141976916591
 20
408.9008255019045
 30
0.0
 10
539.4726413228692
 20
407.5778386679303
 30
0.0
 10
540.2158732254239
 20
406.9363341573939
 30
0.0
 10
542.4869771874046
 20
405.0708998966438
 30
0.0
 10
544.05616011605
 20
403.9059104729983
 30
0.0
 10
547.3038688992635
 20
401.731936761416
 30
0.0
 10
548.9823914087488
 20
400.7229477008751
 30
0.0
 10
552.4510649172347
 20
398.8642356457893
 30
0.0
 10
554.2492889814865
 20
398.0120313218146
 30
0.0
 10
559.701641593111
 20
395.7503514212216
 30
0.0
 10
563.441023108909
 20
394.6143499575999
 30
0.0
 10
568.2442142555427
 20
393.6532598448439
 30
0.0
 10
569.2113588651774
 20
393.4841943947039
 30
0.0
 10
571.1588566209617
 20
393.1930652963931
 30
0.0
 10
572.1403296639572
 20
393.0708936736123
 30
0.0
 10
575.0975007301092
 20
392.7771979774849
 30
0.0
 10
577.0741034321255
 20
392.6792537310145
 30
0.0
 10
579.0558662772077
 20
392.6792537312231
 30
0.0
  0
SPLINE
  5
161
330
1F
100
AcDbEntity
  8
0
  6
Continuous
 62
     7
370
    25
100
AcDbSpline
210
0.0
220
0.0
230
1.0
 70
     8
 71
     3
 72
    71
 73
    67
 74
     0
 42
0.000000001
 43
0.00000001
 40
0.0
 40
0.0
 40
0.0
 40
0.0
 40
0.0624999999999998
 40
0.0624999999999998
 40
0.0937499999999996
 40
0.0937499999999996
 40
0.1093749999999996
 40
0.1093749999999996
 40
0.1249999999999995
 40
0.1249999999999995
 40
0.1874999999999993
 40
0.1874999999999993
 40
0.2031249999999993
 40
0.2031249999999993
 40
0.2187499999999992
 40
0.2187499999999992
 40
0.2499999999999991
 40
0.2499999999999991
 40
0.3124999999999988
 40
0.3124999999999988
 40
0.3281249999999987
 40
0.3281249999999987
 40
0.3437499999999986
 40
0.3437499999999986
 40
0.3749999999999984
 40
0.4062499999999983
 40
0.4062499999999983
 40
0.4218749999999983
 40
0.4218749999999983
 40
0.4374999999999983
 40
0.4374999999999983
 40
0.4999999999999986
 40
0.4999999999999986
 40
0.5312499999999986
 40
0.5312499999999986
 40
0.5468749999999986
 40
0.5468749999999986
 40
0.5624999999999987
 40
0.5624999999999987
 40
0.6249999999999989
 40
0.6249999999999989
 40
0.640624999999999
 40
0.640624999999999
 40
0.656249999999999
 40
0.656249999999999
 40
0.6874999999999991
 40
0.6874999999999991
 40
0.749999999999999
 40
0.749999999999999
 40
0.765624999999999
 40
0.765624999999999
 40
0.7812499999999992
 40
0.7812499999999992
 40
0.8124999999999993
 40
0.8124999999999993
 40
0.8437499999999994
 40
0.8437499999999994
 40
0.8749999999999994
 40
0.8749999999999994
 40
0.9374999999999998
 40
0.9374999999999998
 40
0.9531249999999999
 40
0.9531249999999999
 40
0.9687499999999999
 40
0.9687499999999999
 40
1.0
 40
1.0
 40
1.0
 40
1.0
 10
579.0558662744841
 20
392.6792537312231
 30
0.0
 10
583.019391967013
 20
392.6792537314604
 30
0.0
 10
586.9166904190093
 20
393.0681328525544
 30
0.0
 10
592.6673601129273
 20
394.2109135156592
 30
0.0
 10
594.568252285857
 20
394.6857773054734
 30
0.0
 10
597.395046656828
 20
395.5421920310676
 30
0.0
 10
598.334812302232
 20
395.8523054269743
 30
0.0
 10
600.1988259845441
 20
396.5191694346343
 30
0.0
 10
601.1188087484933
 20
396.8742981514677
 30
0.0
 10
605.6598235967786
 20
398.7562213326447
 30
0.0
 10
609.1058351621201
 20
400.5988296349277
 30
0.0
 10
613.1819471415178
 20
403.3196416512313
 30
0.0
 10
613.9854952481306
 20
403.8848695965219
 30
0.0
 10
615.5688699230315
 20
405.0581295543291
 30
0.0
 10
616.3507022623237
 20
405.667839446883
 30
0.0
 10
618.6440979960574
 20
407.5496252434823
 30
0.0
 10
620.0992769226667
 20
408.8698026766471
 30
0.0
 10
624.2504720347814
 20
413.0211417189122
 30
0.0
 10
626.7341750609725
 20
416.0413042946003
 30
0.0
 10
629.475656449185
 20
420.1397809692536
 30
0.0
 10
630.0069926102367
 20
420.978169794403
 30
0.0
 10
631.02303466813
 20
422.6727643199259
 30
0.0
 10
631.5082462784795
 20
423.5294376314114
 30
0.0
 10
632.8967163182496
 20
426.1270663518129
 30
0.0
 10
634.5692215374277
 20
429.6640640478016
 30
0.0
 10
635.8895672057529
 20
433.3458205895267
 30
0.0
 10
636.7459729619828
 20
436.1621598669917
 30
0.0
 10
637.0090931185846
 20
437.1101261802269
 30
0.0
 10
637.4898379102285
 20
439.0247602139768
 30
0.0
 10
637.7077696287134
 20
439.9934961509571
 30
0.0
 10
638.6715755360805
 20
444.8335788144849
 30
0.0
 10
639.053208725512
 20
448.7261608252413
 30
0.0
 10
639.0571744957757
 20
454.5949840325563
 30
0.0
 10
638.9630670394216
 20
456.5562860665565
 30
0.0
 10
638.6744156162201
 20
459.5060095398831
 30
0.0
 10
638.553316283073
 20
460.4911645362112
 30
0.0
 10
638.2644561754382
 20
462.4422138301034
 30
0.0
 10
638.0964843341653
 20
463.4108481223966
 30
0.0
 10
637.1408731752095
 20
468.2201405929123
 30
0.0
 10
636.0092779908347
 20
471.9601276600063
 30
0.0
 10
634.1333931756418
 20
476.5000687977013
 30
0.0
 10
633.7349396933583
 20
477.4012443109694
 30
0.0
 10
632.8905586984984
 20
479.1897003474073
 30
0.0
 10
632.4451707048242
 20
480.0754771161406
 30
0.0
 10
631.0526286499014
 20
482.6829241214084
 30
0.0
 10
630.04487764045
 20
484.3642927873937
 30
0.0
 10
626.7891871944187
 20
489.2417207617169
 30
0.0
 10
624.3110780817605
 20
492.2727282161048
 30
0.0
 10
620.8139326281351
 20
495.7750044813658
 30
0.0
 10
620.0975348353372
 20
496.4576819751768
 30
0.0
 10
618.6390911518693
 20
497.7806688541078
 30
0.0
 10
617.8958592269481
 20
498.4221733814309
 30
0.0
 10
615.6247552106374
 20
500.2876076779865
 30
0.0
 10
614.0555722627847
 20
501.452597106124
 30
0.0
 10
610.8078634830817
 20
503.6265708001524
 30
0.0
 10
609.1293409962668
 20
504.6355598386036
 30
0.0
 10
605.6606675838257
 20
506.4942718347314
 30
0.0
 10
603.8624435163284
 20
507.3464761629049
 30
0.0
 10
598.4100907216026
 20
509.6081561273425
 30
0.0
 10
594.6707091702623
 20
510.7441575709887
 30
0.0
 10
589.8675181016988
 20
511.7052476511286
 30
0.0
 10
588.9003735137943
 20
511.8743130943398
 30
0.0
 10
586.9528758142728
 20
512.1654421797211
 30
0.0
 10
585.9714028405609
 20
512.2876137934
 30
0.0
 10
583.0142317305005
 20
512.5813094912925
 30
0.0
 10
581.0376290603774
 20
512.6792537349689
 30
0.0
 10
579.0558661574821
 20
512.6792537312232
 30
0.0
  0
SPLINE
  5
162
330
1F
100
AcDbEntity
  8
0
  6
Continuous
 62
     8
370
    25
100
AcDbSpline
210
0.0
220
0.0
230
1.0
 70
     8
 71
     3
 72
    12
 73
     8
 74
     0
 42
0.000000001
 43
0.00000001
 40
0.0
 40
0.0
 40
0.0
 40
0.0
 40
0.2636005345609686
 40
0.4531130705265423
 40
0.6509913616037514
 40
0.8488696526565556
 40
1.0
 40
1.0
 40
1.0
 40
1.0
 10
612.012824851158
 20
437.4379021135115
 30
0.0
 10
612.1323139861718
 20
437.3826431028987
 30
0.0
 10
612.3377084439288
 20
437.2876562698303
 30
0.0
 10
612.5846485608154
 20
437.1734562178384
 30
0.0
 10
612.7520524198073
 20
437.0960385423592
 30
0.0
 10
612.8517764255934
 20
437.0499201273037
 30
0.0
 10
612.857194762029
 20
437.047414360627
 30
0.0
 10
612.8595410508524
 20
437.0463292946815
 30
0.0
  0
SPLINE
  5
163
330
1F
100
AcDbEntity
  8
0
  6
Continuous
 62
     8
370
    25
100
AcDbSpline
210
0.0
220
0.0
230
1.0
 70
     8
 71
     3
 72
    12
 73
     8
 74
     0
 42
0.000000001
 43
0.00000001
 40
0.0
 40
0.0
 40
0.0
 40
0.0
 40
0.1511297784500885
 40
0.3490077426239808
 40
0.5468857068222255
 40
0.736397929728402
 40
1.0
 40
1.0
 40
1.0
 40
1.0
 10
545.2522176511679
 20
468.3120469601764
 30
0.0
 10
545.2545639391024
 20
468.31096189465
 30
0.0
 10
545.2599822799741
 20
468.3084561259401
 30
0.0
 10
545.3597062495666
 20
468.2623377274517
 30
0.0
 10
545.5271101008675
 20
468.1849200562016
 30
0.0
 10
545.7740509731309
 20
468.0707196521645
 30
0.0
 10
545.9794464505061
 20
467.9757323564033
 30
0.0
 10
546.0989365523981
 20
467.9204729037902
 30
0.0
  0
SPLINE
  5
164
330
1F
100
AcDbEntity
  8
0
  6
Continuous
 62
     8
370
    25
100
AcDbSpline
210
0.0
220
0.0
230
1.0
 70
     8
 71
     3
 72
    12
 73
     8
 74
     0
 42
0.000000001
 43
0.00000001
 40
0.0
 40
0.0
 40
0.0
 40
0.0
 40
0.2636005345609695
 40
0.4531130705265471
 40
0.6509913616037515
 40
0.8488696526565546
 40
1.0
 40
1.0
 40
1.0
 40
1.0
 10
332.0128117908757
 20
437.4379677041546
 30
0.0
 10
332.1323009258895
 20
437.3827086935417
 30
0.0
 10
332.3376953836465
 20
437.2877218604734
 30
0.0
 10
332.5846355005332
 20
437.1735218084814
 30
0.0
 10
332.7520393595252
 20
437.0961041330023
 30
0.0
 10
332.8517633653112
 20
437.0499857179468
 30
0.0
 10
332.8571817017468
 20
437.04747995127
 30
0.0
 10
332.8595279905701
 20
437.0463948853246
 30
0.0
  0
SPLINE
  5
165
330
1F
100
AcDbEntity
  8
0
  6
Continuous
 62
     8
370
    25
100
AcDbSpline
210
0.0
220
0.0
230
1.0
 70
     8
 71
     3
 72
    12
 73
     8
 74
     0
 42
0.000000001
 43
0.00000001
 40
0.0
 40
0.0
 40
0.0
 40
0.0
 40
0.1511297784500872
 40
0.3490077426239829
 40
0.5468857068222042
 40
0.7363979297283848
 40
1.0
 40
1.0
 40
1.0
 40
1.0
 10
265.2522045908856
 20
468.3121125508195
 30
0.0
 10
265.25455087882
 20
468.3110274852931
 30
0.0
 10
265.2599692196918
 20
468.3085217165832
 30
0.0
 10
265.3596931892843
 20
468.2624033180948
 30
0.0
 10
265.5270970405853
 20
468.1849856468448
 30
0.0
 10
265.7740379128486
 20
468.0707852428076
 30
0.0
 10
265.9794333902238
 20
467.9757979470464
 30
0.0
 10
266.0989234921158
 20
467.9205384944333
 30
0.0
  0
LINE
  5
166
330
1F
100
AcDbEntity
  8
0
  6
Continuous
 62
     8
370
    25
100
AcDbLine
 10
593.0324666504
 20
510.9789805982
 30
0.0
 11
593.8058787374
 21
510.9789805982
 31
0.0
  0
LINE
  5
167
330
1F
100
AcDbEntity
  8
0
  6
Continuous
 62
     8
370
    25
100
AcDbLine
 10
564.9854527633
 20
510.9789805982
 30
0.0
 11
564.305879332
 21
510.9789805982
 31
0.0
  0
LINE
  5
168
330
1F
100
AcDbEntity
  8
0
  6
Continuous
 62
     8
370
    25
100
AcDbLine
 10
313.0320702933
 20
510.9790461888
 30
0.0
 11
313.8058656771
 21
510.9790461888
 31
0.0
  0
LINE
  5
169
330
1F
100
AcDbEntity
  8
0
  6
Continuous
 62
     8
370
    25
100
AcDbLine
 10
284.9856117272
 20
510.9790461888
 30
0.0
 11
284.3058662718
 21
510.9790461888
 31
0.0
  0
SPLINE
  5
16A
330
1F
100
AcDbEntity
  8
0
  6
Continuous
 62
     8
370
    25
100
AcDbSpline
210
0.0
220
0.0
230
1.0
 70
     8
 71
     3
 72
    32
 73
    28
 74
     0
 42
0.000000001
 43
0.00000001
 40
0.0
 40
0.0
 40
0.0
 40
0.0
 40
0.0179488756904713
 40
0.0352956433635535
 40
0.0520403174213291
 40
0.0681829115654316
 40
0.0837234385225039
 40
0.0986619100340104
 40
0.1129983369889692
 40
0.1267327296190252
 40
0.1398650977061139
 40
0.1523954507750195
 40
0.1643237982591416
 40
0.175650149638446
 40
0.1863745145560899
 40
0.3284598460496671
 40
0.4572301076843271
 40
0.595810652913001
 40
0.7283040341094636
 40
0.762653297027624
 40
0.7968911611391605
 40
0.8310179870841057
 40
0.865034150332584
 40
0.898940041433831
 40
0.9327360589199111
 40
0.9664225931853507
 40
0.9999999999999999
 40
0.9999999999999999
 40
0.9999999999999999
 40
0.9999999999999999
 10
373.9405251217332
 20
173.7910887904633
 30
0.0
 10
373.9324354690129
 20
173.80782030516
 30
0.0
 10
373.9165275368242
 20
173.8407220637908
 30
0.0
 10
373.8931616334117
 20
173.9012632091664
 30
0.0
 10
373.8706756089804
 20
173.9678186942972
 30
0.0
 10
373.849075021804
 20
174.0402695297888
 30
0.0
 10
373.8283582868951
 20
174.1174716936826
 30
0.0
 10
373.8085257765034
 20
174.1985888287161
 30
0.0
 10
373.7895775071457
 20
174.2827548948833
 30
0.0
 10
373.7715136629554
 20
174.3691601613639
 30
0.0
 10
373.7543346069983
 20
174.4570295115454
 30
0.0
 10
373.738040305538
 20
174.5456287616346
 30
0.0
 10
373.7226323941161
 20
174.634260111423
 30
0.0
 10
373.7081069343303
 20
174.722272719134
 30
0.0
 10
373.6385837931824
 20
175.1648578440978
 30
0.0
 10
373.5248862198085
 20
176.1351028618687
 30
0.0
 10
373.3794650063116
 20
178.0246153391815
 30
0.0
 10
373.2629868318132
 20
180.2689577989162
 30
0.0
 10
373.1963831470022
 20
182.2265269399355
 30
0.0
 10
373.1630548800516
 20
183.5802915280591
 30
0.0
 10
373.1482242187772
 20
184.2845134263462
 30
0.0
 10
373.1356502853615
 20
184.9971518048972
 30
0.0
 10
373.1253338752441
 20
185.7164362798656
 30
0.0
 10
373.1172603170829
 20
186.4405376853062
 30
0.0
 10
373.1114852904054
 20
187.1676655691384
 30
0.0
 10
373.1078017883909
 20
187.8960298383318
 30
0.0
 10
373.1072535626765
 20
188.3820780348017
 30
0.0
 10
373.1069798945337
 20
188.624707856402
 30
0.0
  0
SPLINE
  5
16B
330
1F
100
AcDbEntity
  8
0
  6
Continuous
 62
     8
370
    25
100
AcDbSpline
210
0.0
220
0.0
230
1.0
 70
     8
 71
     3
 72
    29
 73
    25
 74
     0
 42
0.000000001
 43
0.00000001
 40
0.0
 40
0.0
 40
0.0
 40
0.0
 40
0.0179784292882175
 40
0.035923154136323
 40
0.053846226456576
 40
0.0717589624754207
 40
0.0896721140297847
 40
0.1075960273517515
 40
0.1255407748651591
 40
0.1435162538224956
 40
0.2140608832640007
 40
0.2845890922523851
 40
0.3546085128804363
 40
0.4245984760359166
 40
0.494756670843968
 40
0.5649085112472156
 40
0.635824648233534
 40
0.7067669814864619
 40
0.7790739787264103
 40
0.8514015962645277
 40
0.8885641991729094
 40
0.925654730325153
 40
0.962774031501814
 40
1.0
 40
1.0
 40
1.0
 40
1.0
 10
387.7551782956432
 20
187.8675577921253
 30
0.0
 10
387.7298770786966
 20
187.8751361816335
 30
0.0
 10
387.6793220773869
 20
187.8902787533256
 30
0.0
 10
387.5923901670424
 20
187.9128679572605
 30
0.0
 10
387.4974987009813
 20
187.9352728848788
 30
0.0
 10
387.3938637083601
 20
187.9574712845151
 30
0.0
 10
387.2817028403545
 20
187.9794609498281
 30
0.0
 10
387.1609475959094
 20
188.001253879613
 30
0.0
 10
387.0315857351065
 20
188.0228728473312
 30
0.0
 10
386.7592026903385
 20
188.06527790366
 30
0.0
 10
386.2913945996928
 20
188.1274950429546
 30
0.0
 10
385.5480262859149
 20
188.2051554874492
 30
0.0
 10
384.6916400338706
 20
188.2784454526998
 30
0.0
 10
383.7300318474138
 20
188.3453531204258
 30
0.0
 10
382.6697303978605
 20
188.4068841967124
 30
0.0
 10
381.5159601017572
 20
188.4612609344413
 30
0.0
 10
380.2787383842942
 20
188.5094921907949
 30
0.0
 10
378.9604224823756
 20
188.549663811037
 30
0.0
 10
377.5763123407757
 20
188.5826894723876
 30
0.0
 10
376.3716726646129
 20
188.6020957744831
 30
0.0
 10
375.3854317290593
 20
188.6135862816406
 30
0.0
 10
374.6299710631995
 20
188.6197668212492
 30
0.0
 10
373.8699957389138
 20
188.6240229681383
 30
0.0
 10
373.3615624217166
 20
188.6244785618784
 30
0.0
 10
373.1069810242424
 20
188.6247066855815
 30
0.0
  0
LINE
  5
16C
330
1F
100
AcDbEntity
  8
0
  6
Continuous
 62
     8
370
    25
100
AcDbLine
 10
224.0422537665
 20
571.5104694784
 30
0.0
 11
224.0398775992
 21
571.6767999479
 31
0.0
  0
SPLINE
  5
16D
330
1F
100
AcDbEntity
  8
0
  6
Continuous
 62
     8
370
    25
100
AcDbSpline
210
0.0
220
0.0
230
1.0
 70
     8
 71
     3
 72
    19
 73
    15
 74
     0
 42
0.000000001
 43
0.00000001
 40
0.0
 40
0.0
 40
0.0
 40
0.0
 40
0.0009342694230514
 40
0.0751094605517513
 40
0.1497135422479051
 40
0.2150415003124919
 40
0.3021863351875497
 40
0.3893754809206109
 40
0.4711892385336246
 40
0.6035170073326965
 40
0.730447815267391
 40
0.8633368704439385
 40
0.9311580138321058
 40
1.0
 40
1.0
 40
1.0
 40
1.0
 10
733.9761745613548
 20
173.729071582683
 30
0.0
 10
733.9757183571218
 20
173.7293531100551
 30
0.0
 10
733.9390423694488
 20
173.7519861627152
 30
0.0
 10
733.868254481435
 20
173.9371269508215
 30
0.0
 10
733.766922607924
 20
174.3155174428407
 30
0.0
 10
733.6634556864248
 20
174.9010077595845
 30
0.0
 10
733.5591233905732
 20
175.7010892522109
 30
0.0
 10
733.455911158136
 20
176.7714118032849
 30
0.0
 10
733.3456638748974
 20
178.252477593912
 30
0.0
 10
733.2398712402637
 20
180.2211492566238
 30
0.0
 10
733.147952174158
 20
182.7991903155117
 30
0.0
 10
733.0999656668057
 20
185.1426361617468
 30
0.0
 10
733.0796416650535
 20
187.1278528558327
 30
0.0
 10
733.0772790873881
 20
188.1455661167752
 30
0.0
 10
733.076088974594
 20
188.6582237916014
 30
0.0
  0
SPLINE
  5
16E
330
1F
100
AcDbEntity
  8
0
  6
Continuous
 62
     8
370
    25
100
AcDbSpline
210
0.0
220
0.0
230
1.0
 70
     8
 71
     3
 72
    29
 73
    25
 74
     0
 42
0.000000001
 43
0.00000001
 40
0.0
 40
0.0
 40
0.0
 40
0.0
 40
0.0179787210198753
 40
0.0359236225443679
 40
0.0538468061358013
 40
0.0717596225568097
 40
0.0896728485450899
 40
0.1075968508500155
 40
0.1255417222733666
 40
0.1435173827970055
 40
0.2140606316781816
 40
0.2845870776159768
 40
0.3546046886305637
 40
0.4245921534415755
 40
0.4947488177018631
 40
0.5648985517623399
 40
0.6358128121611101
 40
0.7067552660055182
 40
0.7790648870183972
 40
0.8513929933779416
 40
0.888556318565771
 40
0.9256483958352747
 40
0.9627703485026518
 40
1.0
 40
1.0
 40
1.0
 40
1.0
 10
747.7543713367709
 20
187.8744924922497
 30
0.0
 10
747.7290028490346
 20
187.882349271531
 30
0.0
 10
747.6783135938339
 20
187.8980480508268
 30
0.0
 10
747.5911515778113
 20
187.9214653980922
 30
0.0
 10
747.4960106047874
 20
187.9446915977086
 30
0.0
 10
747.3921047356331
 20
187.9677039369223
 30
0.0
 10
747.2796520941422
 20
187.9905003836383
 30
0.0
 10
747.1585837563149
 20
188.0130931761696
 30
0.0
 10
747.0288872232661
 20
188.0355053990292
 30
0.0
 10
746.7558062071823
 20
188.0794626104776
 30
0.0
 10
746.2868140755976
 20
188.1439402000328
 30
0.0
 10
745.5416044015559
 20
188.2244318190982
 30
0.0
 10
744.6831493890429
 20
188.3003632539228
 30
0.0
 10
743.7192820894983
 20
188.3696909777746
 30
0.0
 10
742.6565647592519
 20
188.4334124485813
 30
0.0
 10
741.5002597863597
 20
188.4897194381877
 30
0.0
 10
740.2604287738111
 20
188.5395968725156
 30
0.0
 10
738.9394383879671
 20
188.5811209288719
 30
0.0
 10
737.552678952027
 20
188.6151865347188
 30
0.0
 10
736.3458893286723
 20
188.6351953037454
 30
0.0
 10
735.3580114402321
 20
188.6469853315886
 30
0.0
 10
734.6013431007765
 20
188.6533018437499
 30
0.0
 10
733.8401980094986
 20
188.6576116502916
 30
0.0
 10
733.3310383503841
 20
188.6580190241181
 30
0.0
 10
733.0760897601245
 20
188.6582230060732
 30
0.0
  0
SPLINE
  5
16F
330
1F
100
AcDbEntity
  8
0
  6
Continuous
 62
     8
370
    25
100
AcDbSpline
210
0.0
220
0.0
230
1.0
 70
     8
 71
     3
 72
    25
 73
    21
 74
     0
 42
0.000000001
 43
0.00000001
 40
0.0
 40
0.0
 40
0.0
 40
0.0
 40
0.0208284208522648
 40
0.0413926193803879
 40
0.0616987305196064
 40
0.081778639564979
 40
0.1124452278436586
 40
0.1431083547336837
 40
0.2146365344633833
 40
0.2861188779684394
 40
0.4288937019570254
 40
0.5716169955303967
 40
0.6430189706574024
 40
0.7144554258578109
 40
0.7858410386449013
 40
0.857230327494258
 40
0.8929612244156977
 40
0.9286113047754324
 40
0.964261591943414
 40
1.0
 40
1.0
 40
1.0
 40
1.0
 10
733.1336911696178
 20
556.7544794729147
 30
0.0
 10
733.276437743589
 20
556.7546932186672
 30
0.0
 10
733.5601200566246
 20
556.7551179986655
 30
0.0
 10
733.9825719557582
 20
556.7565911397354
 30
0.0
 10
734.3991767592642
 20
556.758205871297
 30
0.0
 10
734.883593835186
 20
556.7610961743422
 30
0.0
 10
735.4363918935563
 20
556.7658999973164
 30
0.0
 10
736.3323124739464
 20
556.7759879815289
 30
0.0
 10
737.4874687080439
 20
556.7938356604981
 30
0.0
 10
739.3304525279544
 20
556.8356420898855
 30
0.0
 10
741.4968618233231
 20
556.9075058202811
 30
0.0
 10
743.392201977938
 20
557.0045064945629
 30
0.0
 10
744.7015200464591
 20
557.0938416801346
 30
0.0
 10
745.5725698342163
 20
557.1670773275252
 30
0.0
 10
746.3238459938798
 20
557.244425293357
 30
0.0
 10
746.8442291053552
 20
557.3130356609977
 30
0.0
 10
747.1941535377632
 20
557.3690976826396
 30
0.0
 10
747.4221330423421
 20
557.4118929566775
 30
0.0
 10
747.6184621632445
 20
557.4555132459211
 30
0.0
 10
747.7199952621946
 20
557.4850318490503
 30
0.0
 10
747.7708244769619
 20
557.4998093692246
 30
0.0
  0
SPLINE
  5
170
330
1F
100
AcDbEntity
  8
0
  6
Continuous
 62
     8
370
    25
100
AcDbSpline
210
0.0
220
0.0
230
1.0
 70
     8
 71
     3
 72
    29
 73
    25
 74
     0
 42
0.000000001
 43
0.00000001
 40
0.0
 40
0.0
 40
0.0
 40
0.0
 40
0.0179782995056511
 40
0.0359229758437095
 40
0.053846049720503
 40
0.071758812518621
 40
0.0896719959959103
 40
0.1075959289825065
 40
0.1255406670609808
 40
0.1435160896532323
 40
0.214062255516392
 40
0.2845921352393636
 40
0.3546135885585998
 40
0.4246055384233812
 40
0.4947652428351582
 40
0.5649188592469964
 40
0.635836117585094
 40
0.7067786776216071
 40
0.7790835525884668
 40
0.851410205092322
 40
0.888570772050217
 40
0.9256593026777877
 40
0.9627764742788484
 40
1.0
 40
1.0
 40
1.0
 40
1.0
 10
733.8723884553067
 20
571.3791931801063
 30
0.0
 10
733.8650037246696
 20
571.3539441113247
 30
0.0
 10
733.8502480743812
 20
571.3034931947831
 30
0.0
 10
733.8282347196927
 20
571.2167394039411
 30
0.0
 10
733.8064009426494
 20
571.1220412690411
 30
0.0
 10
733.7847686729017
 20
571.0186163457507
 30
0.0
 10
733.7633402300014
 20
570.9066819033201
 30
0.0
 10
733.7421037470654
 20
570.7861697074577
 30
0.0
 10
733.7210366476079
 20
570.6570676837437
 30
0.0
 10
733.679711424093
 20
570.3852262366592
 30
0.0
 10
733.6190670029296
 20
569.9183377175038
 30
0.0
 10
733.5433743980312
 20
569.1763967995606
 30
0.0
 10
733.4719198207328
 20
568.321616895329
 30
0.0
 10
733.4066936707428
 20
567.3617643153433
 30
0.0
 10
733.3466833488897
 20
566.3033411565146
 30
0.0
 10
733.293646941888
 20
565.1515461659476
 30
0.0
 10
733.2465589195049
 20
563.9163582622991
 30
0.0
 10
733.2073249491258
 20
562.6001284846689
 30
0.0
 10
733.1750197707869
 20
561.2180892841578
 30
0.0
 10
733.1560252450014
 20
560.0151425798703
 30
0.0
 10
733.1447413393397
 20
559.030200944244
 30
0.0
 10
733.1386531894129
 20
558.2757005716571
 30
0.0
 10
733.1344277559699
 20
557.516643324498
 30
0.0
 10
733.1339369324642
 20
557.0087762802534
 30
0.0
 10
733.1336911696178
 20
556.7544794729147
 30
0.0
  0
SPLINE
  5
171
330
1F
100
AcDbEntity
  8
0
  6
Continuous
 62
     8
370
    25
100
AcDbSpline
210
0.0
220
0.0
230
1.0
 70
     8
 71
     3
 72
    28
 73
    24
 74
     0
 42
0.000000001
 43
0.00000001
 40
0.0
 40
0.0
 40
0.0
 40
0.0
 40
0.0213747286314244
 40
0.0427988977353139
 40
0.0642546560771124
 40
0.0857600930113447
 40
0.1073302826761431
 40
0.128980366832094
 40
0.1507242177874457
 40
0.2233815458064265
 40
0.2960184963937807
 40
0.3666420926915301
 40
0.4372424082928815
 40
0.506770579118023
 40
0.5763114232507753
 40
0.645717036816556
 40
0.7151190866902886
 40
0.7853929981733314
 40
0.8556575050622092
 40
0.8917905740372795
 40
0.9278350627802741
 40
0.9638746689006986
 40
1.0
 40
1.0
 40
1.0
 40
1.0
 10
424.9727033098246
 20
556.7596778385475
 30
0.0
 10
424.9633951493295
 20
556.9049656770983
 30
0.0
 10
424.9447572982483
 20
557.1958774098993
 30
0.0
 10
424.9156573024509
 20
557.6321232693216
 30
0.0
 10
424.8867856164576
 20
558.0684529963811
 30
0.0
 10
424.8577778525806
 20
558.504573977129
 30
0.0
 10
424.8288319330352
 20
558.9404358539034
 30
0.0
 10
424.7999716182576
 20
559.3759625273353
 30
0.0
 10
424.7490875456217
 20
560.1497868105996
 30
0.0
 10
424.6778525437816
 20
561.2491763913275
 30
0.0
 10
424.5884381487677
 20
562.6258722602863
 30
0.0
 10
424.5050843149683
 20
563.9334411858491
 30
0.0
 10
424.4272106478575
 20
565.1557111342928
 30
0.0
 10
424.3560835634905
 20
566.2950035933874
 30
0.0
 10
424.2909782304609
 20
567.3420801718906
 30
0.0
 10
424.2333188769543
 20
568.2935084998918
 30
0.0
 10
424.182207585055
 20
569.1442861171521
 30
0.0
 10
424.1393000067506
 20
569.8859910387338
 30
0.0
 10
424.1097121600081
 20
570.4088420690588
 30
0.0
 10
424.0906755922327
 20
570.7657321209178
 30
0.0
 10
424.0785507331727
 20
571.0022281927982
 30
0.0
 10
424.0684136337119
 20
571.2067349110166
 30
0.0
 10
424.0636604317508
 20
571.3134068606902
 30
0.0
 10
424.0612810075978
 20
571.3668061935163
 30
0.0
  0
SPLINE
  5
172
330
1F
100
AcDbEntity
  8
0
  6
Continuous
 62
     8
370
    25
100
AcDbSpline
210
0.0
220
0.0
230
1.0
 70
     8
 71
     3
 72
    21
 73
    17
 74
     0
 42
0.000000001
 43
0.00000001
 40
0.0
 40
0.0
 40
0.0
 40
0.0
 40
0.0143381263159323
 40
0.0428157808149837
 40
0.0854311824716281
 40
0.1421815592374281
 40
0.2173431746727031
 40
0.2845636504801502
 40
0.4341061654479431
 40
0.5695473239187082
 40
0.7156928766305919
 40
0.8554881141689988
 40
0.8918019069025035
 40
0.927991634796558
 40
0.9640575696355071
 40
1.0
 40
1.0
 40
1.0
 40
1.0
 10
424.9727046747714
 20
556.7596765198177
 30
0.0
 10
424.8747104042574
 20
556.7664976732434
 30
0.0
 10
424.5820849164494
 20
556.7868666533698
 30
0.0
 10
423.9984681521937
 20
556.8251806382575
 30
0.0
 10
423.1277570919064
 20
556.882390958386
 30
0.0
 10
421.948901006536
 20
556.9594464545253
 30
0.0
 10
420.6276450274701
 20
557.0457816451709
 30
0.0
 10
418.7496765805118
 20
557.1674453096758
 30
0.0
 10
416.6155960250346
 20
557.303443415279
 30
0.0
 10
414.332998283354
 20
557.4465145786924
 30
0.0
 10
412.4946667930442
 20
557.5575741839576
 30
0.0
 10
411.4509917494601
 20
557.6176891538198
 30
0.0
 10
410.9269626354227
 20
557.6459259100992
 30
0.0
 10
410.6942949838643
 20
557.6579433017396
 30
0.0
 10
410.4949940696451
 20
557.6677051849135
 30
0.0
 10
410.3923490825701
 20
557.6721817578316
 30
0.0
 10
410.3411146143277
 20
557.6744162053145
 30
0.0
  0
ENDSEC
  0
SECTION
  2
OBJECTS
  0
DICTIONARY
  5
C
330
0
100
AcDbDictionary
281
     1
  3
ACAD_GROUP
350
D
  3
ACAD_LAYOUT
350
1A
  3
ACAD_MLINESTYLE
350
17
  3
ACAD_PLOTSETTINGS
350
19
  3
ACAD_PLOTSTYLENAME
350
E
  3
ACAD_SCALELIST
350
47
  0
DICTIONARY
  5
D
102
{ACAD_REACTORS
330
C
102
}
330
C
100
AcDbDictionary
281
     1
  0
DICTIONARY
  5
1A
102
{ACAD_REACTORS
330
C
102
}
330
C
100
AcDbDictionary
281
     1
  3
Layout1
350
1E
  3
Layout2
350
26
  3
Model
350
22
  0
DICTIONARY
  5
17
102
{ACAD_REACTORS
330
C
102
}
330
C
100
AcDbDictionary
281
     1
  3
Standard
350
18
  0
DICTIONARY
  5
19
102
{ACAD_REACTORS
330
C
102
}
330
C
100
AcDbDictionary
281
     1
  0
ACDBDICTIONARYWDFLT
  5
E
102
{ACAD_REACTORS
330
C
102
}
330
C
100
AcDbDictionary
281
     1
  3
Normal
350
F
100
AcDbDictionaryWithDefault
340
F
  0
DICTIONARY
  5
47
102
{ACAD_REACTORS
330
C
102
}
330
C
100
AcDbDictionary
281
     1
  3
A0
350
48
  3
A1
350
49
  3
A2
350
4A
  3
A3
350
4B
  3
A4
350
4C
  3
A5
350
4D
  3
A6
350
4E
  3
A7
350
4F
  3
A8
350
50
  3
A9
350
51
  3
B0
350
52
  3
B1
350
53
  3
B2
350
54
  3
B3
350
55
  3
B4
350
56
  3
B5
350
57
  3
B6
350
58
  3
B7
350
59
  3
B8
350
5A
  3
B9
350
5B
  3
C0
350
5C
  3
C1
350
5D
  3
C2
350
5E
  3
C3
350
5F
  3
C4
350
60
  3
C5
350
61
  3
C6
350
62
  3
C7
350
63
  3
C8
350
64
  3
C9
350
65
  3
D0
350
66
  3
D1
350
67
  3
D2
350
68
  0
LAYOUT
  5
1E
102
{ACAD_REACTORS
330
1A
102
}
330
1A
100
AcDbPlotSettings
  1

  2
none_device
  4

  6

 40
0.0
 41
0.0
 42
0.0
 43
0.0
 44
0.0
 45
0.0
 46
0.0
 47
0.0
 48
0.0
 49
0.0
140
0.0
141
0.0
142
1.0
143
1.0
 70
   688
 72
     1
 73
     0
 74
     5
  7

 75
    16
147
1.0
148
0.0
149
0.0
100
AcDbLayout
  1
Layout1
 70
     1
 71
     1
 10
0.0
 20
0.0
 11
420.0
 21
297.0
 12
0.0
 22
0.0
 32
0.0
 14
1.0000000000E+20
 24
1.0000000000E+20
 34
1.0000000000E+20
 15
-1.0000000000E+20
 25
-1.0000000000E+20
 35
-1.0000000000E+20
146
0.0
 13
0.0
 23
0.0
 33
0.0
 16
1.0
 26
0.0
 36
0.0
 17
0.0
 27
1.0
 37
0.0
 76
     0
330
1B
  0
LAYOUT
  5
26
102
{ACAD_REACTORS
330
1A
102
}
330
1A
100
AcDbPlotSettings
  1

  2
none_device
  4

  6

 40
0.0
 41
0.0
 42
0.0
 43
0.0
 44
0.0
 45
0.0
 46
0.0
 47
0.0
 48
0.0
 49
0.0
140
0.0
141
0.0
142
1.0
143
1.0
 70
   688
 72
     1
 73
     0
 74
     5
  7

 75
    16
147
1.0
148
0.0
149
0.0
100
AcDbLayout
  1
Layout2
 70
     1
 71
     2
 10
0.0
 20
0.0
 11
0.0
 21
0.0
 12
0.0
 22
0.0
 32
0.0
 14
0.0
 24
0.0
 34
0.0
 15
0.0
 25
0.0
 35
0.0
146
0.0
 13
0.0
 23
0.0
 33
0.0
 16
1.0
 26
0.0
 36
0.0
 17
0.0
 27
1.0
 37
0.0
 76
     0
330
23
  0
LAYOUT
  5
22
102
{ACAD_REACTORS
330
1A
102
}
330
1A
100
AcDbPlotSettings
  1

  2
none_device
  4
Letter_(8.50_x_11.00_Inches)
  6

 40
6.35
 41
6.35
 42
6.35000508
 43
6.35000508
 44
215.9
 45
279.4
 46
0.0
 47
0.0
 48
0.0
 49
0.0
140
0.0
141
0.0
142
1.0
143
1.0
 70
  1712
 72
     1
 73
     0
 74
     0
  7

 75
     0
147
1.0
148
0.0
149
0.0
100
AcDbLayout
  1
Model
 70
     1
 71
     0
 10
0.0
 20
0.0
 11
1000.0
 21
700.0
 12
0.0
 22
0.0
 32
0.0
 14
0.0
 24
0.0
 34
0.0
 15
1000.0
 25
700.0
 35
0.0
146
0.0
 13
0.0
 23
0.0
 33
0.0
 16
1.0
 26
0.0
 36
0.0
 17
0.0
 27
1.0
 37
0.0
 76
     0
330
1F
331
29
  0
MLINESTYLE
  5
18
102
{ACAD_REACTORS
330
17
102
}
330
17
100
AcDbMlineStyle
  2
Standard
 70
     0
  3

 62
   256
 51
90.0
 52
90.0
 71
     2
 49
0.5
 62
   256
  6
BYLAYER
 49
-0.5
 62
   256
  6
BYLAYER
  0
ACDBPLACEHOLDER
  5
F
102
{ACAD_REACTORS
330
E
102
}
330
E
  0
SCALE
  5
48
102
{ACAD_REACTORS
330
47
102
}
330
47
100
AcDbScale
 70
     0
300
1:1
140
1.0
141
1.0
290
     1
  0
SCALE
  5
49
102
{ACAD_REACTORS
330
47
102
}
330
47
100
AcDbScale
 70
     0
300
1:2
140
1.0
141
2.0
290
     0
  0
SCALE
  5
4A
102
{ACAD_REACTORS
330
47
102
}
330
47
100
AcDbScale
 70
     0
300
1:4
140
1.0
141
4.0
290
     0
  0
SCALE
  5
4B
102
{ACAD_REACTORS
330
47
102
}
330
47
100
AcDbScale
 70
     0
300
1:5
140
1.0
141
5.0
290
     0
  0
SCALE
  5
4C
102
{ACAD_REACTORS
330
47
102
}
330
47
100
AcDbScale
 70
     0
300
1:8
140
1.0
141
8.0
290
     0
  0
SCALE
  5
4D
102
{ACAD_REACTORS
330
47
102
}
330
47
100
AcDbScale
 70
     0
300
1:10
140
1.0
141
10.0
290
     0
  0
SCALE
  5
4E
102
{ACAD_REACTORS
330
47
102
}
330
47
100
AcDbScale
 70
     0
300
1:16
140
1.0
141
16.0
290
     0
  0
SCALE
  5
4F
102
{ACAD_REACTORS
330
47
102
}
330
47
100
AcDbScale
 70
     0
300
1:20
140
1.0
141
20.0
290
     0
  0
SCALE
  5
50
102
{ACAD_REACTORS
330
47
102
}
330
47
100
AcDbScale
 70
     0
300
1:30
140
1.0
141
30.0
290
     0
  0
SCALE
  5
51
102
{ACAD_REACTORS
330
47
102
}
330
47
100
AcDbScale
 70
     0
300
1:40
140
1.0
141
40.0
290
     0
  0
SCALE
  5
52
102
{ACAD_REACTORS
330
47
102
}
330
47
100
AcDbScale
 70
     0
300
1:50
140
1.0
141
50.0
290
     0
  0
SCALE
  5
53
102
{ACAD_REACTORS
330
47
102
}
330
47
100
AcDbScale
 70
     0
300
1:100
140
1.0
141
100.0
290
     0
  0
SCALE
  5
54
102
{ACAD_REACTORS
330
47
102
}
330
47
100
AcDbScale
 70
     0
300
2:1
140
2.0
141
1.0
290
     0
  0
SCALE
  5
55
102
{ACAD_REACTORS
330
47
102
}
330
47
100
AcDbScale
 70
     0
300
4:1
140
4.0
141
1.0
290
     0
  0
SCALE
  5
56
102
{ACAD_REACTORS
330
47
102
}
330
47
100
AcDbScale
 70
     0
300
8:1
140
8.0
141
1.0
290
     0
  0
SCALE
  5
57
102
{ACAD_REACTORS
330
47
102
}
330
47
100
AcDbScale
 70
     0
300
10:1
140
10.0
141
1.0
290
     0
  0
SCALE
  5
58
102
{ACAD_REACTORS
330
47
102
}
330
47
100
AcDbScale
 70
     0
300
100:1
140
100.0
141
1.0
290
     0
  0
SCALE
  5
59
102
{ACAD_REACTORS
330
47
102
}
330
47
100
AcDbScale
 70
     0
300
1/128" = 1'-0"
140
0.0078125
141
12.0
290
     0
  0
SCALE
  5
5A
102
{ACAD_REACTORS
330
47
102
}
330
47
100
AcDbScale
 70
     0
300
1/64" = 1'-0"
140
0.015625
141
12.0
290
     0
  0
SCALE
  5
5B
102
{ACAD_REACTORS
330
47
102
}
330
47
100
AcDbScale
 70
     0
300
1/32" = 1'-0"
140
0.03125
141
12.0
290
     0
  0
SCALE
  5
5C
102
{ACAD_REACTORS
330
47
102
}
330
47
100
AcDbScale
 70
     0
300
1/16" = 1'-0"
140
0.0625
141
12.0
290
     0
  0
SCALE
  5
5D
102
{ACAD_REACTORS
330
47
102
}
330
47
100
AcDbScale
 70
     0
300
3/32" = 1'-0"
140
0.09375
141
12.0
290
     0
  0
SCALE
  5
5E
102
{ACAD_REACTORS
330
47
102
}
330
47
100
AcDbScale
 70
     0
300
1/8" = 1'-0"
140
0.125
141
12.0
290
     0
  0
SCALE
  5
5F
102
{ACAD_REACTORS
330
47
102
}
330
47
100
AcDbScale
 70
     0
300
3/16" = 1'-0"
140
0.1875
141
12.0
290
     0
  0
SCALE
  5
60
102
{ACAD_REACTORS
330
47
102
}
330
47
100
AcDbScale
 70
     0
300
1/4" = 1'-0"
140
0.25
141
12.0
290
     0
  0
SCALE
  5
61
102
{ACAD_REACTORS
330
47
102
}
330
47
100
AcDbScale
 70
     0
300
3/8" = 1'-0"
140
0.375
141
12.0
290
     0
  0
SCALE
  5
62
102
{ACAD_REACTORS
330
47
102
}
330
47
100
AcDbScale
 70
     0
300
1/2" = 1'-0"
140
0.5
141
12.0
290
     0
  0
SCALE
  5
63
102
{ACAD_REACTORS
330
47
102
}
330
47
100
AcDbScale
 70
     0
300
3/4" = 1'-0"
140
0.75
141
12.0
290
     0
  0
SCALE
  5
64
102
{ACAD_REACTORS
330
47
102
}
330
47
100
AcDbScale
 70
     0
300
1" = 1'-0"
140
1.0
141
12.0
290
     0
  0
SCALE
  5
65
102
{ACAD_REACTORS
330
47
102
}
330
47
100
AcDbScale
 70
     0
300
1-1/2" = 1'-0"
140
1.5
141
12.0
290
     0
  0
SCALE
  5
66
102
{ACAD_REACTORS
330
47
102
}
330
47
100
AcDbScale
 70
     0
300
3" = 1'-0"
140
3.0
141
12.0
290
     0
  0
SCALE
  5
67
102
{ACAD_REACTORS
330
47
102
}
330
47
100
AcDbScale
 70
     0
300
6" = 1'-0"
140
6.0
141
12.0
290
     0
  0
SCALE
  5
68
102
{ACAD_REACTORS
330
47
102
}
330
47
100
AcDbScale
 70
     0
300
1'-0" = 1'-0"
140
12.0
141
12.0
290
     0
  0
ENDSEC
  0
EOF
