  0
SECTION
  2
HEADER
  9
$ACADVER
  1
AC1015
  9
$ACADMAINTVER
 70
     6
  9
$DWGCODEPAGE
  3
ANSI_1252
  9
$INSBASE
 10
0.0
 20
0.0
 30
0.0
  9
$EXTMIN
 10
0.0
 20
0.0
 30
0.0
  9
$EXTMAX
 10
1000.0
 20
700.0
 30
0.0
  9
$LIMMIN
 10
0.0
 20
0.0
  9
$LIMMAX
 10
1000.0
 20
700.0
  9
$ORTHOMODE
 70
     0
  9
$REGENMODE
 70
     1
  9
$FILLMODE
 70
     1
  9
$QTEXTMODE
 70
     0
  9
$MIRRTEXT
 70
     1
  9
$LTSCALE
 40
1.0
  9
$ATTMODE
 70
     1
  9
$TEXTSIZE
 40
5.0
  9
$TRACEWID
 40
1.0
  9
$TEXTSTYLE
  7
Standard
  9
$CLAYER
  8
0
  9
$CELTYPE
  6
ByLayer
  9
$CECOLOR
 62
   256
  9
$CELTSCALE
 40
1.0
  9
$DISPSILH
 70
     0
  9
$DIMSCALE
 40
1.0
  9
$DIMASZ
 40
6.0
  9
$DIMEXO
 40
1.0
  9
$DIMDLI
 40
3.75
  9
$DIMRND
 40
0.0
  9
$DIMDLE
 40
0.0
  9
$DIMEXE
 40
1.0
  9
$DIMTP
 40
0.0
  9
$DIMTM
 40
0.0
  9
$DIMTXT
 40
5.0
  9
$DIMCEN
 40
2.5
  9
$DIMTSZ
 40
0.0
  9
$DIMTOL
 70
     0
  9
$DIMLIM
 70
     0
  9
$DIMTIH
 70
     1
  9
$DIMTOH
 70
     1
  9
$DIMSE1
 70
     0
  9
$DIMSE2
 70
     0
  9
$DIMTAD
 70
     1
  9
$DIMZIN
 70
     0
  9
$DIMBLK
  1

  9
$DIMASO
 70
     1
  9
$DIMSHO
 70
     1
  9
$DIMPOST
  1

  9
$DIMAPOST
  1

  9
$DIMALT
 70
     0
  9
$DIMALTD
 70
     3
  9
$DIMALTF
 40
0.0393700787
  9
$DIMLFAC
 40
1.0
  9
$DIMTOFL
 70
     1
  9
$DIMTVP
 40
0.0
  9
$DIMTIX
 70
     0
  9
$DIMSOXD
 70
     0
  9
$DIMSAH
 70
     0
  9
$DIMBLK1
  1

  9
$DIMBLK2
  1

  9
$DIMSTYLE
  2
ISO-25
  9
$DIMCLRD
 70
     0
  9
$DIMCLRE
 70
     0
  9
$DIMCLRT
 70
     0
  9
$DIMTFAC
 40
1.0
  9
$DIMGAP
 40
1.524
  9
$DIMJUST
 70
     0
  9
$DIMSD1
 70
     0
  9
$DIMSD2
 70
     0
  9
$DIMTOLJ
 70
     0
  9
$DIMTZIN
 70
     0
  9
$DIMALTZ
 70
     0
  9
$DIMALTTZ
 70
     0
  9
$DIMUPT
 70
     0
  9
$DIMDEC
 70
     2
  9
$DIMTDEC
 70
     2
  9
$DIMALTU
 70
     2
  9
$DIMALTTD
 70
     3
  9
$DIMTXSTY
  7
Standard
  9
$DIMAUNIT
 70
     0
  9
$DIMADEC
 70
     2
  9
$DIMALTRND
 40
0.0
  9
$DIMAZIN
 70
     0
  9
$DIMDSEP
 70
    44
  9
$DIMATFIT
 70
     3
  9
$DIMFRAC
 70
     0
  9
$DIMLDRBLK
  1

  9
$DIMLUNIT
 70
     2
  9
$DIMLWD
 70
    -2
  9
$DIMLWE
 70
    -2
  9
$DIMTMOVE
 70
     0
  9
$LUNITS
 70
     2
  9
$LUPREC
 70
     2
  9
$SKETCHINC
 40
1.0
  9
$FILLETRAD
 40
10.0
  9
$AUNITS
 70
     0
  9
$AUPREC
 70
     2
  9
$MENU
  1
.
  9
$ELEVATION
 40
0.0
  9
$PELEVATION
 40
0.0
  9
$THICKNESS
 40
0.0
  9
$LIMCHECK
 70
     0
  9
$CHAMFERA
 40
0.0
  9
$CHAMFERB
 40
0.0
  9
$CHAMFERC
 40
0.0
  9
$CHAMFERD
 40
0.0
  9
$SKPOLY
 70
     0
  9
$TDCREATE
 40
2458582.62866875
  9
$TDUCREATE
 40
2458582.50366875
  9
$TDUPDATE
 40
2458582.628670012
  9
$TDUUPDATE
 40
2458582.503670012
  9
$TDINDWG
 40
0.0000000116
  9
$TDUSRTIMER
 40
0.0000000116
  9
$USRTIMER
 70
     1
  9
$ANGBASE
 50
0.0
  9
$ANGDIR
 70
     0
  9
$PDMODE
 70
     0
  9
$PDSIZE
 40
-1.0
  9
$PLINEWID
 40
0.0
  9
$SPLFRAME
 70
     0
  9
$SPLINETYPE
 70
     6
  9
$SPLINESEGS
 70
     8
  9
$HANDSEED
  5
109
  9
$SURFTAB1
 70
     6
  9
$SURFTAB2
 70
     6
  9
$SURFTYPE
 70
     6
  9
$SURFU
 70
     6
  9
$SURFV
 70
     6
  9
$UCSBASE
  2

  9
$UCSNAME
  2

  9
$UCSORG
 10
0.0
 20
0.0
 30
0.0
  9
$UCSXDIR
 10
1.0
 20
0.0
 30
0.0
  9
$UCSYDIR
 10
0.0
 20
1.0
 30
0.0
  9
$UCSORTHOREF
  2

  9
$UCSORTHOVIEW
 70
     0
  9
$UCSORGTOP
 10
0.0
 20
0.0
 30
0.0
  9
$UCSORGBOTTOM
 10
0.0
 20
0.0
 30
0.0
  9
$UCSORGLEFT
 10
0.0
 20
0.0
 30
0.0
  9
$UCSORGRIGHT
 10
0.0
 20
0.0
 30
0.0
  9
$UCSORGFRONT
 10
0.0
 20
0.0
 30
0.0
  9
$UCSORGBACK
 10
0.0
 20
0.0
 30
0.0
  9
$PUCSBASE
  2

  9
$PUCSNAME
  2

  9
$PUCSORG
 10
0.0
 20
0.0
 30
0.0
  9
$PUCSXDIR
 10
1.0
 20
0.0
 30
0.0
  9
$PUCSYDIR
 10
0.0
 20
1.0
 30
0.0
  9
$PUCSORTHOREF
  2

  9
$PUCSORTHOVIEW
 70
     0
  9
$PUCSORGTOP
 10
0.0
 20
0.0
 30
0.0
  9
$PUCSORGBOTTOM
 10
0.0
 20
0.0
 30
0.0
  9
$PUCSORGLEFT
 10
0.0
 20
0.0
 30
0.0
  9
$PUCSORGRIGHT
 10
0.0
 20
0.0
 30
0.0
  9
$PUCSORGFRONT
 10
0.0
 20
0.0
 30
0.0
  9
$PUCSORGBACK
 10
0.0
 20
0.0
 30
0.0
  9
$USERI1
 70
     0
  9
$USERI2
 70
     0
  9
$USERI3
 70
     0
  9
$USERI4
 70
     0
  9
$USERI5
 70
     0
  9
$USERR1
 40
0.0
  9
$USERR2
 40
0.0
  9
$USERR3
 40
0.0
  9
$USERR4
 40
0.0
  9
$USERR5
 40
0.0
  9
$WORLDVIEW
 70
     1
  9
$SHADEDGE
 70
     3
  9
$SHADEDIF
 70
    70
  9
$TILEMODE
 70
     1
  9
$MAXACTVP
 70
    64
  9
$PINSBASE
 10
0.0
 20
0.0
 30
0.0
  9
$PLIMCHECK
 70
     0
  9
$PEXTMIN
 10
1.0000000000E+20
 20
1.0000000000E+20
 30
1.0000000000E+20
  9
$PEXTMAX
 10
-1.0000000000E+20
 20
-1.0000000000E+20
 30
-1.0000000000E+20
  9
$PLIMMIN
 10
0.0
 20
0.0
  9
$PLIMMAX
 10
420.0
 20
297.0
  9
$UNITMODE
 70
     0
  9
$VISRETAIN
 70
     1
  9
$PLINEGEN
 70
     0
  9
$PSLTSCALE
 70
     1
  9
$TREEDEPTH
 70
  3020
  9
$CMLSTYLE
  2
Standard
  9
$CMLJUST
 70
     0
  9
$CMLSCALE
 40
20.0
  9
$PROXYGRAPHICS
 70
     1
  9
$MEASUREMENT
 70
     1
  9
$CELWEIGHT
370
    -1
  9
$ENDCAPS
280
     0
  9
$JOINSTYLE
280
     0
  9
$LWDISPLAY
290
     1
  9
$INSUNITS
 70
     4
  9
$HYPERLINKBASE
  1

  9
$STYLESHEET
  1

  9
$XEDIT
290
     1
  9
$CEPSNTYPE
380
     0
  9
$PSTYLEMODE
290
     1
  9
$FINGERPRINTGUID
  2
{60834AE4-95BE-43E8-906C-E0F4A501D89A}
  9
$VERSIONGUID
  2
{FAEB1C32-E019-11D5-929B-00C0DF256EC4}
  9
$EXTNAMES
290
     1
  9
$PSVPSCALE
 40
0.0
  9
$OLESTARTUP
290
     0
  0
ENDSEC
  0
SECTION
  2
CLASSES
  0
CLASS
  1
ACDBDICTIONARYWDFLT
  2
AcDbDictionaryWithDefault
  3
ObjectDBX Classes
 90
        0
280
     0
281
     0
  0
CLASS
  1
VISUALSTYLE
  2
AcDbVisualStyle
  3
ObjectDBX Classes
 90
     4095
280
     0
281
     0
  0
CLASS
  1
MATERIAL
  2
AcDbMaterial
  3
ObjectDBX Classes
 90
     1153
280
     0
281
     0
  0
CLASS
  1
SCALE
  2
AcDbScale
  3
ObjectDBX Classes
 90
     1153
280
     0
281
     0
  0
CLASS
  1
TABLESTYLE
  2
AcDbTableStyle
  3
ObjectDBX Classes
 90
     4095
280
     0
281
     0
  0
CLASS
  1
MLEADERSTYLE
  2
AcDbMLeaderStyle
  3
ACDB_MLEADERSTYLE_CLASS
 90
     4095
280
     0
281
     0
  0
CLASS
  1
SUN
  2
AcDbSun
  3
SCENEOE
 90
     1153
280
     0
281
     0
  0
CLASS
  1
ACDBPLACEHOLDER
  2
AcDbPlaceHolder
  3
ObjectDBX Classes
 90
        0
280
     0
281
     0
  0
CLASS
  1
LAYOUT
  2
AcDbLayout
  3
ObjectDBX Classes
 90
        0
280
     0
281
     0
  0
ENDSEC
  0
SECTION
  2
TABLES
  0
TABLE
  2
VPORT
  5
8
330
0
100
AcDbSymbolTable
 70
     1
  0
VPORT
  5
29
330
8
100
AcDbSymbolTableRecord
100
AcDbViewportTableRecord
  2
*Active
 70
     0
 10
0.0
 20
0.0
 11
1.0
 21
1.0
 12
500.0
 22
350.0
 13
0.0
 23
0.0
 14
10.0
 24
10.0
 15
10.0
 25
10.0
 16
0.0
 26
0.0
 36
1.0
 17
0.0
 27
0.0
 37
0.0
 40
700.0
 41
1.4285714286
 42
50.0
 43
0.0
 44
0.0
 50
0.0
 51
0.0
 71
     0
 72
  2000
 73
     1
 74
     3
 75
     0
 76
     0
 77
     0
 78
     0
281
     0
 65
     1
110
0.0
120
0.0
130
0.0
111
1.0
121
0.0
131
0.0
112
0.0
122
1.0
132
0.0
 79
     0
146
0.0
  0
ENDTAB
  0
TABLE
  2
LTYPE
  5
5
330
0
100
AcDbSymbolTable
 70
     6
  0
LTYPE
  5
14
330
5
100
AcDbSymbolTableRecord
100
AcDbLinetypeTableRecord
  2
ByBlock
 70
     0
  3

 72
    65
 73
     0
 40
0.0
  0
LTYPE
  5
15
330
5
100
AcDbSymbolTableRecord
100
AcDbLinetypeTableRecord
  2
ByLayer
 70
     0
  3

 72
    65
 73
     0
 40
0.0
  0
LTYPE
  5
16
330
5
100
AcDbSymbolTableRecord
100
AcDbLinetypeTableRecord
  2
Continuous
 70
     0
  3
Solid line
 72
    65
 73
     0
 40
0.0
  0
LTYPE
  5
6E
330
5
100
AcDbSymbolTableRecord
100
AcDbLinetypeTableRecord
  2
HIDDEN
 70
     0
  3
Hidden __ __ __ __ __ __ __ __ __ __ __ __ __ __
 72
    65
 73
     2
 40
1.905
 49
1.27
 74
     0
 49
-0.635
 74
     0
  0
LTYPE
  5
6F
330
5
100
AcDbSymbolTableRecord
100
AcDbLinetypeTableRecord
  2
PHANTOM
 70
     0
  3
Phantom ______  __  __  ______  __  __  ______
 72
    65
 73
     6
 40
12.7
 49
6.35
 74
     0
 49
-1.27
 74
     0
 49
1.27
 74
     0
 49
-1.27
 74
     0
 49
1.27
 74
     0
 49
-1.27
 74
     0
  0
LTYPE
  5
70
330
5
100
AcDbSymbolTableRecord
100
AcDbLinetypeTableRecord
  2
CENTER
 70
     0
  3
Center ____ _ ____ _ ____ _ ____ _ ____ _ ____
 72
    65
 73
     4
 40
10.16
 49
6.35
 74
     0
 49
-1.27
 74
     0
 49
1.27
 74
     0
 49
-1.27
 74
     0
  0
LTYPE
  5
71
330
5
100
AcDbSymbolTableRecord
100
AcDbLinetypeTableRecord
  2
CENTERX2
 70
     0
  3
Center (2x) ________  __  ________  __  _____
 72
    65
 73
     4
 40
20.32
 49
12.7
 74
     0
 49
-2.54
 74
     0
 49
2.54
 74
     0
 49
-2.54
 74
     0
  0
LTYPE
  5
72
330
5
100
AcDbSymbolTableRecord
100
AcDbLinetypeTableRecord
  2
DOT2
 70
     0
  3
Dot (.5x) ........................................
 72
    65
 73
     2
 40
0.635
 49
0.0
 74
     0
 49
-0.635
 74
     0
  0
ENDTAB
  0
TABLE
  2
LAYER
  5
2
330
0
100
AcDbSymbolTable
 70
     2
  0
LAYER
  5
10
330
2
100
AcDbSymbolTableRecord
100
AcDbLayerTableRecord
  2
0
 70
     0
 62
     7
  6
Continuous
370
    -3
390
F
  0
LAYER
  5
73
330
2
100
AcDbSymbolTableRecord
100
AcDbLayerTableRecord
  2
TABLE_BL1
 70
     0
 62
   179
  6
Continuous
370
    -3
390
F
  0
ENDTAB
  0
TABLE
  2
STYLE
  5
3
330
0
100
AcDbSymbolTable
 70
     1
  0
STYLE
  5
11
330
3
100
AcDbSymbolTableRecord
100
AcDbTextStyleTableRecord
  2
Standard
 70
     0
 40
0.0
 41
1.0
 50
0.0
 71
     0
 42
5.0
  3
txt
  4

  0
ENDTAB
  0
TABLE
  2
VIEW
  5
6
330
0
100
AcDbSymbolTable
 70
     0
  0
ENDTAB
  0
TABLE
  2
UCS
  5
7
330
0
100
AcDbSymbolTable
 70
     0
  0
ENDTAB
  0
TABLE
  2
APPID
  5
9
330
0
100
AcDbSymbolTable
 70
     1
  0
APPID
  5
12
330
9
100
AcDbSymbolTableRecord
100
AcDbRegAppTableRecord
  2
ACAD
 70
     0
  0
ENDTAB
  0
TABLE
  2
DIMSTYLE
  5
A
330
0
100
AcDbSymbolTable
 70
     1
100
AcDbDimStyleTable
  0
DIMSTYLE
105
27
330
A
100
AcDbSymbolTableRecord
100
AcDbDimStyleTableRecord
  2
ISO-25
 70
     0
 41
2.5
 42
0.625
 43
3.75
 44
1.25
 73
     0
 74
     0
 77
     1
 78
     8
140
2.5
141
2.5
143
0.0393700787
147
0.625
171
     3
172
     1
178
     0
271
     2
272
     2
274
     3
278
    44
283
     0
284
     8
340
11
  0
ENDTAB
  0
TABLE
  2
BLOCK_RECORD
  5
1
330
0
100
AcDbSymbolTable
 70
     1
  0
BLOCK_RECORD
  5
1F
330
1
100
AcDbSymbolTableRecord
100
AcDbBlockTableRecord
  2
*Model_Space
340
22
  0
BLOCK_RECORD
  5
1B
330
1
100
AcDbSymbolTableRecord
100
AcDbBlockTableRecord
  2
*Paper_Space
340
1E
  0
BLOCK_RECORD
  5
23
330
1
100
AcDbSymbolTableRecord
100
AcDbBlockTableRecord
  2
*Paper_Space0
340
26
  0
ENDTAB
  0
ENDSEC
  0
SECTION
  2
BLOCKS
  0
BLOCK
  5
20
330
1F
100
AcDbEntity
  8
0
100
AcDbBlockBegin
  2
*Model_Space
 70
     0
 10
0.0
 20
0.0
 30
0.0
  3
*Model_Space
  1

  0
ENDBLK
  5
21
330
1F
100
AcDbEntity
  8
0
100
AcDbBlockEnd
  0
BLOCK
  5
1C
330
1B
100
AcDbEntity
 67
     1
  8
0
100
AcDbBlockBegin
  2
*Paper_Space
 70
     0
 10
0.0
 20
0.0
 30
0.0
  3
*Paper_Space
  1

  0
ENDBLK
  5
1D
330
1B
100
AcDbEntity
 67
     1
  8
0
100
AcDbBlockEnd
  0
BLOCK
  5
24
330
23
100
AcDbEntity
  8
0
100
AcDbBlockBegin
  2
*Paper_Space0
 70
     0
 10
0.0
 20
0.0
 30
0.0
  3
*Paper_Space0
  1

  0
ENDBLK
  5
25
330
23
100
AcDbEntity
  8
0
100
AcDbBlockEnd
  0
ENDSEC
  0
SECTION
  2
ENTITIES
  0
SPLINE
  5
74
330
1F
100
AcDbEntity
  8
0
  6
Continuous
 62
     7
370
    25
100
AcDbSpline
210
0.0
220
0.0
230
1.0
 70
     8
 71
     3
 72
    29
 73
    25
 74
     0
 42
0.000000001
 43
0.00000001
 40
0.0
 40
0.0
 40
0.0
 40
0.0
 40
0.0349321406882635
 40
0.0633980643159914
 40
0.0838985515737896
 40
0.1410481598295769
 40
0.1993926718331193
 40
0.2579538570990188
 40
0.3167358876867428
 40
0.3756685440136572
 40
0.4347110736298802
 40
0.4938368192040538
 40
0.5530116495173842
 40
0.6120983013386025
 40
0.6710428299972758
 40
0.7298261731686603
 40
0.7884258360426927
 40
0.8467958145206173
 40
0.8655669647427027
 40
0.8834823951604175
 40
0.9012873219477364
 40
0.9267778521638325
 40
0.9604934909203237
 40
1.0
 40
1.0
 40
1.0
 40
1.0
 10
644.7822100105391
 20
404.2355822995041
 30
0.0
 10
645.3152573391488
 20
405.4893953550212
 30
0.0
 10
646.2826806964591
 20
407.7649306977668
 30
0.0
 10
647.166507755799
 20
410.9199063902175
 30
0.0
 10
648.0005720818796
 20
414.9702891835744
 30
0.0
 10
648.4248879976057
 20
420.2847568454354
 30
0.0
 10
647.7348663430536
 20
427.0680536131275
 30
0.0
 10
645.7984767372582
 20
433.6745121704992
 30
0.0
 10
642.6734648271105
 20
439.834392795753
 30
0.0
 10
638.4572686267697
 20
445.3297622006103
 30
0.0
 10
633.2903583608132
 20
449.9629866442814
 30
0.0
 10
627.3487274511929
 20
453.5677380354106
 30
0.0
 10
620.84156943264
 20
456.0129677283022
 30
0.0
 10
614.001773352908
 20
457.2126456844146
 30
0.0
 10
607.0736649716525
 20
457.1308193851305
 30
0.0
 10
600.2974135689467
 20
455.7796335020753
 30
0.0
 10
593.9061350422264
 20
453.2182698840862
 30
0.0
 10
589.4114730302778
 20
450.3681703590424
 30
0.0
 10
586.5450628805249
 20
448.0206608227465
 30
0.0
 10
584.9817814321293
 20
446.5823163187079
 30
0.0
 10
583.3183206876012
 20
444.8713298828526
 30
0.0
 10
581.3803900504656
 20
442.5779306897861
 30
0.0
 10
579.1490786549294
 20
439.4307274095928
 30
0.0
 10
577.8590243040035
 20
436.8819693125454
 30
0.0
 10
577.1629843019788
 20
435.5068043129035
 30
0.0
  0
SPLINE
  5
75
330
1F
100
AcDbEntity
  8
0
  6
Continuous
 62
     7
370
    25
100
AcDbSpline
210
0.0
220
0.0
230
1.0
 70
     8
 71
     3
 72
    29
 73
    25
 74
     0
 42
0.000000001
 43
0.00000001
 40
0.0
 40
0.0
 40
0.0
 40
0.0
 40
0.0349321406882635
 40
0.0633980643159913
 40
0.0838985515737894
 40
0.1410481598295768
 40
0.1993926718331193
 40
0.2579538570990187
 40
0.3167358876867428
 40
0.3756685440136572
 40
0.4347110736298802
 40
0.4938368192040538
 40
0.5530116495173842
 40
0.6120983013386023
 40
0.6710428299972756
 40
0.7298261731686602
 40
0.7884258360426926
 40
0.846795814520617
 40
0.8655669647427027
 40
0.8834823951604174
 40
0.9012873219477363
 40
0.9267778521638323
 40
0.9604934909203237
 40
0.9999999999999999
 40
0.9999999999999999
 40
0.9999999999999999
 40
0.9999999999999999
 10
577.1629843019788
 20
435.5068043129035
 30
0.0
 10
576.6299369733689
 20
434.2529912573863
 30
0.0
 10
575.6625136160587
 20
431.9774559146408
 30
0.0
 10
574.7786865567189
 20
428.82248022219
 30
0.0
 10
573.9446222306384
 20
424.7720974288332
 30
0.0
 10
573.5203063149122
 20
419.4576297669722
 30
0.0
 10
574.2103279694644
 20
412.67433299928
 30
0.0
 10
576.1467175752597
 20
406.0678744419083
 30
0.0
 10
579.2717294854074
 20
399.9079938166545
 30
0.0
 10
583.4879256857481
 20
394.4126244117973
 30
0.0
 10
588.6548359517045
 20
389.779399968126
 30
0.0
 10
594.5964668613251
 20
386.174648576997
 30
0.0
 10
601.1036248798779
 20
383.7294188841053
 30
0.0
 10
607.94342095961
 20
382.529740927993
 30
0.0
 10
614.8715293408653
 20
382.611567227277
 30
0.0
 10
621.6477807435712
 20
383.9627531103322
 30
0.0
 10
628.0390592702913
 20
386.5241167283214
 30
0.0
 10
632.5337212822401
 20
389.374216253365
 30
0.0
 10
635.4001314319928
 20
391.721725789661
 30
0.0
 10
636.9634128803885
 20
393.1600702936995
 30
0.0
 10
638.6268736249168
 20
394.8710567295549
 30
0.0
 10
640.5648042620522
 20
397.1644559226215
 30
0.0
 10
642.7961156575883
 20
400.3116592028147
 30
0.0
 10
644.0861700085143
 20
402.8604172998621
 30
0.0
 10
644.7822100105391
 20
404.2355822995041
 30
0.0
  0
SPLINE
  5
76
330
1F
100
AcDbEntity
  8
0
  6
Continuous
 62
     7
370
    25
100
AcDbSpline
210
0.0
220
0.0
230
1.0
 70
     8
 71
     3
 72
    29
 73
    25
 74
     0
 42
0.000000001
 43
0.00000001
 40
0.0
 40
0.0
 40
0.0
 40
0.0
 40
0.0349321406882635
 40
0.0633980643159914
 40
0.0838985515737896
 40
0.1410481598295769
 40
0.1993926718331194
 40
0.2579538570990188
 40
0.3167358876867429
 40
0.3756685440136572
 40
0.4347110736298801
 40
0.4938368192040536
 40
0.5530116495173844
 40
0.6120983013386024
 40
0.6710428299972759
 40
0.7298261731686605
 40
0.7884258360426929
 40
0.8467958145206171
 40
0.8655669647427024
 40
0.8834823951604177
 40
0.9012873219477365
 40
0.9267778521638322
 40
0.9604934909203237
 40
1.0
 40
1.0
 40
1.0
 40
1.0
 10
284.7821712896684
 20
404.2357767613652
 30
0.0
 10
285.3152186182782
 20
405.4895898168822
 30
0.0
 10
286.2826419755884
 20
407.7651251596278
 30
0.0
 10
287.1664690349284
 20
410.9201008520786
 30
0.0
 10
288.0005333610087
 20
414.9704836454355
 30
0.0
 10
288.4248492767351
 20
420.2849513072964
 30
0.0
 10
287.7348276221828
 20
427.0682480749886
 30
0.0
 10
285.7984380163876
 20
433.6747066323603
 30
0.0
 10
282.6734261062398
 20
439.8345872576141
 30
0.0
 10
278.4572299058991
 20
445.3299566624713
 30
0.0
 10
273.2903196399426
 20
449.9631811061425
 30
0.0
 10
267.3486887303221
 20
453.5679324972717
 30
0.0
 10
260.8415307117693
 20
456.0131621901634
 30
0.0
 10
254.0017346320372
 20
457.2128401462757
 30
0.0
 10
247.0736262507819
 20
457.1310138469916
 30
0.0
 10
240.2973748480759
 20
455.7798279639364
 30
0.0
 10
233.9060963213557
 20
453.2184643459473
 30
0.0
 10
229.411434309407
 20
450.3683648209036
 30
0.0
 10
226.5450241596544
 20
448.0208552846075
 30
0.0
 10
224.9817427112586
 20
446.5825107805691
 30
0.0
 10
223.3182819667305
 20
444.8715243447137
 30
0.0
 10
221.3803513295951
 20
442.5781251516471
 30
0.0
 10
219.1490399340588
 20
439.430921871454
 30
0.0
 10
217.8589855831327
 20
436.8821637744065
 30
0.0
 10
217.1629455811081
 20
435.5069987747645
 30
0.0
  0
SPLINE
  5
77
330
1F
100
AcDbEntity
  8
0
  6
Continuous
 62
     7
370
    25
100
AcDbSpline
210
0.0
220
0.0
230
1.0
 70
     8
 71
     3
 72
    29
 73
    25
 74
     0
 42
0.000000001
 43
0.00000001
 40
0.0
 40
0.0
 40
0.0
 40
0.0
 40
0.0349321406882635
 40
0.0633980643159913
 40
0.0838985515737894
 40
0.1410481598295768
 40
0.1993926718331192
 40
0.2579538570990187
 40
0.3167358876867428
 40
0.3756685440136571
 40
0.43471107362988
 40
0.4938368192040536
 40
0.5530116495173844
 40
0.6120983013386024
 40
0.6710428299972756
 40
0.72982617316866
 40
0.7884258360426926
 40
0.8467958145206169
 40
0.8655669647427027
 40
0.8834823951604175
 40
0.9012873219477364
 40
0.9267778521638323
 40
0.9604934909203237
 40
0.9999999999999999
 40
0.9999999999999999
 40
0.9999999999999999
 40
0.9999999999999999
 10
217.1629455811081
 20
435.5069987747645
 30
0.0
 10
216.6298982524983
 20
434.2531857192474
 30
0.0
 10
215.662474895188
 20
431.9776503765019
 30
0.0
 10
214.7786478358482
 20
428.822674684051
 30
0.0
 10
213.9445835097677
 20
424.7722918906942
 30
0.0
 10
213.5202675940415
 20
419.4578242288333
 30
0.0
 10
214.2102892485937
 20
412.6745274611412
 30
0.0
 10
216.146678854389
 20
406.0680689037695
 30
0.0
 10
219.2716907645368
 20
399.9081882785156
 30
0.0
 10
223.4878869648774
 20
394.4128188736584
 30
0.0
 10
228.654797230834
 20
389.7795944299872
 30
0.0
 10
234.5964281404544
 20
386.1748430388581
 30
0.0
 10
241.1035861590073
 20
383.7296133459664
 30
0.0
 10
247.9433822387393
 20
382.529935389854
 30
0.0
 10
254.8714906199948
 20
382.6117616891381
 30
0.0
 10
261.6477420227005
 20
383.9629475721933
 30
0.0
 10
268.0390205494207
 20
386.5243111901825
 30
0.0
 10
272.5336825613693
 20
389.3744107152261
 30
0.0
 10
275.4000927111223
 20
391.7219202515221
 30
0.0
 10
276.9633741595179
 20
393.1602647555606
 30
0.0
 10
278.6268349040461
 20
394.871251191416
 30
0.0
 10
280.5647655411815
 20
397.1646503844826
 30
0.0
 10
282.7960769367177
 20
400.3118536646758
 30
0.0
 10
284.0861312876438
 20
402.8606117617232
 30
0.0
 10
284.7821712896683
 20
404.2357767613652
 30
0.0
  0
LINE
  5
78
330
1F
100
AcDbEntity
  8
0
  6
Continuous
 62
     7
370
    25
100
AcDbLine
 10
596.2225971563
 20
478.1709857682
 30
0.0
 11
596.2225971563
 21
477.9613600943
 31
0.0
  0
LINE
  5
79
330
1F
100
AcDbEntity
  8
0
  6
Continuous
 62
     7
370
    25
100
AcDbLine
 10
625.7225971563
 20
477.9466183783
 30
0.0
 11
625.7225971563
 21
478.1709857682
 31
0.0
  0
LINE
  5
7A
330
1F
100
AcDbEntity
  8
0
  6
Continuous
 62
     7
370
    25
100
AcDbLine
 10
236.2225584354
 20
478.17118023
 30
0.0
 11
236.2225584354
 21
477.9613490851
 31
0.0
  0
LINE
  5
7B
330
1F
100
AcDbEntity
  8
0
  6
Continuous
 62
     7
370
    25
100
AcDbLine
 10
265.7225584354
 20
477.9466297114
 30
0.0
 11
265.7225584354
 21
478.17118023
 31
0.0
  0
ARC
  5
7C
330
1F
100
AcDbEntity
  8
0
  6
Continuous
 62
     7
370
    25
100
AcDbCircle
 10
610.9725971563
 20
419.8711933062
 30
0.0
 40
36.31056399417611
100
AcDbArc
 50
155.1813223123
 51
335.1813223292
  0
ARC
  5
7D
330
1F
100
AcDbEntity
  8
0
  6
Continuous
 62
     7
370
    25
100
AcDbCircle
 10
610.9725971563
 20
419.8711933062
 30
0.0
 40
36.31056399417611
100
AcDbArc
 50
335.1813223292
 51
155.1813223123
  0
ARC
  5
7E
330
1F
100
AcDbEntity
  8
0
  6
Continuous
 62
     7
370
    25
100
AcDbCircle
 10
250.9725584354
 20
419.8713877681
 30
0.0
 40
36.31056399417611
100
AcDbArc
 50
155.1813223123
 51
335.1813223292
  0
ARC
  5
7F
330
1F
100
AcDbEntity
  8
0
  6
Continuous
 62
     7
370
    25
100
AcDbCircle
 10
250.9725584354
 20
419.8713877681
 30
0.0
 40
36.31056399417611
100
AcDbArc
 50
335.1813223292
 51
155.1813223123
  0
SPLINE
  5
80
330
1F
100
AcDbEntity
  8
0
  6
Continuous
 62
     7
370
    25
100
AcDbSpline
210
0.0
220
0.0
230
1.0
 70
    24
 71
     3
 72
     9
 73
     5
 74
     0
 42
0.000000001
 43
0.00000001
 40
0.0
 40
0.0
 40
0.0
 40
0.0
 40
0.5599999999872227
 40
1.0
 40
1.0
 40
1.0
 40
1.0
 10
220.4884768643617
 20
396.6866077822846
 30
0.0
 10
220.33361561428
 20
396.5688274908528
 30
0.0
 10
220.0570776676991
 20
396.3585055418626
 30
0.0
 10
219.6928150890519
 20
396.0814643023779
 30
0.0
 10
219.5325395544425
 20
395.9595661570011
 30
0.0
  0
SPLINE
  5
81
330
1F
100
AcDbEntity
  8
0
  6
Continuous
 62
     7
370
    25
100
AcDbSpline
210
0.0
220
0.0
230
1.0
 70
    24
 71
     3
 72
     9
 73
     5
 74
     0
 42
0.000000001
 43
0.00000001
 40
0.0
 40
0.0
 40
0.0
 40
0.0
 40
0.5600000000054185
 40
0.9999999999999999
 40
0.9999999999999999
 40
0.9999999999999999
 40
0.9999999999999999
 10
282.4125773163338
 20
443.7832093791286
 30
0.0
 10
282.2076933210238
 20
443.6273841054427
 30
0.0
 10
281.8418290436882
 20
443.3491246881492
 30
0.0
 10
281.5743366562915
 20
443.1456823723551
 30
0.0
 10
281.4566400058384
 20
443.0561677534068
 30
0.0
  0
ARC
  5
82
330
1F
100
AcDbEntity
  8
0
  6
Continuous
 62
     7
370
    25
100
AcDbCircle
 10
250.9725584354
 20
419.8713877681
 30
0.0
 40
38.29899805700019
100
AcDbArc
 50
37.2549368278
 51
217.2549368278
  0
ARC
  5
83
330
1F
100
AcDbEntity
  8
0
  6
Continuous
 62
     7
370
    25
100
AcDbCircle
 10
250.9725584354
 20
419.8713877681
 30
0.0
 40
39.50000000000031
100
AcDbArc
 50
37.2549368278
 51
217.2549368513
  0
ARC
  5
84
330
1F
100
AcDbEntity
  8
0
  6
Continuous
 62
     7
370
    25
100
AcDbCircle
 10
250.9725584354
 20
419.8713877681
 30
0.0
 40
38.29899805700019
100
AcDbArc
 50
217.2549368278
 51
37.2549368278
  0
ARC
  5
85
330
1F
100
AcDbEntity
  8
0
  6
Continuous
 62
     7
370
    25
100
AcDbCircle
 10
250.9725584354
 20
419.8713877681
 30
0.0
 40
39.50000000000031
100
AcDbArc
 50
217.2549368513
 51
37.2549368176
  0
SPLINE
  5
86
330
1F
100
AcDbEntity
  8
0
  6
Continuous
 62
     7
370
    25
100
AcDbSpline
210
0.0
220
0.0
230
1.0
 70
    24
 71
     3
 72
     9
 73
     5
 74
     0
 42
0.000000001
 43
0.00000001
 40
0.0
 40
0.0
 40
0.0
 40
0.0
 40
0.5599999999872389
 40
1.0
 40
1.0
 40
1.0
 40
1.0
 10
580.4885155852323
 20
396.6864133204235
 30
0.0
 10
580.3336543351505
 20
396.5686330289917
 30
0.0
 10
580.0571163885697
 20
396.3583110800015
 30
0.0
 10
579.6928538099226
 20
396.0812698405168
 30
0.0
 10
579.5325782753131
 20
395.95937169514
 30
0.0
  0
SPLINE
  5
87
330
1F
100
AcDbEntity
  8
0
  6
Continuous
 62
     7
370
    25
100
AcDbSpline
210
0.0
220
0.0
230
1.0
 70
    24
 71
     3
 72
     9
 73
     5
 74
     0
 42
0.000000001
 43
0.00000001
 40
0.0
 40
0.0
 40
0.0
 40
0.0
 40
0.5600000000054081
 40
1.0
 40
1.0
 40
1.0
 40
1.0
 10
642.4126160372043
 20
443.7830149172676
 30
0.0
 10
642.2077320418944
 20
443.6271896435817
 30
0.0
 10
641.8418677645587
 20
443.3489302262881
 30
0.0
 10
641.5743753771621
 20
443.145487910494
 30
0.0
 10
641.4566787267091
 20
443.0559732915457
 30
0.0
  0
ARC
  5
88
330
1F
100
AcDbEntity
  8
0
  6
Continuous
 62
     7
370
    25
100
AcDbCircle
 10
610.9725971563
 20
419.8711933062
 30
0.0
 40
38.29899805700023
100
AcDbArc
 50
37.2549368278
 51
217.2549368278
  0
ARC
  5
89
330
1F
100
AcDbEntity
  8
0
  6
Continuous
 62
     7
370
    25
100
AcDbCircle
 10
610.9725971563
 20
419.8711933062
 30
0.0
 40
39.50000000000042
100
AcDbArc
 50
37.2549368278
 51
217.2549368513
  0
ARC
  5
8A
330
1F
100
AcDbEntity
  8
0
  6
Continuous
 62
     7
370
    25
100
AcDbCircle
 10
610.9725971563
 20
419.8711933062
 30
0.0
 40
38.29899805700023
100
AcDbArc
 50
217.2549368278
 51
37.2549368278
  0
ARC
  5
8B
330
1F
100
AcDbEntity
  8
0
  6
Continuous
 62
     7
370
    25
100
AcDbCircle
 10
610.9725971563
 20
419.8711933062
 30
0.0
 40
39.50000000000042
100
AcDbArc
 50
217.2549368513
 51
37.2549368176
  0
CIRCLE
  5
8C
330
1F
100
AcDbEntity
  8
0
  6
Continuous
 62
     7
370
    25
100
AcDbCircle
 10
610.9725971563
 20
419.8711933062
 30
0.0
 40
57.00000000000001
  0
SPLINE
  5
8D
330
1F
100
AcDbEntity
  8
0
  6
Continuous
 62
     7
370
    25
100
AcDbSpline
210
0.0
220
0.0
230
1.0
 70
     8
 71
     3
 72
    35
 73
    31
 74
     0
 42
0.000000001
 43
0.00000001
 40
0.0
 40
0.0
 40
0.0
 40
0.0
 40
0.0282546077220524
 40
0.0583834426637938
 40
0.0903495399278269
 40
0.1258616479012819
 40
0.1640104750491875
 40
0.2048405213069451
 40
0.2374624815847436
 40
0.2716127104071184
 40
0.3071914351681349
 40
0.3440550017625767
 40
0.3820151215667328
 40
0.4208413631481723
 40
0.4602672732901843
 40
0.500000004480954
 40
0.5397327356717238
 40
0.5791586458137357
 40
0.6179848873951753
 40
0.6559450071993314
 40
0.692808573793773
 40
0.7283872985547895
 40
0.7625375273771643
 40
0.7951594876549627
 40
0.8359928376182005
 40
0.8741415922595372
 40
0.9096504660940494
 40
0.9416198397637134
 40
0.9717470283705445
 40
1.0
 40
1.0
 40
1.0
 40
1.0
 10
654.980458061018
 20
415.2255617791511
 30
0.0
 10
655.0843796208126
 20
416.5309203683439
 30
0.0
 10
655.299116221918
 20
419.2282265598701
 30
0.0
 10
655.1483196456196
 20
423.4194080991316
 30
0.0
 10
654.5745664715128
 20
427.9097105701853
 30
0.0
 10
653.4340832241394
 20
432.6783398340632
 30
0.0
 10
651.6116159122731
 20
437.6711420705871
 30
0.0
 10
649.2443850836943
 20
442.2829401711204
 30
0.0
 10
646.4688470443913
 20
446.4321151395669
 30
0.0
 10
643.4292762598772
 20
450.0818798228978
 30
0.0
 10
639.8667394362348
 20
453.5145202830244
 30
0.0
 10
635.7963840345474
 20
456.6284061910009
 30
0.0
 10
631.258704078293
 20
459.3207655228503
 30
0.0
 10
626.3206078573515
 20
461.4957251230989
 30
0.0
 10
621.0738541934355
 20
463.0725691854819
 30
0.0
 10
615.6303110747714
 20
463.9935101690569
 30
0.0
 10
610.1144602107811
 20
464.2294830901042
 30
0.0
 10
604.654108296631
 20
463.782920442514
 30
0.0
 10
599.3707236340966
 20
462.6869779244237
 30
0.0
 10
594.3708959874823
 20
461.0014329604649
 30
0.0
 10
589.7400773672103
 20
458.8060749065705
 30
0.0
 10
585.5393276311338
 20
456.1929556923704
 30
0.0
 10
581.8046824536971
 20
453.2583014872733
 30
0.0
 10
578.2238584503331
 20
449.7800115672015
 30
0.0
 10
574.9458012992898
 20
445.7639968985272
 30
0.0
 10
572.1210209019479
 20
441.261765735301
 30
0.0
 10
570.0100349323467
 20
436.8363597194606
 30
0.0
 10
568.5113568853659
 20
432.5649045484816
 30
0.0
 10
567.4888610403941
 20
428.497567780678
 30
0.0
 10
567.1356648843681
 20
425.8150327490451
 30
0.0
 10
566.9647362514994
 20
424.5168248332566
 30
0.0
  0
SPLINE
  5
8E
330
1F
100
AcDbEntity
  8
0
  6
Continuous
 62
     7
370
    25
100
AcDbSpline
210
0.0
220
0.0
230
1.0
 70
     8
 71
     3
 72
    35
 73
    31
 74
     0
 42
0.000000001
 43
0.00000001
 40
0.0
 40
0.0
 40
0.0
 40
0.0
 40
0.0282546077224726
 40
0.0583834426636156
 40
0.0903495399278287
 40
0.125861647903081
 40
0.1640104750499173
 40
0.2048405213069396
 40
0.2374624815847381
 40
0.2716127104071132
 40
0.3071914351681299
 40
0.3440550017625718
 40
0.382015121566728
 40
0.4208413631481677
 40
0.4602672732901799
 40
0.5000000044809498
 40
0.5397327356717198
 40
0.579158645813732
 40
0.6179848873951718
 40
0.6559450071993279
 40
0.6928085737937699
 40
0.7283872985547866
 40
0.7625375273771616
 40
0.7951594876549601
 40
0.8359928376182583
 40
0.8741415922594719
 40
0.9096504660940465
 40
0.9416198397647852
 40
0.9717470283710186
 40
1.0
 40
1.0
 40
1.0
 40
1.0
 10
566.9647362514994
 20
424.5168248332566
 30
0.0
 10
566.8608146916999
 20
423.2114662440443
 30
0.0
 10
566.6460780905882
 20
420.5141600525264
 30
0.0
 10
566.7968746669185
 20
416.3229785132662
 30
0.0
 10
567.3706278410101
 20
411.8326760421475
 30
0.0
 10
568.5111110884004
 20
407.0640467782267
 30
0.0
 10
570.3335784003191
 20
402.0712445417244
 30
0.0
 10
572.7008092288374
 20
397.4594464412559
 30
0.0
 10
575.4763472681275
 20
393.3102714728406
 30
0.0
 10
578.5159180526401
 20
389.6605067895089
 30
0.0
 10
582.078454876283
 20
386.2278663293826
 30
0.0
 10
586.1488102779701
 20
383.1139804214061
 30
0.0
 10
590.6864902342246
 20
380.4216210895567
 30
0.0
 10
595.6245864551661
 20
378.2466614893081
 30
0.0
 10
600.8713401190821
 20
376.669817426925
 30
0.0
 10
606.3148832377461
 20
375.7488764433501
 30
0.0
 10
611.8307341017365
 20
375.5129035223028
 30
0.0
 10
617.2910860158867
 20
375.9594661698929
 30
0.0
 10
622.574470678421
 20
377.0554086879833
 30
0.0
 10
627.5742983250353
 20
378.7409536519422
 30
0.0
 10
632.2051169453074
 20
380.9363117058363
 30
0.0
 10
636.4058666813837
 20
383.5494309200367
 30
0.0
 10
640.1405118588208
 20
386.4840851251334
 30
0.0
 10
643.7213358621856
 20
389.9623750452081
 30
0.0
 10
646.9993930132321
 20
393.9783897138766
 30
0.0
 10
649.8241734105645
 20
398.4806208771088
 30
0.0
 10
651.9351593801906
 20
402.9060268929886
 30
0.0
 10
653.4338374271798
 20
407.1774820639926
 30
0.0
 10
654.4563332721245
 20
411.2448188318023
 30
0.0
 10
654.8095294281496
 20
413.9273538633849
 30
0.0
 10
654.980458061018
 20
415.2255617791511
 30
0.0
  0
ARC
  5
8F
330
1F
100
AcDbEntity
  8
0
  6
Continuous
 62
     7
370
    25
100
AcDbCircle
 10
610.9725971563
 20
419.8711933062
 30
0.0
 40
40.3547623089487
100
AcDbArc
 50
173.973964907
 51
353.973964907
  0
ARC
  5
90
330
1F
100
AcDbEntity
  8
0
  6
Continuous
 62
     7
370
    25
100
AcDbCircle
 10
610.9725971563
 20
419.8711933062
 30
0.0
 40
40.3547623089487
100
AcDbArc
 50
353.973964907
 51
173.973964907
  0
CIRCLE
  5
91
330
1F
100
AcDbEntity
  8
0
  6
Continuous
 62
     7
370
    25
100
AcDbCircle
 10
610.9725971563
 20
419.8711933062
 30
0.0
 40
39.93812333100001
  0
CIRCLE
  5
92
330
1F
100
AcDbEntity
  8
0
  6
Continuous
 62
     7
370
    25
100
AcDbCircle
 10
250.9725584354
 20
419.8713877681
 30
0.0
 40
57.00000000000006
  0
SPLINE
  5
93
330
1F
100
AcDbEntity
  8
0
  6
Continuous
 62
     7
370
    25
100
AcDbSpline
210
0.0
220
0.0
230
1.0
 70
     8
 71
     3
 72
    35
 73
    31
 74
     0
 42
0.000000001
 43
0.00000001
 40
0.0
 40
0.0
 40
0.0
 40
0.0
 40
0.0282546077220524
 40
0.0583834426637938
 40
0.0903495399278269
 40
0.1258616479012818
 40
0.1640104750491875
 40
0.2048405213069451
 40
0.2374624815847436
 40
0.2716127104071182
 40
0.3071914351681349
 40
0.3440550017625767
 40
0.3820151215667325
 40
0.4208413631481724
 40
0.4602672732901842
 40
0.500000004480954
 40
0.5397327356717238
 40
0.5791586458137353
 40
0.6179848873951752
 40
0.655945007199331
 40
0.6928085737937728
 40
0.7283872985547893
 40
0.7625375273771641
 40
0.7951594876549625
 40
0.8359928376182003
 40
0.8741415922595371
 40
0.9096504660940492
 40
0.9416198397637132
 40
0.9717470283705445
 40
1.0
 40
1.0
 40
1.0
 40
1.0
 10
294.9804193401474
 20
415.2257562410122
 30
0.0
 10
295.084340899942
 20
416.5311148302051
 30
0.0
 10
295.2990775010473
 20
419.2284210217312
 30
0.0
 10
295.148280924749
 20
423.4196025609926
 30
0.0
 10
294.5745277506421
 20
427.9099050320464
 30
0.0
 10
293.4340445032688
 20
432.6785342959243
 30
0.0
 10
291.6115771914024
 20
437.6713365324482
 30
0.0
 10
289.2443463628236
 20
442.2831346329815
 30
0.0
 10
286.4688083235206
 20
446.432309601428
 30
0.0
 10
283.4292375390064
 20
450.082074284759
 30
0.0
 10
279.8667007153641
 20
453.5147147448854
 30
0.0
 10
275.7963453136767
 20
456.6286006528619
 30
0.0
 10
271.2586653574223
 20
459.3209599847114
 30
0.0
 10
266.3205691364809
 20
461.4959195849599
 30
0.0
 10
261.073815472565
 20
463.0727636473431
 30
0.0
 10
255.6302723539007
 20
463.993704630918
 30
0.0
 10
250.1144214899104
 20
464.2296775519653
 30
0.0
 10
244.6540695757604
 20
463.7831149043751
 30
0.0
 10
239.3706849132259
 20
462.6871723862849
 30
0.0
 10
234.3708572666117
 20
461.0016274223259
 30
0.0
 10
229.7400386463398
 20
458.8062693684316
 30
0.0
 10
225.539288910263
 20
456.1931501542315
 30
0.0
 10
221.8046437328264
 20
453.2584959491344
 30
0.0
 10
218.2238197294625
 20
449.7802060290625
 30
0.0
 10
214.945762578419
 20
445.7641913603883
 30
0.0
 10
212.1209821810772
 20
441.2619601971621
 30
0.0
 10
210.0099962114761
 20
436.8365541813216
 30
0.0
 10
208.5113181644953
 20
432.5650990103427
 30
0.0
 10
207.4888223195233
 20
428.4977622425391
 30
0.0
 10
207.1356261634973
 20
425.8152272109061
 30
0.0
 10
206.9646975306287
 20
424.5170192951176
 30
0.0
  0
SPLINE
  5
94
330
1F
100
AcDbEntity
  8
0
  6
Continuous
 62
     7
370
    25
100
AcDbSpline
210
0.0
220
0.0
230
1.0
 70
     8
 71
     3
 72
    35
 73
    31
 74
     0
 42
0.000000001
 43
0.00000001
 40
0.0
 40
0.0
 40
0.0
 40
0.0
 40
0.0282546077224726
 40
0.0583834426636156
 40
0.0903495399278287
 40
0.125861647903081
 40
0.1640104750499172
 40
0.2048405213069396
 40
0.237462481584738
 40
0.2716127104071131
 40
0.3071914351681296
 40
0.3440550017625717
 40
0.382015121566728
 40
0.4208413631481677
 40
0.4602672732901797
 40
0.5000000044809497
 40
0.5397327356717198
 40
0.5791586458137319
 40
0.6179848873951717
 40
0.655945007199328
 40
0.6928085737937698
 40
0.7283872985547865
 40
0.7625375273771616
 40
0.7951594876549601
 40
0.8359928376182582
 40
0.8741415922594717
 40
0.9096504660940467
 40
0.9416198397647852
 40
0.9717470283710187
 40
1.0
 40
1.0
 40
1.0
 40
1.0
 10
206.9646975306288
 20
424.5170192951176
 30
0.0
 10
206.8607759708293
 20
423.2116607059054
 30
0.0
 10
206.6460393697176
 20
420.5143545143875
 30
0.0
 10
206.7968359460479
 20
416.3231729751272
 30
0.0
 10
207.3705891201394
 20
411.8328705040086
 30
0.0
 10
208.5110723675297
 20
407.0642412400878
 30
0.0
 10
210.3335396794485
 20
402.0714390035855
 30
0.0
 10
212.7007705079668
 20
397.459640903117
 30
0.0
 10
215.4763085472568
 20
393.3104659347017
 30
0.0
 10
218.5158793317696
 20
389.6607012513701
 30
0.0
 10
222.0784161554121
 20
386.2280607912437
 30
0.0
 10
226.1487715570996
 20
383.1141748832671
 30
0.0
 10
230.6864515133539
 20
380.4218155514178
 30
0.0
 10
235.6245477342956
 20
378.2468559511692
 30
0.0
 10
240.8713013982113
 20
376.670011888786
 30
0.0
 10
246.3148445168756
 20
375.7490709052112
 30
0.0
 10
251.8306953808659
 20
375.5130979841639
 30
0.0
 10
257.291047295016
 20
375.959660631754
 30
0.0
 10
262.5744319575503
 20
377.0556031498443
 30
0.0
 10
267.5742596041645
 20
378.7411481138032
 30
0.0
 10
272.2050782244367
 20
380.9365061676974
 30
0.0
 10
276.4058279605131
 20
383.5496253818977
 30
0.0
 10
280.1404731379503
 20
386.4842795869945
 30
0.0
 10
283.7212971413149
 20
389.9625695070692
 30
0.0
 10
286.9993542923614
 20
393.9785841757377
 30
0.0
 10
289.8241346896939
 20
398.4808153389699
 30
0.0
 10
291.93512065932
 20
402.9062213548497
 30
0.0
 10
293.4337987063092
 20
407.1776765258537
 30
0.0
 10
294.456294551254
 20
411.2450132936634
 30
0.0
 10
294.8094907072789
 20
413.9275483252461
 30
0.0
 10
294.9804193401474
 20
415.2257562410122
 30
0.0
  0
ARC
  5
95
330
1F
100
AcDbEntity
  8
0
  6
Continuous
 62
     7
370
    25
100
AcDbCircle
 10
250.9725584354
 20
419.8713877681
 30
0.0
 40
40.35476230894877
100
AcDbArc
 50
173.973964907
 51
353.973964907
  0
ARC
  5
96
330
1F
100
AcDbEntity
  8
0
  6
Continuous
 62
     7
370
    25
100
AcDbCircle
 10
250.9725584354
 20
419.8713877681
 30
0.0
 40
40.35476230894877
100
AcDbArc
 50
353.973964907
 51
173.973964907
  0
CIRCLE
  5
97
330
1F
100
AcDbEntity
  8
0
  6
Continuous
 62
     7
370
    25
100
AcDbCircle
 10
250.9725584354
 20
419.8713877681
 30
0.0
 40
39.93812333100008
  0
LINE
  5
98
330
1F
100
AcDbEntity
  8
0
  6
Continuous
 62
     7
370
    25
100
AcDbLine
 10
375.9725584285
 20
137.8713878029
 30
0.0
 11
845.9725584285
 21
137.8713878029
 31
0.0
  0
SPLINE
  5
99
330
1F
100
AcDbEntity
  8
0
  6
Continuous
 62
     7
370
    25
100
AcDbSpline
210
0.0
220
0.0
230
1.0
 70
     8
 71
     3
 72
    10
 73
     6
 74
     0
 42
0.000000001
 43
0.00000001
 40
0.0
 40
0.0
 40
0.0
 40
0.0
 40
0.4999999999999999
 40
0.4999999999999999
 40
0.9999999999999999
 40
0.9999999999999999
 40
0.9999999999999999
 40
0.9999999999999999
 10
862.9725584284553
 20
154.8713878028823
 30
0.0
 10
862.9725584284553
 20
150.3628350748823
 30
0.0
 10
861.1814019159325
 20
146.0386007300169
 30
0.0
 10
854.8053455013207
 20
139.6625443154051
 30
0.0
 10
850.4811111564553
 20
137.8713878028823
 30
0.0
 10
845.9725584284552
 20
137.8713878028823
 30
0.0
  0
LINE
  5
9A
330
1F
100
AcDbEntity
  8
0
  6
Continuous
 62
     7
370
    25
100
AcDbLine
 10
862.9725584285
 20
154.8713878029
 30
0.0
 11
862.9725584285
 21
524.8713878029
 31
0.0
  0
SPLINE
  5
9B
330
1F
100
AcDbEntity
  8
0
  6
Continuous
 62
     7
370
    25
100
AcDbSpline
210
0.0
220
0.0
230
1.0
 70
     8
 71
     3
 72
    10
 73
     6
 74
     0
 42
0.000000001
 43
0.00000001
 40
0.0
 40
0.0
 40
0.0
 40
0.0
 40
0.4999999999999999
 40
0.4999999999999999
 40
0.9999999999999999
 40
0.9999999999999999
 40
0.9999999999999999
 40
0.9999999999999999
 10
845.9725584284553
 20
541.8713878028823
 30
0.0
 10
850.4811111564553
 20
541.8713878028823
 30
0.0
 10
854.8053455013207
 20
540.0802312903595
 30
0.0
 10
861.1814019159325
 20
533.7041748757478
 30
0.0
 10
862.9725584284553
 20
529.3799405308823
 30
0.0
 10
862.9725584284553
 20
524.8713878028823
 30
0.0
  0
LINE
  5
9C
330
1F
100
AcDbEntity
  8
0
  6
Continuous
 62
     7
370
    25
100
AcDbLine
 10
845.9725584285
 20
541.8713878029
 30
0.0
 11
375.9725584285
 21
541.8713878029
 31
0.0
  0
SPLINE
  5
9D
330
1F
100
AcDbEntity
  8
0
  6
Continuous
 62
     7
370
    25
100
AcDbSpline
210
0.0
220
0.0
230
1.0
 70
     8
 71
     3
 72
    10
 73
     6
 74
     0
 42
0.000000001
 43
0.00000001
 40
0.0
 40
0.0
 40
0.0
 40
0.0
 40
0.5
 40
0.5
 40
1.0
 40
1.0
 40
1.0
 40
1.0
 10
358.9725584284552
 20
524.8713878028823
 30
0.0
 10
358.9725584284552
 20
529.3799405308823
 30
0.0
 10
360.763714940978
 20
533.7041748757478
 30
0.0
 10
367.1397713555899
 20
540.0802312903595
 30
0.0
 10
371.4640057004552
 20
541.8713878028824
 30
0.0
 10
375.9725584284552
 20
541.8713878028824
 30
0.0
  0
LINE
  5
9E
330
1F
100
AcDbEntity
  8
0
  6
Continuous
 62
     7
370
    25
100
AcDbLine
 10
358.9725584285
 20
524.8713878029
 30
0.0
 11
358.9725584285
 21
154.8713878029
 31
0.0
  0
SPLINE
  5
9F
330
1F
100
AcDbEntity
  8
0
  6
Continuous
 62
     7
370
    25
100
AcDbSpline
210
0.0
220
0.0
230
1.0
 70
     8
 71
     3
 72
    10
 73
     6
 74
     0
 42
0.000000001
 43
0.00000001
 40
0.0
 40
0.0
 40
0.0
 40
0.0
 40
0.4999999999999999
 40
0.4999999999999999
 40
0.9999999999999999
 40
0.9999999999999999
 40
0.9999999999999999
 40
0.9999999999999999
 10
375.9725584284553
 20
137.8713878028823
 30
0.0
 10
371.4640057004553
 20
137.8713878028823
 30
0.0
 10
367.1397713555899
 20
139.6625443154051
 30
0.0
 10
360.7637149409781
 20
146.0386007300169
 30
0.0
 10
358.9725584284553
 20
150.3628350748823
 30
0.0
 10
358.9725584284553
 20
154.8713878028823
 30
0.0
  0
LINE
  5
A0
330
1F
100
AcDbEntity
  8
0
  6
Continuous
 62
     7
370
    25
100
AcDbLine
 10
158.9725584285
 20
524.8713878029
 30
0.0
 11
158.9725584285
 21
154.8713878029
 31
0.0
  0
SPLINE
  5
A1
330
1F
100
AcDbEntity
  8
0
  6
Continuous
 62
     7
370
    25
100
AcDbSpline
210
0.0
220
0.0
230
1.0
 70
     8
 71
     3
 72
    10
 73
     6
 74
     0
 42
0.000000001
 43
0.00000001
 40
0.0
 40
0.0
 40
0.0
 40
0.0
 40
0.5
 40
0.5
 40
1.0
 40
1.0
 40
1.0
 40
1.0
 10
175.9725584284553
 20
137.8713878028824
 30
0.0
 10
171.4640057004553
 20
137.8713878028824
 30
0.0
 10
167.1397713555899
 20
139.6625443154051
 30
0.0
 10
160.7637149409781
 20
146.0386007300169
 30
0.0
 10
158.9725584284553
 20
150.3628350748823
 30
0.0
 10
158.9725584284553
 20
154.8713878028823
 30
0.0
  0
LINE
  5
A2
330
1F
100
AcDbEntity
  8
0
  6
Continuous
 62
     7
370
    25
100
AcDbLine
 10
175.9725584285
 20
137.8713878029
 30
0.0
 11
325.9725584285
 21
137.8713878029
 31
0.0
  0
SPLINE
  5
A3
330
1F
100
AcDbEntity
  8
0
  6
Continuous
 62
     7
370
    25
100
AcDbSpline
210
0.0
220
0.0
230
1.0
 70
     8
 71
     3
 72
    10
 73
     6
 74
     0
 42
0.000000001
 43
0.00000001
 40
0.0
 40
0.0
 40
0.0
 40
0.0
 40
0.5
 40
0.5
 40
1.0
 40
1.0
 40
1.0
 40
1.0
 10
342.9725584284552
 20
154.8713878028823
 30
0.0
 10
342.9725584284552
 20
150.3628350748823
 30
0.0
 10
341.1814019159324
 20
146.0386007300169
 30
0.0
 10
334.8053455013206
 20
139.6625443154051
 30
0.0
 10
330.4811111564553
 20
137.8713878028824
 30
0.0
 10
325.9725584284552
 20
137.8713878028824
 30
0.0
  0
LINE
  5
A4
330
1F
100
AcDbEntity
  8
0
  6
Continuous
 62
     7
370
    25
100
AcDbLine
 10
342.9725584285
 20
154.8713878029
 30
0.0
 11
342.9725584285
 21
524.8713878029
 31
0.0
  0
SPLINE
  5
A5
330
1F
100
AcDbEntity
  8
0
  6
Continuous
 62
     7
370
    25
100
AcDbSpline
210
0.0
220
0.0
230
1.0
 70
     8
 71
     3
 72
    10
 73
     6
 74
     0
 42
0.000000001
 43
0.00000001
 40
0.0
 40
0.0
 40
0.0
 40
0.0
 40
0.4999999999999999
 40
0.4999999999999999
 40
0.9999999999999999
 40
0.9999999999999999
 40
0.9999999999999999
 40
0.9999999999999999
 10
325.9725584284552
 20
541.8713878028824
 30
0.0
 10
330.4811111564553
 20
541.8713878028824
 30
0.0
 10
334.8053455013207
 20
540.0802312903595
 30
0.0
 10
341.1814019159325
 20
533.7041748757478
 30
0.0
 10
342.9725584284553
 20
529.3799405308823
 30
0.0
 10
342.9725584284553
 20
524.8713878028823
 30
0.0
  0
LINE
  5
A6
330
1F
100
AcDbEntity
  8
0
  6
Continuous
 62
     7
370
    25
100
AcDbLine
 10
325.9725584285
 20
541.8713878029
 30
0.0
 11
175.9725584285
 21
541.8713878029
 31
0.0
  0
SPLINE
  5
A7
330
1F
100
AcDbEntity
  8
0
  6
Continuous
 62
     7
370
    25
100
AcDbSpline
210
0.0
220
0.0
230
1.0
 70
     8
 71
     3
 72
    10
 73
     6
 74
     0
 42
0.000000001
 43
0.00000001
 40
0.0
 40
0.0
 40
0.0
 40
0.0
 40
0.5
 40
0.5
 40
1.0
 40
1.0
 40
1.0
 40
1.0
 10
158.9725584284552
 20
524.8713878028823
 30
0.0
 10
158.9725584284552
 20
529.3799405308823
 30
0.0
 10
160.7637149409781
 20
533.7041748757478
 30
0.0
 10
167.1397713555899
 20
540.0802312903595
 30
0.0
 10
171.4640057004553
 20
541.8713878028824
 30
0.0
 10
175.9725584284553
 20
541.8713878028824
 30
0.0
  0
LINE
  5
A8
330
1F
100
AcDbEntity
  8
0
  6
Continuous
 62
     7
370
    25
100
AcDbLine
 10
150.9725584295
 20
120.3713878031
 30
0.0
 11
870.9725584295
 21
120.3713878029
 31
0.0
  0
ARC
  5
A9
330
1F
100
AcDbEntity
  8
0
  6
Continuous
 62
     7
370
    25
100
AcDbCircle
 10
150.9725584295
 20
129.8713878029
 30
0.0
 40
9.499999999999972
100
AcDbArc
 50
180.0
 51
270.0
  0
LINE
  5
AA
330
1F
100
AcDbEntity
  8
0
  6
Continuous
 62
     7
370
    25
100
AcDbLine
 10
141.4725584296
 20
549.8713878029
 30
0.0
 11
141.4725584295
 21
129.8713878029
 31
0.0
  0
ARC
  5
AB
330
1F
100
AcDbEntity
  8
0
  6
Continuous
 62
     7
370
    25
100
AcDbCircle
 10
150.9725584295
 20
549.8713878029
 30
0.0
 40
9.5
100
AcDbArc
 50
90.0
 51
180.0
  0
LINE
  5
AC
330
1F
100
AcDbEntity
  8
0
  6
Continuous
 62
     7
370
    25
100
AcDbLine
 10
870.9725584295
 20
559.3713878027
 30
0.0
 11
150.9725584295
 21
559.3713878029
 31
0.0
  0
ARC
  5
AD
330
1F
100
AcDbEntity
  8
0
  6
Continuous
 62
     7
370
    25
100
AcDbCircle
 10
870.9725584295
 20
549.8713878029
 30
0.0
 40
9.49999999981003
100
AcDbArc
 50
0.0
 51
90.0
  0
LINE
  5
AE
330
1F
100
AcDbEntity
  8
0
  6
Continuous
 62
     7
370
    25
100
AcDbLine
 10
880.4725584293
 20
129.8713878029
 30
0.0
 11
880.4725584293
 21
549.8713878029
 31
0.0
  0
ARC
  5
AF
330
1F
100
AcDbEntity
  8
0
  6
Continuous
 62
     7
370
    25
100
AcDbCircle
 10
870.9725584295
 20
129.8713878029
 30
0.0
 40
9.5
100
AcDbArc
 50
270.0
 51
0.0
  0
LINE
  5
B0
330
1F
100
AcDbEntity
  8
0
  6
Continuous
 62
     7
370
    25
100
AcDbLine
 10
375.9725584285
 20
539.8713878029
 30
0.0
 11
845.9725584285
 21
539.8713878029
 31
0.0
  0
LINE
  5
B1
330
1F
100
AcDbEntity
  8
0
  6
Continuous
 62
     7
370
    25
100
AcDbLine
 10
375.9725584285
 20
541.8713878029
 30
0.0
 11
375.9725584285
 21
539.8713878029
 31
0.0
  0
LINE
  5
B2
330
1F
100
AcDbEntity
  8
0
  6
Continuous
 62
     7
370
    25
100
AcDbLine
 10
845.9725584285
 20
539.8713878029
 30
0.0
 11
845.9725584285
 21
541.8713878029
 31
0.0
  0
LINE
  5
B3
330
1F
100
AcDbEntity
  8
0
  6
Continuous
 62
     7
370
    25
100
AcDbLine
 10
325.9725584285
 20
539.8713878029
 30
0.0
 11
325.9725584285
 21
541.8713878029
 31
0.0
  0
LINE
  5
B4
330
1F
100
AcDbEntity
  8
0
  6
Continuous
 62
     7
370
    25
100
AcDbLine
 10
175.9725584285
 20
539.8713878029
 30
0.0
 11
325.9725584285
 21
539.8713878029
 31
0.0
  0
LINE
  5
B5
330
1F
100
AcDbEntity
  8
0
  6
Continuous
 62
     7
370
    25
100
AcDbLine
 10
175.9725584285
 20
539.8713878029
 30
0.0
 11
175.9725584285
 21
541.8713878029
 31
0.0
  0
LINE
  5
B6
330
1F
100
AcDbEntity
  8
0
  6
Continuous
 62
     7
370
    25
100
AcDbLine
 10
862.9725584285
 20
154.8713878029
 30
0.0
 11
860.9725584285
 21
154.8713878029
 31
0.0
  0
LINE
  5
B7
330
1F
100
AcDbEntity
  8
0
  6
Continuous
 62
     7
370
    25
100
AcDbLine
 10
860.9725584285
 20
524.8713878029
 30
0.0
 11
860.9725584285
 21
154.8713878029
 31
0.0
  0
LINE
  5
B8
330
1F
100
AcDbEntity
  8
0
  6
Continuous
 62
     7
370
    25
100
AcDbLine
 10
862.9725584285
 20
524.8713878029
 30
0.0
 11
860.9725584285
 21
524.8713878029
 31
0.0
  0
LINE
  5
B9
330
1F
100
AcDbEntity
  8
0
  6
Continuous
 62
     7
370
    25
100
AcDbLine
 10
340.9725584285
 20
154.8713878029
 30
0.0
 11
342.9725584285
 21
154.8713878029
 31
0.0
  0
LINE
  5
BA
330
1F
100
AcDbEntity
  8
0
  6
Continuous
 62
     7
370
    25
100
AcDbLine
 10
340.9725584285
 20
524.8713878029
 30
0.0
 11
340.9725584285
 21
154.8713878029
 31
0.0
  0
LINE
  5
BB
330
1F
100
AcDbEntity
  8
0
  6
Continuous
 62
     7
370
    25
100
AcDbLine
 10
340.9725584285
 20
524.8713878029
 30
0.0
 11
342.9725584285
 21
524.8713878029
 31
0.0
  0
LINE
  5
BC
330
1F
100
AcDbEntity
  8
0
  6
Continuous
 62
     7
370
    25
100
AcDbLine
 10
160.9725584285
 20
524.8713878029
 30
0.0
 11
158.9725584285
 21
524.8713878029
 31
0.0
  0
LINE
  5
BD
330
1F
100
AcDbEntity
  8
0
  6
Continuous
 62
     7
370
    25
100
AcDbLine
 10
160.9725584285
 20
154.8713878029
 30
0.0
 11
160.9725584285
 21
524.8713878029
 31
0.0
  0
LINE
  5
BE
330
1F
100
AcDbEntity
  8
0
  6
Continuous
 62
     7
370
    25
100
AcDbLine
 10
158.9725584285
 20
154.8713878029
 30
0.0
 11
160.9725584285
 21
154.8713878029
 31
0.0
  0
LINE
  5
BF
330
1F
100
AcDbEntity
  8
0
  6
Continuous
 62
     7
370
    25
100
AcDbLine
 10
360.9725584285
 20
524.8713878029
 30
0.0
 11
358.9725584285
 21
524.8713878029
 31
0.0
  0
LINE
  5
C0
330
1F
100
AcDbEntity
  8
0
  6
Continuous
 62
     7
370
    25
100
AcDbLine
 10
360.9725584285
 20
154.8713878029
 30
0.0
 11
360.9725584285
 21
524.8713878029
 31
0.0
  0
LINE
  5
C1
330
1F
100
AcDbEntity
  8
0
  6
Continuous
 62
     7
370
    25
100
AcDbLine
 10
358.9725584285
 20
154.8713878029
 30
0.0
 11
360.9725584285
 21
154.8713878029
 31
0.0
  0
LINE
  5
C2
330
1F
100
AcDbEntity
  8
0
  6
Continuous
 62
     7
370
    25
100
AcDbLine
 10
175.9725584285
 20
139.8713878029
 30
0.0
 11
175.9725584285
 21
137.8713878029
 31
0.0
  0
LINE
  5
C3
330
1F
100
AcDbEntity
  8
0
  6
Continuous
 62
     7
370
    25
100
AcDbLine
 10
325.9725584285
 20
139.8713878029
 30
0.0
 11
175.9725584285
 21
139.8713878029
 31
0.0
  0
LINE
  5
C4
330
1F
100
AcDbEntity
  8
0
  6
Continuous
 62
     7
370
    25
100
AcDbLine
 10
325.9725584285
 20
139.8713878029
 30
0.0
 11
325.9725584285
 21
137.8713878029
 31
0.0
  0
LINE
  5
C5
330
1F
100
AcDbEntity
  8
0
  6
Continuous
 62
     7
370
    25
100
AcDbLine
 10
375.9725584285
 20
139.8713878029
 30
0.0
 11
375.9725584285
 21
137.8713878029
 31
0.0
  0
LINE
  5
C6
330
1F
100
AcDbEntity
  8
0
  6
Continuous
 62
     7
370
    25
100
AcDbLine
 10
845.9725584285
 20
139.8713878029
 30
0.0
 11
375.9725584285
 21
139.8713878029
 31
0.0
  0
LINE
  5
C7
330
1F
100
AcDbEntity
  8
0
  6
Continuous
 62
     7
370
    25
100
AcDbLine
 10
845.9725584285
 20
137.8713878029
 30
0.0
 11
845.9725584285
 21
139.8713878029
 31
0.0
  0
ARC
  5
C8
330
1F
100
AcDbEntity
  8
0
  6
Continuous
 62
     7
370
    25
100
AcDbCircle
 10
375.9725584285
 20
524.8713878029
 30
0.0
 40
15.00000000000011
100
AcDbArc
 50
90.0
 51
179.9999999924
  0
ARC
  5
C9
330
1F
100
AcDbEntity
  8
0
  6
Continuous
 62
     7
370
    25
100
AcDbCircle
 10
175.9725584285
 20
524.8713878029
 30
0.0
 40
15.00000000000011
100
AcDbArc
 50
90.0
 51
180.0
  0
ARC
  5
CA
330
1F
100
AcDbEntity
  8
0
  6
Continuous
 62
     7
370
    25
100
AcDbCircle
 10
845.9725584285
 20
524.8713878029
 30
0.0
 40
15.00000000000011
100
AcDbArc
 50
0.0
 51
90.0
  0
ARC
  5
CB
330
1F
100
AcDbEntity
  8
0
  6
Continuous
 62
     7
370
    25
100
AcDbCircle
 10
325.9725584285
 20
524.8713878029
 30
0.0
 40
15.00000000000011
100
AcDbArc
 50
0.0
 51
90.0
  0
ARC
  5
CC
330
1F
100
AcDbEntity
  8
0
  6
Continuous
 62
     7
370
    25
100
AcDbCircle
 10
175.9725584285
 20
154.8713878029
 30
0.0
 40
15.0
100
AcDbArc
 50
180.0
 51
270.0
  0
ARC
  5
CD
330
1F
100
AcDbEntity
  8
0
  6
Continuous
 62
     7
370
    25
100
AcDbCircle
 10
325.9725584285
 20
154.8713878029
 30
0.0
 40
15.00000000000006
100
AcDbArc
 50
270.0
 51
0.0
  0
ARC
  5
CE
330
1F
100
AcDbEntity
  8
0
  6
Continuous
 62
     7
370
    25
100
AcDbCircle
 10
845.9725584285
 20
154.8713878029
 30
0.0
 40
15.00000000000011
100
AcDbArc
 50
270.0
 51
359.9999999389
  0
ARC
  5
CF
330
1F
100
AcDbEntity
  8
0
  6
Continuous
 62
     7
370
    25
100
AcDbCircle
 10
375.9725584285
 20
154.8713878029
 30
0.0
 40
15.0
100
AcDbArc
 50
180.0
 51
270.0
  0
ARC
  5
D0
330
1F
100
AcDbEntity
  8
0
  6
Continuous
 62
     7
370
    25
100
AcDbCircle
 10
870.9725584295
 20
549.8713878029
 30
0.0
 40
9.999999999810143
100
AcDbArc
 50
0.0
 51
90.0
  0
LINE
  5
D1
330
1F
100
AcDbEntity
  8
0
  6
Continuous
 62
     7
370
    25
100
AcDbLine
 10
880.9725584293
 20
549.8713878029
 30
0.0
 11
880.4725584293
 21
549.8713878029
 31
0.0
  0
LINE
  5
D2
330
1F
100
AcDbEntity
  8
0
  6
Continuous
 62
     7
370
    25
100
AcDbLine
 10
870.9725584295
 20
559.8713878027
 30
0.0
 11
870.9725584295
 21
559.3713878027
 31
0.0
  0
LINE
  5
D3
330
1F
100
AcDbEntity
  8
0
  6
Continuous
 62
     7
370
    25
100
AcDbLine
 10
150.9725584295
 20
559.8713878029
 30
0.0
 11
870.9725584295
 21
559.8713878027
 31
0.0
  0
LINE
  5
D4
330
1F
100
AcDbEntity
  8
0
  6
Continuous
 62
     7
370
    25
100
AcDbLine
 10
150.9725584295
 20
559.8713878029
 30
0.0
 11
150.9725584295
 21
559.3713878029
 31
0.0
  0
ARC
  5
D5
330
1F
100
AcDbEntity
  8
0
  6
Continuous
 62
     7
370
    25
100
AcDbCircle
 10
150.9725584295
 20
549.8713878029
 30
0.0
 40
10.0
100
AcDbArc
 50
90.0
 51
180.0
  0
LINE
  5
D6
330
1F
100
AcDbEntity
  8
0
  6
Continuous
 62
     7
370
    25
100
AcDbLine
 10
140.9725584296
 20
549.8713878029
 30
0.0
 11
141.4725584296
 21
549.8713878029
 31
0.0
  0
LINE
  5
D7
330
1F
100
AcDbEntity
  8
0
  6
Continuous
 62
     7
370
    25
100
AcDbLine
 10
140.9725584295
 20
129.8713878029
 30
0.0
 11
140.9725584296
 21
549.8713878029
 31
0.0
  0
LINE
  5
D8
330
1F
100
AcDbEntity
  8
0
  6
Continuous
 62
     7
370
    25
100
AcDbLine
 10
141.4725584295
 20
129.8713878029
 30
0.0
 11
140.9725584295
 21
129.8713878029
 31
0.0
  0
LINE
  5
D9
330
1F
100
AcDbEntity
  8
0
  6
Continuous
 62
     7
370
    25
100
AcDbLine
 10
880.9725584293
 20
549.8713878029
 30
0.0
 11
880.9725584293
 21
129.8713878029
 31
0.0
  0
LINE
  5
DA
330
1F
100
AcDbEntity
  8
0
  6
Continuous
 62
     7
370
    25
100
AcDbLine
 10
880.4725584293
 20
129.8713878029
 30
0.0
 11
880.9725584293
 21
129.8713878029
 31
0.0
  0
LINE
  5
DB
330
1F
100
AcDbEntity
  8
0
  6
Continuous
 62
     7
370
    25
100
AcDbLine
 10
150.9725584295
 20
120.3713878031
 30
0.0
 11
150.9725584295
 21
119.8713878031
 31
0.0
  0
ARC
  5
DC
330
1F
100
AcDbEntity
  8
0
  6
Continuous
 62
     7
370
    25
100
AcDbCircle
 10
150.9725584295
 20
129.8713878029
 30
0.0
 40
9.999999999999972
100
AcDbArc
 50
180.0
 51
270.0
  0
ARC
  5
DD
330
1F
100
AcDbEntity
  8
0
  6
Continuous
 62
     7
370
    25
100
AcDbCircle
 10
870.9725584295
 20
129.8713878029
 30
0.0
 40
10.0
100
AcDbArc
 50
270.0
 51
0.0
  0
LINE
  5
DE
330
1F
100
AcDbEntity
  8
0
  6
Continuous
 62
     7
370
    25
100
AcDbLine
 10
870.9725584295
 20
120.3713878029
 30
0.0
 11
870.9725584295
 21
119.8713878029
 31
0.0
  0
LINE
  5
DF
330
1F
100
AcDbEntity
  8
0
  6
Continuous
 62
     7
370
    25
100
AcDbLine
 10
870.9725584295
 20
119.8713878029
 30
0.0
 11
150.9725584295
 21
119.8713878031
 31
0.0
  0
SPLINE
  5
E0
330
1F
100
AcDbEntity
  8
0
  6
Continuous
 62
     7
370
    25
100
AcDbSpline
210
0.0
220
0.0
230
1.0
 70
     8
 71
     3
 72
    35
 73
    31
 74
     0
 42
0.000000001
 43
0.00000001
 40
0.0
 40
0.0
 40
0.0
 40
0.0
 40
0.0164793678324505
 40
0.0329800500616172
 40
0.0495036401213373
 40
0.0660517272864407
 40
0.0826258947241809
 40
0.0992277175433257
 40
0.1158587608420422
 40
0.1325205777556856
 40
0.1492147075055245
 40
0.1659426734494413
 40
0.1827059811355393
 40
0.199506116359589
 40
0.216344543227171
 40
0.2332227022213147
 40
0.2501420082764146
 40
0.3105105332972492
 40
0.3722689537009423
 40
0.4354746463152604
 40
0.5001774528220317
 40
0.6187751073359775
 40
0.7499101702431172
 40
0.8090232999856214
 40
0.8749285552382654
 40
0.8932845969552587
 40
0.9149690061621981
 40
0.9399832405732593
 40
0.9683274832059604
 40
1.0
 40
1.0
 40
1.0
 40
1.0
 10
160.9725584284554
 20
154.8713878028823
 30
0.0
 10
160.9735206380273
 20
154.8709349546361
 30
0.0
 10
160.9754463016918
 20
154.8700286724302
 30
0.0
 10
160.9910345120592
 20
154.8686473020605
 30
0.0
 10
161.0159564497218
 20
154.867259838431
 30
0.0
 10
161.0511535794894
 20
154.8658713451877
 30
0.0
 10
161.0964065927361
 20
154.8644885109894
 30
0.0
 10
161.1518039395499
 20
154.8631160577031
 30
0.0
 10
161.2173473055229
 20
154.8617576674839
 30
0.0
 10
161.2930573843571
 20
154.860415691998
 30
0.0
 10
161.3789452501057
 20
154.8590911888338
 30
0.0
 10
161.475019856937
 20
154.8577838538208
 30
0.0
 10
161.5812856520491
 20
154.8564920264822
 30
0.0
 10
161.6977434374144
 20
154.8552124917052
 30
0.0
 10
161.8243880573012
 20
154.8539410111438
 30
0.0
 10
161.9612154753685
 20
154.8526701169793
 30
0.0
 10
162.2338846631386
 20
154.8503085703265
 30
0.0
 10
162.6977691477943
 20
154.8466527717982
 30
0.0
 10
163.4388894736366
 20
154.8421028596995
 30
0.0
 10
164.3190481607229
 20
154.8380700844903
 30
0.0
 10
165.6129759693338
 20
154.8335285154303
 30
0.0
 10
167.5171508777223
 20
154.8265025544824
 30
0.0
 10
169.6592593417272
 20
154.8239271924663
 30
0.0
 10
171.5468617884345
 20
154.8210717223831
 30
0.0
 10
172.6370957621181
 20
154.8204112444646
 30
0.0
 10
173.4528826972304
 20
154.8196795970126
 30
0.0
 10
173.9565756374924
 20
154.81924038478
 30
0.0
 10
174.5405245008408
 20
154.8189885587084
 30
0.0
 10
175.2049111686685
 20
154.8189832822413
 30
0.0
 10
175.6750513052075
 20
154.819019287764
 30
0.0
 10
175.9231573594549
 20
154.8190382888819
 30
0.0
  0
SPLINE
  5
E1
330
1F
100
AcDbEntity
  8
0
  6
Continuous
 62
     7
370
    25
100
AcDbSpline
210
0.0
220
0.0
230
1.0
 70
     8
 71
     3
 72
    31
 73
    27
 74
     0
 42
0.000000001
 43
0.00000001
 40
0.0
 40
0.0
 40
0.0
 40
0.0
 40
0.0168562928466961
 40
0.0327379477353828
 40
0.0476445105545348
 40
0.061575723976627
 40
0.0745314961744552
 40
0.086511871331794
 40
0.0975170022691423
 40
0.1075471254618313
 40
0.1166025387330825
 40
0.1615495400839703
 40
0.2027351578381814
 40
0.2401591770244589
 40
0.308053870152642
 40
0.368812751769056
 40
0.5000169331770778
 40
0.6312211145849758
 40
0.6960496022599336
 40
0.7598751821992927
 40
0.8224107888048079
 40
0.8834053663177163
 40
0.9136528358895053
 40
0.942663926211773
 40
0.9715034230065015
 40
1.0
 40
1.0
 40
1.0
 40
1.0
 10
175.9231573594549
 20
154.8190382888819
 30
0.0
 10
175.9231456088055
 20
154.6870303580946
 30
0.0
 10
175.9231227869342
 20
154.4306472507248
 30
0.0
 10
175.9230201259263
 20
154.0578220197125
 30
0.0
 10
175.9229706437163
 20
153.7083469910806
 30
0.0
 10
175.9230026915005
 20
153.3823156079718
 30
0.0
 10
175.9231285213896
 20
153.0797516366776
 30
0.0
 10
175.9233340659361
 20
152.800625696672
 30
0.0
 10
175.9235831445637
 20
152.5448669321121
 30
0.0
 10
175.9238380437963
 20
152.3123691848848
 30
0.0
 10
175.9242425998107
 20
151.8189158057276
 30
0.0
 10
175.9245092180019
 20
151.0909526186748
 30
0.0
 10
175.9254467563729
 20
150.1627665510408
 30
0.0
 10
175.9270409808549
 20
149.0846260078322
 30
0.0
 10
175.9284273260316
 20
147.9014260398249
 30
0.0
 10
175.9323090279579
 20
146.1472723264392
 30
0.0
 10
175.9373783470311
 20
144.1707429537411
 30
0.0
 10
175.9440556782419
 20
142.5461869796733
 30
0.0
 10
175.9498528568557
 20
141.5213414841287
 30
0.0
 10
175.9543381487097
 20
140.9012366067967
 30
0.0
 10
175.9589726720182
 20
140.4289189131488
 30
0.0
 10
175.9626831196872
 20
140.1535108404088
 30
0.0
 10
175.9660602440962
 20
140.0042568112827
 30
0.0
 10
175.9678625512966
 20
139.9272162737068
 30
0.0
 10
175.971181716329
 20
139.8800597298165
 30
0.0
 10
175.9721013578329
 20
139.8742668964593
 30
0.0
 10
175.9725584284552
 20
139.8713878028823
 30
0.0
  0
SPLINE
  5
E2
330
1F
100
AcDbEntity
  8
0
  6
Continuous
 62
     7
370
    25
100
AcDbSpline
210
0.0
220
0.0
230
1.0
 70
     8
 71
     3
 72
    14
 73
    10
 74
     0
 42
0.000000001
 43
0.00000001
 40
0.0
 40
0.0
 40
0.0
 40
0.0
 40
0.25
 40
0.25
 40
0.5
 40
0.5
 40
0.75
 40
0.75
 40
1.0
 40
1.0
 40
1.0
 40
1.0
 10
326.0219523464553
 20
154.8190509698823
 30
0.0
 10
326.0219298364552
 20
152.8599288982157
 30
0.0
 10
326.0206274803459
 20
150.9029238450333
 30
0.0
 10
326.015658654799
 20
147.2868476711532
 30
0.0
 10
326.0119941574136
 20
145.6291963853406
 30
0.0
 10
326.002854701997
 20
142.863400279924
 30
0.0
 10
325.9973833902261
 20
141.7563589540593
 30
0.0
 10
325.9854585755124
 20
140.2600557893458
 30
0.0
 10
325.9790097551219
 20
139.8713878028823
 30
0.0
 10
325.9725584284552
 20
139.8713878028823
 30
0.0
  0
SPLINE
  5
E3
330
1F
100
AcDbEntity
  8
0
  6
Continuous
 62
     7
370
    25
100
AcDbSpline
210
0.0
220
0.0
230
1.0
 70
     8
 71
     3
 72
    31
 73
    27
 74
     0
 42
0.000000001
 43
0.00000001
 40
0.0
 40
0.0
 40
0.0
 40
0.0
 40
0.0168560085510028
 40
0.0327373911892874
 40
0.0476436937133546
 40
0.0615746587451115
 40
0.074530194439921
 40
0.0865103449913439
 40
0.0975152632514184
 40
0.1075451857438326
 40
0.116600410352775
 40
0.1615474268862668
 40
0.2027328976972336
 40
0.2401566077583322
 40
0.3080521713782778
 40
0.3688111070471709
 40
0.5000169369574224
 40
0.6312227668677257
 40
0.6960518569091317
 40
0.7598777592636627
 40
0.822413340679894
 40
0.8834074961569574
 40
0.9136537459073394
 40
0.9426652105449745
 40
0.9715033247200745
 40
1.0
 40
1.0
 40
1.0
 40
1.0
 10
326.0219523294551
 20
154.8190509698824
 30
0.0
 10
326.1539748914363
 20
154.8190393891904
 30
0.0
 10
326.410386380806
 20
154.8190168974099
 30
0.0
 10
326.7832551760984
 20
154.8189170807543
 30
0.0
 10
327.1327723710812
 20
154.8188718069435
 30
0.0
 10
327.4588443405932
 20
154.8189092855416
 30
0.0
 10
327.7614469733217
 20
154.8190414376109
 30
0.0
 10
328.0406093936712
 20
154.8192539268642
 30
0.0
 10
328.2964022241468
 20
154.8195103059345
 30
0.0
 10
328.5289314255542
 20
154.819772618409
 30
0.0
 10
329.0224597743245
 20
154.8201943557968
 30
0.0
 10
329.7505404040982
 20
154.8204924684263
 30
0.0
 10
330.6788852354937
 20
154.8214834706499
 30
0.0
 10
331.7572262471481
 20
154.8231544014166
 30
0.0
 10
332.940659932984
 20
154.8246471000616
 30
0.0
 10
334.6951896616463
 20
154.8287314294118
 30
0.0
 10
336.6721737444423
 20
154.834115939815
 30
0.0
 10
338.2971253244754
 20
154.8411866404983
 30
0.0
 10
339.3222211946342
 20
154.8473293370641
 30
0.0
 10
339.9424750784003
 20
154.8520824547494
 30
0.0
 10
340.4149035316307
 20
154.8569903961233
 30
0.0
 10
340.6903729635014
 20
154.8609301645121
 30
0.0
 10
340.8396605258809
 20
154.8644920605063
 30
0.0
 10
340.9167172423876
 20
154.8664267005144
 30
0.0
 10
340.9638844424239
 20
154.8698810297606
 30
0.0
 10
340.9696786015283
 20
154.870887543164
 30
0.0
 10
340.9725584284552
 20
154.8713878028823
 30
0.0
  0
SPLINE
  5
E4
330
1F
100
AcDbEntity
  8
0
  6
Continuous
 62
     7
370
    25
100
AcDbSpline
210
0.0
220
0.0
230
1.0
 70
     8
 71
     3
 72
    32
 73
    28
 74
     0
 42
0.000000001
 43
0.00000001
 40
0.0
 40
0.0
 40
0.0
 40
0.0
 40
0.016329046639148
 40
0.0318094712930242
 40
0.0464408464862832
 40
0.0602229061305201
 40
0.0731555229086183
 40
0.0852386867160544
 40
0.0964724843835349
 40
0.1068570808709415
 40
0.1163927021089427
 40
0.1250796196832694
 40
0.1917663180650412
 40
0.250100952971929
 40
0.3159345834607108
 40
0.3751182746446006
 40
0.4999956902323299
 40
0.6248731035465205
 40
0.6917330360789796
 40
0.7498901342640291
 40
0.8123994139850002
 40
0.844771205619942
 40
0.8749304671839757
 40
0.9070013476781918
 40
0.9374655221493878
 40
0.969028854233475
 40
1.0
 40
1.0
 40
1.0
 40
1.0
 10
326.2029830994488
 20
525.1588508918743
 30
0.0
 10
326.2029482635651
 20
525.2854225416063
 30
0.0
 10
326.2028804022215
 20
525.5319879013381
 30
0.0
 10
326.2027241047353
 20
525.8915226039578
 30
0.0
 10
326.2024553698433
 20
526.2308059619711
 30
0.0
 10
326.2020503935402
 20
526.5497489361409
 30
0.0
 10
326.2015068210387
 20
526.8483351677562
 30
0.0
 10
326.2008429471003
 20
527.1265883768016
 30
0.0
 10
326.2000916717571
 20
527.3845703485684
 30
0.0
 10
326.1993024961465
 20
527.6223696019317
 30
0.0
 10
326.1985204102801
 20
527.8401013825833
 30
0.0
 10
326.1963073564485
 20
528.4844757402884
 30
0.0
 10
326.192594817822
 20
529.4871906338096
 30
0.0
 10
326.1840176519801
 20
530.872848891977
 30
0.0
 10
326.1747520977762
 20
532.1503043677359
 30
0.0
 10
326.1586165860936
 20
533.7988138088514
 30
0.0
 10
326.1352502142601
 20
535.6466828377883
 30
0.0
 10
326.1047796447729
 20
537.1979744650629
 30
0.0
 10
326.0808227306853
 20
538.1789160514833
 30
0.0
 10
326.0591050248103
 20
538.7898916093541
 30
0.0
 10
326.0420998876128
 20
539.1856255053987
 30
0.0
 10
326.027970974584
 20
539.4404312171364
 30
0.0
 10
326.0167425748705
 20
539.59863348418
 30
0.0
 10
326.0058355444118
 20
539.7197822205774
 30
0.0
 10
325.9949870288776
 20
539.8070713498145
 30
0.0
 10
325.982788808698
 20
539.8613202824745
 30
0.0
 10
325.9759469583156
 20
539.8680532158276
 30
0.0
 10
325.9725584284552
 20
539.8713878028824
 30
0.0
  0
SPLINE
  5
E5
330
1F
100
AcDbEntity
  8
0
  6
Continuous
 62
     7
370
    25
100
AcDbSpline
210
0.0
220
0.0
230
1.0
 70
     8
 71
     3
 72
    14
 73
    10
 74
     0
 42
0.000000001
 43
0.00000001
 40
0.0
 40
0.0
 40
0.0
 40
0.0
 40
0.25
 40
0.25
 40
0.5
 40
0.5
 40
0.75
 40
0.75
 40
1.0
 40
1.0
 40
1.0
 40
1.0
 10
326.2029838864553
 20
525.1588508918823
 30
0.0
 10
328.1470470089553
 20
525.1582784352157
 30
0.0
 10
330.0844982103615
 20
525.1503714706583
 30
0.0
 10
333.6597033916116
 20
525.1210583697468
 30
0.0
 10
335.2960956497886
 20
525.099663512924
 30
0.0
 10
338.0245391781218
 20
525.0465592883406
 30
0.0
 10
339.1155347065697
 20
525.0148704686324
 30
0.0
 10
340.5898281005282
 20
524.9459042010542
 30
0.0
 10
340.9725584492887
 20
524.9086530228824
 30
0.0
 10
340.9725584284553
 20
524.8713878028823
 30
0.0
  0
SPLINE
  5
E6
330
1F
100
AcDbEntity
  8
0
  6
Continuous
 62
     7
370
    25
100
AcDbSpline
210
0.0
220
0.0
230
1.0
 70
     8
 71
     3
 72
    14
 73
    10
 74
     0
 42
0.000000001
 43
0.00000001
 40
0.0
 40
0.0
 40
0.0
 40
0.0
 40
0.25
 40
0.25
 40
0.5
 40
0.5
 40
0.75
 40
0.75
 40
1.0
 40
1.0
 40
1.0
 40
1.0
 10
175.7423479014553
 20
525.1555597868823
 30
0.0
 10
175.7429120081219
 20
527.0950246493823
 30
0.0
 10
175.7493224424917
 20
529.0265484200334
 30
0.0
 10
175.772891819028
 20
532.5894024658406
 30
0.0
 10
175.79004177608
 20
534.2193881883408
 30
0.0
 10
175.8325489073302
 20
536.936588052924
 30
0.0
 10
175.8578897860177
 20
538.0227605301426
 30
0.0
 10
175.9130167039083
 20
539.4904402900127
 30
0.0
 10
175.9427819376219
 20
539.8713878112156
 30
0.0
 10
175.9725582884553
 20
539.8713878028824
 30
0.0
  0
SPLINE
  5
E7
330
1F
100
AcDbEntity
  8
0
  6
Continuous
 62
     7
370
    25
100
AcDbSpline
210
0.0
220
0.0
230
1.0
 70
     8
 71
     3
 72
    30
 73
    26
 74
     0
 42
0.000000001
 43
0.00000001
 40
0.0
 40
0.0
 40
0.0
 40
0.0
 40
0.0168743251500694
 40
0.0327731289610821
 40
0.0476959628570117
 40
0.0616425726546854
 40
0.0746128676545135
 40
0.0866068915069533
 40
0.0976247951675079
 40
0.1076668122104664
 40
0.1167332367769633
 40
0.1827315107816328
 40
0.2402928146681582
 40
0.308137430983401
 40
0.3688944031635206
 40
0.500003347499555
 40
0.6311122918348009
 40
0.6959064148018105
 40
0.7597143592133354
 40
0.8222531130993744
 40
0.883274580331723
 40
0.9135950042716113
 40
0.9425853845316191
 40
0.9715098979257613
 40
1.0
 40
1.0
 40
1.0
 40
1.0
 10
175.7423478264459
 20
525.1555597888938
 30
0.0
 10
175.6112269583951
 20
525.1555190552474
 30
0.0
 10
175.3565654486813
 20
525.1554399428064
 30
0.0
 10
174.9863810643068
 20
525.1552041620596
 30
0.0
 10
174.6394630543971
 20
525.1548165150832
 30
0.0
 10
174.3158940081818
 20
525.1542611569619
 30
0.0
 10
174.0156772331845
 20
525.1535526020709
 30
0.0
 10
173.7387679493023
 20
525.1527254475284
 30
0.0
 10
173.4850820108619
 20
525.1518355707955
 30
0.0
 10
173.2544996614837
 20
525.150937297382
 30
0.0
 10
172.6049262505
 20
525.148434272312
 30
0.0
 10
171.6036097174992
 20
525.1440864038894
 30
0.0
 10
170.2016310552057
 20
525.1340390592203
 30
0.0
 10
168.8909496201045
 20
525.1227424118501
 30
0.0
 10
167.1593660865986
 20
525.102550123423
 30
0.0
 10
165.2101525795863
 20
525.0722507664492
 30
0.0
 10
163.6093189592843
 20
525.0343241821548
 30
0.0
 10
162.5994900817224
 20
525.0011544368173
 30
0.0
 10
161.9883241785884
 20
524.9754544378496
 30
0.0
 10
161.5226538538047
 20
524.9492371015901
 30
0.0
 10
161.25093307191
 20
524.9272282893935
 30
0.0
 10
161.1036922880559
 20
524.9095336472346
 30
0.0
 10
161.0276228007588
 20
524.8969481160703
 30
0.0
 10
160.9811063219612
 20
524.8833162298797
 30
0.0
 10
160.9753933176845
 20
524.8753438382721
 30
0.0
 10
160.9725584284552
 20
524.8713878028823
 30
0.0
  0
SPLINE
  5
E8
330
1F
100
AcDbEntity
  8
0
  6
Continuous
 62
     7
370
    25
100
AcDbSpline
210
0.0
220
0.0
230
1.0
 70
     8
 71
     3
 72
    36
 73
    32
 74
     0
 42
0.000000001
 43
0.00000001
 40
0.0
 40
0.0
 40
0.0
 40
0.0
 40
0.0225131458673702
 40
0.0462767711669313
 40
0.0712908985518624
 40
0.0975555401081791
 40
0.1250706941466276
 40
0.182725941329342
 40
0.2501830406229931
 40
0.3183546615927798
 40
0.3739475500951753
 40
0.4366009087521727
 40
0.4991476067446212
 40
0.5616001207253863
 40
0.5927381258213601
 40
0.6240087593948391
 40
0.6553249987528312
 40
0.6867509949054152
 40
0.7182437221981962
 40
0.749731608299502
 40
0.7811387642364372
 40
0.8125288354559307
 40
0.8438752142132679
 40
0.8536447128912249
 40
0.87519096987811
 40
0.9108044999668558
 40
0.9377548349140852
 40
0.9547649029851348
 40
0.9708091530643821
 40
0.985887524808517
 40
1.0
 40
1.0
 40
1.0
 40
1.0
 10
175.9231573594546
 20
154.8190382888817
 30
0.0
 10
175.9124968045435
 20
157.5987704973019
 30
0.0
 10
175.8905835604752
 20
163.3126335030427
 30
0.0
 10
175.8506266382016
 20
172.1149689941372
 30
0.0
 10
175.8044625959104
 20
181.3804532212751
 30
0.0
 10
175.751630950975
 20
191.1090818291475
 30
0.0
 10
175.6712900261398
 20
204.8678138610811
 30
0.0
 10
175.5527798527627
 20
223.7124130184157
 30
0.0
 10
175.3952658965977
 20
247.5767355269052
 30
0.0
 10
175.2324166826598
 20
271.1863029703101
 30
0.0
 10
175.0626044183037
 20
294.202624879833
 30
0.0
 10
174.8764744706307
 20
316.5241339843732
 30
0.0
 10
174.6289673864743
 20
339.6916013082048
 30
0.0
 10
174.3485068821082
 20
358.966610677665
 30
0.0
 10
174.0599911339807
 20
374.3788764875377
 30
0.0
 10
173.8172738250838
 20
385.9471692088479
 30
0.0
 10
173.5821137497404
 20
397.5515424293951
 30
0.0
 10
173.4045098790421
 20
409.1852301080813
 30
0.0
 10
173.3476644169595
 20
420.8421834563104
 30
0.0
 10
173.4403801110134
 20
432.4964001991265
 30
0.0
 10
173.6578431842569
 20
444.1350391934715
 30
0.0
 10
173.9451496827238
 20
455.7533425050489
 30
0.0
 10
174.1913346981157
 20
464.6999049707354
 30
0.0
 10
174.4096291920062
 20
472.4313899394009
 30
0.0
 10
174.6436923728617
 20
480.6891536636833
 30
0.0
 10
174.9352115638874
 20
491.0664892979631
 30
0.0
 10
175.1996762366306
 20
500.8844844018789
 30
0.0
 10
175.3847852140889
 20
508.2885523599622
 30
0.0
 10
175.522920521518
 20
514.2281890601355
 30
0.0
 10
175.6430262006422
 20
519.8107117204545
 30
0.0
 10
175.7099790863331
 20
523.4136833677978
 30
0.0
 10
175.742347826452
 20
525.1555597888862
 30
0.0
  0
SPLINE
  5
E9
330
1F
100
AcDbEntity
  8
0
  6
Continuous
 62
     7
370
    25
100
AcDbSpline
210
0.0
220
0.0
230
1.0
 70
     8
 71
     3
 72
    36
 73
    32
 74
     0
 42
0.000000001
 43
0.00000001
 40
0.0
 40
0.0
 40
0.0
 40
0.0
 40
0.0092002637480608
 40
0.0188794691807267
 40
0.0290376267701866
 40
0.0396747326573232
 40
0.0507907809841488
 40
0.0623857463527034
 40
0.0893719482058988
 40
0.124873439410276
 40
0.1467176278530492
 40
0.1560249948579462
 40
0.1873600192676533
 40
0.2187534504427512
 40
0.2502557976260325
 40
0.2817423828892484
 40
0.3132247126759928
 40
0.3445408624153135
 40
0.3758570233372132
 40
0.4070557871801807
 40
0.4382616586717629
 40
0.5006866896676117
 40
0.5631746740282388
 40
0.625686511447918
 40
0.6815340677170106
 40
0.7499146496247658
 40
0.8173705783675556
 40
0.8749708922864927
 40
0.9201199540679162
 40
0.9617963055526051
 40
1.0
 40
1.0
 40
1.0
 40
1.0
 10
326.2029830994543
 20
525.1588508918813
 30
0.0
 10
326.2238417626659
 20
524.023262687671
 30
0.0
 10
326.2666449365789
 20
521.6929705253513
 30
0.0
 10
326.3398135993073
 20
518.1091844081783
 30
0.0
 10
326.4214173084677
 20
514.3482880783595
 30
0.0
 10
326.5120390401435
 20
510.4103047469225
 30
0.0
 10
326.6115035603318
 20
506.2952316077705
 30
0.0
 10
326.7661680220879
 20
500.1630058107081
 30
0.0
 10
327.0119427134084
 20
491.0224194545198
 30
0.0
 10
327.303622255623
 20
480.6175811203112
 30
0.0
 10
327.5362473784933
 20
472.3937959985728
 30
0.0
 10
327.7536293679468
 20
464.6838819879492
 30
0.0
 10
327.9981265576706
 20
455.7952436041348
 30
0.0
 10
328.2859636939822
 20
444.1660886532662
 30
0.0
 10
328.5040906764872
 20
432.5153560289292
 30
0.0
 10
328.5970801304168
 20
420.8507337887871
 30
0.0
 10
328.5404744251729
 20
409.2086886826169
 30
0.0
 10
328.3633253307179
 20
397.589751697072
 30
0.0
 10
328.1287742533403
 20
386.0077132002655
 30
0.0
 10
327.8860363684442
 20
374.4398250082417
 30
0.0
 10
327.5974426454102
 20
359.0313175765721
 30
0.0
 10
327.3171046256854
 20
339.7584045813155
 30
0.0
 10
327.0699580115282
 20
316.6188546249404
 30
0.0
 10
326.8836855780094
 20
294.2904380563497
 30
0.0
 10
326.7133865857271
 20
271.2341539843753
 30
0.0
 10
326.5500292289059
 20
247.5672897459627
 30
0.0
 10
326.3923757641923
 20
223.6838931806874
 30
0.0
 10
326.2599551645496
 20
202.6688244960995
 30
0.0
 10
326.1579594488426
 20
184.8366020815549
 30
0.0
 10
326.0796862911646
 20
169.3991383343549
 30
0.0
 10
326.0406310283637
 20
159.5361542806213
 30
0.0
 10
326.0219523294571
 20
154.8190509698804
 30
0.0
  0
SPLINE
  5
EA
330
1F
100
AcDbEntity
  8
0
  6
Continuous
 62
     7
370
    25
100
AcDbSpline
210
0.0
220
0.0
230
1.0
 70
     8
 71
     3
 72
    13
 73
     9
 74
     0
 42
0.000000001
 43
0.00000001
 40
0.0
 40
0.0
 40
0.0
 40
0.0
 40
0.1550836965397269
 40
0.321208711366704
 40
0.4983753009817232
 40
0.752627256788361
 40
0.8811616722880717
 40
1.0
 40
1.0
 40
1.0
 40
1.0
 10
250.972558916961
 20
154.5306204148075
 30
0.0
 10
247.0928977164571
 20
154.5433014697526
 30
0.0
 10
239.0573594712487
 20
154.5695664183485
 30
0.0
 10
226.5897596306265
 20
154.6154971749384
 30
0.0
 10
211.6413480226402
 20
154.6745373312845
 30
0.0
 10
197.6333436315135
 20
154.733060793186
 30
0.0
 10
185.0844841858825
 20
154.7847940550811
 30
0.0
 10
178.8960788414007
 20
154.8079257698954
 30
0.0
 10
175.9231573594547
 20
154.8190382888817
 30
0.0
  0
SPLINE
  5
EB
330
1F
100
AcDbEntity
  8
0
  6
Continuous
 62
     7
370
    25
100
AcDbSpline
210
0.0
220
0.0
230
1.0
 70
     8
 71
     3
 72
    12
 73
     8
 74
     0
 42
0.000000001
 43
0.00000001
 40
0.0
 40
0.0
 40
0.0
 40
0.0
 40
0.1105477149007309
 40
0.2469594284494404
 40
0.4917103711800013
 40
0.7502324905504556
 40
1.0
 40
1.0
 40
1.0
 40
1.0
 10
326.0219523294571
 20
154.8190509698804
 30
0.0
 10
323.2564336263507
 20
154.8086422334341
 30
0.0
 10
317.0783690783978
 20
154.7853895085272
 30
0.0
 10
304.7775296616605
 20
154.7351863642617
 30
0.0
 10
288.7749238370828
 20
154.668332080393
 30
0.0
 10
269.9365356600484
 20
154.5932419755858
 30
0.0
 10
257.2208811079758
 20
154.5512531901981
 30
0.0
 10
250.972558914456
 20
154.5306203978756
 30
0.0
  0
SPLINE
  5
EC
330
1F
100
AcDbEntity
  8
0
  6
Continuous
 62
     7
370
    25
100
AcDbSpline
210
0.0
220
0.0
230
1.0
 70
     8
 71
     3
 72
    18
 73
    14
 74
     0
 42
0.000000001
 43
0.00000001
 40
0.0
 40
0.0
 40
0.0
 40
0.0
 40
0.0676990149006122
 40
0.1319615118739185
 40
0.192788414291792
 40
0.2501803931810582
 40
0.3843108317580787
 40
0.4998120482456423
 40
0.6285545316498355
 40
0.7503825960401804
 40
0.8342353994179997
 40
0.9174407252498318
 40
1.0
 40
1.0
 40
1.0
 40
1.0
 10
175.7423478264521
 20
525.1555597888862
 30
0.0
 10
177.4398618655779
 20
525.185555696421
 30
0.0
 10
180.7487212243011
 20
525.244024867858
 30
0.0
 10
185.5826938215098
 20
525.3286613947776
 30
0.0
 10
190.1582098067988
 20
525.4080833458263
 30
0.0
 10
196.485588210024
 20
525.5170847505614
 30
0.0
 10
204.1839953082351
 20
525.6454221862423
 30
0.0
 10
213.6719106670024
 20
525.7913882718159
 30
0.0
 10
222.8518731782838
 20
525.9133092327439
 30
0.0
 10
231.23870328565
 20
526.0026513419044
 30
0.0
 10
238.4838569409743
 20
526.0607160665227
 30
0.0
 10
244.7443500617759
 20
526.0979763606741
 30
0.0
 10
248.9018964364864
 20
526.1108497258793
 30
0.0
 10
250.9725678116243
 20
526.1172613221503
 30
0.0
  0
SPLINE
  5
ED
330
1F
100
AcDbEntity
  8
0
  6
Continuous
 62
     7
370
    25
100
AcDbSpline
210
0.0
220
0.0
230
1.0
 70
     8
 71
     3
 72
    18
 73
    14
 74
     0
 42
0.000000001
 43
0.00000001
 40
0.0
 40
0.0
 40
0.0
 40
0.0
 40
0.0495874921571032
 40
0.099378029724073
 40
0.1493720153755459
 40
0.1995697288134438
 40
0.2499714130061974
 40
0.3714502110999511
 40
0.4995467793469111
 40
0.6288851852786674
 40
0.7865300939487692
 40
0.8986324917389684
 40
1.0
 40
1.0
 40
1.0
 40
1.0
 10
250.9725677904547
 20
526.1172618518682
 30
0.0
 10
252.2162762266831
 20
526.1136865737722
 30
0.0
 10
254.7087856996768
 20
526.1065213779243
 30
0.0
 10
258.4551464792236
 20
526.0893593357671
 30
0.0
 10
262.2167597107657
 20
526.0674805976035
 30
0.0
 10
265.9936349001098
 20
526.040436316559
 30
0.0
 10
271.5632340955201
 20
525.9932256506805
 30
0.0
 10
279.0862180809106
 20
525.9133836783319
 30
0.0
 10
288.588243889553
 20
525.7877800696419
 30
0.0
 10
298.9965697024261
 20
525.6268840119304
 30
0.0
 10
309.0033310311924
 20
525.4588490476268
 30
0.0
 10
318.3086192306056
 20
525.2979193722499
 30
0.0
 10
323.661252166874
 20
525.203626463944
 30
0.0
 10
326.2029830994544
 20
525.1588508918812
 30
0.0
  0
LWPOLYLINE
  5
EE
330
1F
100
AcDbEntity
  8
0
  6
Continuous
 62
     7
370
    25
100
AcDbPolyline
 90
        3
 70
   128
 43
0.0
 10
250.9725583881
 20
359.8713904084
 10
250.9725553358
 20
359.6270605298
 10
250.9725522414
 20
359.3827306512
  0
SPLINE
  5
EF
330
1F
100
AcDbEntity
  8
0
  6
Continuous
 62
     7
370
    25
100
AcDbSpline
210
0.0
220
0.0
230
1.0
 70
     8
 71
     3
 72
    72
 73
    68
 74
     0
 42
0.000000001
 43
0.00000001
 40
0.0
 40
0.0
 40
0.0
 40
0.0
 40
0.0625000000000006
 40
0.0625000000000006
 40
0.0937500000000004
 40
0.0937500000000004
 40
0.1093750000000004
 40
0.1093750000000004
 40
0.1250000000000004
 40
0.1250000000000004
 40
0.1875000000000006
 40
0.1875000000000006
 40
0.2031250000000007
 40
0.2031250000000007
 40
0.2187500000000007
 40
0.2187500000000007
 40
0.2500000000000007
 40
0.2500000000000007
 40
0.3125000000000001
 40
0.3125000000000001
 40
0.3281250000000001
 40
0.3281250000000001
 40
0.3437500000000001
 40
0.3437500000000001
 40
0.3749999999999999
 40
0.3749999999999999
 40
0.4062499999999999
 40
0.4062499999999999
 40
0.4218750000000001
 40
0.4218750000000001
 40
0.4375000000000003
 40
0.4375000000000003
 40
0.5000000000000001
 40
0.5000000000000001
 40
0.5312500000000002
 40
0.5312500000000002
 40
0.5468750000000002
 40
0.5468750000000002
 40
0.5625000000000002
 40
0.5625000000000002
 40
0.6249999999999997
 40
0.6249999999999997
 40
0.6406249999999996
 40
0.6406249999999996
 40
0.6562499999999993
 40
0.6562499999999993
 40
0.6874999999999991
 40
0.6874999999999991
 40
0.7499999999999986
 40
0.7499999999999986
 40
0.7656249999999986
 40
0.7656249999999986
 40
0.7812499999999987
 40
0.7812499999999987
 40
0.8124999999999986
 40
0.8124999999999986
 40
0.8437499999999986
 40
0.8437499999999986
 40
0.8749999999999984
 40
0.8749999999999984
 40
0.9374999999999986
 40
0.9374999999999986
 40
0.9531249999999987
 40
0.9531249999999987
 40
0.9687499999999988
 40
0.9687499999999988
 40
1.0
 40
1.0
 40
1.0
 40
1.0
 10
250.9725584242521
 20
479.8713878028822
 30
0.0
 10
247.0090327377168
 20
479.8713878026046
 30
0.0
 10
243.1117342916522
 20
479.4825086828019
 30
0.0
 10
237.3610646028571
 20
478.3397280222115
 30
0.0
 10
235.4601724316968
 20
477.8648642334311
 30
0.0
 10
232.6333780634398
 20
477.0084495097351
 30
0.0
 10
231.6936124194259
 20
476.6983361146945
 30
0.0
 10
229.8295987375017
 20
476.0314721080109
 30
0.0
 10
228.9096159738245
 20
475.6763433917104
 30
0.0
 10
224.3686011272653
 20
473.7944202134869
 30
0.0
 10
220.9225895645258
 20
471.9518119145285
 30
0.0
 10
216.8464775890108
 20
469.2309999044067
 30
0.0
 10
216.0429294832038
 20
468.6657719604515
 30
0.0
 10
214.4595548099486
 20
467.4925120055335
 30
0.0
 10
213.6777224718246
 20
466.8828021148326
 30
0.0
 10
211.3843267365818
 20
465.0010163198328
 30
0.0
 10
209.9291478091989
 20
463.6808388878874
 30
0.0
 10
205.7779526957278
 20
459.5294998505414
 30
0.0
 10
203.2942496700786
 20
456.5093372802131
 30
0.0
 10
200.5527682815584
 20
452.4108606134633
 30
0.0
 10
200.0214321202924
 20
451.5724717898213
 30
0.0
 10
199.0053900607426
 20
449.8778772653159
 30
0.0
 10
198.5201784495996
 20
449.021203954392
 30
0.0
 10
197.1317084075045
 20
446.4235752358167
 30
0.0
 10
196.2954561749497
 20
444.6550762336335
 30
0.0
 10
194.7990303496432
 20
441.0456992734294
 30
0.0
 10
194.1388575139171
 20
439.2048210041866
 30
0.0
 10
193.2824517552614
 20
436.388481729588
 30
0.0
 10
193.0193315978379
 20
435.4405154173876
 30
0.0
 10
192.5385868045014
 20
433.525881385901
 30
0.0
 10
192.3206550850593
 20
432.5571454498216
 30
0.0
 10
191.3568491725194
 20
427.7170627891983
 30
0.0
 10
190.9752159787291
 20
423.8244807810979
 30
0.0
 10
190.9712502011975
 20
417.9556575769211
 30
0.0
 10
191.0653576550306
 20
415.994355543894
 30
0.0
 10
191.3540090741946
 20
413.0446320723226
 30
0.0
 10
191.4751084059727
 20
412.0594770764005
 30
0.0
 10
191.7639685108818
 20
410.1084277830444
 30
0.0
 10
191.9319403507829
 20
409.1397934909558
 30
0.0
 10
192.8875515028445
 20
404.3305010211924
 30
0.0
 10
194.0191466816341
 20
400.5905139539143
 30
0.0
 10
195.8950314893192
 20
396.0505728159293
 30
0.0
 10
196.2934849700759
 20
395.1493973025866
 30
0.0
 10
197.1378659618366
 20
393.3609412659385
 30
0.0
 10
197.583253953686
 20
392.475164497578
 30
0.0
 10
198.9757960033605
 20
389.8677174926834
 30
0.0
 10
199.9835470093497
 20
388.1863488265287
 30
0.0
 10
203.2392374453421
 20
383.3089208504728
 30
0.0
 10
205.717346551882
 20
380.277913393028
 30
0.0
 10
209.2144920003716
 20
376.7756371213758
 30
0.0
 10
209.9308897896694
 20
376.0929596286558
 30
0.0
 10
211.3893334685202
 20
374.7699727493277
 30
0.0
 10
212.132565391316
 20
374.1284682215427
 30
0.0
 10
214.4036694018925
 20
372.2630339228889
 30
0.0
 10
215.9728523467918
 20
371.0980444923996
 30
0.0
 10
219.220561122495
 20
368.9240707923926
 30
0.0
 10
220.8990836082525
 20
367.9150817503247
 30
0.0
 10
224.3677570203665
 20
366.0563697463531
 30
0.0
 10
226.1659810851625
 20
365.2041654157461
 30
0.0
 10
231.6183338648029
 20
362.9424854457029
 30
0.0
 10
235.3577154101781
 20
361.8064839951303
 30
0.0
 10
240.160906476084
 20
360.8453939052456
 30
0.0
 10
241.1280510636941
 20
360.6763284600235
 30
0.0
 10
243.0755487635464
 20
360.3851993705096
 30
0.0
 10
244.0570217383535
 20
360.2630277546765
 30
0.0
 10
247.0141928479839
 20
359.969332050796
 30
0.0
 10
248.990795569325
 20
359.8713878038108
 30
0.0
 10
250.9725584003438
 20
359.8713878028823
 30
0.0
  0
SPLINE
  5
F0
330
1F
100
AcDbEntity
  8
0
  6
Continuous
 62
     7
370
    25
100
AcDbSpline
210
0.0
220
0.0
230
1.0
 70
     8
 71
     3
 72
    72
 73
    68
 74
     0
 42
0.000000001
 43
0.00000001
 40
0.0
 40
0.0
 40
0.0
 40
0.0
 40
0.0624999999999965
 40
0.0624999999999965
 40
0.0937499999999952
 40
0.0937499999999952
 40
0.109374999999995
 40
0.109374999999995
 40
0.1249999999999948
 40
0.1249999999999948
 40
0.1874999999999946
 40
0.1874999999999946
 40
0.2031249999999948
 40
0.2031249999999948
 40
0.2187499999999949
 40
0.2187499999999949
 40
0.2499999999999951
 40
0.2499999999999951
 40
0.3124999999999955
 40
0.3124999999999955
 40
0.3281249999999955
 40
0.3281249999999955
 40
0.3437499999999954
 40
0.3437499999999954
 40
0.3749999999999958
 40
0.3749999999999958
 40
0.4062499999999961
 40
0.4062499999999961
 40
0.4218749999999962
 40
0.4218749999999962
 40
0.4374999999999963
 40
0.4374999999999963
 40
0.4999999999999963
 40
0.4999999999999963
 40
0.5312499999999962
 40
0.5312499999999962
 40
0.5468749999999962
 40
0.5468749999999962
 40
0.5624999999999961
 40
0.5624999999999961
 40
0.6249999999999958
 40
0.6249999999999958
 40
0.6406249999999958
 40
0.6406249999999958
 40
0.6562499999999957
 40
0.6562499999999957
 40
0.6874999999999957
 40
0.6874999999999957
 40
0.7499999999999957
 40
0.7499999999999957
 40
0.7656249999999958
 40
0.7656249999999958
 40
0.7812499999999959
 40
0.7812499999999959
 40
0.8124999999999967
 40
0.8124999999999967
 40
0.8437499999999973
 40
0.8437499999999973
 40
0.874999999999998
 40
0.874999999999998
 40
0.9374999999999994
 40
0.9374999999999994
 40
0.9531249999999998
 40
0.9531249999999998
 40
0.9687500000000002
 40
0.9687500000000002
 40
1.0
 40
1.0
 40
1.0
 40
1.0
 10
250.9725584395072
 20
359.8713878028823
 30
0.0
 10
254.9360841096676
 20
359.8713878036124
 30
0.0
 10
258.8333825886189
 20
360.260266923313
 30
0.0
 10
264.5840523374408
 20
361.4030476022699
 30
0.0
 10
266.4849445341243
 20
361.877911400304
 30
0.0
 10
269.3117389493937
 20
362.7343261457812
 30
0.0
 10
270.2515046368165
 20
363.0444395591161
 30
0.0
 10
272.1155182711005
 20
363.7113035552883
 30
0.0
 10
273.035501016537
 20
364.0664322670506
 30
0.0
 10
277.5765157973264
 20
365.9483554295651
 30
0.0
 10
281.0225273881697
 20
367.7909637381458
 30
0.0
 10
285.098639469281
 20
370.5117758400372
 30
0.0
 10
285.9021875997647
 20
371.0770038063581
 30
0.0
 10
287.4855623288192
 20
372.2502638155439
 30
0.0
 10
288.2673947159258
 20
372.8599737544063
 30
0.0
 10
290.5607903276016
 20
374.7417594719797
 30
0.0
 10
292.015969201932
 20
376.0619368640531
 30
0.0
 10
296.1671642229464
 20
380.2132758330886
 30
0.0
 10
298.6508672753789
 20
383.2334384247802
 30
0.0
 10
301.392348748036
 20
387.3319152587487
 30
0.0
 10
301.9236849207343
 20
388.170304113307
 30
0.0
 10
302.9397269240135
 20
389.8648985633872
 30
0.0
 10
303.4249385127885
 20
390.7215718422423
 30
0.0
 10
304.8134085018341
 20
393.3192004809645
 30
0.0
 10
305.6496607177109
 20
395.0876994516459
 30
0.0
 10
307.1460865320018
 20
398.697076398707
 30
0.0
 10
307.8062593734927
 20
400.5379546863354
 30
0.0
 10
308.6626651467231
 20
403.3542940321746
 30
0.0
 10
308.9257853099837
 20
404.3022603754122
 30
0.0
 10
309.4065301148912
 20
406.216894484435
 30
0.0
 10
309.624461828085
 20
407.1856304193255
 30
0.0
 10
310.5882676798774
 20
412.0257128699541
 30
0.0
 10
310.9699008810334
 20
415.9182948180032
 30
0.0
 10
310.9738666543308
 20
421.7871180978897
 30
0.0
 10
310.8797591967288
 20
423.7484201841227
 30
0.0
 10
310.591107755217
 20
426.6981437796492
 30
0.0
 10
310.4700084229831
 20
427.6832987368906
 30
0.0
 10
310.1811483251456
 20
429.6343479450607
 30
0.0
 10
310.0131764897358
 20
430.6029822024753
 30
0.0
 10
309.0575653595302
 20
435.4122745363803
 30
0.0
 10
307.9259701963297
 20
439.1522616143702
 30
0.0
 10
306.0500853248295
 20
443.6922028899573
 30
0.0
 10
305.6516318271122
 20
444.593378437094
 30
0.0
 10
304.8072507906782
 20
446.3818345535236
 30
0.0
 10
304.361862829041
 20
447.2676112512316
 30
0.0
 10
302.9693208340273
 20
449.8750581413538
 30
0.0
 10
301.9615698570273
 20
451.5564267625183
 30
0.0
 10
298.7058794646064
 20
456.4338546809057
 30
0.0
 10
296.2277703305685
 20
459.4648622026433
 30
0.0
 10
292.7306247037226
 20
462.9671386335586
 30
0.0
 10
292.0142269935989
 20
463.6498160452445
 30
0.0
 10
290.5557833728816
 20
464.9728028691716
 30
0.0
 10
289.81255147478
 20
465.6143073758855
 30
0.0
 10
287.5414475235345
 20
467.4797416281821
 30
0.0
 10
285.9722645985659
 20
468.6447310501962
 30
0.0
 10
282.7245558140436
 20
470.8187047640332
 30
0.0
 10
281.0460332995701
 20
471.8276938284843
 30
0.0
 10
277.577359770189
 20
473.6864058946423
 30
0.0
 10
275.7791357067144
 20
474.538610216814
 30
0.0
 10
270.3267831363191
 20
476.8002901006044
 30
0.0
 10
266.5874016310457
 20
477.9362915665189
 30
0.0
 10
261.7842104678966
 20
478.8973816849057
 30
0.0
 10
260.8170658533921
 20
479.0664471363164
 30
0.0
 10
258.8695680843539
 20
479.3575762370311
 30
0.0
 10
257.8880950247008
 20
479.4797478616867
 30
0.0
 10
254.9309239668404
 20
479.7734435565943
 30
0.0
 10
252.9543212753615
 20
479.8713878029641
 30
0.0
 10
250.9725584259795
 20
479.8713878028823
 30
0.0
  0
SPLINE
  5
F1
330
1F
100
AcDbEntity
  8
0
  6
Continuous
 62
     7
370
    25
100
AcDbSpline
210
0.0
220
0.0
230
1.0
 70
     8
 71
     3
 72
    14
 73
    10
 74
     0
 42
0.000000001
 43
0.00000001
 40
0.0
 40
0.0
 40
0.0
 40
0.0
 40
0.25
 40
0.25
 40
0.5
 40
0.5
 40
0.75
 40
0.75
 40
1.0
 40
1.0
 40
1.0
 40
1.0
 10
845.9863841024553
 20
154.8580095048823
 30
0.0
 10
845.986382489122
 20
152.8956297348823
 30
0.0
 10
845.9860214337573
 20
150.934364993601
 30
0.0
 10
845.9846348367781
 20
147.3093591534447
 30
0.0
 10
845.983609849122
 20
145.6470508559655
 30
0.0
 10
845.9810507507888
 20
142.8730635367988
 30
0.0
 10
845.9795176678824
 20
141.7624986858823
 30
0.0
 10
845.9761752215283
 20
140.2613609457259
 30
0.0
 10
845.9743671794553
 20
139.8713878028823
 30
0.0
 10
845.9725584294553
 20
139.8713878028823
 30
0.0
  0
SPLINE
  5
F2
330
1F
100
AcDbEntity
  8
0
  6
Continuous
 62
     7
370
    25
100
AcDbSpline
210
0.0
220
0.0
230
1.0
 70
     8
 71
     3
 72
    14
 73
    10
 74
     0
 42
0.000000001
 43
0.00000001
 40
0.0
 40
0.0
 40
0.0
 40
0.0
 40
0.25
 40
0.25
 40
0.5
 40
0.5
 40
0.75
 40
0.75
 40
1.0
 40
1.0
 40
1.0
 40
1.0
 10
860.9725584284553
 20
154.8713877868823
 30
0.0
 10
860.9725584284553
 20
154.8696377218823
 30
0.0
 10
860.5826002906689
 20
154.867888341101
 30
0.0
 10
859.081518125226
 20
154.8646543296948
 30
0.0
 10
857.9709937757469
 20
154.863170977299
 30
0.0
 10
855.1971005886636
 20
154.8606948714656
 30
0.0
 10
853.5348457988406
 20
154.8597031124032
 30
0.0
 10
849.9099425093355
 20
154.8583614308927
 30
0.0
 10
847.9487266616219
 20
154.8580120443823
 30
0.0
 10
845.9863842374554
 20
154.8580104318823
 30
0.0
  0
SPLINE
  5
F3
330
1F
100
AcDbEntity
  8
0
  6
Continuous
 62
     7
370
    25
100
AcDbSpline
210
0.0
220
0.0
230
1.0
 70
     8
 71
     3
 72
    14
 73
    10
 74
     0
 42
0.000000001
 43
0.00000001
 40
0.0
 40
0.0
 40
0.0
 40
0.0
 40
0.25
 40
0.25
 40
0.5
 40
0.5
 40
0.75
 40
0.75
 40
1.0
 40
1.0
 40
1.0
 40
1.0
 10
360.9725584284553
 20
154.8713878028823
 30
0.0
 10
360.9725584284553
 20
154.8693334964505
 30
0.0
 10
361.3624082512198
 20
154.8672799930313
 30
0.0
 10
362.8630892393149
 20
154.8634838483299
 30
0.0
 10
363.9733212169472
 20
154.8617427073603
 30
0.0
 10
366.7465348686448
 20
154.8588364849511
 30
0.0
 10
368.4084033835589
 20
154.8576725711369
 30
0.0
 10
372.0325663179324
 20
154.8560984170773
 30
0.0
 10
373.9934291640816
 20
154.8556888061451
 30
0.0
 10
375.9555019274042
 20
154.8556875928937
 30
0.0
  0
SPLINE
  5
F4
330
1F
100
AcDbEntity
  8
0
  6
Continuous
 62
     7
370
    25
100
AcDbSpline
210
0.0
220
0.0
230
1.0
 70
     8
 71
     3
 72
    14
 73
    10
 74
     0
 42
0.000000001
 43
0.00000001
 40
0.0
 40
0.0
 40
0.0
 40
0.0
 40
0.25
 40
0.25
 40
0.5
 40
0.5
 40
0.75
 40
0.75
 40
1.0
 40
1.0
 40
1.0
 40
1.0
 10
375.9725583934552
 20
139.8713878028823
 30
0.0
 10
375.9703283951219
 20
139.8713878028823
 30
0.0
 10
375.9680992683563
 20
140.261283095351
 30
0.0
 10
375.9639783166636
 20
141.7621324970698
 30
0.0
 10
375.9620881200803
 20
142.8724872122989
 30
0.0
 10
375.9589327763302
 20
145.6459861364656
 30
0.0
 10
375.957668895924
 20
147.308016813424
 30
0.0
 10
375.9559588891271
 20
150.9324905633719
 30
0.0
 10
375.9555134456219
 20
152.8935016103823
 30
0.0
 10
375.9555111114553
 20
154.8556875928823
 30
0.0
  0
SPLINE
  5
F5
330
1F
100
AcDbEntity
  8
0
  6
Continuous
 62
     7
370
    25
100
AcDbSpline
210
0.0
220
0.0
230
1.0
 70
     8
 71
     3
 72
    14
 73
    10
 74
     0
 42
0.000000001
 43
0.00000001
 40
0.0
 40
0.0
 40
0.0
 40
0.0
 40
0.25
 40
0.25
 40
0.5
 40
0.5
 40
0.75
 40
0.75
 40
1.0
 40
1.0
 40
1.0
 40
1.0
 10
845.9983508204552
 20
524.8938147908824
 30
0.0
 10
847.959693962122
 20
524.8938097492157
 30
0.0
 10
849.9196020613615
 20
524.8932222693979
 30
0.0
 10
853.5417629149553
 20
524.8909708551012
 30
0.0
 10
855.2025870098719
 20
524.889307818174
 30
0.0
 10
857.9739634240386
 20
524.8851571060907
 30
0.0
 10
859.0834049836427
 20
524.8826710942781
 30
0.0
 10
860.5830014172366
 20
524.8772516120647
 30
0.0
 10
860.9725584284552
 20
524.8743202795489
 30
0.0
 10
860.9725584284553
 20
524.8713878028823
 30
0.0
  0
SPLINE
  5
F6
330
1F
100
AcDbEntity
  8
0
  6
Continuous
 62
     7
370
    25
100
AcDbSpline
210
0.0
220
0.0
230
1.0
 70
     8
 71
     3
 72
    14
 73
    10
 74
     0
 42
0.000000001
 43
0.00000001
 40
0.0
 40
0.0
 40
0.0
 40
0.0
 40
0.25
 40
0.25
 40
0.5
 40
0.5
 40
0.75
 40
0.75
 40
1.0
 40
1.0
 40
1.0
 40
1.0
 10
845.9725584354553
 20
539.8713878028824
 30
0.0
 10
845.975931684622
 20
539.8713878028824
 30
0.0
 10
845.9793036164865
 20
539.4817178090136
 30
0.0
 10
845.9855375402366
 20
537.981702886178
 30
0.0
 10
845.9883970717887
 20
536.8719563313462
 30
0.0
 10
845.9931711301218
 20
534.0998709659318
 30
0.0
 10
845.9950837423198
 20
532.4386438403799
 30
0.0
 10
845.9976725100282
 20
528.8157103544138
 30
0.0
 10
845.9983476329553
 20
526.8554337772182
 30
0.0
 10
845.9983526754553
 20
524.8938089938824
 30
0.0
  0
SPLINE
  5
F7
330
1F
100
AcDbEntity
  8
0
  6
Continuous
 62
     7
370
    25
100
AcDbSpline
210
0.0
220
0.0
230
1.0
 70
     8
 71
     3
 72
    14
 73
    10
 74
     0
 42
0.000000001
 43
0.00000001
 40
0.0
 40
0.0
 40
0.0
 40
0.0
 40
0.25
 40
0.25
 40
0.5
 40
0.5
 40
0.75
 40
0.75
 40
1.0
 40
1.0
 40
1.0
 40
1.0
 10
360.9725584284553
 20
524.8713878048823
 30
0.0
 10
360.9725584284552
 20
524.875107294049
 30
0.0
 10
361.3619103240281
 20
524.8788253343407
 30
0.0
 10
362.8607469853823
 20
524.8856995781426
 30
0.0
 10
363.9696348151219
 20
524.8888530729657
 30
0.0
 10
366.7397240267885
 20
524.894118818799
 30
0.0
 10
368.3998163282781
 20
524.896228961497
 30
0.0
 10
372.0205741286948
 20
524.899086708424
 30
0.0
 10
373.9798130069552
 20
524.8998331747157
 30
0.0
 10
375.9406444794552
 20
524.8998410888823
 30
0.0
  0
SPLINE
  5
F8
330
1F
100
AcDbEntity
  8
0
  6
Continuous
 62
     7
370
    25
100
AcDbSpline
210
0.0
220
0.0
230
1.0
 70
     8
 71
     3
 72
    14
 73
    10
 74
     0
 42
0.000000001
 43
0.00000001
 40
0.0
 40
0.0
 40
0.0
 40
0.0
 40
0.25
 40
0.25
 40
0.5
 40
0.5
 40
0.75
 40
0.75
 40
1.0
 40
1.0
 40
1.0
 40
1.0
 10
375.9725584284552
 20
539.87138780285
 30
0.0
 10
375.9683877618497
 20
539.8713837354409
 30
0.0
 10
375.9642187231653
 20
539.481912865831
 30
0.0
 10
375.9565103321833
 20
537.9826430514838
 30
0.0
 10
375.9529740164763
 20
536.873441562137
 30
0.0
 10
375.9470683427871
 20
534.1026254625532
 30
0.0
 10
375.9447013479366
 20
532.44212087239
 30
0.0
 10
375.9414943331041
 20
528.8205738695037
 30
0.0
 10
375.9406555971344
 20
526.8609592123705
 30
0.0
 10
375.9406444688093
 20
524.8998410303451
 30
0.0
  0
SPLINE
  5
F9
330
1F
100
AcDbEntity
  8
0
  6
Continuous
 62
     7
370
    25
100
AcDbSpline
210
0.0
220
0.0
230
1.0
 70
     8
 71
     3
 72
    22
 73
    18
 74
     0
 42
0.000000001
 43
0.00000001
 40
0.0
 40
0.0
 40
0.0
 40
0.0
 40
0.015625
 40
0.015625
 40
0.03125
 40
0.03125
 40
0.0625
 40
0.0625
 40
0.1250000000000001
 40
0.1250000000000001
 40
0.2500000000000001
 40
0.2500000000000001
 40
0.5000000000000001
 40
0.5000000000000001
 40
0.75
 40
0.75
 40
1.0
 40
1.0
 40
1.0
 40
1.0
 10
845.9863842374554
 20
154.8580104318823
 30
0.0
 10
845.9882817753054
 20
156.8156137944958
 30
0.0
 10
845.9902220663487
 20
158.7497776450038
 30
0.0
 10
845.9942019848521
 20
162.6041811748425
 30
0.0
 10
845.9962481868912
 20
164.5307044048195
 30
0.0
 10
846.0025362383641
 20
170.3112695335755
 30
0.0
 10
846.006925936374
 20
174.1650053691917
 30
0.0
 10
846.0205193833131
 20
185.7262887899539
 30
0.0
 10
846.0301426952757
 20
193.4339117161654
 30
0.0
 10
846.0595141446696
 20
216.5571088207264
 30
0.0
 10
846.0797223855823
 20
231.9730330174971
 30
0.0
 10
846.1351748305366
 20
278.2222318538239
 30
0.0
 10
846.1644256414254
 20
309.0562059899106
 30
0.0
 10
846.181792773744
 20
370.726041588047
 30
0.0
 10
846.1686857330717
 20
401.561076818564
 30
0.0
 10
846.1025216805331
 20
463.2296827892548
 30
0.0
 10
846.0486333463944
 20
494.0627989695453
 30
0.0
 10
845.9983508204552
 20
524.8938147908824
 30
0.0
  0
SPLINE
  5
FA
330
1F
100
AcDbEntity
  8
0
  6
Continuous
 62
     7
370
    25
100
AcDbSpline
210
0.0
220
0.0
230
1.0
 70
     8
 71
     3
 72
    32
 73
    28
 74
     0
 42
0.000000001
 43
0.00000001
 40
0.0
 40
0.0
 40
0.0
 40
0.0
 40
0.0078125
 40
0.0078125
 40
0.015625
 40
0.015625
 40
0.03125
 40
0.03125
 40
0.0624999999999999
 40
0.0624999999999999
 40
0.0937499999999998
 40
0.0937499999999998
 40
0.1093749999999998
 40
0.1093749999999998
 40
0.1249999999999998
 40
0.1249999999999998
 40
0.1562499999999997
 40
0.1562499999999997
 40
0.1718749999999996
 40
0.1718749999999996
 40
0.1874999999999996
 40
0.1874999999999996
 40
0.2499999999999997
 40
0.2499999999999997
 40
0.4999999999999998
 40
0.4999999999999998
 40
1.0
 40
1.0
 40
1.0
 40
1.0
 10
610.9725598924106
 20
154.5305239635521
 30
0.0
 10
611.5890575067119
 20
154.5306125684106
 30
0.0
 10
612.2001843687428
 20
154.5307142732489
 30
0.0
 10
613.4242530003843
 20
154.5309442961045
 30
0.0
 10
614.0367346524928
 20
154.5310725807405
 30
0.0
 10
615.874855921827
 20
154.5314962705746
 30
0.0
 10
617.0996841814032
 20
154.531830429424
 30
0.0
 10
620.7745918829564
 20
154.5329788402197
 30
0.0
 10
623.2235561053484
 20
154.5339381802822
 30
0.0
 10
628.1225710806233
 20
154.5361974006947
 30
0.0
 10
630.5720140877354
 20
154.5374957072942
 30
0.0
 10
634.246206696213
 20
154.5396926859777
 30
0.0
 10
635.4708927798138
 20
154.5404673775372
 30
0.0
 10
637.9131325665043
 20
154.5421063600461
 30
0.0
 10
639.1307947829999
 20
154.5429706612185
 30
0.0
 10
642.7752014208688
 20
154.5457012701279
 30
0.0
 10
645.1938202748511
 20
154.5477068256961
 30
0.0
 10
648.8386929597984
 20
154.5509795903938
 30
0.0
 10
650.0565735127892
 20
154.5521142066869
 30
0.0
 10
652.499199702879
 20
154.5544638592047
 30
0.0
 10
653.7240280388207
 20
154.5556788451064
 30
0.0
 10
659.8478116051814
 20
154.5619295479534
 30
0.0
 10
664.7467272617346
 20
154.5675046052945
 30
0.0
 10
689.2411904212094
 20
154.5980174294381
 30
0.0
 10
708.8365069059957
 20
154.6309859220968
 30
0.0
 10
767.6194528267124
 20
154.7379637076887
 30
0.0
 10
806.8035053632741
 20
154.8200293303312
 30
0.0
 10
845.9863841024553
 20
154.8580095048823
 30
0.0
  0
SPLINE
  5
FB
330
1F
100
AcDbEntity
  8
0
  6
Continuous
 62
     7
370
    25
100
AcDbSpline
210
0.0
220
0.0
230
1.0
 70
     8
 71
     3
 72
    58
 73
    54
 74
     0
 42
0.000000001
 43
0.00000001
 40
0.0
 40
0.0
 40
0.0
 40
0.0
 40
0.0625000000000002
 40
0.0625000000000002
 40
0.0781250000000002
 40
0.0781250000000002
 40
0.0937500000000003
 40
0.0937500000000003
 40
0.1093750000000003
 40
0.1093750000000003
 40
0.1250000000000004
 40
0.1250000000000004
 40
0.1406250000000004
 40
0.1406250000000004
 40
0.1562500000000004
 40
0.1562500000000004
 40
0.1875000000000004
 40
0.1875000000000004
 40
0.2187500000000004
 40
0.2187500000000004
 40
0.2500000000000004
 40
0.2500000000000004
 40
0.2812500000000004
 40
0.2812500000000004
 40
0.3125000000000003
 40
0.3125000000000003
 40
0.3750000000000003
 40
0.3750000000000003
 40
0.4375000000000003
 40
0.4375000000000003
 40
0.5000000000000002
 40
0.5000000000000002
 40
0.5625000000000002
 40
0.5625000000000002
 40
0.59375
 40
0.59375
 40
0.6249999999999999
 40
0.6249999999999999
 40
0.6874999999999999
 40
0.6874999999999999
 40
0.7499999999999998
 40
0.7499999999999998
 40
0.8124999999999998
 40
0.8124999999999998
 40
0.84375
 40
0.84375
 40
0.8750000000000002
 40
0.8750000000000002
 40
0.9375000000000001
 40
0.9375000000000001
 40
0.9687500000000001
 40
0.9687500000000001
 40
1.0
 40
1.0
 40
1.0
 40
1.0
 10
610.9725599058977
 20
154.5305260182318
 30
0.0
 10
606.071857277501
 20
154.5310315814753
 30
0.0
 10
601.1712209669681
 20
154.5323327911249
 30
0.0
 10
595.0458181965845
 20
154.5348143857885
 30
0.0
 10
593.8174580328714
 20
154.5353560676598
 30
0.0
 10
591.3821777116984
 20
154.5365118859028
 30
0.0
 10
590.1791754290626
 20
154.537123543809
 30
0.0
 10
587.8004652937603
 20
154.5384184304033
 30
0.0
 10
586.6234276937299
 20
154.5391026176613
 30
0.0
 10
584.2616627772783
 20
154.5405684844773
 30
0.0
 10
583.0756057134931
 20
154.5413511226057
 30
0.0
 10
580.6703668183904
 20
154.5430309867347
 30
0.0
 10
579.4498552397089
 20
154.5439291713062
 30
0.0
 10
576.9997137798101
 20
154.5458196408198
 30
0.0
 10
575.7744482829454
 20
154.5468087028317
 30
0.0
 10
572.0855778029365
 20
154.5499116473797
 30
0.0
 10
569.6064393504734
 20
154.5521632089396
 30
0.0
 10
564.6102090441095
 20
154.5569991700416
 30
0.0
 10
562.0951455387179
 20
154.5595817954587
 30
0.0
 10
557.0774784531504
 20
154.5650104123287
 30
0.0
 10
554.5769032214836
 20
154.567854629655
 30
0.0
 10
549.6223026542399
 20
154.5737572842065
 30
0.0
 10
547.1701589965718
 20
154.5768140771487
 30
0.0
 10
542.2699424743805
 20
154.5831657510791
 30
0.0
 10
539.8192685821302
 20
154.5864633463566
 30
0.0
 10
532.4551805884593
 20
154.5967090038748
 30
0.0
 10
527.5279371148157
 20
154.6040131260462
 30
0.0
 10
517.6421155551669
 20
154.6193995984829
 30
0.0
 10
512.685251899567
 20
154.6274793343243
 30
0.0
 10
502.7838317850109
 20
154.6441720149316
 30
0.0
 10
497.84098975646
 20
154.652782345268
 30
0.0
 10
487.9956663976735
 20
154.6702989777183
 30
0.0
 10
483.0942717516413
 20
154.6792036821999
 30
0.0
 10
475.745187409113
 20
154.6926662715649
 30
0.0
 10
473.2972551954874
 20
154.6971690062299
 30
0.0
 10
468.4155462794778
 20
154.706160656799
 30
0.0
 10
465.9816828238621
 20
154.7106497151588
 30
0.0
 10
458.7038762940353
 20
154.7240545280876
 30
0.0
 10
453.8852324453071
 20
154.7329045277498
 30
0.0
 10
444.2649128124787
 20
154.7503346970353
 30
0.0
 10
439.4604609246375
 20
154.7589194253816
 30
0.0
 10
429.7983075422461
 20
154.7757852873434
 30
0.0
 10
424.9378299441923
 20
154.7840709796162
 30
0.0
 10
417.605591029527
 20
154.7961843271519
 30
0.0
 10
415.1554813907157
 20
154.80016839128
 30
0.0
 10
410.2560398608545
 20
154.8079953885476
 30
0.0
 10
407.8064555453652
 20
154.8118383138421
 30
0.0
 10
400.4576833782886
 20
154.8231315201321
 30
0.0
 10
395.5582650046808
 20
154.8303597073098
 30
0.0
 10
388.2087902964548
 20
154.8405138988687
 30
0.0
 10
385.7588663437736
 20
154.8437824283896
 30
0.0
 10
380.8604876955914
 20
154.8499916719885
 30
0.0
 10
378.4132688134185
 20
154.852926244752
 30
0.0
 10
375.9555111114553
 20
154.8556875928823
 30
0.0
  0
SPLINE
  5
FC
330
1F
100
AcDbEntity
  8
0
  6
Continuous
 62
     7
370
    25
100
AcDbSpline
210
0.0
220
0.0
230
1.0
 70
     8
 71
     3
 72
    68
 73
    64
 74
     0
 42
0.000000001
 43
0.00000001
 40
0.0
 40
0.0
 40
0.0
 40
0.0
 40
0.015625
 40
0.015625
 40
0.03125
 40
0.03125
 40
0.046875
 40
0.046875
 40
0.0625
 40
0.0625
 40
0.078125
 40
0.078125
 40
0.09375
 40
0.09375
 40
0.1093749999999999
 40
0.1093749999999999
 40
0.1249999999999999
 40
0.1249999999999999
 40
0.2499999999999999
 40
0.2499999999999999
 40
0.3124999999999999
 40
0.3124999999999999
 40
0.3437499999999999
 40
0.3437499999999999
 40
0.3750000000000001
 40
0.3750000000000001
 40
0.4062500000000002
 40
0.4062500000000002
 40
0.4375000000000002
 40
0.4375000000000002
 40
0.4687500000000003
 40
0.4687500000000003
 40
0.5000000000000004
 40
0.5000000000000004
 40
0.5312500000000006
 40
0.5312500000000006
 40
0.5625000000000007
 40
0.5625000000000007
 40
0.6250000000000007
 40
0.6250000000000007
 40
0.6562500000000008
 40
0.6562500000000008
 40
0.6718750000000008
 40
0.6718750000000008
 40
0.6875000000000008
 40
0.6875000000000008
 40
0.7500000000000009
 40
0.7500000000000009
 40
0.812500000000001
 40
0.812500000000001
 40
0.8437500000000011
 40
0.8437500000000011
 40
0.8750000000000011
 40
0.8750000000000011
 40
0.9062500000000009
 40
0.9062500000000009
 40
0.9375000000000007
 40
0.9375000000000007
 40
0.9687500000000004
 40
0.9687500000000004
 40
0.9843750000000002
 40
0.9843750000000002
 40
1.0
 40
1.0
 40
1.0
 40
1.0
 10
375.9406444794552
 20
524.8998410888823
 30
0.0
 10
375.936848503029
 20
522.987471419824
 30
0.0
 10
375.9329690898809
 20
521.0750648409929
 30
0.0
 10
375.9251216571369
 20
517.2503036119391
 30
0.0
 10
375.9211814029818
 20
515.3382222411931
 30
0.0
 10
375.9132176901493
 20
511.4379595774257
 30
0.0
 10
375.9091951986338
 20
509.4511695502052
 30
0.0
 10
375.901152912266
 20
505.4288858367792
 30
0.0
 10
375.8971364573786
 20
503.3955104180289
 30
0.0
 10
375.8892455898448
 20
499.3512027479406
 30
0.0
 10
375.8853745171633
 20
497.3423887640579
 30
0.0
 10
375.8778622594588
 20
493.3970993262448
 30
0.0
 10
375.8742244144007
 20
491.4627421397697
 30
0.0
 10
375.8671147582546
 20
487.6314621717992
 30
0.0
 10
375.8636194379989
 20
485.7214877154127
 30
0.0
 10
375.8567310732352
 20
481.8965826512348
 30
0.0
 10
375.8533425838596
 20
479.9841213345276
 30
0.0
 10
375.8233965629322
 20
462.7719078470436
 30
0.0
 10
375.8007741388879
 20
447.4718054231346
 30
0.0
 10
375.7755355861802
 20
424.5213623214702
 30
0.0
 10
375.7685495230602
 20
416.8711667351398
 30
0.0
 10
375.7603257666866
 20
405.3958501902073
 30
0.0
 10
375.757959024746
 20
401.5707408033512
 30
0.0
 10
375.7539811938296
 20
393.9205195452165
 30
0.0
 10
375.7523704528231
 20
390.0946446255415
 30
0.0
 10
375.7498937662334
 20
382.425017672616
 30
0.0
 10
375.7490277854245
 20
378.5816983902236
 30
0.0
 10
375.7480195269736
 20
370.884133958834
 30
0.0
 10
375.7478772202755
 20
367.0303399294303
 30
0.0
 10
375.7482866709551
 20
359.3278262059678
 30
0.0
 10
375.7488383992763
 20
355.4795576315025
 30
0.0
 10
375.7505985934189
 20
347.7995736495732
 30
0.0
 10
375.7518070301841
 20
343.9683093617026
 30
0.0
 10
375.7548364988443
 20
336.3157578265249
 30
0.0
 10
375.7566541360802
 20
332.4961393731303
 30
0.0
 10
375.7608858394701
 20
324.8082120895955
 30
0.0
 10
375.7633013707326
 20
320.9386654349432
 30
0.0
 10
375.7713695548262
 20
309.2614170449778
 30
0.0
 10
375.7778399081016
 20
301.3917163083775
 30
0.0
 10
375.7886965610632
 20
289.7389779471292
 30
0.0
 10
375.7925067504146
 20
285.8806379071475
 30
0.0
 10
375.7984740806826
 20
280.1266216769589
 30
0.0
 10
375.8005055444972
 20
278.2136722409725
 30
0.0
 10
375.8046527968215
 20
274.388771367542
 30
0.0
 10
375.8067689245099
 20
272.4763382733607
 30
0.0
 10
375.8175403169637
 20
262.914157828514
 30
0.0
 10
375.8267637084238
 20
255.264482200639
 30
0.0
 10
375.8459338738368
 20
239.9653392824419
 30
0.0
 10
375.8558820507937
 20
232.3158708571878
 30
0.0
 10
375.8710417172307
 20
220.841817118048
 30
0.0
 10
375.8761321684499
 20
217.0191760311269
 30
0.0
 10
375.8863588394366
 20
209.3648289358017
 30
0.0
 10
375.8915142587751
 20
205.5203712730644
 30
0.0
 10
375.9018995429609
 20
197.7537928028613
 30
0.0
 10
375.907125891507
 20
193.8337119723238
 30
0.0
 10
375.9174942384913
 20
185.9625725112591
 30
0.0
 10
375.9226327206285
 20
182.0135538576601
 30
0.0
 10
375.9326299873785
 20
174.1557250928268
 30
0.0
 10
375.9374852556902
 20
170.2489549585208
 30
0.0
 10
375.9444635773777
 20
164.4448221879291
 30
0.0
 10
375.946739789369
 20
162.5189703828241
 30
0.0
 10
375.9511923697011
 20
158.6804687328211
 30
0.0
 10
375.9533686281574
 20
156.7678826372022
 30
0.0
 10
375.955501927404
 20
154.8556875928937
 30
0.0
  0
SPLINE
  5
FD
330
1F
100
AcDbEntity
  8
0
  6
Continuous
 62
     7
370
    25
100
AcDbSpline
210
0.0
220
0.0
230
1.0
 70
     8
 71
     3
 72
    49
 73
    45
 74
     0
 42
0.000000001
 43
0.00000001
 40
0.0
 40
0.0
 40
0.0
 40
0.0
 40
0.03125
 40
0.03125
 40
0.0625
 40
0.0625
 40
0.125
 40
0.125
 40
0.1406249999999999
 40
0.1406249999999999
 40
0.1562499999999999
 40
0.1562499999999999
 40
0.1874999999999998
 40
0.1874999999999998
 40
0.2031249999999998
 40
0.2031249999999998
 40
0.2187499999999998
 40
0.2187499999999998
 40
0.2343749999999998
 40
0.2343749999999998
 40
0.2499999999999998
 40
0.2499999999999998
 40
0.3124999999999998
 40
0.3124999999999998
 40
0.3749999999999999
 40
0.3749999999999999
 40
0.4374999999999999
 40
0.4374999999999999
 40
0.5
 40
0.5
 40
0.5312499999999999
 40
0.5312499999999999
 40
0.5624999999999998
 40
0.5624999999999998
 40
0.5937499999999997
 40
0.5937499999999997
 40
0.6249999999999996
 40
0.6249999999999996
 40
0.6562499999999994
 40
0.6562499999999994
 40
0.6874999999999993
 40
0.7499999999999996
 40
0.7499999999999996
 40
1.0
 40
1.0
 40
1.0
 40
1.0
 10
610.9725556257076
 20
526.1158870250403
 30
0.0
 10
613.426469879148
 20
526.1184870785652
 30
0.0
 10
615.8777661976437
 20
526.118679738182
 30
0.0
 10
620.7841965498285
 20
526.113516137644
 30
0.0
 10
623.2390676794387
 20
526.1081773422774
 30
0.0
 10
630.6057097368673
 20
526.0845072747793
 30
0.0
 10
635.5163500217337
 20
526.058525827134
 30
0.0
 10
641.6384366422888
 20
526.0188389905599
 30
0.0
 10
642.8618201558739
 20
526.0105452044186
 30
0.0
 10
645.3104821682591
 20
525.9933340372445
 30
0.0
 10
646.5384782489734
 20
525.9843969402662
 30
0.0
 10
650.2500174854412
 20
525.9566519860462
 30
0.0
 10
652.7636655475677
 20
525.9368990350562
 30
0.0
 10
656.523689040055
 20
525.9065391082352
 30
0.0
 10
657.7740969956959
 20
525.8963045902912
 30
0.0
 10
660.2581206334391
 20
525.8757678380978
 30
0.0
 10
661.4913674508356
 20
525.8654685039263
 30
0.0
 10
663.9442160962153
 20
525.844835544693
 30
0.0
 10
665.1656705074988
 20
525.834486578035
 30
0.0
 10
667.6113066948204
 20
525.8136709077176
 30
0.0
 10
668.8338979532197
 20
525.8032171856489
 30
0.0
 10
674.9444291947232
 20
525.7508479024833
 30
0.0
 10
679.8234317661772
 20
525.7086780806776
 30
0.0
 10
689.5601573564529
 20
525.6262899816304
 30
0.0
 10
694.418908345138
 20
525.5860635530652
 30
0.0
 10
704.1398303731484
 20
525.5089622469175
 30
0.0
 10
709.0030293823693
 20
525.4720792179817
 30
0.0
 10
718.7517863314001
 20
525.4022252292424
 30
0.0
 10
723.6383722268769
 20
525.3692461182287
 30
0.0
 10
730.9717746060651
 20
525.3226856806531
 30
0.0
 10
733.4175579239715
 20
525.3076360534296
 30
0.0
 10
738.3235055672787
 20
525.278345416759
 30
0.0
 10
740.7831059624879
 20
525.2641082734525
 30
0.0
 10
745.7064617090443
 20
525.2364750185966
 30
0.0
 10
748.1696531301998
 20
525.2230827731994
 30
0.0
 10
753.0860353009333
 20
525.1972128449647
 30
0.0
 10
755.5386621203197
 20
525.1847390282907
 30
0.0
 10
760.432747789185
 20
525.1607046203941
 30
0.0
 10
762.8761293834276
 20
525.1491333116503
 30
0.0
 10
767.765409941057
 20
525.1267998600606
 30
0.0
 10
775.0993873854097
 20
525.0945343956568
 30
0.0
 10
782.4334961754515
 20
525.0657908510595
 30
0.0
 10
806.8807735728222
 20
524.9768513670151
 30
0.0
 10
826.4398425978907
 20
524.9257464415986
 30
0.0
 10
845.9983526754553
 20
524.8938089938824
 30
0.0
  0
SPLINE
  5
FE
330
1F
100
AcDbEntity
  8
0
  6
Continuous
 62
     7
370
    25
100
AcDbSpline
210
0.0
220
0.0
230
1.0
 70
     8
 71
     3
 72
    58
 73
    54
 74
     0
 42
0.000000001
 43
0.00000001
 40
0.0
 40
0.0
 40
0.0
 40
0.0
 40
0.0624999999999994
 40
0.0624999999999994
 40
0.093749999999999
 40
0.093749999999999
 40
0.1249999999999987
 40
0.1249999999999987
 40
0.1562499999999984
 40
0.1562499999999984
 40
0.1874999999999981
 40
0.1874999999999981
 40
0.2187499999999978
 40
0.2187499999999978
 40
0.2499999999999974
 40
0.2499999999999974
 40
0.2656249999999973
 40
0.2656249999999973
 40
0.2812499999999971
 40
0.2812499999999971
 40
0.3124999999999971
 40
0.3124999999999971
 40
0.3749999999999972
 40
0.3749999999999972
 40
0.4999999999999973
 40
0.4999999999999973
 40
0.6249999999999972
 40
0.6249999999999972
 40
0.6406249999999974
 40
0.6406249999999974
 40
0.6562499999999977
 40
0.6562499999999977
 40
0.6718749999999978
 40
0.6718749999999978
 40
0.687499999999998
 40
0.687499999999998
 40
0.7031249999999981
 40
0.7031249999999981
 40
0.7187499999999983
 40
0.7187499999999983
 40
0.7499999999999986
 40
0.7499999999999986
 40
0.8749999999999993
 40
0.8749999999999993
 40
0.9374999999999998
 40
0.9374999999999998
 40
0.9531249999999998
 40
0.9531249999999998
 40
0.9687499999999999
 40
0.9687499999999999
 40
0.9843749999999999
 40
0.9843749999999999
 40
1.0
 40
1.0
 40
1.0
 40
1.0
 10
375.9406444688093
 20
524.8998410303451
 30
0.0
 10
380.801981599426
 20
524.9095257413751
 30
0.0
 10
385.6076875880667
 20
524.9202694930049
 30
0.0
 10
392.8407373605925
 20
524.938424905164
 30
0.0
 10
395.2571671015366
 20
524.9448130191547
 30
0.0
 10
400.1152356483857
 20
524.9582633180195
 30
0.0
 10
402.5573579772765
 20
524.9653262414242
 30
0.0
 10
407.4608994882715
 20
524.9800511175583
 30
0.0
 10
409.9196707522181
 20
524.9877024350013
 30
0.0
 10
414.8327828834848
 20
525.0034936458677
 30
0.0
 10
417.2893258912245
 20
525.0116412780881
 30
0.0
 10
422.2024420047628
 20
525.028496728388
 30
0.0
 10
424.6606782098397
 20
525.0372121679949
 30
0.0
 10
429.5694080452905
 20
525.0552765380623
 30
0.0
 10
432.0116772817324
 20
525.0646002766707
 30
0.0
 10
435.6758632571495
 20
525.0791112226013
 30
0.0
 10
436.8981871254086
 20
525.0840378202215
 30
0.0
 10
439.3482154279204
 20
525.0940795717704
 30
0.0
 10
440.5761433562159
 20
525.0991954527773
 30
0.0
 10
444.2610562361743
 20
525.114793480214
 30
0.0
 10
446.7176293950141
 20
525.1255185785242
 30
0.0
 10
454.0872291450993
 20
525.1586901657831
 30
0.0
 10
459.0001313154251
 20
525.1821261697203
 30
0.0
 10
473.7384706381941
 20
525.2570943017006
 30
0.0
 10
483.5635517636367
 20
525.3135816865799
 30
0.0
 10
503.2142791194776
 20
525.4413558304497
 30
0.0
 10
513.0399029855527
 20
525.5125455836077
 30
0.0
 10
524.0950470668158
 20
525.5984206943566
 30
0.0
 10
525.3266825583651
 20
525.6080669809696
 30
0.0
 10
527.7530983560144
 20
525.6271996322245
 30
0.0
 10
528.9467266282211
 20
525.6366765192059
 30
0.0
 10
531.3079212360207
 20
525.655544570088
 30
0.0
 10
532.4770830824905
 20
525.6649487875662
 30
0.0
 10
534.8328721319746
 20
525.684013806741
 30
0.0
 10
536.0210948458654
 20
525.6936876620141
 30
0.0
 10
538.4379065518308
 20
525.7134657026958
 30
0.0
 10
539.6672827585014
 20
525.7235766092163
 30
0.0
 10
542.1243149006094
 20
525.7438697816569
 30
0.0
 10
543.3528407217142
 20
525.7540578880902
 30
0.0
 10
547.0385037279559
 20
525.7846726807771
 30
0.0
 10
549.4957293952945
 20
525.8051533531758
 30
0.0
 10
561.783000010905
 20
525.9066817139184
 30
0.0
 10
571.6169781025745
 20
525.9854886785795
 30
0.0
 10
586.3767650352423
 20
526.0684746402393
 30
0.0
 10
591.298319291141
 20
526.0901398858588
 30
0.0
 10
597.4512192860959
 20
526.1065596701367
 30
0.0
 10
598.6815836578266
 20
526.109312931176
 30
0.0
 10
601.1433492086057
 20
526.1137149132455
 30
0.0
 10
602.375726525827
 20
526.1153617013506
 30
0.0
 10
604.8343740533036
 20
526.117499687634
 30
0.0
 10
606.0577772943526
 20
526.118004874024
 30
0.0
 10
608.5090404478993
 20
526.1178302071883
 30
0.0
 10
609.740727371936
 20
526.1171333341222
 30
0.0
 10
610.9725557855609
 20
526.1158958955858
 30
0.0
  0
SPLINE
  5
FF
330
1F
100
AcDbEntity
  8
0
  6
Continuous
 62
     7
370
    25
100
AcDbSpline
210
0.0
220
0.0
230
1.0
 70
     8
 71
     3
 72
    71
 73
    67
 74
     0
 42
0.000000001
 43
0.00000001
 40
0.0
 40
0.0
 40
0.0
 40
0.0
 40
0.0624999999999994
 40
0.0624999999999994
 40
0.0937499999999991
 40
0.0937499999999991
 40
0.109374999999999
 40
0.109374999999999
 40
0.1249999999999989
 40
0.1249999999999989
 40
0.1874999999999987
 40
0.1874999999999987
 40
0.2031249999999986
 40
0.2031249999999986
 40
0.2187499999999986
 40
0.2187499999999986
 40
0.2499999999999986
 40
0.2499999999999986
 40
0.3124999999999986
 40
0.3124999999999986
 40
0.3281249999999986
 40
0.3281249999999986
 40
0.3437499999999986
 40
0.3437499999999986
 40
0.3749999999999984
 40
0.4062499999999982
 40
0.4062499999999982
 40
0.4218749999999983
 40
0.4218749999999983
 40
0.4374999999999983
 40
0.4374999999999983
 40
0.4999999999999983
 40
0.4999999999999983
 40
0.5312499999999982
 40
0.5312499999999982
 40
0.5468749999999983
 40
0.5468749999999983
 40
0.5624999999999984
 40
0.5624999999999984
 40
0.6249999999999986
 40
0.6249999999999986
 40
0.6406249999999984
 40
0.6406249999999984
 40
0.6562499999999984
 40
0.6562499999999984
 40
0.6874999999999986
 40
0.6874999999999986
 40
0.7499999999999987
 40
0.7499999999999987
 40
0.7656249999999987
 40
0.7656249999999987
 40
0.7812499999999987
 40
0.7812499999999987
 40
0.8124999999999988
 40
0.8124999999999988
 40
0.843749999999999
 40
0.843749999999999
 40
0.8749999999999991
 40
0.8749999999999991
 40
0.9374999999999996
 40
0.9374999999999996
 40
0.9531249999999997
 40
0.9531249999999997
 40
0.9687499999999998
 40
0.9687499999999998
 40
1.0
 40
1.0
 40
1.0
 40
1.0
 10
610.972558600061
 20
479.8713878028824
 30
0.0
 10
607.0090328750827
 20
479.8713878142185
 30
0.0
 10
603.111734486781
 20
479.4825087110378
 30
0.0
 10
597.3610647387734
 20
478.3397280544915
 30
0.0
 10
595.4601725397191
 20
477.8648642634727
 30
0.0
 10
592.6333781218416
 20
477.0084495287712
 30
0.0
 10
591.6936124363253
 20
476.6983361200745
 30
0.0
 10
589.8295987921692
 20
476.0314721282346
 30
0.0
 10
588.90961604228
 20
475.6763434185905
 30
0.0
 10
584.3686012413873
 20
473.7944202667409
 30
0.0
 10
580.9225896412578
 20
471.9518119669292
 30
0.0
 10
576.846477554187
 20
469.2309998808664
 30
0.0
 10
576.0429294228019
 20
468.6657719179573
 30
0.0
 10
574.4595546924851
 20
467.4925119162323
 30
0.0
 10
573.6777223066272
 20
466.8828019828939
 30
0.0
 10
571.3843266743203
 20
465.0010162615271
 30
0.0
 10
569.9291477888231
 20
463.6808388674321
 30
0.0
 10
565.7779527401048
 20
459.5294998950777
 30
0.0
 10
563.2942496762549
 20
456.5093373039379
 30
0.0
 10
560.5527681948475
 20
452.4108604802093
 30
0.0
 10
560.0214320201375
 20
451.5724716275668
 30
0.0
 10
559.0053900071042
 20
449.8778771710673
 30
0.0
 10
558.520178413888
 20
449.0212038892072
 30
0.0
 10
557.1317084126345
 20
446.4235752421591
 30
0.0
 10
555.4592032106083
 20
442.8865776026197
 30
0.0
 10
554.138857519171
 20
439.2048210245381
 30
0.0
 10
553.2824517407056
 20
436.3884816801844
 30
0.0
 10
553.0193315758764
 20
435.4405153380368
 30
0.0
 10
552.5385867679535
 20
433.5258812322279
 30
0.0
 10
552.3206550525142
 20
432.5571452962852
 30
0.0
 10
551.3568491879441
 20
427.7170628270627
 30
0.0
 10
550.9752159813181
 20
423.8244808700509
 30
0.0
 10
550.9712501999423
 20
417.9556575906187
 30
0.0
 10
551.0653576548352
 20
415.994355506949
 30
0.0
 10
551.3540090911149
 20
413.0446319188812
 30
0.0
 10
551.4751084223022
 20
412.059476956806
 30
0.0
 10
551.7639685188255
 20
410.10842773869
 30
0.0
 10
551.9319403536953
 20
409.1397934771607
 30
0.0
 10
552.8875514811748
 20
404.3305011268006
 30
0.0
 10
554.0191466419558
 20
400.590514049074
 30
0.0
 10
555.8950315016554
 20
396.0505727862906
 30
0.0
 10
556.2934849965741
 20
395.1493972423506
 30
0.0
 10
557.1378660262665
 20
393.3609411335825
 30
0.0
 10
557.5832539915547
 20
392.4751644250646
 30
0.0
 10
558.975795992767
 20
389.8677175157327
 30
0.0
 10
559.9835469729937
 20
388.1863488862424
 30
0.0
 10
563.2392373691009
 20
383.3089209541957
 30
0.0
 10
565.7173464976415
 20
380.2779134384388
 30
0.0
 10
569.2144920981843
 20
376.7756370256466
 30
0.0
 10
569.930889820643
 20
376.0929596003626
 30
0.0
 10
571.3893334506735
 20
374.7699727657134
 30
0.0
 10
572.1325653527688
 20
374.1284682547102
 30
0.0
 10
574.4036693137829
 20
372.2630339922486
 30
0.0
 10
575.9728522423299
 20
371.0980445670502
 30
0.0
 10
579.2205610265801
 20
368.924070851872
 30
0.0
 10
580.8990835371983
 20
367.9150817892852
 30
0.0
 10
584.3677570494561
 20
366.0563697298796
 30
0.0
 10
586.1659811141988
 20
365.2041654047804
 30
0.0
 10
591.6183337225207
 20
362.9424855025647
 30
0.0
 10
595.3577152370191
 20
361.806484036928
 30
0.0
 10
600.1609063878049
 20
360.8453939211223
 30
0.0
 10
601.1280509986476
 20
360.676328470341
 30
0.0
 10
603.0755487577998
 20
360.3851993707748
 30
0.0
 10
604.0570218048704
 20
360.2630277472062
 30
0.0
 10
607.0141928704406
 20
359.9693320502939
 30
0.0
 10
608.9907955560766
 20
359.8713878048779
 30
0.0
 10
610.972558368037
 20
359.8713878028823
 30
0.0
  0
SPLINE
  5
100
330
1F
100
AcDbEntity
  8
0
  6
Continuous
 62
     7
370
    25
100
AcDbSpline
210
0.0
220
0.0
230
1.0
 70
     8
 71
     3
 72
    71
 73
    67
 74
     0
 42
0.000000001
 43
0.00000001
 40
0.0
 40
0.0
 40
0.0
 40
0.0
 40
0.0625
 40
0.0625
 40
0.09375
 40
0.09375
 40
0.1093749999999999
 40
0.1093749999999999
 40
0.1249999999999999
 40
0.1249999999999999
 40
0.1874999999999998
 40
0.1874999999999998
 40
0.2031249999999998
 40
0.2031249999999998
 40
0.2187499999999998
 40
0.2187499999999998
 40
0.2499999999999999
 40
0.2499999999999999
 40
0.3125000000000002
 40
0.3125000000000002
 40
0.3281250000000003
 40
0.3281250000000003
 40
0.3437500000000003
 40
0.3437500000000003
 40
0.3750000000000003
 40
0.4062500000000003
 40
0.4062500000000003
 40
0.4218750000000002
 40
0.4218750000000002
 40
0.4375000000000001
 40
0.4375000000000001
 40
0.4999999999999997
 40
0.4999999999999997
 40
0.5312499999999996
 40
0.5312499999999996
 40
0.5468749999999997
 40
0.5468749999999997
 40
0.5624999999999998
 40
0.5624999999999998
 40
0.6249999999999996
 40
0.6249999999999996
 40
0.6406249999999996
 40
0.6406249999999996
 40
0.6562499999999997
 40
0.6562499999999997
 40
0.6874999999999999
 40
0.6874999999999999
 40
0.7500000000000003
 40
0.7500000000000003
 40
0.7656250000000003
 40
0.7656250000000003
 40
0.7812500000000003
 40
0.7812500000000003
 40
0.8125000000000003
 40
0.8125000000000003
 40
0.8437500000000003
 40
0.8437500000000003
 40
0.8750000000000002
 40
0.8750000000000002
 40
0.9375000000000001
 40
0.9375000000000001
 40
0.9531250000000001
 40
0.9531250000000001
 40
0.9687500000000001
 40
0.9687500000000001
 40
1.0
 40
1.0
 40
1.0
 40
1.0
 10
610.9725584828667
 20
359.8713878028823
 30
0.0
 10
614.9360841480508
 20
359.8713878064767
 30
0.0
 10
618.8333825816536
 20
360.2602669246792
 30
0.0
 10
624.5840522799989
 20
361.4030475894796
 30
0.0
 10
626.4849444554114
 20
361.8779113802879
 30
0.0
 10
629.3117388283691
 20
362.7343261071997
 30
0.0
 10
630.2515044761675
 20
363.044439504236
 30
0.0
 10
632.1155181530656
 20
363.7113035104676
 30
0.0
 10
633.0355009147169
 20
364.0664322265857
 30
0.0
 10
637.5765157534507
 20
365.9483554044523
 30
0.0
 10
641.0225273174334
 20
367.7909637049625
 30
0.0
 10
645.0986393012532
 20
370.5117757243699
 30
0.0
 10
645.9021874090511
 20
371.0770036705453
 30
0.0
 10
647.4855620868609
 20
372.2502636307527
 30
0.0
 10
648.267394429179
 20
372.8599735260067
 30
0.0
 10
650.5607901522991
 20
374.7417593143732
 30
0.0
 10
652.0159690741621
 20
376.0619367428263
 30
0.0
 10
656.1671641773659
 20
380.2132757744111
 30
0.0
 10
658.6508672047142
 20
383.2334383474959
 30
0.0
 10
661.3923485990292
 20
387.3319150288955
 30
0.0
 10
661.9236847609528
 20
388.1703038551913
 30
0.0
 10
662.939726814831
 20
389.8648983729148
 30
0.0
 10
663.4249384236314
 20
390.7215716808477
 30
0.0
 10
664.8134084599014
 20
393.3192003917017
 30
0.0
 10
666.4859136774593
 20
396.8561980778997
 30
0.0
 10
667.8062593483041
 20
400.537954616921
 30
0.0
 10
668.6626651072274
 20
403.354293895581
 30
0.0
 10
668.9257852648598
 20
404.3022602097523
 30
0.0
 10
669.4065300586896
 20
406.2168942465509
 30
0.0
 10
669.6244617774483
 20
407.1856301821303
 30
0.0
 10
670.5882676842634
 20
412.0257128236054
 30
0.0
 10
670.9699008782327
 20
415.9182948248707
 30
0.0
 10
670.9738666556881
 20
421.7871180299199
 30
0.0
 10
670.8797592018184
 20
423.7484200651812
 30
0.0
 10
670.5911077815894
 20
426.6981435436167
 30
0.0
 10
670.4700084500076
 20
427.6832985359486
 30
0.0
 10
670.1811483461711
 20
429.6343478214568
 30
0.0
 10
670.0131765069193
 20
430.6029821101878
 30
0.0
 10
669.0575653582982
 20
435.4122745658198
 30
0.0
 10
667.9259701828902
 20
439.1522616301489
 30
0.0
 10
666.0500853748041
 20
443.6922027731985
 30
0.0
 10
665.6516318937329
 20
444.5933782880006
 30
0.0
 10
664.8072509007123
 20
446.3818343284505
 30
0.0
 10
664.3618629116445
 20
447.2676110916456
 30
0.0
 10
662.9693208681273
 20
449.875058087336
 30
0.0
 10
661.9615698658854
 20
451.5564267495422
 30
0.0
 10
658.7058794385364
 20
456.4338547193732
 30
0.0
 10
656.2277703347175
 20
459.4648621794228
 30
0.0
 10
652.7306248829859
 20
462.9671384587984
 30
0.0
 10
652.0142270986433
 20
463.6498159476051
 30
0.0
 10
650.5557834250646
 20
464.9728028241869
 30
0.0
 10
649.8125515048056
 20
465.6143073508754
 30
0.0
 10
647.5414475016477
 20
467.4797416468551
 30
0.0
 10
645.9722645615159
 20
468.6447310763379
 30
0.0
 10
642.7245557942286
 20
470.8187047759562
 30
0.0
 10
641.0460333120772
 20
471.8276938187084
 30
0.0
 10
637.5773599033283
 20
473.6864058263727
 30
0.0
 10
635.7791358403617
 20
474.5386101587195
 30
0.0
 10
630.3267830763739
 20
476.8002901307832
 30
0.0
 10
626.58740154236
 20
477.9362915852833
 30
0.0
 10
621.7842104713176
 20
478.8973816839664
 30
0.0
 10
620.817065881712
 20
479.0664471310727
 30
0.0
 10
618.869568176459
 20
479.3575762242726
 30
0.0
 10
617.8880951960232
 20
479.4797478421088
 30
0.0
 10
614.9309240853105
 20
479.7734435499534
 30
0.0
 10
612.9543213695298
 20
479.8713878010725
 30
0.0
 10
610.9725584832494
 20
479.8713878028823
 30
0.0
  0
SPLINE
  5
101
330
1F
100
AcDbEntity
  8
0
  6
Continuous
 62
     8
370
    25
100
AcDbSpline
210
0.0
220
0.0
230
1.0
 70
     8
 71
     3
 72
    12
 73
     8
 74
     0
 42
0.000000001
 43
0.00000001
 40
0.0
 40
0.0
 40
0.0
 40
0.0
 40
0.2636005345609282
 40
0.4531130705265003
 40
0.6509913616037002
 40
0.8488696526565225
 40
1.0
 40
1.0
 40
1.0
 40
1.0
 10
643.9295426753717
 20
404.6299072835158
 30
0.0
 10
644.0490318103854
 20
404.5746482729029
 30
0.0
 10
644.2544262681424
 20
404.4796614398346
 30
0.0
 10
644.5013663850291
 20
404.3654613878427
 30
0.0
 10
644.6687702440211
 20
404.2880437123636
 30
0.0
 10
644.7684942498072
 20
404.241925297308
 30
0.0
 10
644.7739125862428
 20
404.2394195306313
 30
0.0
 10
644.7762588750661
 20
404.2383344646857
 30
0.0
  0
SPLINE
  5
102
330
1F
100
AcDbEntity
  8
0
  6
Continuous
 62
     8
370
    25
100
AcDbSpline
210
0.0
220
0.0
230
1.0
 70
     8
 71
     3
 72
    12
 73
     8
 74
     0
 42
0.000000001
 43
0.00000001
 40
0.0
 40
0.0
 40
0.0
 40
0.0
 40
0.1511297784501227
 40
0.3490077426240121
 40
0.5468857068222628
 40
0.7363979297284208
 40
0.9999999999999999
 40
0.9999999999999999
 40
0.9999999999999999
 40
0.9999999999999999
 10
577.1689354753818
 20
435.5040521301806
 30
0.0
 10
577.1712817633161
 20
435.5029670646542
 30
0.0
 10
577.176700104188
 20
435.5004612959443
 30
0.0
 10
577.2764240737804
 20
435.4543428974559
 30
0.0
 10
577.4438279250815
 20
435.3769252262059
 30
0.0
 10
577.6907687973448
 20
435.2627248221687
 30
0.0
 10
577.89616427472
 20
435.1677375264074
 30
0.0
 10
578.0156543766119
 20
435.1124780737944
 30
0.0
  0
SPLINE
  5
103
330
1F
100
AcDbEntity
  8
0
  6
Continuous
 62
     8
370
    25
100
AcDbSpline
210
0.0
220
0.0
230
1.0
 70
     8
 71
     3
 72
    12
 73
     8
 74
     0
 42
0.000000001
 43
0.00000001
 40
0.0
 40
0.0
 40
0.0
 40
0.0
 40
0.2636005345609042
 40
0.4531130705264829
 40
0.6509913616036938
 40
0.8488696526565194
 40
1.0
 40
1.0
 40
1.0
 40
1.0
 10
283.9295039545011
 20
404.6301017453769
 30
0.0
 10
284.0489930895147
 20
404.574842734764
 30
0.0
 10
284.2543875472719
 20
404.4798559016957
 30
0.0
 10
284.5013276641584
 20
404.3656558497038
 30
0.0
 10
284.6687315231504
 20
404.2882381742247
 30
0.0
 10
284.7684555289366
 20
404.2421197591691
 30
0.0
 10
284.7738738653721
 20
404.2396139924923
 30
0.0
 10
284.7762201541955
 20
404.2385289265468
 30
0.0
  0
SPLINE
  5
104
330
1F
100
AcDbEntity
  8
0
  6
Continuous
 62
     8
370
    25
100
AcDbSpline
210
0.0
220
0.0
230
1.0
 70
     8
 71
     3
 72
    12
 73
     8
 74
     0
 42
0.000000001
 43
0.00000001
 40
0.0
 40
0.0
 40
0.0
 40
0.0
 40
0.1511297784501247
 40
0.3490077426240212
 40
0.5468857068222692
 40
0.7363979297284295
 40
1.0
 40
1.0
 40
1.0
 40
1.0
 10
217.1688967545111
 20
435.5042465920417
 30
0.0
 10
217.1712430424454
 20
435.5031615265153
 30
0.0
 10
217.1766613833172
 20
435.5006557578054
 30
0.0
 10
217.2763853529099
 20
435.454537359317
 30
0.0
 10
217.4437892042108
 20
435.377119688067
 30
0.0
 10
217.6907300764742
 20
435.2629192840297
 30
0.0
 10
217.8961255538495
 20
435.1679319882685
 30
0.0
 10
218.0156156557414
 20
435.1126725356555
 30
0.0
  0
LINE
  5
105
330
1F
100
AcDbEntity
  8
0
  6
Continuous
 62
     8
370
    25
100
AcDbLine
 10
624.9499478944
 20
478.1709857682
 30
0.0
 11
625.7225965616
 21
478.1709857682
 31
0.0
  0
LINE
  5
106
330
1F
100
AcDbEntity
  8
0
  6
Continuous
 62
     8
370
    25
100
AcDbLine
 10
596.901831548
 20
478.1709857682
 30
0.0
 11
596.2225971563
 21
478.1709857682
 31
0.0
  0
LINE
  5
107
330
1F
100
AcDbEntity
  8
0
  6
Continuous
 62
     8
370
    25
100
AcDbLine
 10
264.9487622933
 20
478.1711802301
 30
0.0
 11
265.7225578408
 21
478.17118023
 31
0.0
  0
LINE
  5
108
330
1F
100
AcDbEntity
  8
0
  6
Continuous
 62
     8
370
    25
100
AcDbLine
 10
236.9023038077
 20
478.1711802301
 30
0.0
 11
236.2225584354
 21
478.17118023
 31
0.0
  0
ENDSEC
  0
SECTION
  2
OBJECTS
  0
DICTIONARY
  5
C
330
0
100
AcDbDictionary
281
     1
  3
ACAD_GROUP
350
D
  3
ACAD_LAYOUT
350
1A
  3
ACAD_MLINESTYLE
350
17
  3
ACAD_PLOTSETTINGS
350
19
  3
ACAD_PLOTSTYLENAME
350
E
  3
ACAD_SCALELIST
350
47
  0
DICTIONARY
  5
D
102
{ACAD_REACTORS
330
C
102
}
330
C
100
AcDbDictionary
281
     1
  0
DICTIONARY
  5
1A
102
{ACAD_REACTORS
330
C
102
}
330
C
100
AcDbDictionary
281
     1
  3
Layout1
350
1E
  3
Layout2
350
26
  3
Model
350
22
  0
DICTIONARY
  5
17
102
{ACAD_REACTORS
330
C
102
}
330
C
100
AcDbDictionary
281
     1
  3
Standard
350
18
  0
DICTIONARY
  5
19
102
{ACAD_REACTORS
330
C
102
}
330
C
100
AcDbDictionary
281
     1
  0
ACDBDICTIONARYWDFLT
  5
E
102
{ACAD_REACTORS
330
C
102
}
330
C
100
AcDbDictionary
281
     1
  3
Normal
350
F
100
AcDbDictionaryWithDefault
340
F
  0
DICTIONARY
  5
47
102
{ACAD_REACTORS
330
C
102
}
330
C
100
AcDbDictionary
281
     1
  3
A0
350
48
  3
A1
350
49
  3
A2
350
4A
  3
A3
350
4B
  3
A4
350
4C
  3
A5
350
4D
  3
A6
350
4E
  3
A7
350
4F
  3
A8
350
50
  3
A9
350
51
  3
B0
350
52
  3
B1
350
53
  3
B2
350
54
  3
B3
350
55
  3
B4
350
56
  3
B5
350
57
  3
B6
350
58
  3
B7
350
59
  3
B8
350
5A
  3
B9
350
5B
  3
C0
350
5C
  3
C1
350
5D
  3
C2
350
5E
  3
C3
350
5F
  3
C4
350
60
  3
C5
350
61
  3
C6
350
62
  3
C7
350
63
  3
C8
350
64
  3
C9
350
65
  3
D0
350
66
  3
D1
350
67
  3
D2
350
68
  0
LAYOUT
  5
1E
102
{ACAD_REACTORS
330
1A
102
}
330
1A
100
AcDbPlotSettings
  1

  2
none_device
  4

  6

 40
0.0
 41
0.0
 42
0.0
 43
0.0
 44
0.0
 45
0.0
 46
0.0
 47
0.0
 48
0.0
 49
0.0
140
0.0
141
0.0
142
1.0
143
1.0
 70
   688
 72
     1
 73
     0
 74
     5
  7

 75
    16
147
1.0
148
0.0
149
0.0
100
AcDbLayout
  1
Layout1
 70
     1
 71
     1
 10
0.0
 20
0.0
 11
420.0
 21
297.0
 12
0.0
 22
0.0
 32
0.0
 14
1.0000000000E+20
 24
1.0000000000E+20
 34
1.0000000000E+20
 15
-1.0000000000E+20
 25
-1.0000000000E+20
 35
-1.0000000000E+20
146
0.0
 13
0.0
 23
0.0
 33
0.0
 16
1.0
 26
0.0
 36
0.0
 17
0.0
 27
1.0
 37
0.0
 76
     0
330
1B
  0
LAYOUT
  5
26
102
{ACAD_REACTORS
330
1A
102
}
330
1A
100
AcDbPlotSettings
  1

  2
none_device
  4

  6

 40
0.0
 41
0.0
 42
0.0
 43
0.0
 44
0.0
 45
0.0
 46
0.0
 47
0.0
 48
0.0
 49
0.0
140
0.0
141
0.0
142
1.0
143
1.0
 70
   688
 72
     1
 73
     0
 74
     5
  7

 75
    16
147
1.0
148
0.0
149
0.0
100
AcDbLayout
  1
Layout2
 70
     1
 71
     2
 10
0.0
 20
0.0
 11
0.0
 21
0.0
 12
0.0
 22
0.0
 32
0.0
 14
0.0
 24
0.0
 34
0.0
 15
0.0
 25
0.0
 35
0.0
146
0.0
 13
0.0
 23
0.0
 33
0.0
 16
1.0
 26
0.0
 36
0.0
 17
0.0
 27
1.0
 37
0.0
 76
     0
330
23
  0
LAYOUT
  5
22
102
{ACAD_REACTORS
330
1A
102
}
330
1A
100
AcDbPlotSettings
  1

  2
none_device
  4
Letter_(8.50_x_11.00_Inches)
  6

 40
6.35
 41
6.35
 42
6.35000508
 43
6.35000508
 44
215.9
 45
279.4
 46
0.0
 47
0.0
 48
0.0
 49
0.0
140
0.0
141
0.0
142
1.0
143
1.0
 70
  1712
 72
     1
 73
     0
 74
     0
  7

 75
     0
147
1.0
148
0.0
149
0.0
100
AcDbLayout
  1
Model
 70
     1
 71
     0
 10
0.0
 20
0.0
 11
1000.0
 21
700.0
 12
0.0
 22
0.0
 32
0.0
 14
0.0
 24
0.0
 34
0.0
 15
1000.0
 25
700.0
 35
0.0
146
0.0
 13
0.0
 23
0.0
 33
0.0
 16
1.0
 26
0.0
 36
0.0
 17
0.0
 27
1.0
 37
0.0
 76
     0
330
1F
331
29
  0
MLINESTYLE
  5
18
102
{ACAD_REACTORS
330
17
102
}
330
17
100
AcDbMlineStyle
  2
Standard
 70
     0
  3

 62
   256
 51
90.0
 52
90.0
 71
     2
 49
0.5
 62
   256
  6
BYLAYER
 49
-0.5
 62
   256
  6
BYLAYER
  0
ACDBPLACEHOLDER
  5
F
102
{ACAD_REACTORS
330
E
102
}
330
E
  0
SCALE
  5
48
102
{ACAD_REACTORS
330
47
102
}
330
47
100
AcDbScale
 70
     0
300
1:1
140
1.0
141
1.0
290
     1
  0
SCALE
  5
49
102
{ACAD_REACTORS
330
47
102
}
330
47
100
AcDbScale
 70
     0
300
1:2
140
1.0
141
2.0
290
     0
  0
SCALE
  5
4A
102
{ACAD_REACTORS
330
47
102
}
330
47
100
AcDbScale
 70
     0
300
1:4
140
1.0
141
4.0
290
     0
  0
SCALE
  5
4B
102
{ACAD_REACTORS
330
47
102
}
330
47
100
AcDbScale
 70
     0
300
1:5
140
1.0
141
5.0
290
     0
  0
SCALE
  5
4C
102
{ACAD_REACTORS
330
47
102
}
330
47
100
AcDbScale
 70
     0
300
1:8
140
1.0
141
8.0
290
     0
  0
SCALE
  5
4D
102
{ACAD_REACTORS
330
47
102
}
330
47
100
AcDbScale
 70
     0
300
1:10
140
1.0
141
10.0
290
     0
  0
SCALE
  5
4E
102
{ACAD_REACTORS
330
47
102
}
330
47
100
AcDbScale
 70
     0
300
1:16
140
1.0
141
16.0
290
     0
  0
SCALE
  5
4F
102
{ACAD_REACTORS
330
47
102
}
330
47
100
AcDbScale
 70
     0
300
1:20
140
1.0
141
20.0
290
     0
  0
SCALE
  5
50
102
{ACAD_REACTORS
330
47
102
}
330
47
100
AcDbScale
 70
     0
300
1:30
140
1.0
141
30.0
290
     0
  0
SCALE
  5
51
102
{ACAD_REACTORS
330
47
102
}
330
47
100
AcDbScale
 70
     0
300
1:40
140
1.0
141
40.0
290
     0
  0
SCALE
  5
52
102
{ACAD_REACTORS
330
47
102
}
330
47
100
AcDbScale
 70
     0
300
1:50
140
1.0
141
50.0
290
     0
  0
SCALE
  5
53
102
{ACAD_REACTORS
330
47
102
}
330
47
100
AcDbScale
 70
     0
300
1:100
140
1.0
141
100.0
290
     0
  0
SCALE
  5
54
102
{ACAD_REACTORS
330
47
102
}
330
47
100
AcDbScale
 70
     0
300
2:1
140
2.0
141
1.0
290
     0
  0
SCALE
  5
55
102
{ACAD_REACTORS
330
47
102
}
330
47
100
AcDbScale
 70
     0
300
4:1
140
4.0
141
1.0
290
     0
  0
SCALE
  5
56
102
{ACAD_REACTORS
330
47
102
}
330
47
100
AcDbScale
 70
     0
300
8:1
140
8.0
141
1.0
290
     0
  0
SCALE
  5
57
102
{ACAD_REACTORS
330
47
102
}
330
47
100
AcDbScale
 70
     0
300
10:1
140
10.0
141
1.0
290
     0
  0
SCALE
  5
58
102
{ACAD_REACTORS
330
47
102
}
330
47
100
AcDbScale
 70
     0
300
100:1
140
100.0
141
1.0
290
     0
  0
SCALE
  5
59
102
{ACAD_REACTORS
330
47
102
}
330
47
100
AcDbScale
 70
     0
300
1/128" = 1'-0"
140
0.0078125
141
12.0
290
     0
  0
SCALE
  5
5A
102
{ACAD_REACTORS
330
47
102
}
330
47
100
AcDbScale
 70
     0
300
1/64" = 1'-0"
140
0.015625
141
12.0
290
     0
  0
SCALE
  5
5B
102
{ACAD_REACTORS
330
47
102
}
330
47
100
AcDbScale
 70
     0
300
1/32" = 1'-0"
140
0.03125
141
12.0
290
     0
  0
SCALE
  5
5C
102
{ACAD_REACTORS
330
47
102
}
330
47
100
AcDbScale
 70
     0
300
1/16" = 1'-0"
140
0.0625
141
12.0
290
     0
  0
SCALE
  5
5D
102
{ACAD_REACTORS
330
47
102
}
330
47
100
AcDbScale
 70
     0
300
3/32" = 1'-0"
140
0.09375
141
12.0
290
     0
  0
SCALE
  5
5E
102
{ACAD_REACTORS
330
47
102
}
330
47
100
AcDbScale
 70
     0
300
1/8" = 1'-0"
140
0.125
141
12.0
290
     0
  0
SCALE
  5
5F
102
{ACAD_REACTORS
330
47
102
}
330
47
100
AcDbScale
 70
     0
300
3/16" = 1'-0"
140
0.1875
141
12.0
290
     0
  0
SCALE
  5
60
102
{ACAD_REACTORS
330
47
102
}
330
47
100
AcDbScale
 70
     0
300
1/4" = 1'-0"
140
0.25
141
12.0
290
     0
  0
SCALE
  5
61
102
{ACAD_REACTORS
330
47
102
}
330
47
100
AcDbScale
 70
     0
300
3/8" = 1'-0"
140
0.375
141
12.0
290
     0
  0
SCALE
  5
62
102
{ACAD_REACTORS
330
47
102
}
330
47
100
AcDbScale
 70
     0
300
1/2" = 1'-0"
140
0.5
141
12.0
290
     0
  0
SCALE
  5
63
102
{ACAD_REACTORS
330
47
102
}
330
47
100
AcDbScale
 70
     0
300
3/4" = 1'-0"
140
0.75
141
12.0
290
     0
  0
SCALE
  5
64
102
{ACAD_REACTORS
330
47
102
}
330
47
100
AcDbScale
 70
     0
300
1" = 1'-0"
140
1.0
141
12.0
290
     0
  0
SCALE
  5
65
102
{ACAD_REACTORS
330
47
102
}
330
47
100
AcDbScale
 70
     0
300
1-1/2" = 1'-0"
140
1.5
141
12.0
290
     0
  0
SCALE
  5
66
102
{ACAD_REACTORS
330
47
102
}
330
47
100
AcDbScale
 70
     0
300
3" = 1'-0"
140
3.0
141
12.0
290
     0
  0
SCALE
  5
67
102
{ACAD_REACTORS
330
47
102
}
330
47
100
AcDbScale
 70
     0
300
6" = 1'-0"
140
6.0
141
12.0
290
     0
  0
SCALE
  5
68
102
{ACAD_REACTORS
330
47
102
}
330
47
100
AcDbScale
 70
     0
300
1'-0" = 1'-0"
140
12.0
141
12.0
290
     0
  0
ENDSEC
  0
EOF
