  0
SECTION
  2
HEADER
  9
$ACADVER
  1
AC1015
  9
$ACADMAINTVER
 70
     6
  9
$DWGCODEPAGE
  3
ANSI_1252
  9
$INSBASE
 10
0.0
 20
0.0
 30
0.0
  9
$EXTMIN
 10
0.0
 20
0.0
 30
0.0
  9
$EXTMAX
 10
1200.0
 20
800.0
 30
0.0
  9
$LIMMIN
 10
0.0
 20
0.0
  9
$LIMMAX
 10
1200.0
 20
800.0
  9
$ORTHOMODE
 70
     0
  9
$REGENMODE
 70
     1
  9
$FILLMODE
 70
     1
  9
$QTEXTMODE
 70
     0
  9
$MIRRTEXT
 70
     1
  9
$LTSCALE
 40
1.0
  9
$ATTMODE
 70
     1
  9
$TEXTSIZE
 40
5.0
  9
$TRACEWID
 40
1.0
  9
$TEXTSTYLE
  7
Standard
  9
$CLAYER
  8
0
  9
$CELTYPE
  6
ByLayer
  9
$CECOLOR
 62
   256
  9
$CELTSCALE
 40
1.0
  9
$DISPSILH
 70
     0
  9
$DIMSCALE
 40
1.0
  9
$DIMASZ
 40
6.0
  9
$DIMEXO
 40
1.0
  9
$DIMDLI
 40
3.75
  9
$DIMRND
 40
0.0
  9
$DIMDLE
 40
0.0
  9
$DIMEXE
 40
1.0
  9
$DIMTP
 40
0.0
  9
$DIMTM
 40
0.0
  9
$DIMTXT
 40
5.0
  9
$DIMCEN
 40
2.5
  9
$DIMTSZ
 40
0.0
  9
$DIMTOL
 70
     0
  9
$DIMLIM
 70
     0
  9
$DIMTIH
 70
     1
  9
$DIMTOH
 70
     1
  9
$DIMSE1
 70
     0
  9
$DIMSE2
 70
     0
  9
$DIMTAD
 70
     1
  9
$DIMZIN
 70
     0
  9
$DIMBLK
  1

  9
$DIMASO
 70
     1
  9
$DIMSHO
 70
     1
  9
$DIMPOST
  1

  9
$DIMAPOST
  1

  9
$DIMALT
 70
     0
  9
$DIMALTD
 70
     3
  9
$DIMALTF
 40
0.0393700787
  9
$DIMLFAC
 40
1.0
  9
$DIMTOFL
 70
     1
  9
$DIMTVP
 40
0.0
  9
$DIMTIX
 70
     0
  9
$DIMSOXD
 70
     0
  9
$DIMSAH
 70
     0
  9
$DIMBLK1
  1

  9
$DIMBLK2
  1

  9
$DIMSTYLE
  2
ISO-25
  9
$DIMCLRD
 70
     0
  9
$DIMCLRE
 70
     0
  9
$DIMCLRT
 70
     0
  9
$DIMTFAC
 40
1.0
  9
$DIMGAP
 40
1.524
  9
$DIMJUST
 70
     0
  9
$DIMSD1
 70
     0
  9
$DIMSD2
 70
     0
  9
$DIMTOLJ
 70
     0
  9
$DIMTZIN
 70
     0
  9
$DIMALTZ
 70
     0
  9
$DIMALTTZ
 70
     0
  9
$DIMUPT
 70
     0
  9
$DIMDEC
 70
     2
  9
$DIMTDEC
 70
     2
  9
$DIMALTU
 70
     2
  9
$DIMALTTD
 70
     3
  9
$DIMTXSTY
  7
Standard
  9
$DIMAUNIT
 70
     0
  9
$DIMADEC
 70
     2
  9
$DIMALTRND
 40
0.0
  9
$DIMAZIN
 70
     0
  9
$DIMDSEP
 70
    44
  9
$DIMATFIT
 70
     3
  9
$DIMFRAC
 70
     0
  9
$DIMLDRBLK
  1

  9
$DIMLUNIT
 70
     2
  9
$DIMLWD
 70
    -2
  9
$DIMLWE
 70
    -2
  9
$DIMTMOVE
 70
     0
  9
$LUNITS
 70
     2
  9
$LUPREC
 70
     2
  9
$SKETCHINC
 40
1.0
  9
$FILLETRAD
 40
10.0
  9
$AUNITS
 70
     0
  9
$AUPREC
 70
     2
  9
$MENU
  1
.
  9
$ELEVATION
 40
0.0
  9
$PELEVATION
 40
0.0
  9
$THICKNESS
 40
0.0
  9
$LIMCHECK
 70
     0
  9
$CHAMFERA
 40
0.0
  9
$CHAMFERB
 40
0.0
  9
$CHAMFERC
 40
0.0
  9
$CHAMFERD
 40
0.0
  9
$SKPOLY
 70
     0
  9
$TDCREATE
 40
2458582.635812616
  9
$TDUCREATE
 40
2458582.510812616
  9
$TDUPDATE
 40
2458582.635813507
  9
$TDUUPDATE
 40
2458582.510813507
  9
$TDINDWG
 40
0.0000000116
  9
$TDUSRTIMER
 40
0.0000000116
  9
$USRTIMER
 70
     1
  9
$ANGBASE
 50
0.0
  9
$ANGDIR
 70
     0
  9
$PDMODE
 70
     0
  9
$PDSIZE
 40
-1.0
  9
$PLINEWID
 40
0.0
  9
$SPLFRAME
 70
     0
  9
$SPLINETYPE
 70
     6
  9
$SPLINESEGS
 70
     8
  9
$HANDSEED
  5
105
  9
$SURFTAB1
 70
     6
  9
$SURFTAB2
 70
     6
  9
$SURFTYPE
 70
     6
  9
$SURFU
 70
     6
  9
$SURFV
 70
     6
  9
$UCSBASE
  2

  9
$UCSNAME
  2

  9
$UCSORG
 10
0.0
 20
0.0
 30
0.0
  9
$UCSXDIR
 10
1.0
 20
0.0
 30
0.0
  9
$UCSYDIR
 10
0.0
 20
1.0
 30
0.0
  9
$UCSORTHOREF
  2

  9
$UCSORTHOVIEW
 70
     0
  9
$UCSORGTOP
 10
0.0
 20
0.0
 30
0.0
  9
$UCSORGBOTTOM
 10
0.0
 20
0.0
 30
0.0
  9
$UCSORGLEFT
 10
0.0
 20
0.0
 30
0.0
  9
$UCSORGRIGHT
 10
0.0
 20
0.0
 30
0.0
  9
$UCSORGFRONT
 10
0.0
 20
0.0
 30
0.0
  9
$UCSORGBACK
 10
0.0
 20
0.0
 30
0.0
  9
$PUCSBASE
  2

  9
$PUCSNAME
  2

  9
$PUCSORG
 10
0.0
 20
0.0
 30
0.0
  9
$PUCSXDIR
 10
1.0
 20
0.0
 30
0.0
  9
$PUCSYDIR
 10
0.0
 20
1.0
 30
0.0
  9
$PUCSORTHOREF
  2

  9
$PUCSORTHOVIEW
 70
     0
  9
$PUCSORGTOP
 10
0.0
 20
0.0
 30
0.0
  9
$PUCSORGBOTTOM
 10
0.0
 20
0.0
 30
0.0
  9
$PUCSORGLEFT
 10
0.0
 20
0.0
 30
0.0
  9
$PUCSORGRIGHT
 10
0.0
 20
0.0
 30
0.0
  9
$PUCSORGFRONT
 10
0.0
 20
0.0
 30
0.0
  9
$PUCSORGBACK
 10
0.0
 20
0.0
 30
0.0
  9
$USERI1
 70
     0
  9
$USERI2
 70
     0
  9
$USERI3
 70
     0
  9
$USERI4
 70
     0
  9
$USERI5
 70
     0
  9
$USERR1
 40
0.0
  9
$USERR2
 40
0.0
  9
$USERR3
 40
0.0
  9
$USERR4
 40
0.0
  9
$USERR5
 40
0.0
  9
$WORLDVIEW
 70
     1
  9
$SHADEDGE
 70
     3
  9
$SHADEDIF
 70
    70
  9
$TILEMODE
 70
     1
  9
$MAXACTVP
 70
    64
  9
$PINSBASE
 10
0.0
 20
0.0
 30
0.0
  9
$PLIMCHECK
 70
     0
  9
$PEXTMIN
 10
1.0000000000E+20
 20
1.0000000000E+20
 30
1.0000000000E+20
  9
$PEXTMAX
 10
-1.0000000000E+20
 20
-1.0000000000E+20
 30
-1.0000000000E+20
  9
$PLIMMIN
 10
0.0
 20
0.0
  9
$PLIMMAX
 10
420.0
 20
297.0
  9
$UNITMODE
 70
     0
  9
$VISRETAIN
 70
     1
  9
$PLINEGEN
 70
     0
  9
$PSLTSCALE
 70
     1
  9
$TREEDEPTH
 70
  3020
  9
$CMLSTYLE
  2
Standard
  9
$CMLJUST
 70
     0
  9
$CMLSCALE
 40
20.0
  9
$PROXYGRAPHICS
 70
     1
  9
$MEASUREMENT
 70
     1
  9
$CELWEIGHT
370
    -1
  9
$ENDCAPS
280
     0
  9
$JOINSTYLE
280
     0
  9
$LWDISPLAY
290
     1
  9
$INSUNITS
 70
     4
  9
$HYPERLINKBASE
  1

  9
$STYLESHEET
  1

  9
$XEDIT
290
     1
  9
$CEPSNTYPE
380
     0
  9
$PSTYLEMODE
290
     1
  9
$FINGERPRINTGUID
  2
{C044BB0B-0A00-4DA7-A91A-E65129B0CAB8}
  9
$VERSIONGUID
  2
{FAEB1C32-E019-11D5-929B-00C0DF256EC4}
  9
$EXTNAMES
290
     1
  9
$PSVPSCALE
 40
0.0
  9
$OLESTARTUP
290
     0
  0
ENDSEC
  0
SECTION
  2
CLASSES
  0
CLASS
  1
ACDBDICTIONARYWDFLT
  2
AcDbDictionaryWithDefault
  3
ObjectDBX Classes
 90
        0
280
     0
281
     0
  0
CLASS
  1
VISUALSTYLE
  2
AcDbVisualStyle
  3
ObjectDBX Classes
 90
     4095
280
     0
281
     0
  0
CLASS
  1
MATERIAL
  2
AcDbMaterial
  3
ObjectDBX Classes
 90
     1153
280
     0
281
     0
  0
CLASS
  1
SCALE
  2
AcDbScale
  3
ObjectDBX Classes
 90
     1153
280
     0
281
     0
  0
CLASS
  1
TABLESTYLE
  2
AcDbTableStyle
  3
ObjectDBX Classes
 90
     4095
280
     0
281
     0
  0
CLASS
  1
MLEADERSTYLE
  2
AcDbMLeaderStyle
  3
ACDB_MLEADERSTYLE_CLASS
 90
     4095
280
     0
281
     0
  0
CLASS
  1
SUN
  2
AcDbSun
  3
SCENEOE
 90
     1153
280
     0
281
     0
  0
CLASS
  1
ACDBPLACEHOLDER
  2
AcDbPlaceHolder
  3
ObjectDBX Classes
 90
        0
280
     0
281
     0
  0
CLASS
  1
LAYOUT
  2
AcDbLayout
  3
ObjectDBX Classes
 90
        0
280
     0
281
     0
  0
ENDSEC
  0
SECTION
  2
TABLES
  0
TABLE
  2
VPORT
  5
8
330
0
100
AcDbSymbolTable
 70
     1
  0
VPORT
  5
29
330
8
100
AcDbSymbolTableRecord
100
AcDbViewportTableRecord
  2
*Active
 70
     0
 10
0.0
 20
0.0
 11
1.0
 21
1.0
 12
600.0
 22
400.0
 13
0.0
 23
0.0
 14
10.0
 24
10.0
 15
10.0
 25
10.0
 16
0.0
 26
0.0
 36
1.0
 17
0.0
 27
0.0
 37
0.0
 40
800.0
 41
1.5
 42
50.0
 43
0.0
 44
0.0
 50
0.0
 51
0.0
 71
     0
 72
  2000
 73
     1
 74
     3
 75
     0
 76
     0
 77
     0
 78
     0
281
     0
 65
     1
110
0.0
120
0.0
130
0.0
111
1.0
121
0.0
131
0.0
112
0.0
122
1.0
132
0.0
 79
     0
146
0.0
  0
ENDTAB
  0
TABLE
  2
LTYPE
  5
5
330
0
100
AcDbSymbolTable
 70
     6
  0
LTYPE
  5
14
330
5
100
AcDbSymbolTableRecord
100
AcDbLinetypeTableRecord
  2
ByBlock
 70
     0
  3

 72
    65
 73
     0
 40
0.0
  0
LTYPE
  5
15
330
5
100
AcDbSymbolTableRecord
100
AcDbLinetypeTableRecord
  2
ByLayer
 70
     0
  3

 72
    65
 73
     0
 40
0.0
  0
LTYPE
  5
16
330
5
100
AcDbSymbolTableRecord
100
AcDbLinetypeTableRecord
  2
Continuous
 70
     0
  3
Solid line
 72
    65
 73
     0
 40
0.0
  0
LTYPE
  5
6E
330
5
100
AcDbSymbolTableRecord
100
AcDbLinetypeTableRecord
  2
HIDDEN
 70
     0
  3
Hidden __ __ __ __ __ __ __ __ __ __ __ __ __ __
 72
    65
 73
     2
 40
1.905
 49
1.27
 74
     0
 49
-0.635
 74
     0
  0
LTYPE
  5
6F
330
5
100
AcDbSymbolTableRecord
100
AcDbLinetypeTableRecord
  2
PHANTOM
 70
     0
  3
Phantom ______  __  __  ______  __  __  ______
 72
    65
 73
     6
 40
12.7
 49
6.35
 74
     0
 49
-1.27
 74
     0
 49
1.27
 74
     0
 49
-1.27
 74
     0
 49
1.27
 74
     0
 49
-1.27
 74
     0
  0
LTYPE
  5
70
330
5
100
AcDbSymbolTableRecord
100
AcDbLinetypeTableRecord
  2
CENTER
 70
     0
  3
Center ____ _ ____ _ ____ _ ____ _ ____ _ ____
 72
    65
 73
     4
 40
10.16
 49
6.35
 74
     0
 49
-1.27
 74
     0
 49
1.27
 74
     0
 49
-1.27
 74
     0
  0
LTYPE
  5
71
330
5
100
AcDbSymbolTableRecord
100
AcDbLinetypeTableRecord
  2
CENTERX2
 70
     0
  3
Center (2x) ________  __  ________  __  _____
 72
    65
 73
     4
 40
20.32
 49
12.7
 74
     0
 49
-2.54
 74
     0
 49
2.54
 74
     0
 49
-2.54
 74
     0
  0
LTYPE
  5
72
330
5
100
AcDbSymbolTableRecord
100
AcDbLinetypeTableRecord
  2
DOT2
 70
     0
  3
Dot (.5x) ........................................
 72
    65
 73
     2
 40
0.635
 49
0.0
 74
     0
 49
-0.635
 74
     0
  0
ENDTAB
  0
TABLE
  2
LAYER
  5
2
330
0
100
AcDbSymbolTable
 70
     2
  0
LAYER
  5
10
330
2
100
AcDbSymbolTableRecord
100
AcDbLayerTableRecord
  2
0
 70
     0
 62
     7
  6
Continuous
370
    -3
390
F
  0
LAYER
  5
73
330
2
100
AcDbSymbolTableRecord
100
AcDbLayerTableRecord
  2
TABLE_BL1
 70
     0
 62
   179
  6
Continuous
370
    -3
390
F
  0
ENDTAB
  0
TABLE
  2
STYLE
  5
3
330
0
100
AcDbSymbolTable
 70
     1
  0
STYLE
  5
11
330
3
100
AcDbSymbolTableRecord
100
AcDbTextStyleTableRecord
  2
Standard
 70
     0
 40
0.0
 41
1.0
 50
0.0
 71
     0
 42
5.0
  3
txt
  4

  0
ENDTAB
  0
TABLE
  2
VIEW
  5
6
330
0
100
AcDbSymbolTable
 70
     0
  0
ENDTAB
  0
TABLE
  2
UCS
  5
7
330
0
100
AcDbSymbolTable
 70
     0
  0
ENDTAB
  0
TABLE
  2
APPID
  5
9
330
0
100
AcDbSymbolTable
 70
     1
  0
APPID
  5
12
330
9
100
AcDbSymbolTableRecord
100
AcDbRegAppTableRecord
  2
ACAD
 70
     0
  0
ENDTAB
  0
TABLE
  2
DIMSTYLE
  5
A
330
0
100
AcDbSymbolTable
 70
     1
100
AcDbDimStyleTable
  0
DIMSTYLE
105
27
330
A
100
AcDbSymbolTableRecord
100
AcDbDimStyleTableRecord
  2
ISO-25
 70
     0
 41
2.5
 42
0.625
 43
3.75
 44
1.25
 73
     0
 74
     0
 77
     1
 78
     8
140
2.5
141
2.5
143
0.0393700787
147
0.625
171
     3
172
     1
178
     0
271
     2
272
     2
274
     3
278
    44
283
     0
284
     8
340
11
  0
ENDTAB
  0
TABLE
  2
BLOCK_RECORD
  5
1
330
0
100
AcDbSymbolTable
 70
     1
  0
BLOCK_RECORD
  5
1F
330
1
100
AcDbSymbolTableRecord
100
AcDbBlockTableRecord
  2
*Model_Space
340
22
  0
BLOCK_RECORD
  5
1B
330
1
100
AcDbSymbolTableRecord
100
AcDbBlockTableRecord
  2
*Paper_Space
340
1E
  0
BLOCK_RECORD
  5
23
330
1
100
AcDbSymbolTableRecord
100
AcDbBlockTableRecord
  2
*Paper_Space0
340
26
  0
ENDTAB
  0
ENDSEC
  0
SECTION
  2
BLOCKS
  0
BLOCK
  5
20
330
1F
100
AcDbEntity
  8
0
100
AcDbBlockBegin
  2
*Model_Space
 70
     0
 10
0.0
 20
0.0
 30
0.0
  3
*Model_Space
  1

  0
ENDBLK
  5
21
330
1F
100
AcDbEntity
  8
0
100
AcDbBlockEnd
  0
BLOCK
  5
1C
330
1B
100
AcDbEntity
 67
     1
  8
0
100
AcDbBlockBegin
  2
*Paper_Space
 70
     0
 10
0.0
 20
0.0
 30
0.0
  3
*Paper_Space
  1

  0
ENDBLK
  5
1D
330
1B
100
AcDbEntity
 67
     1
  8
0
100
AcDbBlockEnd
  0
BLOCK
  5
24
330
23
100
AcDbEntity
  8
0
100
AcDbBlockBegin
  2
*Paper_Space0
 70
     0
 10
0.0
 20
0.0
 30
0.0
  3
*Paper_Space0
  1

  0
ENDBLK
  5
25
330
23
100
AcDbEntity
  8
0
100
AcDbBlockEnd
  0
ENDSEC
  0
SECTION
  2
ENTITIES
  0
SPLINE
  5
74
330
1F
100
AcDbEntity
  8
0
  6
Continuous
 62
     7
370
    25
100
AcDbSpline
210
0.0
220
0.0
230
1.0
 70
     8
 71
     3
 72
    29
 73
    25
 74
     0
 42
0.000000001
 43
0.00000001
 40
0.0
 40
0.0
 40
0.0
 40
0.0
 40
0.0349321406882635
 40
0.0633980643159913
 40
0.0838985515737895
 40
0.1410481598295769
 40
0.1993926718331195
 40
0.2579538570990187
 40
0.3167358876867431
 40
0.3756685440136573
 40
0.4347110736298802
 40
0.4938368192040538
 40
0.5530116495173841
 40
0.6120983013386023
 40
0.6710428299972755
 40
0.72982617316866
 40
0.7884258360426927
 40
0.8467958145206171
 40
0.8655669647427027
 40
0.8834823951604176
 40
0.9012873219477364
 40
0.9267778521638325
 40
0.9604934909203238
 40
1.0
 40
1.0
 40
1.0
 40
1.0
 10
523.5517238686538
 20
466.0530876912673
 30
0.0
 10
524.0847711972636
 20
467.3069007467844
 30
0.0
 10
525.0521945545739
 20
469.5824360895299
 30
0.0
 10
525.9360216139137
 20
472.7374117819808
 30
0.0
 10
526.7700859399943
 20
476.7877945753376
 30
0.0
 10
527.1944018557205
 20
482.1022622371987
 30
0.0
 10
526.5043802011681
 20
488.8855590048908
 30
0.0
 10
524.567990595373
 20
495.4920175622626
 30
0.0
 10
521.4429786852252
 20
501.6518981875165
 30
0.0
 10
517.2267824848844
 20
507.1472675923737
 30
0.0
 10
512.059872218928
 20
511.7804920360449
 30
0.0
 10
506.1182413093074
 20
515.385243427174
 30
0.0
 10
499.6110832907546
 20
517.8304731200658
 30
0.0
 10
492.7712872110225
 20
519.0301510761781
 30
0.0
 10
485.843178829767
 20
518.948324776894
 30
0.0
 10
479.0669274270612
 20
517.5971388938387
 30
0.0
 10
472.6756489003409
 20
515.0357752758497
 30
0.0
 10
468.1809868883923
 20
512.1856757508059
 30
0.0
 10
465.3145767386395
 20
509.83816621451
 30
0.0
 10
463.7512952902436
 20
508.3998217104715
 30
0.0
 10
462.0878345457156
 20
506.6888352746161
 30
0.0
 10
460.1499039085799
 20
504.3954360815495
 30
0.0
 10
457.9185925130439
 20
501.2482328013562
 30
0.0
 10
456.6285381621179
 20
498.6994747043087
 30
0.0
 10
455.9324981600932
 20
497.3243097046668
 30
0.0
  0
SPLINE
  5
75
330
1F
100
AcDbEntity
  8
0
  6
Continuous
 62
     7
370
    25
100
AcDbSpline
210
0.0
220
0.0
230
1.0
 70
     8
 71
     3
 72
    29
 73
    25
 74
     0
 42
0.000000001
 43
0.00000001
 40
0.0
 40
0.0
 40
0.0
 40
0.0
 40
0.0349321406882635
 40
0.0633980643159912
 40
0.0838985515737895
 40
0.1410481598295768
 40
0.1993926718331194
 40
0.2579538570990187
 40
0.3167358876867429
 40
0.3756685440136572
 40
0.4347110736298801
 40
0.4938368192040538
 40
0.5530116495173841
 40
0.6120983013386021
 40
0.6710428299972755
 40
0.7298261731686599
 40
0.7884258360426926
 40
0.846795814520617
 40
0.8655669647427027
 40
0.8834823951604175
 40
0.9012873219477363
 40
0.9267778521638325
 40
0.9604934909203237
 40
1.0
 40
1.0
 40
1.0
 40
1.0
 10
455.9324981600932
 20
497.3243097046668
 30
0.0
 10
455.3994508314834
 20
496.0704966491497
 30
0.0
 10
454.4320274741731
 20
493.7949613064041
 30
0.0
 10
453.5482004148332
 20
490.6399856139533
 30
0.0
 10
452.7141360887528
 20
486.5896028205965
 30
0.0
 10
452.2898201730264
 20
481.2751351587355
 30
0.0
 10
452.9798418275786
 20
474.4918383910433
 30
0.0
 10
454.9162314333741
 20
467.8853798336714
 30
0.0
 10
458.0412433435215
 20
461.7254992084177
 30
0.0
 10
462.2574395438625
 20
456.2301298035604
 30
0.0
 10
467.424349809819
 20
451.5969053598891
 30
0.0
 10
473.3659807194394
 20
447.99215396876
 30
0.0
 10
479.8731387379923
 20
445.5469242758683
 30
0.0
 10
486.7129348177244
 20
444.347246319756
 30
0.0
 10
493.64104319898
 20
444.4290726190401
 30
0.0
 10
500.4172946016857
 20
445.7802585020953
 30
0.0
 10
506.808573128406
 20
448.3416221200844
 30
0.0
 10
511.3032351403548
 20
451.1917216451281
 30
0.0
 10
514.1696452901076
 20
453.5392311814242
 30
0.0
 10
515.7329267385032
 20
454.9775756854627
 30
0.0
 10
517.3963874830315
 20
456.6885621213181
 30
0.0
 10
519.3343181201668
 20
458.9819613143846
 30
0.0
 10
521.5656295157032
 20
462.1291645945778
 30
0.0
 10
522.8556838666292
 20
464.6779226916253
 30
0.0
 10
523.5517238686538
 20
466.0530876912673
 30
0.0
  0
SPLINE
  5
76
330
1F
100
AcDbEntity
  8
0
  6
Continuous
 62
     7
370
    25
100
AcDbSpline
210
0.0
220
0.0
230
1.0
 70
     8
 71
     3
 72
    29
 73
    25
 74
     0
 42
0.000000001
 43
0.00000001
 40
0.0
 40
0.0
 40
0.0
 40
0.0
 40
0.0349321406882635
 40
0.0633980643159913
 40
0.0838985515737895
 40
0.1410481598295769
 40
0.1993926718331195
 40
0.2579538570990187
 40
0.3167358876867431
 40
0.3756685440136573
 40
0.4347110736298802
 40
0.4938368192040538
 40
0.5530116495173841
 40
0.6120983013386023
 40
0.6710428299972755
 40
0.72982617316866
 40
0.7884258360426927
 40
0.8467958145206171
 40
0.8655669647427027
 40
0.8834823951604176
 40
0.9012873219477364
 40
0.9267778521638325
 40
0.9604934909203238
 40
1.0
 40
1.0
 40
1.0
 40
1.0
 10
883.5517238686539
 20
466.0530876912673
 30
0.0
 10
884.0847711972636
 20
467.3069007467843
 30
0.0
 10
885.0521945545739
 20
469.5824360895299
 30
0.0
 10
885.9360216139138
 20
472.7374117819807
 30
0.0
 10
886.7700859399943
 20
476.7877945753376
 30
0.0
 10
887.1944018557205
 20
482.1022622371985
 30
0.0
 10
886.5043802011683
 20
488.8855590048908
 30
0.0
 10
884.5679905953731
 20
495.4920175622625
 30
0.0
 10
881.4429786852254
 20
501.6518981875165
 30
0.0
 10
877.2267824848844
 20
507.1472675923736
 30
0.0
 10
872.059872218928
 20
511.7804920360448
 30
0.0
 10
866.1182413093075
 20
515.3852434271739
 30
0.0
 10
859.6110832907547
 20
517.8304731200658
 30
0.0
 10
852.7712872110226
 20
519.0301510761781
 30
0.0
 10
845.843178829767
 20
518.948324776894
 30
0.0
 10
839.0669274270613
 20
517.5971388938387
 30
0.0
 10
832.675648900341
 20
515.0357752758497
 30
0.0
 10
828.1809868883921
 20
512.1856757508059
 30
0.0
 10
825.3145767386395
 20
509.8381662145098
 30
0.0
 10
823.7512952902437
 20
508.3998217104714
 30
0.0
 10
822.0878345457154
 20
506.6888352746159
 30
0.0
 10
820.1499039085801
 20
504.3954360815495
 30
0.0
 10
817.9185925130439
 20
501.2482328013561
 30
0.0
 10
816.6285381621179
 20
498.6994747043087
 30
0.0
 10
815.9324981600932
 20
497.3243097046668
 30
0.0
  0
SPLINE
  5
77
330
1F
100
AcDbEntity
  8
0
  6
Continuous
 62
     7
370
    25
100
AcDbSpline
210
0.0
220
0.0
230
1.0
 70
     8
 71
     3
 72
    29
 73
    25
 74
     0
 42
0.000000001
 43
0.00000001
 40
0.0
 40
0.0
 40
0.0
 40
0.0
 40
0.0349321406882635
 40
0.0633980643159912
 40
0.0838985515737895
 40
0.1410481598295768
 40
0.1993926718331194
 40
0.2579538570990187
 40
0.3167358876867429
 40
0.3756685440136572
 40
0.4347110736298801
 40
0.4938368192040538
 40
0.5530116495173841
 40
0.6120983013386021
 40
0.6710428299972755
 40
0.7298261731686599
 40
0.7884258360426926
 40
0.846795814520617
 40
0.8655669647427027
 40
0.8834823951604175
 40
0.9012873219477363
 40
0.9267778521638325
 40
0.9604934909203237
 40
1.0
 40
1.0
 40
1.0
 40
1.0
 10
815.9324981600932
 20
497.3243097046667
 30
0.0
 10
815.3994508314834
 20
496.0704966491497
 30
0.0
 10
814.4320274741731
 20
493.7949613064041
 30
0.0
 10
813.5482004148332
 20
490.6399856139533
 30
0.0
 10
812.7141360887528
 20
486.5896028205964
 30
0.0
 10
812.2898201730267
 20
481.2751351587355
 30
0.0
 10
812.9798418275786
 20
474.4918383910432
 30
0.0
 10
814.916231433374
 20
467.8853798336714
 30
0.0
 10
818.0412433435218
 20
461.7254992084176
 30
0.0
 10
822.2574395438626
 20
456.2301298035604
 30
0.0
 10
827.4243498098191
 20
451.596905359889
 30
0.0
 10
833.3659807194396
 20
447.99215396876
 30
0.0
 10
839.8731387379925
 20
445.5469242758683
 30
0.0
 10
846.7129348177244
 20
444.3472463197559
 30
0.0
 10
853.6410431989799
 20
444.42907261904
 30
0.0
 10
860.4172946016859
 20
445.7802585020953
 30
0.0
 10
866.8085731284061
 20
448.3416221200844
 30
0.0
 10
871.3032351403548
 20
451.191721645128
 30
0.0
 10
874.1696452901075
 20
453.5392311814242
 30
0.0
 10
875.7329267385034
 20
454.9775756854626
 30
0.0
 10
877.3963874830315
 20
456.688562121318
 30
0.0
 10
879.3343181201672
 20
458.9819613143845
 30
0.0
 10
881.5656295157031
 20
462.1291645945777
 30
0.0
 10
882.8556838666293
 20
464.6779226916253
 30
0.0
 10
883.5517238686539
 20
466.0530876912673
 30
0.0
  0
LINE
  5
78
330
1F
100
AcDbEntity
  8
0
  6
Continuous
 62
     7
370
    25
100
AcDbLine
 10
834.9921110144
 20
539.9884911599
 30
0.0
 11
834.9921110144
 21
539.7639406085
 31
0.0
  0
LINE
  5
79
330
1F
100
AcDbEntity
  8
0
  6
Continuous
 62
     7
370
    25
100
AcDbLine
 10
474.9921110144
 20
539.9884911599
 30
0.0
 11
474.9921110144
 21
539.7639401568
 31
0.0
  0
ARC
  5
7A
330
1F
100
AcDbEntity
  8
0
  6
Continuous
 62
     7
370
    25
100
AcDbCircle
 10
489.7421110144
 20
481.688698698
 30
0.0
 40
36.31056399417619
100
AcDbArc
 50
155.1813223123
 51
335.1813223292
  0
ARC
  5
7B
330
1F
100
AcDbEntity
  8
0
  6
Continuous
 62
     7
370
    25
100
AcDbCircle
 10
489.7421110144
 20
481.688698698
 30
0.0
 40
36.31056399417619
100
AcDbArc
 50
335.1813223292
 51
155.1813223123
  0
ARC
  5
7C
330
1F
100
AcDbEntity
  8
0
  6
Continuous
 62
     7
370
    25
100
AcDbCircle
 10
849.7421110144
 20
481.688698698
 30
0.0
 40
36.31056399417623
100
AcDbArc
 50
155.1813223123
 51
335.1813223292
  0
ARC
  5
7D
330
1F
100
AcDbEntity
  8
0
  6
Continuous
 62
     7
370
    25
100
AcDbCircle
 10
849.7421110144
 20
481.688698698
 30
0.0
 40
36.31056399417623
100
AcDbArc
 50
335.1813223292
 51
155.1813223123
  0
SPLINE
  5
7E
330
1F
100
AcDbEntity
  8
0
  6
Continuous
 62
     7
370
    25
100
AcDbSpline
210
0.0
220
0.0
230
1.0
 70
    24
 71
     3
 72
     9
 73
     5
 74
     0
 42
0.000000001
 43
0.00000001
 40
0.0
 40
0.0
 40
0.0
 40
0.0
 40
0.5599999999870792
 40
1.0
 40
1.0
 40
1.0
 40
1.0
 10
459.2580294433469
 20
458.5039187121868
 30
0.0
 10
459.1031681932652
 20
458.386138420755
 30
0.0
 10
458.8266302466844
 20
458.1758164717648
 30
0.0
 10
458.4623676680372
 20
457.8987752322802
 30
0.0
 10
458.3020921334278
 20
457.7768770869033
 30
0.0
  0
SPLINE
  5
7F
330
1F
100
AcDbEntity
  8
0
  6
Continuous
 62
     7
370
    25
100
AcDbSpline
210
0.0
220
0.0
230
1.0
 70
    24
 71
     3
 72
     9
 73
     5
 74
     0
 42
0.000000001
 43
0.00000001
 40
0.0
 40
0.0
 40
0.0
 40
0.0
 40
0.5600000000054535
 40
1.0
 40
1.0
 40
1.0
 40
1.0
 10
521.182129895319
 20
505.6005203090308
 30
0.0
 10
520.977245900009
 20
505.4446950353449
 30
0.0
 10
520.6113816226734
 20
505.1664356180514
 30
0.0
 10
520.3438892352767
 20
504.9629933022574
 30
0.0
 10
520.2261925848237
 20
504.8734786833091
 30
0.0
  0
ARC
  5
80
330
1F
100
AcDbEntity
  8
0
  6
Continuous
 62
     7
370
    25
100
AcDbCircle
 10
489.7421110144
 20
481.688698698
 30
0.0
 40
38.29899805700017
100
AcDbArc
 50
37.2549368278
 51
217.2549368278
  0
ARC
  5
81
330
1F
100
AcDbEntity
  8
0
  6
Continuous
 62
     7
370
    25
100
AcDbCircle
 10
489.7421110144
 20
481.688698698
 30
0.0
 40
39.50000000000014
100
AcDbArc
 50
37.2549368278
 51
217.2549368513
  0
ARC
  5
82
330
1F
100
AcDbEntity
  8
0
  6
Continuous
 62
     7
370
    25
100
AcDbCircle
 10
489.7421110144
 20
481.688698698
 30
0.0
 40
38.29899805700017
100
AcDbArc
 50
217.2549368278
 51
37.2549368278
  0
ARC
  5
83
330
1F
100
AcDbEntity
  8
0
  6
Continuous
 62
     7
370
    25
100
AcDbCircle
 10
489.7421110144
 20
481.688698698
 30
0.0
 40
39.50000000000014
100
AcDbArc
 50
217.2549368513
 51
37.2549368176
  0
SPLINE
  5
84
330
1F
100
AcDbEntity
  8
0
  6
Continuous
 62
     7
370
    25
100
AcDbSpline
210
0.0
220
0.0
230
1.0
 70
    24
 71
     3
 72
     9
 73
     5
 74
     0
 42
0.000000001
 43
0.00000001
 40
0.0
 40
0.0
 40
0.0
 40
0.0
 40
0.5599999999870792
 40
1.0
 40
1.0
 40
1.0
 40
1.0
 10
819.2580294433469
 20
458.5039187121867
 30
0.0
 10
819.1031681932652
 20
458.3861384207549
 30
0.0
 10
818.8266302466844
 20
458.1758164717647
 30
0.0
 10
818.4623676680372
 20
457.8987752322801
 30
0.0
 10
818.3020921334279
 20
457.7768770869033
 30
0.0
  0
SPLINE
  5
85
330
1F
100
AcDbEntity
  8
0
  6
Continuous
 62
     7
370
    25
100
AcDbSpline
210
0.0
220
0.0
230
1.0
 70
    24
 71
     3
 72
     9
 73
     5
 74
     0
 42
0.000000001
 43
0.00000001
 40
0.0
 40
0.0
 40
0.0
 40
0.0
 40
0.5600000000054535
 40
1.0
 40
1.0
 40
1.0
 40
1.0
 10
881.1821298953191
 20
505.6005203090308
 30
0.0
 10
880.9772459000092
 20
505.4446950353449
 30
0.0
 10
880.6113816226735
 20
505.1664356180513
 30
0.0
 10
880.3438892352768
 20
504.9629933022572
 30
0.0
 10
880.2261925848237
 20
504.873478683309
 30
0.0
  0
ARC
  5
86
330
1F
100
AcDbEntity
  8
0
  6
Continuous
 62
     7
370
    25
100
AcDbCircle
 10
849.7421110144
 20
481.688698698
 30
0.0
 40
38.29899805700006
100
AcDbArc
 50
37.2549368278
 51
217.2549368278
  0
ARC
  5
87
330
1F
100
AcDbEntity
  8
0
  6
Continuous
 62
     7
370
    25
100
AcDbCircle
 10
849.7421110144
 20
481.688698698
 30
0.0
 40
39.50000000000009
100
AcDbArc
 50
37.2549368278
 51
217.2549368513
  0
ARC
  5
88
330
1F
100
AcDbEntity
  8
0
  6
Continuous
 62
     7
370
    25
100
AcDbCircle
 10
849.7421110144
 20
481.688698698
 30
0.0
 40
38.29899805700006
100
AcDbArc
 50
217.2549368278
 51
37.2549368278
  0
ARC
  5
89
330
1F
100
AcDbEntity
  8
0
  6
Continuous
 62
     7
370
    25
100
AcDbCircle
 10
849.7421110144
 20
481.688698698
 30
0.0
 40
39.50000000000009
100
AcDbArc
 50
217.2549368513
 51
37.2549368176
  0
CIRCLE
  5
8A
330
1F
100
AcDbEntity
  8
0
  6
Continuous
 62
     7
370
    25
100
AcDbCircle
 10
489.7421110144
 20
481.688698698
 30
0.0
 40
56.99999999999995
  0
SPLINE
  5
8B
330
1F
100
AcDbEntity
  8
0
  6
Continuous
 62
     7
370
    25
100
AcDbSpline
210
0.0
220
0.0
230
1.0
 70
     8
 71
     3
 72
    35
 73
    31
 74
     0
 42
0.000000001
 43
0.00000001
 40
0.0
 40
0.0
 40
0.0
 40
0.0
 40
0.0282546077220524
 40
0.0583834426637938
 40
0.090349539927827
 40
0.1258616479012821
 40
0.1640104750491878
 40
0.2048405213069453
 40
0.2374624815847438
 40
0.2716127104071187
 40
0.3071914351681351
 40
0.344055001762577
 40
0.382015121566733
 40
0.4208413631481726
 40
0.4602672732901844
 40
0.5000000044809543
 40
0.539732735671724
 40
0.579158645813736
 40
0.6179848873951754
 40
0.6559450071993317
 40
0.6928085737937733
 40
0.7283872985547899
 40
0.7625375273771648
 40
0.7951594876549632
 40
0.835992837618201
 40
0.8741415922595376
 40
0.9096504660940499
 40
0.9416198397637139
 40
0.9717470283705452
 40
1.0
 40
1.0
 40
1.0
 40
1.0
 10
533.7499719191328
 20
477.0430671709143
 30
0.0
 10
533.8538934789273
 20
478.3484257601072
 30
0.0
 10
534.0686300800327
 20
481.0457319516332
 30
0.0
 10
533.9178335037343
 20
485.2369134908948
 30
0.0
 10
533.3440803296277
 20
489.7272159619486
 30
0.0
 10
532.2035970822541
 20
494.4958452258265
 30
0.0
 10
530.3811297703878
 20
499.4886474623503
 30
0.0
 10
528.0138989418091
 20
504.1004455628837
 30
0.0
 10
525.2383609025061
 20
508.2496205313303
 30
0.0
 10
522.1987901179918
 20
511.8993852146612
 30
0.0
 10
518.6362532943496
 20
515.3320256747877
 30
0.0
 10
514.5658978926622
 20
518.4459115827641
 30
0.0
 10
510.0282179364077
 20
521.1382709146136
 30
0.0
 10
505.0901217154664
 20
523.3132305148622
 30
0.0
 10
499.8433680515503
 20
524.8900745772454
 30
0.0
 10
494.3998249328862
 20
525.8110155608202
 30
0.0
 10
488.8839740688958
 20
526.0469884818675
 30
0.0
 10
483.4236221547458
 20
525.6004258342772
 30
0.0
 10
478.1402374922113
 20
524.5044833161871
 30
0.0
 10
473.1404098455972
 20
522.8189383522282
 30
0.0
 10
468.509591225325
 20
520.623580298334
 30
0.0
 10
464.3088414892487
 20
518.0104610841336
 30
0.0
 10
460.5741963118118
 20
515.0758068790367
 30
0.0
 10
456.9933723084479
 20
511.5975169589648
 30
0.0
 10
453.7153151574046
 20
507.5815022902905
 30
0.0
 10
450.8905347600626
 20
503.0792711270642
 30
0.0
 10
448.7795487904615
 20
498.6538651112239
 30
0.0
 10
447.2808707434808
 20
494.3824099402448
 30
0.0
 10
446.2583748985089
 20
490.3150731724414
 30
0.0
 10
445.9051787424828
 20
487.6325381408084
 30
0.0
 10
445.7342501096142
 20
486.3343302250199
 30
0.0
  0
SPLINE
  5
8C
330
1F
100
AcDbEntity
  8
0
  6
Continuous
 62
     7
370
    25
100
AcDbSpline
210
0.0
220
0.0
230
1.0
 70
     8
 71
     3
 72
    35
 73
    31
 74
     0
 42
0.000000001
 43
0.00000001
 40
0.0
 40
0.0
 40
0.0
 40
0.0
 40
0.0282546077224732
 40
0.0583834426636163
 40
0.0903495399278294
 40
0.1258616479030817
 40
0.1640104750499179
 40
0.2048405213069402
 40
0.2374624815847386
 40
0.2716127104071137
 40
0.3071914351681302
 40
0.3440550017625722
 40
0.3820151215667283
 40
0.4208413631481682
 40
0.4602672732901802
 40
0.5000000044809502
 40
0.53973273567172
 40
0.5791586458137319
 40
0.6179848873951718
 40
0.6559450071993278
 40
0.6928085737937698
 40
0.7283872985547865
 40
0.7625375273771614
 40
0.7951594876549599
 40
0.835992837618258
 40
0.8741415922594716
 40
0.9096504660940463
 40
0.9416198397647849
 40
0.9717470283710185
 40
0.9999999999999999
 40
0.9999999999999999
 40
0.9999999999999999
 40
0.9999999999999999
 10
445.7342501096142
 20
486.3343302250199
 30
0.0
 10
445.6303285498146
 20
485.0289716358076
 30
0.0
 10
445.4155919487031
 20
482.3316654442897
 30
0.0
 10
445.5663885250333
 20
478.1404839050294
 30
0.0
 10
446.1401416991249
 20
473.6501814339107
 30
0.0
 10
447.2806249465152
 20
468.88155216999
 30
0.0
 10
449.1030922584338
 20
463.8887499334876
 30
0.0
 10
451.4703230869522
 20
459.2769518330192
 30
0.0
 10
454.2458611262422
 20
455.1277768646038
 30
0.0
 10
457.2854319107549
 20
451.4780121812722
 30
0.0
 10
460.8479687343978
 20
448.0453717211458
 30
0.0
 10
464.9183241360848
 20
444.9314858131693
 30
0.0
 10
469.4560040923395
 20
442.2391264813199
 30
0.0
 10
474.3941003132808
 20
440.0641668810713
 30
0.0
 10
479.6408539771967
 20
438.4873228186881
 30
0.0
 10
485.0843970958609
 20
437.5663818351132
 30
0.0
 10
490.6002479598512
 20
437.330408914066
 30
0.0
 10
496.0605998740014
 20
437.7769715616561
 30
0.0
 10
501.3439845365357
 20
438.8729140797464
 30
0.0
 10
506.3438121831501
 20
440.5584590437053
 30
0.0
 10
510.9746308034221
 20
442.7538170975996
 30
0.0
 10
515.1753805394985
 20
445.3669363117998
 30
0.0
 10
518.9100257169356
 20
448.3015905168966
 30
0.0
 10
522.4908497203004
 20
451.7798804369713
 30
0.0
 10
525.7689068713466
 20
455.7958951056398
 30
0.0
 10
528.5936872686794
 20
460.298126268872
 30
0.0
 10
530.7046732383054
 20
464.7235322847518
 30
0.0
 10
532.2033512852946
 20
468.9949874557558
 30
0.0
 10
533.2258471302393
 20
473.0623242235655
 30
0.0
 10
533.5790432862643
 20
475.7448592551481
 30
0.0
 10
533.7499719191328
 20
477.0430671709143
 30
0.0
  0
ARC
  5
8D
330
1F
100
AcDbEntity
  8
0
  6
Continuous
 62
     7
370
    25
100
AcDbCircle
 10
489.7421110144
 20
481.688698698
 30
0.0
 40
40.35476230894876
100
AcDbArc
 50
353.973964907
 51
173.973964907
  0
ARC
  5
8E
330
1F
100
AcDbEntity
  8
0
  6
Continuous
 62
     7
370
    25
100
AcDbCircle
 10
489.7421110144
 20
481.688698698
 30
0.0
 40
40.35476230894876
100
AcDbArc
 50
173.973964907
 51
353.973964907
  0
CIRCLE
  5
8F
330
1F
100
AcDbEntity
  8
0
  6
Continuous
 62
     7
370
    25
100
AcDbCircle
 10
489.7421110144
 20
481.688698698
 30
0.0
 40
39.93812333100007
  0
CIRCLE
  5
90
330
1F
100
AcDbEntity
  8
0
  6
Continuous
 62
     7
370
    25
100
AcDbCircle
 10
849.7421110144
 20
481.688698698
 30
0.0
 40
57.0
  0
SPLINE
  5
91
330
1F
100
AcDbEntity
  8
0
  6
Continuous
 62
     7
370
    25
100
AcDbSpline
210
0.0
220
0.0
230
1.0
 70
     8
 71
     3
 72
    35
 73
    31
 74
     0
 42
0.000000001
 43
0.00000001
 40
0.0
 40
0.0
 40
0.0
 40
0.0
 40
0.0282546077220524
 40
0.0583834426637938
 40
0.090349539927827
 40
0.1258616479012821
 40
0.1640104750491878
 40
0.2048405213069453
 40
0.2374624815847438
 40
0.2716127104071187
 40
0.3071914351681351
 40
0.344055001762577
 40
0.382015121566733
 40
0.4208413631481726
 40
0.4602672732901844
 40
0.5000000044809543
 40
0.539732735671724
 40
0.579158645813736
 40
0.6179848873951754
 40
0.6559450071993317
 40
0.6928085737937733
 40
0.7283872985547899
 40
0.7625375273771648
 40
0.7951594876549632
 40
0.835992837618201
 40
0.8741415922595376
 40
0.9096504660940499
 40
0.9416198397637139
 40
0.9717470283705452
 40
1.0
 40
1.0
 40
1.0
 40
1.0
 10
893.7499719191328
 20
477.0430671709142
 30
0.0
 10
893.8538934789274
 20
478.3484257601071
 30
0.0
 10
894.0686300800327
 20
481.0457319516332
 30
0.0
 10
893.9178335037345
 20
485.2369134908948
 30
0.0
 10
893.3440803296276
 20
489.7272159619484
 30
0.0
 10
892.2035970822544
 20
494.4958452258265
 30
0.0
 10
890.3811297703878
 20
499.4886474623503
 30
0.0
 10
888.0138989418091
 20
504.1004455628837
 30
0.0
 10
885.2383609025063
 20
508.2496205313303
 30
0.0
 10
882.198790117992
 20
511.899385214661
 30
0.0
 10
878.6362532943497
 20
515.3320256747876
 30
0.0
 10
874.5658978926622
 20
518.445911582764
 30
0.0
 10
870.0282179364078
 20
521.1382709146135
 30
0.0
 10
865.0901217154664
 20
523.3132305148621
 30
0.0
 10
859.8433680515504
 20
524.8900745772454
 30
0.0
 10
854.3998249328862
 20
525.8110155608202
 30
0.0
 10
848.8839740688959
 20
526.0469884818674
 30
0.0
 10
843.4236221547459
 20
525.6004258342772
 30
0.0
 10
838.1402374922116
 20
524.504483316187
 30
0.0
 10
833.1404098455971
 20
522.8189383522282
 30
0.0
 10
828.5095912253252
 20
520.6235802983339
 30
0.0
 10
824.3088414892485
 20
518.0104610841336
 30
0.0
 10
820.5741963118119
 20
515.0758068790367
 30
0.0
 10
816.9933723084479
 20
511.5975169589647
 30
0.0
 10
813.7153151574046
 20
507.5815022902905
 30
0.0
 10
810.8905347600626
 20
503.0792711270642
 30
0.0
 10
808.7795487904615
 20
498.6538651112238
 30
0.0
 10
807.2808707434807
 20
494.3824099402448
 30
0.0
 10
806.258374898509
 20
490.3150731724413
 30
0.0
 10
805.9051787424829
 20
487.6325381408084
 30
0.0
 10
805.7342501096143
 20
486.3343302250199
 30
0.0
  0
SPLINE
  5
92
330
1F
100
AcDbEntity
  8
0
  6
Continuous
 62
     7
370
    25
100
AcDbSpline
210
0.0
220
0.0
230
1.0
 70
     8
 71
     3
 72
    35
 73
    31
 74
     0
 42
0.000000001
 43
0.00000001
 40
0.0
 40
0.0
 40
0.0
 40
0.0
 40
0.0282546077224732
 40
0.0583834426636163
 40
0.0903495399278294
 40
0.1258616479030817
 40
0.1640104750499179
 40
0.2048405213069402
 40
0.2374624815847386
 40
0.2716127104071137
 40
0.3071914351681302
 40
0.3440550017625722
 40
0.3820151215667283
 40
0.4208413631481682
 40
0.4602672732901802
 40
0.5000000044809502
 40
0.53973273567172
 40
0.5791586458137319
 40
0.6179848873951718
 40
0.6559450071993278
 40
0.6928085737937698
 40
0.7283872985547865
 40
0.7625375273771614
 40
0.7951594876549599
 40
0.835992837618258
 40
0.8741415922594716
 40
0.9096504660940463
 40
0.9416198397647849
 40
0.9717470283710185
 40
0.9999999999999999
 40
0.9999999999999999
 40
0.9999999999999999
 40
0.9999999999999999
 10
805.7342501096143
 20
486.3343302250199
 30
0.0
 10
805.6303285498147
 20
485.0289716358075
 30
0.0
 10
805.4155919487031
 20
482.3316654442896
 30
0.0
 10
805.5663885250335
 20
478.1404839050294
 30
0.0
 10
806.1401416991249
 20
473.6501814339106
 30
0.0
 10
807.2806249465153
 20
468.8815521699899
 30
0.0
 10
809.1030922584338
 20
463.8887499334875
 30
0.0
 10
811.4703230869524
 20
459.2769518330191
 30
0.0
 10
814.2458611262422
 20
455.1277768646038
 30
0.0
 10
817.2854319107549
 20
451.4780121812722
 30
0.0
 10
820.8479687343977
 20
448.0453717211458
 30
0.0
 10
824.9183241360851
 20
444.9314858131693
 30
0.0
 10
829.4560040923393
 20
442.2391264813198
 30
0.0
 10
834.3941003132809
 20
440.0641668810712
 30
0.0
 10
839.6408539771969
 20
438.4873228186881
 30
0.0
 10
845.0843970958609
 20
437.5663818351132
 30
0.0
 10
850.6002479598513
 20
437.3304089140659
 30
0.0
 10
856.0605998740014
 20
437.7769715616561
 30
0.0
 10
861.3439845365357
 20
438.8729140797464
 30
0.0
 10
866.3438121831501
 20
440.5584590437052
 30
0.0
 10
870.9746308034221
 20
442.7538170975994
 30
0.0
 10
875.1753805394986
 20
445.3669363117998
 30
0.0
 10
878.9100257169356
 20
448.3015905168966
 30
0.0
 10
882.4908497203004
 20
451.7798804369713
 30
0.0
 10
885.7689068713468
 20
455.7958951056397
 30
0.0
 10
888.5936872686793
 20
460.2981262688719
 30
0.0
 10
890.7046732383055
 20
464.7235322847517
 30
0.0
 10
892.2033512852946
 20
468.9949874557557
 30
0.0
 10
893.2258471302393
 20
473.0623242235654
 30
0.0
 10
893.5790432862644
 20
475.7448592551481
 30
0.0
 10
893.7499719191328
 20
477.0430671709142
 30
0.0
  0
ARC
  5
93
330
1F
100
AcDbEntity
  8
0
  6
Continuous
 62
     7
370
    25
100
AcDbCircle
 10
849.7421110144
 20
481.688698698
 30
0.0
 40
40.3547623089487
100
AcDbArc
 50
353.973964907
 51
173.973964907
  0
ARC
  5
94
330
1F
100
AcDbEntity
  8
0
  6
Continuous
 62
     7
370
    25
100
AcDbCircle
 10
849.7421110144
 20
481.688698698
 30
0.0
 40
40.3547623089487
100
AcDbArc
 50
173.973964907
 51
353.973964907
  0
CIRCLE
  5
95
330
1F
100
AcDbEntity
  8
0
  6
Continuous
 62
     7
370
    25
100
AcDbCircle
 10
849.7421110144
 20
481.688698698
 30
0.0
 40
39.93812333099991
  0
LINE
  5
96
330
1F
100
AcDbEntity
  8
0
  6
Continuous
 62
     7
370
    25
100
AcDbLine
 10
741.7421110144
 20
216.688698698
 30
0.0
 11
741.7421110144
 21
586.688698698
 31
0.0
  0
SPLINE
  5
97
330
1F
100
AcDbEntity
  8
0
  6
Continuous
 62
     7
370
    25
100
AcDbSpline
210
0.0
220
0.0
230
1.0
 70
     8
 71
     3
 72
    29
 73
    25
 74
     0
 42
0.000000001
 43
0.00000001
 40
0.0
 40
0.0
 40
0.0
 40
0.0
 40
0.014595508716841
 40
0.0291687329087217
 40
0.0437272890332423
 40
0.0582788165804014
 40
0.0728309661096421
 40
0.0873913871999803
 40
0.101967716407814
 40
0.1165675653270113
 40
0.1783205878799651
 40
0.2400932630115128
 40
0.3044204810761004
 40
0.3687674313275489
 40
0.5000037584450727
 40
0.6312400855625959
 40
0.6955673052203792
 40
0.7599142570555812
 40
0.8216672782685154
 40
0.8834399525101648
 40
0.9126068333116532
 40
0.9417150107953562
 40
0.9708256749205146
 40
1.0
 40
1.0
 40
1.0
 40
1.0
 10
724.7421110143734
 20
603.6886986979671
 30
0.0
 10
724.8719426402389
 20
603.6878468266312
 30
0.0
 10
725.1314076641338
 20
603.6861443846027
 30
0.0
 10
725.5201735492716
 20
603.6723426887643
 30
0.0
 10
725.9081425981653
 20
603.6503014615446
 30
0.0
 10
726.2953143611036
 20
603.6192169156831
 30
0.0
 10
726.681689115703
 20
603.5793038610915
 30
0.0
 10
727.0672642735241
 20
603.5305059646756
 30
0.0
 10
727.4520480131754
 20
603.4728341227616
 30
0.0
 10
728.249023438305
 20
603.3347344093187
 30
0.0
 10
729.4471557772277
 20
603.0527756133907
 30
0.0
 10
731.0309585687096
 20
602.5124181280779
 30
0.0
 10
732.5755839232887
 20
601.8093597863373
 30
0.0
 10
734.5746625834736
 20
600.6415356327175
 30
0.0
 10
736.8488961818686
 20
598.7954831116097
 30
0.0
 10
738.6948343783013
 20
596.5213876908734
 30
0.0
 10
739.8626945522169
 20
594.5223280177647
 30
0.0
 10
740.56569058734
 20
592.977877823137
 30
0.0
 10
741.1061762097034
 20
591.3938905853939
 30
0.0
 10
741.4177445290674
 20
590.0694904589205
 30
0.0
 10
741.5883897542082
 20
589.0150535937133
 30
0.0
 10
741.6766625726659
 20
588.2425456355242
 30
0.0
 10
741.7319081732431
 20
587.4667292319843
 30
0.0
 10
741.7387075918072
 20
586.94823098343
 30
0.0
 10
741.7421110143733
 20
586.688698697967
 30
0.0
  0
LINE
  5
98
330
1F
100
AcDbEntity
  8
0
  6
Continuous
 62
     7
370
    25
100
AcDbLine
 10
724.7421110144
 20
603.688698698
 30
0.0
 11
254.7421110144
 21
603.688698698
 31
0.0
  0
SPLINE
  5
99
330
1F
100
AcDbEntity
  8
0
  6
Continuous
 62
     7
370
    25
100
AcDbSpline
210
0.0
220
0.0
230
1.0
 70
     8
 71
     3
 72
    29
 73
    25
 74
     0
 42
0.000000001
 43
0.00000001
 40
0.0
 40
0.0
 40
0.0
 40
0.0
 40
0.0145955087235478
 40
0.0291687329204358
 40
0.0437272890482612
 40
0.0582788165970121
 40
0.07283096612613
 40
0.0873913872146276
 40
0.1019677164189081
 40
0.1165675653328375
 40
0.1783205878961024
 40
0.2400932630186688
 40
0.3044204811019419
 40
0.368767431332338
 40
0.5000037584451358
 40
0.6312400855579381
 40
0.6955673051969807
 40
0.7599142570483304
 40
0.8216672782431644
 40
0.8834399525043432
 40
0.9126068332972394
 40
0.9417150107790533
 40
0.970825674909031
 40
1.0
 40
1.0
 40
1.0
 40
1.0
 10
237.7421110143734
 20
586.688698697967
 30
0.0
 10
237.7429628857246
 20
586.81853032389
 30
0.0
 10
237.7446653277837
 20
587.0779953478848
 30
0.0
 10
237.7584670236614
 20
587.4667612331485
 30
0.0
 10
237.780508250915
 20
587.8547302821225
 30
0.0
 10
237.8115927968045
 20
588.2419020450951
 30
0.0
 10
237.8515058514192
 20
588.6282767996827
 30
0.0
 10
237.9003037478522
 20
589.0138519574459
 30
0.0
 10
237.9579755897774
 20
589.3986356969937
 30
0.0
 10
238.0960753032928
 20
590.1956111221111
 30
0.0
 10
238.3780340992623
 20
591.3937434609682
 30
0.0
 10
238.9183915847048
 20
592.9775462525628
 30
0.0
 10
239.6214499263971
 20
594.5221716070273
 30
0.0
 10
240.789274080115
 20
596.5212502670385
 30
0.0
 10
242.6353266010002
 20
598.7954838651852
 30
0.0
 10
244.9094220214858
 20
600.6414220614637
 30
0.0
 10
246.9084816944938
 20
601.8092822353424
 30
0.0
 10
248.4529318888837
 20
602.5122782704759
 30
0.0
 10
250.0369191267118
 20
603.0527638929963
 30
0.0
 10
251.3613192530935
 20
603.3643322123781
 30
0.0
 10
252.4157561183482
 20
603.5349774376238
 30
0.0
 10
253.1882640764709
 20
603.6232502561152
 30
0.0
 10
253.9640804801224
 20
603.6784958567505
 30
0.0
 10
254.4825787288127
 20
603.6852952753717
 30
0.0
 10
254.7421110143735
 20
603.6886986979671
 30
0.0
  0
LINE
  5
9A
330
1F
100
AcDbEntity
  8
0
  6
Continuous
 62
     7
370
    25
100
AcDbLine
 10
237.7421110144
 20
216.688698698
 30
0.0
 11
237.7421110144
 21
586.688698698
 31
0.0
  0
SPLINE
  5
9B
330
1F
100
AcDbEntity
  8
0
  6
Continuous
 62
     7
370
    25
100
AcDbSpline
210
0.0
220
0.0
230
1.0
 70
     8
 71
     3
 72
    29
 73
    25
 74
     0
 42
0.000000001
 43
0.00000001
 40
0.0
 40
0.0
 40
0.0
 40
0.0
 40
0.0145955087203513
 40
0.0291687329147941
 40
0.0437272890409295
 40
0.0582788165887443
 40
0.0728309661176838
 40
0.0873913872067502
 40
0.101967716412356
 40
0.1165675653283517
 40
0.1783205878931254
 40
0.2400932630133526
 40
0.304420481095411
 40
0.3687674313287709
 40
0.5000037584451201
 40
0.6312400855614633
 40
0.6955673052292063
 40
0.7599142570539013
 40
0.8216672782737635
 40
0.8834399525088259
 40
0.9126068333054554
 40
0.9417150107877772
 40
0.9708256749150167
 40
1.0
 40
1.0
 40
1.0
 40
1.0
 10
254.7421110143735
 20
199.688698697967
 30
0.0
 10
254.6122793884749
 20
199.6895505693023
 30
0.0
 10
254.3528143645217
 20
199.6912530113297
 30
0.0
 10
253.9640484793093
 20
199.7050547071617
 30
0.0
 10
253.5760794303659
 20
199.7270959343707
 30
0.0
 10
253.1889076674028
 20
199.7581804802175
 30
0.0
 10
252.8025329128039
 20
199.7980935347904
 30
0.0
 10
252.4169577550077
 20
199.8468914311834
 30
0.0
 10
252.0321740154063
 20
199.90456327307
 30
0.0
 10
251.2351985902028
 20
200.0426629864924
 30
0.0
 10
250.0370662512623
 20
200.3246217823318
 30
0.0
 10
248.4532634596084
 20
200.8649792677205
 30
0.0
 10
246.9086381050967
 20
201.5680376094151
 30
0.0
 10
244.9095594448713
 20
202.7358617630022
 30
0.0
 10
242.6353258465699
 20
204.581914284018
 30
0.0
 10
240.7893876500862
 20
206.8560097048605
 30
0.0
 10
239.6215274762097
 20
208.8550693780181
 30
0.0
 10
238.91853144111
 20
210.3995195727486
 30
0.0
 10
238.3780458188609
 20
211.9835068104621
 30
0.0
 10
238.0664774995287
 20
213.3079069369229
 30
0.0
 10
237.8958322744615
 20
214.3623438020435
 30
0.0
 10
237.807559456046
 20
215.1348517602125
 30
0.0
 10
237.7523138554971
 20
215.9106681638212
 30
0.0
 10
237.7455144369378
 20
216.429166412451
 30
0.0
 10
237.7421110143734
 20
216.688698697967
 30
0.0
  0
LINE
  5
9C
330
1F
100
AcDbEntity
  8
0
  6
Continuous
 62
     7
370
    25
100
AcDbLine
 10
254.7421110144
 20
199.688698698
 30
0.0
 11
724.7421110144
 21
199.688698698
 31
0.0
  0
SPLINE
  5
9D
330
1F
100
AcDbEntity
  8
0
  6
Continuous
 62
     7
370
    25
100
AcDbSpline
210
0.0
220
0.0
230
1.0
 70
     8
 71
     3
 72
    10
 73
     6
 74
     0
 42
0.000000001
 43
0.00000001
 40
0.0
 40
0.0
 40
0.0
 40
0.0
 40
0.5
 40
0.5
 40
1.0
 40
1.0
 40
1.0
 40
1.0
 10
724.7421110143734
 20
199.688698697967
 30
0.0
 10
729.2506637423735
 20
199.688698697967
 30
0.0
 10
733.5748980872388
 20
201.4798552104898
 30
0.0
 10
739.9509545018507
 20
207.8559116251016
 30
0.0
 10
741.7421110143734
 20
212.180145969967
 30
0.0
 10
741.7421110143734
 20
216.688698697967
 30
0.0
  0
LINE
  5
9E
330
1F
100
AcDbEntity
  8
0
  6
Continuous
 62
     7
370
    25
100
AcDbLine
 10
774.7421110144
 20
603.688698698
 30
0.0
 11
924.7421110144
 21
603.688698698
 31
0.0
  0
SPLINE
  5
9F
330
1F
100
AcDbEntity
  8
0
  6
Continuous
 62
     7
370
    25
100
AcDbSpline
210
0.0
220
0.0
230
1.0
 70
     8
 71
     3
 72
    29
 73
    25
 74
     0
 42
0.000000001
 43
0.00000001
 40
0.0
 40
0.0
 40
0.0
 40
0.0
 40
0.0145955087214932
 40
0.0291687329167518
 40
0.0437272890433762
 40
0.0582788165913545
 40
0.0728309661201293
 40
0.0873913872087131
 40
0.1019677164135109
 40
0.1165675653283825
 40
0.1783205878901364
 40
0.2400932630133033
 40
0.3044204810840224
 40
0.3687674313287188
 40
0.5000037584450633
 40
0.6312400855614063
 40
0.6955673052161427
 40
0.7599142570538302
 40
0.8216672782608039
 40
0.8834399525087667
 40
0.9126068333011921
 40
0.9417150107821031
 40
0.9708256749107599
 40
1.0
 40
1.0
 40
1.0
 40
1.0
 10
757.7421110143733
 20
586.688698697967
 30
0.0
 10
757.7429628857087
 20
586.8185303238757
 30
0.0
 10
757.7446653277362
 20
587.0779953478461
 30
0.0
 10
757.758467023568
 20
587.4667612330804
 30
0.0
 10
757.780508250777
 20
587.8547302820369
 30
0.0
 10
757.8115927966235
 20
588.2419020450043
 30
0.0
 10
757.8515058511963
 20
588.6282767995992
 30
0.0
 10
757.9003037475893
 20
589.0138519573823
 30
0.0
 10
757.9579755894756
 20
589.3986356969618
 30
0.0
 10
758.0960753029019
 20
590.1956111221198
 30
0.0
 10
758.3780340987652
 20
591.3937434610424
 30
0.0
 10
758.9183915840739
 20
592.9775462526156
 30
0.0
 10
759.621449925778
 20
594.5221716071521
 30
0.0
 10
760.7892740793427
 20
596.5212502673913
 30
0.0
 10
762.6353266004255
 20
598.7954838657691
 30
0.0
 10
764.9094220211749
 20
600.6414220621837
 30
0.0
 10
766.9084816943237
 20
601.8092822360721
 30
0.0
 10
768.4529318889414
 20
602.5122782711439
 30
0.0
 10
770.0369191267548
 20
603.0527638934584
 30
0.0
 10
771.3613192531817
 20
603.3643322127713
 30
0.0
 10
772.4157561183603
 20
603.5349774378864
 30
0.0
 10
773.1882640764925
 20
603.6232502562972
 30
0.0
 10
773.9640804801393
 20
603.6784958568448
 30
0.0
 10
774.4825787288197
 20
603.6852952754032
 30
0.0
 10
774.7421110143736
 20
603.6886986979671
 30
0.0
  0
LINE
  5
A0
330
1F
100
AcDbEntity
  8
0
  6
Continuous
 62
     7
370
    25
100
AcDbLine
 10
757.7421110144
 20
216.688698698
 30
0.0
 11
757.7421110144
 21
586.688698698
 31
0.0
  0
SPLINE
  5
A1
330
1F
100
AcDbEntity
  8
0
  6
Continuous
 62
     7
370
    25
100
AcDbSpline
210
0.0
220
0.0
230
1.0
 70
     8
 71
     3
 72
    29
 73
    25
 74
     0
 42
0.000000001
 43
0.00000001
 40
0.0
 40
0.0
 40
0.0
 40
0.0
 40
0.0145955087196812
 40
0.0291687329136455
 40
0.0437272890394961
 40
0.0582788165872152
 40
0.0728309661162495
 40
0.0873913872056024
 40
0.101967716411679
 40
0.1165675653283365
 40
0.1783205878852322
 40
0.240093263013289
 40
0.3044204810844717
 40
0.3687674313287228
 40
0.5000037584450641
 40
0.631240085561407
 40
0.6955673052141826
 40
0.7599142570538316
 40
0.821667278265738
 40
0.8834399525088286
 40
0.912606833305457
 40
0.9417150107877784
 40
0.9708256749150174
 40
1.0
 40
1.0
 40
1.0
 40
1.0
 10
774.7421110143736
 20
199.688698697967
 30
0.0
 10
774.6122793884807
 20
199.6895505693023
 30
0.0
 10
774.3528143645381
 20
199.6912530113298
 30
0.0
 10
773.9640484793383
 20
199.7050547071618
 30
0.0
 10
773.5760794304025
 20
199.7270959343708
 30
0.0
 10
773.1889076674421
 20
199.7581804802178
 30
0.0
 10
772.8025329128404
 20
199.7980935347906
 30
0.0
 10
772.4169577550366
 20
199.8468914311837
 30
0.0
 10
772.0321740154227
 20
199.9045632730707
 30
0.0
 10
771.2351985902768
 20
200.0426629864738
 30
0.0
 10
770.0370662513362
 20
200.3246217823353
 30
0.0
 10
768.4532634597625
 20
200.8649792676557
 30
0.0
 10
766.9086381051802
 20
201.5680376093647
 30
0.0
 10
764.9095594449489
 20
202.7358617629439
 30
0.0
 10
762.6353258465696
 20
204.581914284017
 30
0.0
 10
760.78938765017
 20
206.8560097047561
 30
0.0
 10
759.6215274762728
 20
208.8550693779
 30
0.0
 10
758.9185314411911
 20
210.3995195725608
 30
0.0
 10
758.3780458188459
 20
211.9835068103831
 30
0.0
 10
758.0664774995442
 20
213.3079069368534
 30
0.0
 10
757.8958322744606
 20
214.3623438020434
 30
0.0
 10
757.8075594560464
 20
215.1348517602125
 30
0.0
 10
757.7523138554972
 20
215.9106681638212
 30
0.0
 10
757.7455144369377
 20
216.4291664124511
 30
0.0
 10
757.7421110143734
 20
216.688698697967
 30
0.0
  0
LINE
  5
A2
330
1F
100
AcDbEntity
  8
0
  6
Continuous
 62
     7
370
    25
100
AcDbLine
 10
924.7421110144
 20
199.688698698
 30
0.0
 11
774.7421110144
 21
199.688698698
 31
0.0
  0
SPLINE
  5
A3
330
1F
100
AcDbEntity
  8
0
  6
Continuous
 62
     7
370
    25
100
AcDbSpline
210
0.0
220
0.0
230
1.0
 70
     8
 71
     3
 72
    29
 73
    25
 74
     0
 42
0.000000001
 43
0.00000001
 40
0.0
 40
0.0
 40
0.0
 40
0.0
 40
0.0145955087218276
 40
0.0291687329173228
 40
0.0437272890440889
 40
0.0582788165921135
 40
0.07283096612084
 40
0.0873913872092795
 40
0.1019677164138378
 40
0.1165675653283775
 40
0.1783205878877089
 40
0.2400932630132503
 40
0.3044204810901113
 40
0.3687674313287801
 40
0.500003758445108
 40
0.6312400855614373
 40
0.6955673052036542
 40
0.7599142570537634
 40
0.8216672782576732
 40
0.8834399525088565
 40
0.9126068333066182
 40
0.9417150107893179
 40
0.9708256749161659
 40
1.0
 40
1.0
 40
1.0
 40
1.0
 10
941.7421110143734
 20
216.688698697967
 30
0.0
 10
941.7412591430381
 20
216.5588670720552
 30
0.0
 10
941.7395567010108
 20
216.2994020480798
 30
0.0
 10
941.7257550051789
 20
215.9106361628391
 30
0.0
 10
941.70371377797
 20
215.5226671138788
 30
0.0
 10
941.6726292321234
 20
215.13549535091
 30
0.0
 10
941.6327161775508
 20
214.7491205963164
 30
0.0
 10
941.5839182811578
 20
214.3635454385372
 30
0.0
 10
941.5262464392713
 20
213.978761698964
 30
0.0
 10
941.3881467258467
 20
213.1817862738326
 30
0.0
 10
941.1061879299745
 20
211.9836539349157
 30
0.0
 10
940.5658304446556
 20
210.3998511432904
 30
0.0
 10
939.8627721029928
 20
208.8552257887076
 30
0.0
 10
938.694947949342
 20
206.8561471285163
 30
0.0
 10
936.8488954283281
 20
204.5819135301648
 30
0.0
 10
934.5748000076672
 20
202.7359753338053
 30
0.0
 10
932.5757403345074
 20
201.5681151599413
 30
0.0
 10
931.0312901399326
 20
200.8651191248483
 30
0.0
 10
929.4473029020396
 20
200.3246335024136
 30
0.0
 10
928.1229027755473
 20
200.0130651831492
 30
0.0
 10
927.0684659102731
 20
199.8424199580551
 30
0.0
 10
926.2959579520937
 20
199.7541471396411
 30
0.0
 10
925.5201415484955
 20
199.698901539091
 30
0.0
 10
925.0016432998792
 20
199.6921021205313
 30
0.0
 10
924.7421110143734
 20
199.688698697967
 30
0.0
  0
LINE
  5
A4
330
1F
100
AcDbEntity
  8
0
  6
Continuous
 62
     7
370
    25
100
AcDbLine
 10
941.7421110144
 20
586.688698698
 30
0.0
 11
941.7421110144
 21
216.688698698
 31
0.0
  0
SPLINE
  5
A5
330
1F
100
AcDbEntity
  8
0
  6
Continuous
 62
     7
370
    25
100
AcDbSpline
210
0.0
220
0.0
230
1.0
 70
     8
 71
     3
 72
    29
 73
    25
 74
     0
 42
0.000000001
 43
0.00000001
 40
0.0
 40
0.0
 40
0.0
 40
0.0
 40
0.0145955087196842
 40
0.0291687329136515
 40
0.0437272890394989
 40
0.058278816587223
 40
0.0728309661162603
 40
0.0873913872056183
 40
0.1019677164116958
 40
0.1165675653283583
 40
0.17832058786604
 40
0.2400932630131565
 40
0.3044204810653055
 40
0.3687674313288125
 40
0.5000037584451841
 40
0.6312400855615514
 40
0.6955673052271102
 40
0.7599142570537053
 40
0.8216672782576777
 40
0.8834399525088055
 40
0.9126068333054403
 40
0.9417150107877683
 40
0.9708256749150111
 40
0.9999999999999999
 40
0.9999999999999999
 40
0.9999999999999999
 40
0.9999999999999999
 10
924.7421110143734
 20
603.6886986979671
 30
0.0
 10
924.8719426402661
 20
603.6878468266316
 30
0.0
 10
925.1314076642087
 20
603.6861443846041
 30
0.0
 10
925.5201735494086
 20
603.6723426887722
 30
0.0
 10
925.9081425983443
 20
603.6503014615631
 30
0.0
 10
926.2953143613047
 20
603.6192169157163
 30
0.0
 10
926.6816891159065
 20
603.5793038611432
 30
0.0
 10
927.0672642737102
 20
603.5305059647504
 30
0.0
 10
927.4520480133241
 20
603.4728341228628
 30
0.0
 10
928.2490234383027
 20
603.3347344094938
 30
0.0
 10
929.4471557772232
 20
603.0527756135655
 30
0.0
 10
931.0309585686675
 20
602.5124181284069
 30
0.0
 10
932.5755839234516
 20
601.8093597867196
 30
0.0
 10
934.5746625836434
 20
600.6415356330585
 30
0.0
 10
936.8488961821624
 20
598.7954831119184
 30
0.0
 10
938.6948343787146
 20
596.5213876911249
 30
0.0
 10
939.8626945524127
 20
594.5223280178714
 30
0.0
 10
940.5656905875845
 20
592.9778778233388
 30
0.0
 10
941.1061762099089
 20
591.3938905856261
 30
0.0
 10
941.4177445291878
 20
590.0694904591503
 30
0.0
 10
941.5883897542869
 20
589.0150535938907
 30
0.0
 10
941.6766625727003
 20
588.2425456357214
 30
0.0
 10
941.7319081732498
 20
587.4667292321127
 30
0.0
 10
941.7387075918091
 20
586.948230983483
 30
0.0
 10
941.7421110143734
 20
586.688698697967
 30
0.0
  0
ARC
  5
A6
330
1F
100
AcDbEntity
  8
0
  6
Continuous
 62
     7
370
    25
100
AcDbCircle
 10
949.7421110134
 20
191.688698698
 30
0.0
 40
9.5
100
AcDbArc
 50
270.0
 51
0.0
  0
LINE
  5
A7
330
1F
100
AcDbEntity
  8
0
  6
Continuous
 62
     7
370
    25
100
AcDbLine
 10
229.7421110134
 20
182.1886986982
 30
0.0
 11
949.7421110134
 21
182.188698698
 31
0.0
  0
ARC
  5
A8
330
1F
100
AcDbEntity
  8
0
  6
Continuous
 62
     7
370
    25
100
AcDbCircle
 10
229.7421110134
 20
191.688698698
 30
0.0
 40
9.500000000000057
100
AcDbArc
 50
180.0
 51
270.0
  0
LINE
  5
A9
330
1F
100
AcDbEntity
  8
0
  6
Continuous
 62
     7
370
    25
100
AcDbLine
 10
220.2421110136
 20
611.688698698
 30
0.0
 11
220.2421110134
 21
191.688698698
 31
0.0
  0
ARC
  5
AA
330
1F
100
AcDbEntity
  8
0
  6
Continuous
 62
     7
370
    25
100
AcDbCircle
 10
229.7421110134
 20
611.688698698
 30
0.0
 40
9.499999999999886
100
AcDbArc
 50
90.0
 51
180.0
  0
LINE
  5
AB
330
1F
100
AcDbEntity
  8
0
  6
Continuous
 62
     7
370
    25
100
AcDbLine
 10
949.7421110115
 20
621.188698698
 30
0.0
 11
229.7421110134
 21
621.188698698
 31
0.0
  0
ARC
  5
AC
330
1F
100
AcDbEntity
  8
0
  6
Continuous
 62
     7
370
    25
100
AcDbCircle
 10
949.7421110134
 20
611.688698698
 30
0.0
 40
9.5
100
AcDbArc
 50
0.0
 51
90.0000000115
  0
LINE
  5
AD
330
1F
100
AcDbEntity
  8
0
  6
Continuous
 62
     7
370
    25
100
AcDbLine
 10
959.2421110132
 20
191.688698698
 30
0.0
 11
959.2421110134
 21
611.688698698
 31
0.0
  0
LINE
  5
AE
330
1F
100
AcDbEntity
  8
0
  6
Continuous
 62
     7
370
    25
100
AcDbLine
 10
924.7421110144
 20
603.688698698
 30
0.0
 11
924.7421110144
 21
601.688698698
 31
0.0
  0
LINE
  5
AF
330
1F
100
AcDbEntity
  8
0
  6
Continuous
 62
     7
370
    25
100
AcDbLine
 10
774.7421110144
 20
601.688698698
 30
0.0
 11
924.7421110144
 21
601.688698698
 31
0.0
  0
LINE
  5
B0
330
1F
100
AcDbEntity
  8
0
  6
Continuous
 62
     7
370
    25
100
AcDbLine
 10
774.7421110144
 20
603.688698698
 30
0.0
 11
774.7421110144
 21
601.688698698
 31
0.0
  0
LINE
  5
B1
330
1F
100
AcDbEntity
  8
0
  6
Continuous
 62
     7
370
    25
100
AcDbLine
 10
254.7421110144
 20
603.688698698
 30
0.0
 11
254.7421110144
 21
601.688698698
 31
0.0
  0
LINE
  5
B2
330
1F
100
AcDbEntity
  8
0
  6
Continuous
 62
     7
370
    25
100
AcDbLine
 10
724.7421110144
 20
601.688698698
 30
0.0
 11
724.7421110144
 21
603.688698698
 31
0.0
  0
LINE
  5
B3
330
1F
100
AcDbEntity
  8
0
  6
Continuous
 62
     7
370
    25
100
AcDbLine
 10
724.7421110144
 20
601.688698698
 30
0.0
 11
254.7421110144
 21
601.688698698
 31
0.0
  0
LINE
  5
B4
330
1F
100
AcDbEntity
  8
0
  6
Continuous
 62
     7
370
    25
100
AcDbLine
 10
239.7421110144
 20
586.688698698
 30
0.0
 11
237.7421110144
 21
586.688698698
 31
0.0
  0
LINE
  5
B5
330
1F
100
AcDbEntity
  8
0
  6
Continuous
 62
     7
370
    25
100
AcDbLine
 10
239.7421110144
 20
586.688698698
 30
0.0
 11
239.7421110144
 21
216.688698698
 31
0.0
  0
LINE
  5
B6
330
1F
100
AcDbEntity
  8
0
  6
Continuous
 62
     7
370
    25
100
AcDbLine
 10
239.7421110144
 20
216.688698698
 30
0.0
 11
237.7421110144
 21
216.688698698
 31
0.0
  0
LINE
  5
B7
330
1F
100
AcDbEntity
  8
0
  6
Continuous
 62
     7
370
    25
100
AcDbLine
 10
757.7421110144
 20
586.688698698
 30
0.0
 11
759.7421110144
 21
586.688698698
 31
0.0
  0
LINE
  5
B8
330
1F
100
AcDbEntity
  8
0
  6
Continuous
 62
     7
370
    25
100
AcDbLine
 10
759.7421110144
 20
216.688698698
 30
0.0
 11
759.7421110144
 21
586.688698698
 31
0.0
  0
LINE
  5
B9
330
1F
100
AcDbEntity
  8
0
  6
Continuous
 62
     7
370
    25
100
AcDbLine
 10
757.7421110144
 20
216.688698698
 30
0.0
 11
759.7421110144
 21
216.688698698
 31
0.0
  0
LINE
  5
BA
330
1F
100
AcDbEntity
  8
0
  6
Continuous
 62
     7
370
    25
100
AcDbLine
 10
739.7421110144
 20
216.688698698
 30
0.0
 11
741.7421110144
 21
216.688698698
 31
0.0
  0
LINE
  5
BB
330
1F
100
AcDbEntity
  8
0
  6
Continuous
 62
     7
370
    25
100
AcDbLine
 10
739.7421110144
 20
216.688698698
 30
0.0
 11
739.7421110144
 21
586.688698698
 31
0.0
  0
LINE
  5
BC
330
1F
100
AcDbEntity
  8
0
  6
Continuous
 62
     7
370
    25
100
AcDbLine
 10
741.7421110144
 20
586.688698698
 30
0.0
 11
739.7421110144
 21
586.688698698
 31
0.0
  0
LINE
  5
BD
330
1F
100
AcDbEntity
  8
0
  6
Continuous
 62
     7
370
    25
100
AcDbLine
 10
939.7421110144
 20
216.688698698
 30
0.0
 11
941.7421110144
 21
216.688698698
 31
0.0
  0
LINE
  5
BE
330
1F
100
AcDbEntity
  8
0
  6
Continuous
 62
     7
370
    25
100
AcDbLine
 10
939.7421110144
 20
586.688698698
 30
0.0
 11
939.7421110144
 21
216.688698698
 31
0.0
  0
LINE
  5
BF
330
1F
100
AcDbEntity
  8
0
  6
Continuous
 62
     7
370
    25
100
AcDbLine
 10
941.7421110144
 20
586.688698698
 30
0.0
 11
939.7421110144
 21
586.688698698
 31
0.0
  0
LINE
  5
C0
330
1F
100
AcDbEntity
  8
0
  6
Continuous
 62
     7
370
    25
100
AcDbLine
 10
254.7421110144
 20
201.688698698
 30
0.0
 11
254.7421110144
 21
199.688698698
 31
0.0
  0
LINE
  5
C1
330
1F
100
AcDbEntity
  8
0
  6
Continuous
 62
     7
370
    25
100
AcDbLine
 10
254.7421110144
 20
201.688698698
 30
0.0
 11
724.7421110144
 21
201.688698698
 31
0.0
  0
LINE
  5
C2
330
1F
100
AcDbEntity
  8
0
  6
Continuous
 62
     7
370
    25
100
AcDbLine
 10
724.7421110144
 20
199.688698698
 30
0.0
 11
724.7421110144
 21
201.688698698
 31
0.0
  0
LINE
  5
C3
330
1F
100
AcDbEntity
  8
0
  6
Continuous
 62
     7
370
    25
100
AcDbLine
 10
774.7421110144
 20
199.688698698
 30
0.0
 11
774.7421110144
 21
201.688698698
 31
0.0
  0
LINE
  5
C4
330
1F
100
AcDbEntity
  8
0
  6
Continuous
 62
     7
370
    25
100
AcDbLine
 10
924.7421110144
 20
201.688698698
 30
0.0
 11
774.7421110144
 21
201.688698698
 31
0.0
  0
LINE
  5
C5
330
1F
100
AcDbEntity
  8
0
  6
Continuous
 62
     7
370
    25
100
AcDbLine
 10
924.7421110144
 20
199.688698698
 30
0.0
 11
924.7421110144
 21
201.688698698
 31
0.0
  0
ARC
  5
C6
330
1F
100
AcDbEntity
  8
0
  6
Continuous
 62
     7
370
    25
100
AcDbCircle
 10
924.7421110144
 20
586.688698698
 30
0.0
 40
15.00000000000011
100
AcDbArc
 50
0.0
 51
90.0
  0
ARC
  5
C7
330
1F
100
AcDbEntity
  8
0
  6
Continuous
 62
     7
370
    25
100
AcDbCircle
 10
254.7421110144
 20
586.688698698
 30
0.0
 40
15.00000000000014
100
AcDbArc
 50
90.0
 51
180.0
  0
ARC
  5
C8
330
1F
100
AcDbEntity
  8
0
  6
Continuous
 62
     7
370
    25
100
AcDbCircle
 10
774.7421110144
 20
586.688698698
 30
0.0
 40
15.00000000000011
100
AcDbArc
 50
90.0
 51
180.0
  0
ARC
  5
C9
330
1F
100
AcDbEntity
  8
0
  6
Continuous
 62
     7
370
    25
100
AcDbCircle
 10
724.7421110144
 20
586.688698698
 30
0.0
 40
15.00000000000011
100
AcDbArc
 50
0.0
 51
90.0
  0
ARC
  5
CA
330
1F
100
AcDbEntity
  8
0
  6
Continuous
 62
     7
370
    25
100
AcDbCircle
 10
254.7421110144
 20
216.688698698
 30
0.0
 40
15.00000000000014
100
AcDbArc
 50
180.0
 51
270.0
  0
ARC
  5
CB
330
1F
100
AcDbEntity
  8
0
  6
Continuous
 62
     7
370
    25
100
AcDbCircle
 10
924.7421110144
 20
216.688698698
 30
0.0
 40
15.0
100
AcDbArc
 50
270.0
 51
0.0
  0
ARC
  5
CC
330
1F
100
AcDbEntity
  8
0
  6
Continuous
 62
     7
370
    25
100
AcDbCircle
 10
724.7421110144
 20
216.688698698
 30
0.0
 40
15.0
100
AcDbArc
 50
270.0
 51
0.0
  0
ARC
  5
CD
330
1F
100
AcDbEntity
  8
0
  6
Continuous
 62
     7
370
    25
100
AcDbCircle
 10
774.7421110144
 20
216.688698698
 30
0.0
 40
15.00000000000011
100
AcDbArc
 50
180.0
 51
270.0
  0
LINE
  5
CE
330
1F
100
AcDbEntity
  8
0
  6
Continuous
 62
     7
370
    25
100
AcDbLine
 10
949.7421110114
 20
621.688698698
 30
0.0
 11
949.7421110115
 21
621.188698698
 31
0.0
  0
ARC
  5
CF
330
1F
100
AcDbEntity
  8
0
  6
Continuous
 62
     7
370
    25
100
AcDbCircle
 10
949.7421110134
 20
611.688698698
 30
0.0
 40
10.0
100
AcDbArc
 50
0.0
 51
90.0000000115
  0
LINE
  5
D0
330
1F
100
AcDbEntity
  8
0
  6
Continuous
 62
     7
370
    25
100
AcDbLine
 10
959.2421110134
 20
611.688698698
 30
0.0
 11
959.7421110132
 21
611.688698698
 31
0.0
  0
LINE
  5
D1
330
1F
100
AcDbEntity
  8
0
  6
Continuous
 62
     7
370
    25
100
AcDbLine
 10
229.7421110134
 20
621.6886986978
 30
0.0
 11
949.7421110114
 21
621.688698698
 31
0.0
  0
LINE
  5
D2
330
1F
100
AcDbEntity
  8
0
  6
Continuous
 62
     7
370
    25
100
AcDbLine
 10
229.7421110134
 20
621.6886986978
 30
0.0
 11
229.7421110134
 21
621.188698698
 31
0.0
  0
ARC
  5
D3
330
1F
100
AcDbEntity
  8
0
  6
Continuous
 62
     7
370
    25
100
AcDbCircle
 10
229.7421110134
 20
611.688698698
 30
0.0
 40
9.999999999810143
100
AcDbArc
 50
90.0
 51
180.0
  0
LINE
  5
D4
330
1F
100
AcDbEntity
  8
0
  6
Continuous
 62
     7
370
    25
100
AcDbLine
 10
219.7421110136
 20
611.688698698
 30
0.0
 11
220.2421110136
 21
611.688698698
 31
0.0
  0
LINE
  5
D5
330
1F
100
AcDbEntity
  8
0
  6
Continuous
 62
     7
370
    25
100
AcDbLine
 10
219.7421110136
 20
191.688698698
 30
0.0
 11
219.7421110136
 21
611.688698698
 31
0.0
  0
LINE
  5
D6
330
1F
100
AcDbEntity
  8
0
  6
Continuous
 62
     7
370
    25
100
AcDbLine
 10
219.7421110136
 20
191.688698698
 30
0.0
 11
220.2421110134
 21
191.688698698
 31
0.0
  0
LINE
  5
D7
330
1F
100
AcDbEntity
  8
0
  6
Continuous
 62
     7
370
    25
100
AcDbLine
 10
959.7421110132
 20
611.688698698
 30
0.0
 11
959.7421110134
 21
191.688698698
 31
0.0
  0
LINE
  5
D8
330
1F
100
AcDbEntity
  8
0
  6
Continuous
 62
     7
370
    25
100
AcDbLine
 10
959.2421110132
 20
191.688698698
 30
0.0
 11
959.7421110134
 21
191.688698698
 31
0.0
  0
ARC
  5
D9
330
1F
100
AcDbEntity
  8
0
  6
Continuous
 62
     7
370
    25
100
AcDbCircle
 10
949.7421110134
 20
191.688698698
 30
0.0
 40
10.0
100
AcDbArc
 50
270.0
 51
0.0
  0
LINE
  5
DA
330
1F
100
AcDbEntity
  8
0
  6
Continuous
 62
     7
370
    25
100
AcDbLine
 10
949.7421110134
 20
182.188698698
 30
0.0
 11
949.7421110134
 21
181.6886986982
 31
0.0
  0
LINE
  5
DB
330
1F
100
AcDbEntity
  8
0
  6
Continuous
 62
     7
370
    25
100
AcDbLine
 10
229.7421110134
 20
182.1886986982
 30
0.0
 11
229.7421110134
 21
181.688698698
 31
0.0
  0
ARC
  5
DC
330
1F
100
AcDbEntity
  8
0
  6
Continuous
 62
     7
370
    25
100
AcDbCircle
 10
229.7421110134
 20
191.688698698
 30
0.0
 40
10.0
100
AcDbArc
 50
180.0
 51
270.0
  0
LINE
  5
DD
330
1F
100
AcDbEntity
  8
0
  6
Continuous
 62
     7
370
    25
100
AcDbLine
 10
949.7421110134
 20
181.6886986982
 30
0.0
 11
229.7421110134
 21
181.688698698
 31
0.0
  0
SPLINE
  5
DE
330
1F
100
AcDbEntity
  8
0
  6
Continuous
 62
     7
370
    25
100
AcDbSpline
210
0.0
220
0.0
230
1.0
 70
     8
 71
     3
 72
    14
 73
    10
 74
     0
 42
0.000000001
 43
0.00000001
 40
0.0
 40
0.0
 40
0.0
 40
0.0
 40
0.25
 40
0.25
 40
0.5
 40
0.5
 40
0.75
 40
0.75
 40
1.0
 40
1.0
 40
1.0
 40
1.0
 10
774.7421109964733
 20
601.6886986979671
 30
0.0
 10
774.7123103663971
 20
601.6886986996337
 30
0.0
 10
774.6825208550049
 20
601.3078601981382
 30
0.0
 10
774.6273479223071
 20
599.8405849591326
 30
0.0
 10
774.6019853130501
 20
598.7547075114433
 30
0.0
 10
774.5594396186168
 20
596.0381956888641
 30
0.0
 10
774.5422728353788
 20
594.4086021227954
 30
0.0
 10
774.5186766724505
 20
590.8465046465865
 30
0.0
 10
774.5122562837636
 20
588.915344243512
 30
0.0
 10
774.5116863532767
 20
586.9761617747375
 30
0.0
  0
SPLINE
  5
DF
330
1F
100
AcDbEntity
  8
0
  6
Continuous
 62
     7
370
    25
100
AcDbSpline
210
0.0
220
0.0
230
1.0
 70
     8
 71
     3
 72
    14
 73
    10
 74
     0
 42
0.000000001
 43
0.00000001
 40
0.0
 40
0.0
 40
0.0
 40
0.0
 40
0.25
 40
0.25
 40
0.5
 40
0.5
 40
0.75
 40
0.75
 40
1.0
 40
1.0
 40
1.0
 40
1.0
 10
774.5116855568734
 20
586.9761617869669
 30
0.0
 10
772.5676224340401
 20
586.9755893303004
 30
0.0
 10
770.6301712325818
 20
586.967682365743
 30
0.0
 10
767.0549660511026
 20
586.9383692648315
 30
0.0
 10
765.4185737930401
 20
586.9169744080087
 30
0.0
 10
762.6901302647068
 20
586.8638701834252
 30
0.0
 10
761.5991347360089
 20
586.8321813637169
 30
0.0
 10
760.1248413420818
 20
586.7632150961389
 30
0.0
 10
759.7421109936234
 20
586.7259639179671
 30
0.0
 10
759.7421110143733
 20
586.688698697967
 30
0.0
  0
SPLINE
  5
E0
330
1F
100
AcDbEntity
  8
0
  6
Continuous
 62
     7
370
    25
100
AcDbSpline
210
0.0
220
0.0
230
1.0
 70
     8
 71
     3
 72
    14
 73
    10
 74
     0
 42
0.000000001
 43
0.00000001
 40
0.0
 40
0.0
 40
0.0
 40
0.0
 40
0.2499999999999994
 40
0.2499999999999994
 40
0.4999999999999988
 40
0.4999999999999988
 40
0.7499999999999993
 40
0.7499999999999993
 40
1.0
 40
1.0
 40
1.0
 40
1.0
 10
924.7421119503733
 20
201.688698697967
 30
0.0
 10
924.7485639381027
 20
201.6886986971336
 30
0.0
 10
924.7550134198278
 20
202.077366258095
 30
0.0
 10
924.7669394583005
 20
203.5736678476562
 30
0.0
 10
924.7724113324135
 20
204.6807080253928
 30
0.0
 10
924.7815517289495
 20
207.4465014620032
 30
0.0
 10
924.785216604631
 20
209.1041512300619
 30
0.0
 10
924.7901859472557
 20
212.7202244932827
 30
0.0
 10
924.7914884418906
 20
214.6772281575686
 30
0.0
 10
924.7915109592435
 20
216.6363491658571
 30
0.0
  0
SPLINE
  5
E1
330
1F
100
AcDbEntity
  8
0
  6
Continuous
 62
     7
370
    25
100
AcDbSpline
210
0.0
220
0.0
230
1.0
 70
     8
 71
     3
 72
    14
 73
    10
 74
     0
 42
0.000000001
 43
0.00000001
 40
0.0
 40
0.0
 40
0.0
 40
0.0
 40
0.25
 40
0.25
 40
0.5
 40
0.5
 40
0.75
 40
0.75
 40
1.0
 40
1.0
 40
1.0
 40
1.0
 10
924.7915099140926
 20
216.6363491839427
 30
0.0
 10
926.750878115116
 20
216.6363717056109
 30
0.0
 10
928.7082046261365
 20
216.6377509978258
 30
0.0
 10
932.3249543450111
 20
216.643015944492
 30
0.0
 10
933.9829567442591
 20
216.6468995076361
 30
0.0
 10
936.749370312333
 20
216.6565861015768
 30
0.0
 10
937.8566771852169
 20
216.6623852655692
 30
0.0
 10
939.3533446845062
 20
216.6750249436302
 30
0.0
 10
939.7421110160401
 20
216.6818604923527
 30
0.0
 10
939.7421110143734
 20
216.688698697967
 30
0.0
  0
SPLINE
  5
E2
330
1F
100
AcDbEntity
  8
0
  6
Continuous
 62
     7
370
    25
100
AcDbSpline
210
0.0
220
0.0
230
1.0
 70
     8
 71
     3
 72
    14
 73
    10
 74
     0
 42
0.000000001
 43
0.00000001
 40
0.0
 40
0.0
 40
0.0
 40
0.0
 40
0.2500000000000007
 40
0.2500000000000007
 40
0.5000000000000012
 40
0.5000000000000012
 40
0.7500000000000007
 40
0.7500000000000007
 40
1.0
 40
1.0
 40
1.0
 40
1.0
 10
759.7421110143733
 20
216.688698697967
 30
0.0
 10
759.7421110143733
 20
216.6818619971336
 30
0.0
 10
760.1308775118521
 20
216.6750279530451
 30
0.0
 10
761.6275456244276
 20
216.6623910568732
 30
0.0
 10
762.7348529436276
 20
216.6565931694253
 30
0.0
 10
765.5012675491693
 20
216.6469087090086
 30
0.0
 10
767.1592705381454
 20
216.6430260015503
 30
0.0
 10
770.7760213877625
 20
216.6377622162118
 30
0.0
 10
772.73334843734
 20
216.636383228467
 30
0.0
 10
774.6927170516734
 20
216.636360715967
 30
0.0
  0
SPLINE
  5
E3
330
1F
100
AcDbEntity
  8
0
  6
Continuous
 62
     7
370
    25
100
AcDbSpline
210
0.0
220
0.0
230
1.0
 70
     8
 71
     3
 72
    14
 73
    10
 74
     0
 42
0.000000001
 43
0.00000001
 40
0.0
 40
0.0
 40
0.0
 40
0.0
 40
0.25
 40
0.25
 40
0.5
 40
0.5
 40
0.75
 40
0.75
 40
1.0
 40
1.0
 40
1.0
 40
1.0
 10
774.6927170966734
 20
216.636361864967
 30
0.0
 10
774.6927396060901
 20
214.6772397933003
 30
0.0
 10
774.6940419624881
 20
212.720234740118
 30
0.0
 10
774.6990107879775
 20
209.1041585662379
 30
0.0
 10
774.7026752852402
 20
207.4465072804253
 30
0.0
 10
774.7118147409068
 20
204.6807111750086
 30
0.0
 10
774.7172860528609
 20
203.573669849144
 30
0.0
 10
774.729210867611
 20
202.0773666844305
 30
0.0
 10
774.7356596881068
 20
201.688698697967
 30
0.0
 10
774.7421110142735
 20
201.688698697967
 30
0.0
  0
SPLINE
  5
E4
330
1F
100
AcDbEntity
  8
0
  6
Continuous
 62
     7
370
    25
100
AcDbSpline
210
0.0
220
0.0
230
1.0
 70
     8
 71
     3
 72
    14
 73
    10
 74
     0
 42
0.000000001
 43
0.00000001
 40
0.0
 40
0.0
 40
0.0
 40
0.0
 40
0.25
 40
0.25
 40
0.5
 40
0.5
 40
0.75
 40
0.75
 40
1.0
 40
1.0
 40
1.0
 40
1.0
 10
939.7421110143734
 20
586.688698697967
 30
0.0
 10
939.7421110143736
 20
586.7255369841815
 30
0.0
 10
939.3593735229178
 20
586.7623613848946
 30
0.0
 10
937.8850536638939
 20
586.8305375866145
 30
0.0
 10
936.7940388440509
 20
586.8618634191179
 30
0.0
 10
934.0655503568023
 20
586.9143595129905
 30
0.0
 10
932.4291324872685
 20
586.9355094614983
 30
0.0
 10
928.8538779526143
 20
586.9644873741346
 30
0.0
 10
926.916403073877
 20
586.972304183192
 30
0.0
 10
924.9723216163754
 20
586.9728706839695
 30
0.0
  0
SPLINE
  5
E5
330
1F
100
AcDbEntity
  8
0
  6
Continuous
 62
     7
370
    25
100
AcDbSpline
210
0.0
220
0.0
230
1.0
 70
     8
 71
     3
 72
    14
 73
    10
 74
     0
 42
0.000000001
 43
0.00000001
 40
0.0
 40
0.0
 40
0.0
 40
0.0
 40
0.25
 40
0.25
 40
0.5
 40
0.5
 40
0.75
 40
0.75
 40
1.0
 40
1.0
 40
1.0
 40
1.0
 10
924.9723215413734
 20
586.972870681967
 30
0.0
 10
924.9717574347068
 20
588.9123355444669
 30
0.0
 10
924.965347000337
 20
590.843859315118
 30
0.0
 10
924.9417776238005
 20
594.4067133609253
 30
0.0
 10
924.9246276667485
 20
596.0366990834253
 30
0.0
 10
924.8821205354984
 20
598.7538989480087
 30
0.0
 10
924.8567796568109
 20
599.8400714252274
 30
0.0
 10
924.8016527389203
 20
601.3077511850972
 30
0.0
 10
924.7718875052069
 20
601.6886987063003
 30
0.0
 10
924.7421111543734
 20
601.6886986979671
 30
0.0
  0
SPLINE
  5
E6
330
1F
100
AcDbEntity
  8
0
  6
Continuous
 62
     7
370
    25
100
AcDbSpline
210
0.0
220
0.0
230
1.0
 70
     8
 71
     3
 72
    76
 73
    72
 74
     0
 42
0.000000001
 43
0.00000001
 40
0.0
 40
0.0
 40
0.0
 40
0.0
 40
0.0078125
 40
0.0078125
 40
0.015625
 40
0.015625
 40
0.0234375
 40
0.0234375
 40
0.0312500000000001
 40
0.0312500000000001
 40
0.0625000000000003
 40
0.0625000000000003
 40
0.1250000000000009
 40
0.1250000000000009
 40
0.1875000000000015
 40
0.1875000000000015
 40
0.2187500000000018
 40
0.2187500000000018
 40
0.2343750000000019
 40
0.2343750000000019
 40
0.2500000000000021
 40
0.2500000000000021
 40
0.2812500000000022
 40
0.2812500000000022
 40
0.3125000000000023
 40
0.3125000000000023
 40
0.3437500000000024
 40
0.3437500000000024
 40
0.3750000000000026
 40
0.3750000000000026
 40
0.4062500000000027
 40
0.4062500000000027
 40
0.4218750000000027
 40
0.4218750000000027
 40
0.4375000000000028
 40
0.4375000000000028
 40
0.468750000000003
 40
0.468750000000003
 40
0.5000000000000032
 40
0.5000000000000032
 40
0.5625000000000036
 40
0.5625000000000036
 40
0.6250000000000039
 40
0.6250000000000039
 40
0.6875000000000042
 40
0.6875000000000042
 40
0.7031250000000043
 40
0.7031250000000043
 40
0.7109375000000043
 40
0.7109375000000043
 40
0.7187500000000043
 40
0.7187500000000043
 40
0.7265625000000043
 40
0.7265625000000043
 40
0.7343750000000043
 40
0.7343750000000043
 40
0.7421875000000043
 40
0.7421875000000043
 40
0.7500000000000044
 40
0.7500000000000044
 40
0.7539062500000043
 40
0.7539062500000043
 40
0.7578125000000042
 40
0.7656250000000041
 40
0.7812500000000038
 40
0.7812500000000038
 40
0.8125000000000032
 40
0.8125000000000032
 40
0.8750000000000022
 40
0.8750000000000022
 40
1.0
 40
1.0
 40
1.0
 40
1.0
 10
924.9723216163752
 20
586.9728706839701
 30
0.0
 10
924.9894285676276
 20
586.012473978914
 30
0.0
 10
925.0071070557186
 20
585.0525874871031
 30
0.0
 10
925.0435525659459
 20
583.1399548546653
 30
0.0
 10
925.0623266593886
 20
582.1868135909106
 30
0.0
 10
925.1010727310525
 20
580.2806910699906
 30
0.0
 10
925.1210517861289
 20
579.3273146868521
 30
0.0
 10
925.1622546182803
 20
577.4132853159765
 30
0.0
 10
925.1834854722102
 20
576.4522372022658
 30
0.0
 10
925.2921815642331
 20
571.6387073899978
 30
0.0
 10
925.3866754311617
 20
567.7845271896275
 30
0.0
 10
925.684338381988
 20
556.2161932425936
 30
0.0
 10
925.901680979911
 20
548.4954515307396
 30
0.0
 10
926.3391683718258
 20
533.0462097789439
 30
0.0
 10
926.5616629010798
 20
525.3168667150336
 30
0.0
 10
926.8651488054215
 20
513.705187412779
 30
0.0
 10
926.9609036011852
 20
509.8316646762325
 30
0.0
 10
927.0871635573885
 20
504.0151546872443
 30
0.0
 10
927.126316016371
 20
502.0753960263315
 30
0.0
 10
927.1964637130365
 20
498.1999053355091
 30
0.0
 10
927.2274467624742
 20
496.2632476990652
 30
0.0
 10
927.3051149049891
 20
490.4431273151984
 30
0.0
 10
927.3359968021856
 20
486.5499873019818
 30
0.0
 10
927.3480816664261
 20
478.7699734784788
 30
0.0
 10
927.3292369184051
 20
474.8799942907294
 30
0.0
 10
927.2505391103236
 20
467.1092285351031
 30
0.0
 10
927.1914167417301
 20
463.2281087337896
 30
0.0
 10
927.053949880801
 20
455.4835121905103
 30
0.0
 10
926.9756047653475
 20
451.6199423118052
 30
0.0
 10
926.8162663155463
 20
443.8983110362398
 30
0.0
 10
926.7353562150597
 20
440.038950886277
 30
0.0
 10
926.6203785472718
 20
434.2500977210767
 30
0.0
 10
926.5830718263351
 20
432.3210000819996
 30
0.0
 10
926.5114075479676
 20
428.4802267357434
 30
0.0
 10
926.4770081937999
 20
426.5668505809192
 30
0.0
 10
926.377530854775
 20
420.8135947636226
 30
0.0
 10
926.3159200293416
 20
416.9499474568111
 30
0.0
 10
926.2019454399642
 20
409.235533410635
 30
0.0
 10
926.1494704545452
 20
405.3780658929243
 30
0.0
 10
926.0033443389652
 20
393.8045515927029
 30
0.0
 10
925.9208978622911
 20
386.0845258217651
 30
0.0
 10
925.7738643458691
 20
370.6243912533468
 30
0.0
 10
925.7092256629718
 20
362.8856609781118
 30
0.0
 10
925.588243405881
 20
347.4106661129853
 30
0.0
 10
925.5318481888986
 20
339.6757800452851
 30
0.0
 10
925.4631675784815
 20
330.0164438871462
 30
0.0
 10
925.4495344526355
 20
328.0849581589901
 30
0.0
 10
925.429216602846
 20
325.1881051500427
 30
0.0
 10
925.4224661387001
 20
324.2225483786533
 30
0.0
 10
925.4090079546888
 20
322.2915017624815
 30
0.0
 10
925.402288929972
 20
321.3243459594559
 30
0.0
 10
925.388944970201
 20
319.3976016940173
 30
0.0
 10
925.3823885219157
 20
318.4480999139399
 30
0.0
 10
925.3696801756372
 20
316.6022023377038
 30
0.0
 10
925.3635149901281
 20
315.7038443978095
 30
0.0
 10
925.3512896839609
 20
313.9158934249334
 30
0.0
 10
925.3452162757867
 20
313.0243382482162
 30
0.0
 10
925.332827266819
 20
311.1987339685822
 30
0.0
 10
925.3264983785099
 20
310.2627227219299
 30
0.0
 10
925.316826098561
 20
308.8273511994375
 30
0.0
 10
925.3135766858753
 20
308.344334125635
 30
0.0
 10
925.3070924100767
 20
307.3788417496526
 30
0.0
 10
925.2973821477583
 20
305.9305885640649
 30
0.0
 10
925.2748300446825
 20
302.5512387626632
 30
0.0
 10
925.2556564183602
 20
299.6545284133384
 30
0.0
 10
925.2174866304194
 20
293.8610227896118
 30
0.0
 10
925.1922680477281
 20
289.9985756075059
 30
0.0
 10
925.1174063603777
 20
278.4114451679176
 30
0.0
 10
925.0684939473164
 20
270.6870279136684
 30
0.0
 10
924.9294341237984
 20
247.5172365357361
 30
0.0
 10
924.8479682391286
 20
232.0763001464249
 30
0.0
 10
924.7915099140923
 20
216.6363491839427
 30
0.0
  0
SPLINE
  5
E7
330
1F
100
AcDbEntity
  8
0
  6
Continuous
 62
     7
370
    25
100
AcDbSpline
210
0.0
220
0.0
230
1.0
 70
     8
 71
     3
 72
    80
 73
    76
 74
     0
 42
0.000000001
 43
0.00000001
 40
0.0
 40
0.0
 40
0.0
 40
0.0
 40
0.1249999999999996
 40
0.1249999999999996
 40
0.1874999999999994
 40
0.1874999999999994
 40
0.2187499999999991
 40
0.2187499999999991
 40
0.2343749999999991
 40
0.2343749999999991
 40
0.2421874999999991
 40
0.2421874999999991
 40
0.2499999999999991
 40
0.2499999999999991
 40
0.2578124999999991
 40
0.2578124999999991
 40
0.265624999999999
 40
0.265624999999999
 40
0.273437499999999
 40
0.273437499999999
 40
0.2812499999999989
 40
0.2812499999999989
 40
0.3124999999999989
 40
0.3124999999999989
 40
0.3749999999999987
 40
0.3749999999999987
 40
0.4999999999999983
 40
0.4999999999999983
 40
0.5312499999999982
 40
0.5312499999999982
 40
0.5468749999999982
 40
0.5468749999999982
 40
0.5624999999999981
 40
0.5624999999999981
 40
0.5937499999999981
 40
0.5937499999999981
 40
0.624999999999998
 40
0.624999999999998
 40
0.6562499999999979
 40
0.6562499999999979
 40
0.6640624999999979
 40
0.6640624999999979
 40
0.6718749999999979
 40
0.6718749999999979
 40
0.6796874999999978
 40
0.6796874999999978
 40
0.6874999999999978
 40
0.6874999999999978
 40
0.7187499999999978
 40
0.7187499999999978
 40
0.7499999999999978
 40
0.7499999999999978
 40
0.7656249999999979
 40
0.7656249999999979
 40
0.773437499999998
 40
0.773437499999998
 40
0.7812499999999981
 40
0.7812499999999981
 40
0.7968749999999983
 40
0.7968749999999983
 40
0.8124999999999987
 40
0.8124999999999987
 40
0.8437499999999993
 40
0.8437499999999993
 40
0.8593749999999997
 40
0.8593749999999997
 40
0.8749999999999999
 40
0.8749999999999999
 40
0.890625
 40
0.890625
 40
0.90625
 40
0.90625
 40
0.9375000000000001
 40
0.9375000000000001
 40
1.0
 40
1.0
 40
1.0
 40
1.0
 10
774.6927170516734
 20
216.636360715967
 30
0.0
 10
774.6362781721991
 20
232.0712992052304
 30
0.0
 10
774.5548065296867
 20
247.5072297920091
 30
0.0
 10
774.4157217259427
 20
270.6695299442912
 30
0.0
 10
774.366797366684
 20
278.3914507006259
 30
0.0
 10
774.2919163290816
 20
289.9748407835948
 30
0.0
 10
774.2666913801584
 20
293.8360417063648
 30
0.0
 10
774.2285138345882
 20
299.6276784144937
 30
0.0
 10
774.2157291232357
 20
301.5581957529446
 30
0.0
 10
774.1964481788601
 20
304.4538886705253
 30
0.0
 10
774.190003710267
 20
305.4191057480889
 30
0.0
 10
774.1770749815964
 20
307.3495047715489
 30
0.0
 10
774.1705726461569
 20
308.3173360418998
 30
0.0
 10
774.1577220883611
 20
310.2234912619853
 30
0.0
 10
774.1513804531162
 20
311.16084373535
 30
0.0
 10
774.138793112385
 20
313.0143589670262
 30
0.0
 10
774.1325388322042
 20
313.9317939272872
 30
0.0
 10
774.1198908155925
 20
315.7803426597926
 30
0.0
 10
774.113488504467
 20
316.7127286339865
 30
0.0
 10
774.1004194017207
 20
318.6099454277426
 30
0.0
 10
774.0937476087171
 20
319.5755216825601
 30
0.0
 10
774.0602955076464
 20
324.4014167333855
 30
0.0
 10
774.0332068417704
 20
328.2622228612537
 30
0.0
 10
773.9507575481426
 20
339.8443463060447
 30
0.0
 10
773.8943681767743
 20
347.5653263330415
 30
0.0
 10
773.7131160752587
 20
370.723989632356
 30
0.0
 10
773.5772916504657
 20
386.1568218242073
 30
0.0
 10
773.3338896903524
 20
405.4397563817349
 30
0.0
 10
773.2814235743411
 20
409.2973188751182
 30
0.0
 10
773.1961391378037
 20
415.0713108424284
 30
0.0
 10
773.1665992238887
 20
416.9950028267996
 30
0.0
 10
773.1050357824263
 20
420.8463519974456
 30
0.0
 10
773.073009813194
 20
422.7744015482248
 30
0.0
 10
772.9730269626772
 20
428.5573754931187
 30
0.0
 10
772.9007673644128
 20
432.4090265405303
 30
0.0
 10
772.7477983162557
 20
440.1067831058602
 30
0.0
 10
772.6671400806547
 20
443.9543424065669
 30
0.0
 10
772.5080795144844
 20
451.666905335547
 30
0.0
 10
772.4297283981418
 20
455.533362746799
 30
0.0
 10
772.3438330547026
 20
460.3758836910968
 30
0.0
 10
772.3272836122726
 20
461.3438833893694
 30
0.0
 10
772.2958826671203
 20
463.268995132632
 30
0.0
 10
772.2810054036426
 20
464.2277335238292
 30
0.0
 10
772.2529436951244
 20
466.1539772081852
 30
0.0
 10
772.2397331852271
 20
467.1231290459251
 30
0.0
 10
772.2154312912864
 20
469.0639706017107
 30
0.0
 10
772.2043592927324
 20
470.0347570452673
 30
0.0
 10
772.1551968628039
 20
474.8901037274322
 30
0.0
 10
772.1364155382593
 20
478.7787313445461
 30
0.0
 10
772.1486513996036
 20
486.5561692011196
 30
0.0
 10
772.1795343340667
 20
490.4449871663817
 30
0.0
 10
772.2574006285329
 20
496.2728589600045
 30
0.0
 10
772.2884900206432
 20
498.2141283556757
 30
0.0
 10
772.3412779088933
 20
501.1257111353839
 30
0.0
 10
772.3599306205984
 20
502.0981350016474
 30
0.0
 10
772.3990656641507
 20
504.0471535734672
 30
0.0
 10
772.4195340984736
 20
505.0230713529632
 30
0.0
 10
772.4830016490472
 20
507.9429487587531
 30
0.0
 10
772.5280083081717
 20
509.8770360412532
 30
0.0
 10
772.6222754128164
 20
513.7495081564141
 30
0.0
 10
772.6714768183318
 20
515.6848563123073
 30
0.0
 10
772.8232130868781
 20
521.4886569213219
 30
0.0
 10
772.9297591260469
 20
525.3548721116679
 30
0.0
 10
773.0918981872337
 20
531.1511591758198
 30
0.0
 10
773.1463868724829
 20
533.0836023559182
 30
0.0
 10
773.2548908371407
 20
536.9242537812567
 30
0.0
 10
773.3089668900178
 20
538.8342859266422
 30
0.0
 10
773.4172343225896
 20
542.6653121639357
 30
0.0
 10
773.4715383511036
 20
544.5898685529436
 30
0.0
 10
773.579741302835
 20
548.4496652814703
 30
0.0
 10
773.6334675888338
 20
550.3793783470203
 30
0.0
 10
773.7928149964957
 20
556.16727554779
 30
0.0
 10
773.8966471965865
 20
560.0244437348709
 30
0.0
 10
774.1941774891486
 20
571.5897530809785
 30
0.0
 10
774.3745441923597
 20
579.2926750471158
 30
0.0
 10
774.5116855568734
 20
586.976161786967
 30
0.0
  0
SPLINE
  5
E8
330
1F
100
AcDbEntity
  8
0
  6
Continuous
 62
     7
370
    25
100
AcDbSpline
210
0.0
220
0.0
230
1.0
 70
     8
 71
     3
 72
    34
 73
    30
 74
     0
 42
0.000000001
 43
0.00000001
 40
0.0
 40
0.0
 40
0.0
 40
0.0
 40
0.1249999999999986
 40
0.1249999999999986
 40
0.1874999999999985
 40
0.1874999999999985
 40
0.2499999999999983
 40
0.2499999999999983
 40
0.3124999999999982
 40
0.3124999999999982
 40
0.3749999999999981
 40
0.3749999999999981
 40
0.4374999999999979
 40
0.4374999999999979
 40
0.4999999999999978
 40
0.4999999999999978
 40
0.5624999999999977
 40
0.5624999999999977
 40
0.6249999999999974
 40
0.6249999999999974
 40
0.7499999999999983
 40
0.7499999999999983
 40
0.8124999999999988
 40
0.8124999999999988
 40
0.8749999999999991
 40
0.8749999999999991
 40
0.9374999999999996
 40
0.9374999999999996
 40
1.0
 40
1.0
 40
1.0
 40
1.0
 10
924.7915109592435
 20
216.6363491658572
 30
0.0
 10
921.7015529351364
 20
216.6250541559056
 30
0.0
 10
918.6115119949783
 20
216.6131821029467
 30
0.0
 10
913.9761747241081
 20
216.5948150566171
 30
0.0
 10
912.431037800761
 20
216.5886022378255
 30
0.0
 10
909.340565638384
 20
216.5760580084382
 30
0.0
 10
907.7923672066903
 20
216.5697151600902
 30
0.0
 10
904.660295476265
 20
216.5568227569388
 30
0.0
 10
903.0771052593534
 20
216.5502759224747
 30
0.0
 10
899.8852472921633
 20
216.5370639078097
 30
0.0
 10
898.2772626237052
 20
216.5304014479483
 30
0.0
 10
895.0641019685484
 20
216.5171130922155
 30
0.0
 10
893.4596090636699
 20
216.5104899166843
 30
0.0
 10
890.2793145776525
 20
216.4974199781536
 30
0.0
 10
888.7041960783337
 20
216.4909759354946
 30
0.0
 10
885.5856370176625
 20
216.4783074398579
 30
0.0
 10
884.0422666610457
 20
216.4720832372099
 30
0.0
 10
880.9495570550115
 20
216.4597304189306
 30
0.0
 10
879.3995657211931
 20
216.4535989683725
 30
0.0
 10
874.7227277176468
 20
216.4353187381661
 30
0.0
 10
871.5663865927875
 20
216.4232764203571
 30
0.0
 10
866.8378620203514
 20
216.4058462370758
 30
0.0
 10
865.2638372599824
 20
216.4001458724107
 30
0.0
 10
862.131169955072
 20
216.389023448905
 30
0.0
 10
860.57285716478
 20
216.3836028784758
 30
0.0
 10
857.4708095067411
 20
216.3730368783035
 30
0.0
 10
855.9262375639794
 20
216.3678887230926
 30
0.0
 10
852.8341945120471
 20
216.3577754549398
 30
0.0
 10
851.288155660253
 20
216.3528132702648
 30
0.0
 10
849.7421105258682
 20
216.3479313067805
 30
0.0
  0
SPLINE
  5
E9
330
1F
100
AcDbEntity
  8
0
  6
Continuous
 62
     7
370
    25
100
AcDbSpline
210
0.0
220
0.0
230
1.0
 70
     8
 71
     3
 72
    30
 73
    26
 74
     0
 42
0.000000001
 43
0.00000001
 40
0.0
 40
0.0
 40
0.0
 40
0.0
 40
0.1250000000000006
 40
0.1250000000000006
 40
0.2500000000000011
 40
0.2500000000000011
 40
0.3750000000000017
 40
0.3750000000000017
 40
0.5000000000000022
 40
0.5000000000000022
 40
0.5625000000000019
 40
0.5625000000000019
 40
0.6250000000000017
 40
0.6250000000000017
 40
0.6875000000000013
 40
0.6875000000000013
 40
0.7500000000000011
 40
0.7500000000000011
 40
0.8125000000000008
 40
0.8125000000000008
 40
0.8750000000000006
 40
0.8750000000000006
 40
0.9375000000000002
 40
0.9375000000000002
 40
1.0
 40
1.0
 40
1.0
 40
1.0
 10
849.7421105293735
 20
216.347931745967
 30
0.0
 10
846.5922422884457
 20
216.3578747439855
 30
0.0
 10
843.4383281277215
 20
216.3681857303598
 30
0.0
 10
837.0875075388561
 20
216.3898778024476
 30
0.0
 10
833.8924422304732
 20
216.4012485264997
 30
0.0
 10
827.4926240567246
 20
216.4248696320034
 30
0.0
 10
824.2897123111175
 20
216.4371096517937
 30
0.0
 10
817.9167952793463
 20
216.4620859154264
 30
0.0
 10
814.7486311129409
 20
216.4748117976075
 30
0.0
 10
810.0185520051662
 20
216.4940736077304
 30
0.0
 10
808.4420415024864
 20
216.5005370861643
 30
0.0
 10
805.3006708935004
 20
216.5134699095377
 30
0.0
 10
803.743681169919
 20
216.5199073381829
 30
0.0
 10
800.6811187005285
 20
216.5325919225051
 30
0.0
 10
799.1746552507684
 20
216.5388427899871
 30
0.0
 10
796.1904029172865
 20
216.5512090703887
 30
0.0
 10
794.7117233296137
 20
216.5573281951133
 30
0.0
 10
791.7420306073228
 20
216.5695541559455
 30
0.0
 10
790.2501267687541
 20
216.5756647038578
 30
0.0
 10
787.2214328489698
 20
216.5879536704043
 30
0.0
 10
785.6837520638036
 20
216.5941358008435
 30
0.0
 10
782.5661280909377
 20
216.6064937310334
 30
0.0
 10
780.9882347424684
 20
216.6126604185733
 30
0.0
 10
777.8404298138724
 20
216.6247098067553
 30
0.0
 10
776.2665627600551
 20
216.6306091430185
 30
0.0
 10
774.6927170966734
 20
216.636361864967
 30
0.0
  0
SPLINE
  5
EA
330
1F
100
AcDbEntity
  8
0
  6
Continuous
 62
     7
370
    25
100
AcDbSpline
210
0.0
220
0.0
230
1.0
 70
     8
 71
     3
 72
    30
 73
    26
 74
     0
 42
0.000000001
 43
0.00000001
 40
0.0
 40
0.0
 40
0.0
 40
0.0
 40
0.0624999999999995
 40
0.0624999999999995
 40
0.124999999999999
 40
0.124999999999999
 40
0.1874999999999985
 40
0.1874999999999985
 40
0.249999999999998
 40
0.249999999999998
 40
0.4999999999999982
 40
0.4999999999999982
 40
0.5312499999999978
 40
0.5312499999999978
 40
0.5624999999999972
 40
0.5624999999999972
 40
0.6249999999999962
 40
0.6249999999999962
 40
0.6562499999999963
 40
0.6562499999999963
 40
0.6874999999999963
 40
0.6874999999999963
 40
0.7499999999999964
 40
0.7499999999999964
 40
1.0
 40
1.0
 40
1.0
 40
1.0
 10
849.7421016312038
 20
587.9345722172229
 30
0.0
 10
851.3175692008931
 20
587.930637456493
 30
0.0
 10
852.8873597255773
 20
587.9256195836992
 30
0.0
 10
855.9994974208282
 20
587.912983903358
 30
0.0
 10
857.54583257123
 20
587.9053459523603
 30
0.0
 10
860.6591456574533
 20
587.8871169249134
 30
0.0
 10
862.2299557790953
 20
587.8765069348757
 30
0.0
 10
865.3775084552691
 20
587.8527007742098
 30
0.0
 10
866.9509581149229
 20
587.8395350608943
 30
0.0
 10
874.8137344337124
 20
587.7678420389269
 30
0.0
 10
881.0887602720741
 20
587.6912377044694
 30
0.0
 10
888.1604468699296
 20
587.5892917101302
 30
0.0
 10
888.9462879887138
 20
587.5777602120871
 30
0.0
 10
890.5180092516418
 20
587.5543454068994
 30
0.0
 10
891.3059652219708
 20
587.5424315864722
 30
0.0
 10
893.6513100432015
 20
587.5065359503828
 30
0.0
 10
895.1718283470308
 20
587.4826810305913
 30
0.0
 10
897.5130295270259
 20
587.4451228692585
 30
0.0
 10
898.3008263484131
 20
587.4323493739622
 30
0.0
 10
899.8717926039993
 20
587.4066287470395
 30
0.0
 10
900.6571971712842
 20
587.3936466681835
 30
0.0
 10
903.0131353567118
 20
587.354389573515
 30
0.0
 10
904.5833786259634
 20
587.327803795735
 30
0.0
 10
912.4324967041176
 20
587.1935947398583
 30
0.0
 10
918.7066143058856
 20
587.0837860045658
 30
0.0
 10
924.9723215413734
 20
586.972870681967
 30
0.0
  0
SPLINE
  5
EB
330
1F
100
AcDbEntity
  8
0
  6
Continuous
 62
     7
370
    25
100
AcDbSpline
210
0.0
220
0.0
230
1.0
 70
     8
 71
     3
 72
    30
 73
    26
 74
     0
 42
0.000000001
 43
0.00000001
 40
0.0
 40
0.0
 40
0.0
 40
0.0
 40
0.2500000000000027
 40
0.2500000000000027
 40
0.3125000000000033
 40
0.3125000000000033
 40
0.3437500000000034
 40
0.3437500000000034
 40
0.3750000000000034
 40
0.3750000000000034
 40
0.4062500000000035
 40
0.4062500000000035
 40
0.4375000000000036
 40
0.4375000000000036
 40
0.4687500000000036
 40
0.4687500000000036
 40
0.5000000000000037
 40
0.5000000000000037
 40
0.6250000000000028
 40
0.6250000000000028
 40
0.7500000000000019
 40
0.7500000000000019
 40
0.875000000000001
 40
0.875000000000001
 40
1.0
 40
1.0
 40
1.0
 40
1.0
 10
774.5116863532767
 20
586.9761617747375
 30
0.0
 10
780.7507490359465
 20
587.0868098705206
 30
0.0
 10
786.9958320265652
 20
587.1953052877619
 30
0.0
 10
794.8121096224531
 20
587.3281856196877
 30
0.0
 10
796.3758071054427
 20
587.3545164686535
 30
0.0
 10
798.7219028634781
 20
587.393422042579
 30
0.0
 10
799.5040257540759
 20
587.4062919332739
 30
0.0
 10
801.0684275890721
 20
587.4317989459663
 30
0.0
 10
801.8493889464862
 20
587.4444157823626
 30
0.0
 10
803.419081512341
 20
587.4695029154585
 30
0.0
 10
804.2100254094734
 20
587.4820072404648
 30
0.0
 10
805.8042617034417
 20
587.5069163346969
 30
0.0
 10
806.6069242384219
 20
587.519311751872
 30
0.0
 10
808.2090279807826
 20
587.5437408208545
 30
0.0
 10
809.0078393263077
 20
587.55576512061
 30
0.0
 10
810.5911033432358
 20
587.579247873921
 30
0.0
 10
811.3749321368451
 20
587.5906970642424
 30
0.0
 10
815.2885964538378
 20
587.6468640270007
 30
0.0
 10
818.4192190224868
 20
587.6884999319972
 30
0.0
 10
824.6764026667307
 20
587.7631883399206
 30
0.0
 10
827.8037868782288
 20
587.7963228402318
 30
0.0
 10
834.0642471229032
 20
587.8533935292353
 30
0.0
 10
837.1981352705691
 20
587.8774224256374
 30
0.0
 10
843.4684341128968
 20
587.9144045743315
 30
0.0
 10
846.6044536423609
 20
587.926782921977
 30
0.0
 10
849.7421016533735
 20
587.934572746967
 30
0.0
  0
LWPOLYLINE
  5
EC
330
1F
100
AcDbEntity
  8
0
  6
Continuous
 62
     7
370
    25
100
AcDbPolyline
 90
        3
 70
   128
 43
0.0
 10
849.7421110547
 20
421.6887013035
 10
849.7421141071
 20
421.4443714249
 10
849.7421172014
 20
421.2000415463
  0
SPLINE
  5
ED
330
1F
100
AcDbEntity
  8
0
  6
Continuous
 62
     7
370
    25
100
AcDbSpline
210
0.0
220
0.0
230
1.0
 70
     8
 71
     3
 72
    72
 73
    68
 74
     0
 42
0.000000001
 43
0.00000001
 40
0.0
 40
0.0
 40
0.0
 40
0.0
 40
0.0625000000000001
 40
0.0625000000000001
 40
0.09375
 40
0.09375
 40
0.109375
 40
0.109375
 40
0.125
 40
0.125
 40
0.1874999999999999
 40
0.1874999999999999
 40
0.203125
 40
0.203125
 40
0.2187500000000001
 40
0.2187500000000001
 40
0.2500000000000001
 40
0.2500000000000001
 40
0.3125000000000002
 40
0.3125000000000002
 40
0.3281250000000001
 40
0.3281250000000001
 40
0.3437500000000001
 40
0.3437500000000001
 40
0.3750000000000001
 40
0.3750000000000001
 40
0.4062500000000001
 40
0.4062500000000001
 40
0.4218750000000001
 40
0.4218750000000001
 40
0.4375000000000001
 40
0.4375000000000001
 40
0.5000000000000001
 40
0.5000000000000001
 40
0.5312500000000001
 40
0.5312500000000001
 40
0.5468750000000001
 40
0.5468750000000001
 40
0.5625000000000001
 40
0.5625000000000001
 40
0.6250000000000002
 40
0.6250000000000002
 40
0.6406250000000003
 40
0.6406250000000003
 40
0.6562500000000003
 40
0.6562500000000003
 40
0.6875000000000003
 40
0.6875000000000003
 40
0.7500000000000001
 40
0.7500000000000001
 40
0.7656250000000002
 40
0.7656250000000002
 40
0.7812500000000004
 40
0.7812500000000004
 40
0.8125000000000001
 40
0.8125000000000001
 40
0.8437499999999999
 40
0.8437499999999999
 40
0.8749999999999996
 40
0.8749999999999996
 40
0.9374999999999997
 40
0.9374999999999997
 40
0.9531249999999998
 40
0.9531249999999998
 40
0.9687499999999999
 40
0.9687499999999999
 40
1.0
 40
1.0
 40
1.0
 40
1.0
 10
849.7421110185767
 20
541.688698697967
 30
0.0
 10
853.7056367051119
 20
541.6886986976895
 30
0.0
 10
857.6029351511766
 20
541.2998195778866
 30
0.0
 10
863.3536048399718
 20
540.1570389172962
 30
0.0
 10
865.2544970111321
 20
539.682175128516
 30
0.0
 10
868.081291379389
 20
538.8257604048197
 30
0.0
 10
869.0210570234032
 20
538.5156470097794
 30
0.0
 10
870.8850707053273
 20
537.8487830030958
 30
0.0
 10
871.8050534690042
 20
537.4936542867949
 30
0.0
 10
876.3460683155635
 20
535.6117311085716
 30
0.0
 10
879.7920798783028
 20
533.7691228096134
 30
0.0
 10
883.868191853818
 20
531.0483107994914
 30
0.0
 10
884.6717399596254
 20
530.4830828555364
 30
0.0
 10
886.2551146328805
 20
529.3098229006182
 30
0.0
 10
887.0369469710042
 20
528.7001130099173
 30
0.0
 10
889.330342706247
 20
526.8183272149176
 30
0.0
 10
890.7855216336299
 20
525.4981497829721
 30
0.0
 10
894.936716747101
 20
521.346810745626
 30
0.0
 10
897.4204197727502
 20
518.3266481752978
 30
0.0
 10
900.1619011612703
 20
514.228171508548
 30
0.0
 10
900.6932373225363
 20
513.3897826849059
 30
0.0
 10
901.709279382086
 20
511.6951881604004
 30
0.0
 10
902.1944909932289
 20
510.8385148494765
 30
0.0
 10
903.582961035324
 20
508.2408861309011
 30
0.0
 10
904.4192132678791
 20
506.472387128718
 30
0.0
 10
905.9156390931857
 20
502.863010168514
 30
0.0
 10
906.5758119289117
 20
501.0221318992712
 30
0.0
 10
907.4322176875673
 20
498.2057926246727
 30
0.0
 10
907.6953378449905
 20
497.2578263124722
 30
0.0
 10
908.1760826383271
 20
495.3431922809856
 30
0.0
 10
908.3940143577696
 20
494.3744563449062
 30
0.0
 10
909.3578202703093
 20
489.5343736842829
 30
0.0
 10
909.7394534640996
 20
485.6417916761825
 30
0.0
 10
909.743419241631
 20
479.7729684720057
 30
0.0
 10
909.6493117877984
 20
477.8116664389786
 30
0.0
 10
909.3606603686343
 20
474.8619429674072
 30
0.0
 10
909.2395610368561
 20
473.8767879714853
 30
0.0
 10
908.9507009319469
 20
471.9257386781291
 30
0.0
 10
908.7827290920458
 20
470.9571043860405
 30
0.0
 10
907.8271179399841
 20
466.1478119162772
 30
0.0
 10
906.6955227611946
 20
462.407824848999
 30
0.0
 10
904.8196379535096
 20
457.867883711014
 30
0.0
 10
904.421184472753
 20
456.9667081976712
 30
0.0
 10
903.5768034809922
 20
455.1782521610231
 30
0.0
 10
903.1314154891428
 20
454.2924753926628
 30
0.0
 10
901.7388734394683
 20
451.6850283877682
 30
0.0
 10
900.7311224334792
 20
450.0036597216134
 30
0.0
 10
897.4754319974867
 20
445.1262317455576
 30
0.0
 10
894.9973228909469
 20
442.0952242881127
 30
0.0
 10
891.5001774424574
 20
438.5929480164605
 30
0.0
 10
890.7837796531593
 20
437.9102705237405
 30
0.0
 10
889.325335974308
 20
436.5872836444123
 30
0.0
 10
888.5821040515125
 20
435.9457791166273
 30
0.0
 10
886.311000040936
 20
434.0803448179735
 30
0.0
 10
884.7418170960366
 20
432.9153553874843
 30
0.0
 10
881.4941083203335
 20
430.7413816874773
 30
0.0
 10
879.8155858345759
 20
429.7323926454094
 30
0.0
 10
876.3469124224621
 20
427.8736806414379
 30
0.0
 10
874.5486883576665
 20
427.0214763108307
 30
0.0
 10
869.096335578026
 20
424.7597963407875
 30
0.0
 10
865.356954032651
 20
423.623794890215
 30
0.0
 10
860.5537629667447
 20
422.6627048003303
 30
0.0
 10
859.5866183791346
 20
422.4936393551081
 30
0.0
 10
857.6391206792825
 20
422.2025102655942
 30
0.0
 10
856.657647704475
 20
422.0803386497612
 30
0.0
 10
853.7004765948446
 20
421.7866429458807
 30
0.0
 10
851.7238738735036
 20
421.6886986988955
 30
0.0
 10
849.742111042485
 20
421.688698697967
 30
0.0
  0
SPLINE
  5
EE
330
1F
100
AcDbEntity
  8
0
  6
Continuous
 62
     7
370
    25
100
AcDbSpline
210
0.0
220
0.0
230
1.0
 70
     8
 71
     3
 72
    72
 73
    68
 74
     0
 42
0.000000001
 43
0.00000001
 40
0.0
 40
0.0
 40
0.0
 40
0.0
 40
0.0624999999999996
 40
0.0624999999999996
 40
0.0937499999999992
 40
0.0937499999999992
 40
0.109374999999999
 40
0.109374999999999
 40
0.1249999999999988
 40
0.1249999999999988
 40
0.1874999999999988
 40
0.1874999999999988
 40
0.2031249999999987
 40
0.2031249999999987
 40
0.2187499999999989
 40
0.2187499999999989
 40
0.2499999999999992
 40
0.2499999999999992
 40
0.3124999999999997
 40
0.3124999999999997
 40
0.3281249999999999
 40
0.3281249999999999
 40
0.34375
 40
0.34375
 40
0.3750000000000003
 40
0.3750000000000003
 40
0.4062500000000007
 40
0.4062500000000007
 40
0.4218750000000009
 40
0.4218750000000009
 40
0.4375000000000011
 40
0.4375000000000011
 40
0.5000000000000013
 40
0.5000000000000013
 40
0.5312500000000013
 40
0.5312500000000013
 40
0.5468750000000013
 40
0.5468750000000013
 40
0.5625000000000014
 40
0.5625000000000014
 40
0.6250000000000014
 40
0.6250000000000014
 40
0.6406250000000014
 40
0.6406250000000014
 40
0.6562500000000016
 40
0.6562500000000016
 40
0.6875000000000017
 40
0.6875000000000017
 40
0.750000000000002
 40
0.750000000000002
 40
0.7656250000000021
 40
0.7656250000000021
 40
0.7812500000000021
 40
0.7812500000000021
 40
0.8125000000000019
 40
0.8125000000000019
 40
0.8437500000000013
 40
0.8437500000000013
 40
0.8750000000000009
 40
0.8750000000000009
 40
0.9374999999999998
 40
0.9374999999999998
 40
0.9531249999999999
 40
0.9531249999999999
 40
0.9687499999999999
 40
0.9687499999999999
 40
1.0
 40
1.0
 40
1.0
 40
1.0
 10
849.7421110033215
 20
421.688698697967
 30
0.0
 10
845.7785853331609
 20
421.6886986986971
 30
0.0
 10
841.8812868542096
 20
422.0775778183976
 30
0.0
 10
836.1306171053877
 20
423.2203584973545
 30
0.0
 10
834.2297249087044
 20
423.6952222953887
 30
0.0
 10
831.4029304934351
 20
424.5516370408658
 30
0.0
 10
830.4631648060125
 20
424.8617504542009
 30
0.0
 10
828.5991511717283
 20
425.5286144503731
 30
0.0
 10
827.6791684262914
 20
425.8837431621352
 30
0.0
 10
823.1381536455021
 20
427.7656663246498
 30
0.0
 10
819.6921420546588
 20
429.6082746332305
 30
0.0
 10
815.6160299735476
 20
432.3290867351217
 30
0.0
 10
814.8124818430642
 20
432.8943147014429
 30
0.0
 10
813.2291071140096
 20
434.0675747106287
 30
0.0
 10
812.4472747269025
 20
434.677284649491
 30
0.0
 10
810.1538791152268
 20
436.5590703670644
 30
0.0
 10
808.6987002408966
 20
437.8792477591377
 30
0.0
 10
804.5475052198823
 20
442.0305867281732
 30
0.0
 10
802.0638021674496
 20
445.0507493198648
 30
0.0
 10
799.3223206947924
 20
449.1492261538332
 30
0.0
 10
798.7909845220944
 20
449.9876150083917
 30
0.0
 10
797.7749425188152
 20
451.6822094584719
 30
0.0
 10
797.2897309300399
 20
452.5388827373269
 30
0.0
 10
795.9012609409943
 20
455.1365113760491
 30
0.0
 10
795.0650087251182
 20
456.9050103467306
 30
0.0
 10
793.5685829108271
 20
460.5143872937917
 30
0.0
 10
792.9084100693361
 20
462.3552655814199
 30
0.0
 10
792.0520042961056
 20
465.1716049272592
 30
0.0
 10
791.7888841328448
 20
466.1195712704967
 30
0.0
 10
791.3081393279374
 20
468.0342053795194
 30
0.0
 10
791.0902076147438
 20
469.0029413144102
 30
0.0
 10
790.1264017629514
 20
473.8430237650388
 30
0.0
 10
789.7447685617951
 20
477.7356057130878
 30
0.0
 10
789.7408027884977
 20
483.6044289929743
 30
0.0
 10
789.8349102461
 20
485.5657310792074
 30
0.0
 10
790.1235616876116
 20
488.515454674734
 30
0.0
 10
790.2446610198457
 20
489.5006096319751
 30
0.0
 10
790.5335211176832
 20
491.4516588401453
 30
0.0
 10
790.7014929530926
 20
492.4202930975599
 30
0.0
 10
791.657104083298
 20
497.2295854314649
 30
0.0
 10
792.7886992464986
 20
500.9695725094548
 30
0.0
 10
794.6645841179989
 20
505.5095137850418
 30
0.0
 10
795.0630376157163
 20
506.4106893321785
 30
0.0
 10
795.9074186521505
 20
508.199145448608
 30
0.0
 10
796.3528066137876
 20
509.0849221463163
 30
0.0
 10
797.7453486088014
 20
511.6923690364383
 30
0.0
 10
798.7530995858012
 20
513.3737376576029
 30
0.0
 10
802.0087899782221
 20
518.2511655759903
 30
0.0
 10
804.4868991122601
 20
521.2821730977278
 30
0.0
 10
807.9840447391058
 20
524.784449528643
 30
0.0
 10
808.7004424492295
 20
525.4671269403292
 30
0.0
 10
810.1588860699469
 20
526.7901137642564
 30
0.0
 10
810.9021179680486
 20
527.4316182709699
 30
0.0
 10
813.1732219192944
 20
529.2970525232668
 30
0.0
 10
814.7424048442629
 20
530.462041945281
 30
0.0
 10
817.9901136287849
 20
532.6360156591179
 30
0.0
 10
819.6686361432585
 20
533.6450047235688
 30
0.0
 10
823.1373096726394
 20
535.5037167897269
 30
0.0
 10
824.9355337361142
 20
536.3559211118986
 30
0.0
 10
830.3878863065095
 20
538.6176009956889
 30
0.0
 10
834.1272678117828
 20
539.7536024616035
 30
0.0
 10
838.930458974932
 20
540.7146925799902
 30
0.0
 10
839.8976035894366
 20
540.8837580314013
 30
0.0
 10
841.8451013584747
 20
541.174887132116
 30
0.0
 10
842.8265744181276
 20
541.2970587567712
 30
0.0
 10
845.783745475988
 20
541.5907544516789
 30
0.0
 10
847.760348167467
 20
541.6886986980487
 30
0.0
 10
849.742111016849
 20
541.688698697967
 30
0.0
  0
SPLINE
  5
EF
330
1F
100
AcDbEntity
  8
0
  6
Continuous
 62
     7
370
    25
100
AcDbSpline
210
0.0
220
0.0
230
1.0
 70
     8
 71
     3
 72
    27
 73
    23
 74
     0
 42
0.000000001
 43
0.00000001
 40
0.0
 40
0.0
 40
0.0
 40
0.0
 40
0.0143004970553301
 40
0.0284997311380347
 40
0.042783164669112
 40
0.0573248129110842
 40
0.0863402272822075
 40
0.1165742743474189
 40
0.1775653330010262
 40
0.2401026476058009
 40
0.3039345125400313
 40
0.368772970643842
 40
0.5000029340696309
 40
0.631232897494287
 40
0.6919928011139892
 40
0.7599027240735552
 40
0.8174334860517186
 40
0.8834304384381914
 40
0.9051693670204674
 40
0.9318435317291636
 40
0.9634543487445044
 40
0.9999999999999999
 40
0.9999999999999999
 40
0.9999999999999999
 40
0.9999999999999999
 10
239.7421110143736
 20
216.688698697967
 30
0.0
 10
239.742837225144
 20
216.6886972280913
 30
0.0
 10
239.744284504328
 20
216.6886942987481
 30
0.0
 10
239.7559741646764
 20
216.6887460537429
 30
0.0
 10
239.7747227191511
 20
216.6880809875469
 30
0.0
 10
239.810352835623
 20
216.6872161379587
 30
0.0
 10
239.8754517984592
 20
216.6870950560213
 30
0.0
 10
240.0249886267658
 20
216.6859266343262
 30
0.0
 10
240.3012765938077
 20
216.6850470288599
 30
0.0
 10
240.7750133220075
 20
216.6837485598339
 30
0.0
 10
241.3970687671201
 20
216.6825424253962
 30
0.0
 10
242.4251768912096
 20
216.6809733191089
 30
0.0
 10
244.0548990274922
 20
216.6791137344707
 30
0.0
 10
246.0373295815193
 20
216.6779162406034
 30
0.0
 10
247.7964187370643
 20
216.67652083316
 30
0.0
 10
249.1261791407031
 20
216.6764460289023
 30
0.0
 10
250.5472457104651
 20
216.6754421177059
 30
0.0
 10
251.6575416342199
 20
216.6758021744658
 30
0.0
 10
252.5426181981678
 20
216.6752437517139
 30
0.0
 10
253.1653213770879
 20
216.6749190848583
 30
0.0
 10
253.9068992538163
 20
216.6751171100165
 30
0.0
 10
254.4415853477635
 20
216.6752500390967
 30
0.0
 10
254.7282852313741
 20
216.6753213159678
 30
0.0
  0
SPLINE
  5
F0
330
1F
100
AcDbEntity
  8
0
  6
Continuous
 62
     7
370
    25
100
AcDbSpline
210
0.0
220
0.0
230
1.0
 70
     8
 71
     3
 72
    33
 73
    29
 74
     0
 42
0.000000001
 43
0.00000001
 40
0.0
 40
0.0
 40
0.0
 40
0.0
 40
0.0167834091849608
 40
0.0326094645297942
 40
0.0474777198763427
 40
0.0613879252396298
 40
0.0743399949658307
 40
0.0863339780002256
 40
0.0973700302885836
 40
0.107448389345031
 40
0.1165693510391995
 40
0.1608582459430943
 40
0.2020396595185632
 40
0.2401148711373062
 40
0.3768603603435811
 40
0.4998280974951699
 40
0.5671734306380389
 40
0.632924996272854
 40
0.6971397422639015
 40
0.7598833554447326
 40
0.7902677768393622
 40
0.8205289279423911
 40
0.8506753668499215
 40
0.8807158754061966
 40
0.910659422227669
 40
0.9405151255838213
 40
0.9702922161933947
 40
1.0
 40
1.0
 40
1.0
 40
1.0
 10
254.7282852313741
 20
216.6753213159678
 30
0.0
 10
254.7282771856849
 20
216.543657506694
 30
0.0
 10
254.728261553246
 20
216.2878402128978
 30
0.0
 10
254.728190040854
 20
215.915646517344
 30
0.0
 10
254.7281417180269
 20
215.5664156618642
 30
0.0
 10
254.7281327771715
 20
215.2402443666512
 30
0.0
 10
254.7281714660587
 20
214.9371630338708
 30
0.0
 10
254.7282513082862
 20
214.6571485650886
 30
0.0
 10
254.7283536623763
 20
214.4001364667547
 30
0.0
 10
254.7284589840479
 20
214.1660268141081
 30
0.0
 10
254.7285986943535
 20
213.6757240698967
 30
0.0
 10
254.7286113589873
 20
212.9506721625792
 30
0.0
 10
254.7288699055707
 20
212.0200701326688
 30
0.0
 10
254.729677666298
 20
210.4264964414763
 30
0.0
 10
254.7290266077054
 20
208.3416725206064
 30
0.0
 10
254.7323236174006
 20
206.3495052512982
 30
0.0
 10
254.7331477952563
 20
205.0046335655711
 30
0.0
 10
254.7341247449437
 20
204.0939936102351
 30
0.0
 10
254.7355476833317
 20
203.3342000702532
 30
0.0
 10
254.7368416856235
 20
202.8232565617853
 30
0.0
 10
254.7376128677374
 20
202.4885955539883
 30
0.0
 10
254.7381796667776
 20
202.2743959707809
 30
0.0
 10
254.7387608678291
 20
202.0933152359253
 30
0.0
 10
254.7393804902645
 20
201.945397057745
 30
0.0
 10
254.7400424822115
 20
201.8303827603832
 30
0.0
 10
254.7407361664773
 20
201.7489902244978
 30
0.0
 10
254.7414454053134
 20
201.6981181988046
 30
0.0
 10
254.7418893170896
 20
201.6918360917842
 30
0.0
 10
254.7421110143735
 20
201.688698697967
 30
0.0
  0
SPLINE
  5
F1
330
1F
100
AcDbEntity
  8
0
  6
Continuous
 62
     7
370
    25
100
AcDbSpline
210
0.0
220
0.0
230
1.0
 70
     8
 71
     3
 72
    27
 73
    23
 74
     0
 42
0.000000001
 43
0.00000001
 40
0.0
 40
0.0
 40
0.0
 40
0.0
 40
0.0143002872191763
 40
0.0284996696786843
 40
0.0427834913486601
 40
0.0573256284670599
 40
0.0863407945480382
 40
0.1165756271294569
 40
0.1775669539062593
 40
0.2401042843631343
 40
0.3039359441166306
 40
0.3687740189846361
 40
0.5000029336407196
 40
0.6312318482961197
 40
0.6919917098976348
 40
0.7599010866096969
 40
0.8174320829008374
 40
0.883429085077683
 40
0.9051681334077663
 40
0.9318425636039138
 40
0.9634537917440384
 40
1.0
 40
1.0
 40
1.0
 40
1.0
 10
724.7421110143734
 20
201.6886986979673
 30
0.0
 10
724.7421400968606
 20
201.689424782274
 30
0.0
 10
724.7421980566247
 20
201.6908718275383
 30
0.0
 10
724.7422290223326
 20
201.7025596720856
 30
0.0
 10
724.742976262076
 20
201.7213057890033
 30
0.0
 10
724.7439511979105
 20
201.756931073501
 30
0.0
 10
724.7442145843745
 20
201.8220212741779
 30
0.0
 10
724.7456097601946
 20
201.9715368938214
 30
0.0
 10
724.746778273761
 20
202.2477859943943
 30
0.0
 10
724.7484178466992
 20
202.7214524744301
 30
0.0
 10
724.7499589615534
 20
203.3434133509497
 30
0.0
 10
724.7519598611332
 20
204.3713625134366
 30
0.0
 10
724.7543110122419
 20
206.0008334204104
 30
0.0
 10
724.755902606495
 20
207.982975229857
 30
0.0
 10
724.7575507828082
 20
209.7418257225962
 30
0.0
 10
724.7577750110211
 20
211.0714205593796
 30
0.0
 10
724.7588984621157
 20
212.4923223604975
 30
0.0
 10
724.7586033766092
 20
213.6025038014641
 30
0.0
 10
724.7591978922779
 20
214.4874963527243
 30
0.0
 10
724.759541903908
 20
215.1101468360131
 30
0.0
 10
724.7593593091492
 20
215.851667667023
 30
0.0
 10
724.7592284518976
 20
216.3863176629683
 30
0.0
 10
724.7591582858728
 20
216.6729984879675
 30
0.0
  0
SPLINE
  5
F2
330
1F
100
AcDbEntity
  8
0
  6
Continuous
 62
     7
370
    25
100
AcDbSpline
210
0.0
220
0.0
230
1.0
 70
     8
 71
     3
 72
    33
 73
    29
 74
     0
 42
0.000000001
 43
0.00000001
 40
0.0
 40
0.0
 40
0.0
 40
0.0
 40
0.0167838159008768
 40
0.032610249719234
 40
0.0474788554181552
 40
0.0613893830860175
 40
0.0743417471019863
 40
0.0863359964109973
 40
0.0973722869316398
 40
0.107450856130018
 40
0.1165719998123049
 40
0.1608610790517832
 40
0.2020426764956409
 40
0.2401180708560752
 40
0.3768620375547414
 40
0.4998281576624531
 40
0.5671730088797469
 40
0.6329238945128216
 40
0.6971377274299424
 40
0.7598801567346488
 40
0.7902653214144769
 40
0.8205271246936471
 40
0.850674121064181
 40
0.8807150888239925
 40
0.9106589931235468
 40
0.9405149488693875
 40
0.9702921835431646
 40
1.0
 40
1.0
 40
1.0
 40
1.0
 10
724.7591582858728
 20
216.6729984879675
 30
0.0
 10
724.8908045168366
 20
216.6729904999857
 30
0.0
 10
725.1465876171565
 20
216.6729749796722
 30
0.0
 10
725.5187285984372
 20
216.6729051807245
 30
0.0
 10
725.8679080782689
 20
216.6728594395036
 30
0.0
 10
726.1940295585335
 20
216.6728538479415
 30
0.0
 10
726.4970630634781
 20
216.672896437826
 30
0.0
 10
726.7770320092055
 20
216.6729805676671
 30
0.0
 10
727.0340011798706
 20
216.6730874411867
 30
0.0
 10
727.2680707470497
 20
216.6731973749523
 30
0.0
 10
727.7582822564603
 20
216.6733477318087
 30
0.0
 10
728.483190695734
 20
216.6733802031015
 30
0.0
 10
729.4135958227013
 20
216.6736724562286
 30
0.0
 10
731.0067998634165
 20
216.6745515661765
 30
0.0
 10
733.0910823531772
 20
216.6740378841646
 30
0.0
 10
735.0826856735612
 20
216.6775389532386
 30
0.0
 10
736.4271626074786
 20
216.6785504321498
 30
0.0
 10
737.3375295500275
 20
216.6796844822372
 30
0.0
 10
738.0970894951981
 20
216.6812713361259
 30
0.0
 10
738.6078787227634
 20
216.6827063367483
 30
0.0
 10
738.942442323197
 20
216.683591468935
 30
0.0
 10
739.1565831273372
 20
216.6842435432229
 30
0.0
 10
739.3376130888475
 20
216.684910892554
 30
0.0
 10
739.4854889078501
 20
216.6856173502308
 30
0.0
 10
739.6004695850112
 20
216.686366684803
 30
0.0
 10
739.6818378495186
 20
216.6871480499188
 30
0.0
 10
739.7326944111607
 20
216.6879451405047
 30
0.0
 10
739.7389745895958
 20
216.6884477076424
 30
0.0
 10
739.7421110143734
 20
216.688698697967
 30
0.0
  0
SPLINE
  5
F3
330
1F
100
AcDbEntity
  8
0
  6
Continuous
 62
     7
370
    25
100
AcDbSpline
210
0.0
220
0.0
230
1.0
 70
     8
 71
     3
 72
    29
 73
    25
 74
     0
 42
0.000000001
 43
0.00000001
 40
0.0
 40
0.0
 40
0.0
 40
0.0
 40
0.0118939480952573
 40
0.0237682030044116
 40
0.035732748859729
 40
0.0534697786086581
 40
0.0714664385402766
 40
0.1428967682356828
 40
0.1964779881315745
 40
0.2500567364749639
 40
0.308121885067368
 40
0.3750593047059743
 40
0.4337480571162072
 40
0.5000691322957522
 40
0.6249293544040713
 40
0.6840751534240732
 40
0.7499322577107461
 40
0.8082427245216414
 40
0.8749394536303288
 40
0.8931574563671397
 40
0.9147717809348401
 40
0.9397838770224739
 40
0.9681938851379674
 40
1.0
 40
1.0
 40
1.0
 40
1.0
 10
739.7421110143724
 20
586.688698697967
 30
0.0
 10
739.7416090272806
 20
586.6888476529133
 30
0.0
 10
739.7406058842529
 20
586.6891453161765
 30
0.0
 10
739.7324804291211
 20
586.6896702467577
 30
0.0
 10
739.7173694064267
 20
586.6904276929149
 30
0.0
 10
739.6912017931267
 20
586.6909946581972
 30
0.0
 10
739.6090706385781
 20
586.6927845477674
 30
0.0
 10
739.4210439295706
 20
586.6947115906204
 30
0.0
 10
739.0524157941937
 20
586.6974246240563
 30
0.0
 10
738.6075405516123
 20
586.699340930003
 30
0.0
 10
738.0133298623517
 20
586.7033896196168
 30
0.0
 10
737.2768143455255
 20
586.7039450776874
 30
0.0
 10
736.383758435539
 20
586.7073112559721
 30
0.0
 10
735.0723767715966
 20
586.7091623255554
 30
0.0
 10
733.5452028775447
 20
586.7117586805739
 30
0.0
 10
731.8673398456763
 20
586.7140420530477
 30
0.0
 10
730.5682429807969
 20
586.7148020911847
 30
0.0
 10
729.160201694736
 20
586.7163325700545
 30
0.0
 10
728.0701024698662
 20
586.7162676036024
 30
0.0
 10
727.2489980531428
 20
586.7169294860896
 30
0.0
 10
726.746455981501
 20
586.7173838447032
 30
0.0
 10
726.1620200746817
 20
586.7175375276958
 30
0.0
 10
725.4954935048439
 20
586.7173115562294
 30
0.0
 10
725.0233898607355
 20
586.7172071377415
 30
0.0
 10
724.7740250396743
 20
586.7171519839678
 30
0.0
  0
SPLINE
  5
F4
330
1F
100
AcDbEntity
  8
0
  6
Continuous
 62
     7
370
    25
100
AcDbSpline
210
0.0
220
0.0
230
1.0
 70
     8
 71
     3
 72
    33
 73
    29
 74
     0
 42
0.000000001
 43
0.00000001
 40
0.0
 40
0.0
 40
0.0
 40
0.0
 40
0.0167850004375712
 40
0.0326125510234169
 40
0.0474822059980763
 40
0.0613937155880847
 40
0.074346994194686
 40
0.086342090690426
 40
0.0973791608470214
 40
0.107458441927556
 40
0.116580229495594
 40
0.1608698595159193
 40
0.2020520283268565
 40
0.2401280119266944
 40
0.3768672196609348
 40
0.4998283445859186
 40
0.5671716882175515
 40
0.6329204563082144
 40
0.697131455033696
 40
0.759870218807146
 40
0.7902576892407385
 40
0.8205215154569881
 40
0.8506702411185991
 40
0.8807126338854713
 40
0.9106576485293089
 40
0.9405143899055296
 40
0.9702920758408354
 40
1.0
 40
1.0
 40
1.0
 40
1.0
 10
724.7740250396743
 20
586.7171519839678
 30
0.0
 10
724.7740312429663
 20
586.8487429021367
 30
0.0
 10
724.7740432957024
 20
587.1044185304434
 30
0.0
 10
724.7740948919985
 20
587.4763941308254
 30
0.0
 10
724.7741151820999
 20
587.825412877969
 30
0.0
 10
724.7740888995808
 20
588.1513789599263
 30
0.0
 10
724.7740098426233
 20
588.4542637203178
 30
0.0
 10
724.7738860785234
 20
588.7340915563695
 30
0.0
 10
724.7737377671868
 20
588.9909281491017
 30
0.0
 10
724.7735858238459
 20
589.2248744311319
 30
0.0
 10
724.7733392096147
 20
589.7148031495196
 30
0.0
 10
724.7731300992294
 20
590.4392659676975
 30
0.0
 10
724.7725396793788
 20
591.3690589767657
 30
0.0
 10
724.7710324667444
 20
592.9611139790704
 30
0.0
 10
724.7703524469445
 20
595.0437139777773
 30
0.0
 10
724.7650777675191
 20
597.0335648585005
 30
0.0
 10
724.7624489504389
 20
598.3768152832188
 30
0.0
 10
724.7599597548608
 20
599.2863338987389
 30
0.0
 10
724.7569599815905
 20
600.0451681207905
 30
0.0
 10
724.7543108976225
 20
600.5554780270265
 30
0.0
 10
724.7524459634042
 20
600.8897389733443
 30
0.0
 10
724.7510610578503
 20
601.1036971022687
 30
0.0
 10
724.7496537218992
 20
601.2845692816409
 30
0.0
 10
724.7482016675779
 20
601.4323134789555
 30
0.0
 10
724.7467026470131
 20
601.5471897006346
 30
0.0
 10
724.7451689767097
 20
601.6284825653906
 30
0.0
 10
724.7436183897746
 20
601.6792910942206
 30
0.0
 10
724.742613079848
 20
601.6855652827373
 30
0.0
 10
724.7421110143734
 20
601.6886986979671
 30
0.0
  0
SPLINE
  5
F5
330
1F
100
AcDbEntity
  8
0
  6
Continuous
 62
     7
370
    25
100
AcDbSpline
210
0.0
220
0.0
230
1.0
 70
     8
 71
     3
 72
    27
 73
    23
 74
     0
 42
0.000000001
 43
0.00000001
 40
0.0
 40
0.0
 40
0.0
 40
0.0
 40
0.0142995460769531
 40
0.0284994619301216
 40
0.0427846688397183
 40
0.0573285478962732
 40
0.0863428447997237
 40
0.1165804695843084
 40
0.1775727560633647
 40
0.2401101431908171
 40
0.3039410684315291
 40
0.3687777714591327
 40
0.5000029320025177
 40
0.6312280925456445
 40
0.6919878267654117
 40
0.7598952250470927
 40
0.8174271537534138
 40
0.883424240369233
 40
0.9051643938648991
 40
0.9318400001308168
 40
0.963452474515872
 40
1.0
 40
1.0
 40
1.0
 40
1.0
 10
254.7421110073736
 20
601.6886986979669
 30
0.0
 10
254.7420162436258
 20
601.6879731396707
 30
0.0
 10
254.7418273763844
 20
601.6865270783115
 30
0.0
 10
254.7415994208222
 20
601.6748459478546
 30
0.0
 10
254.7406575604616
 20
601.6561087802714
 30
0.0
 10
254.7394221316344
 20
601.6205010870584
 30
0.0
 10
254.7388192737685
 20
601.5554426354993
 30
0.0
 10
254.7368872525468
 20
601.4060035454816
 30
0.0
 10
254.735031447602
 20
601.1298944016223
 30
0.0
 10
254.7325814525696
 20
600.6564803234772
 30
0.0
 10
254.7302437602934
 20
600.0348588885373
 30
0.0
 10
254.7272156837797
 20
599.0074799354535
 30
0.0
 10
254.7236940650666
 20
597.3789096956897
 30
0.0
 10
254.721162285446
 20
595.3978024916562
 30
0.0
 10
254.7189101010452
 20
593.639807105083
 30
0.0
 10
254.7183277679102
 20
592.3108047879138
 30
0.0
 10
254.7169172585919
 20
590.8904934097953
 30
0.0
 10
254.7170551398099
 20
589.7807169290289
 30
0.0
 10
254.7163728612791
 20
588.8960190081568
 30
0.0
 10
254.7159814350892
 20
588.2735519489537
 30
0.0
 10
254.7161254368788
 20
587.5322407128516
 30
0.0
 10
254.7162499631455
 20
586.9977271231194
 30
0.0
 10
254.7163167343738
 20
586.7111198889668
 30
0.0
  0
SPLINE
  5
F6
330
1F
100
AcDbEntity
  8
0
  6
Continuous
 62
     7
370
    25
100
AcDbSpline
210
0.0
220
0.0
230
1.0
 70
     8
 71
     3
 72
    33
 73
    29
 74
     0
 42
0.000000001
 43
0.00000001
 40
0.0
 40
0.0
 40
0.0
 40
0.0
 40
0.0162535859616685
 40
0.0316753122660035
 40
0.046264751135712
 40
0.0600216389533254
 40
0.0729458526376983
 40
0.0850373874074872
 40
0.0962963359459085
 40
0.1067228689855556
 40
0.1163172173400192
 40
0.1250796554246953
 40
0.1909837952580987
 40
0.2500994627882241
 40
0.3812325062920485
 40
0.4998344335856278
 40
0.5645343832636884
 40
0.6277394867493469
 40
0.6894997594375236
 40
0.7498727635154134
 40
0.7815580744727256
 40
0.8131038272405264
 40
0.8445195887317061
 40
0.8758151995950296
 40
0.9070007291074628
 40
0.9380864298850413
 40
0.969082692487605
 40
0.9999999999999999
 40
0.9999999999999999
 40
0.9999999999999999
 40
0.9999999999999999
 10
254.7163167343738
 20
586.7111198889668
 30
0.0
 10
254.5888735618993
 20
586.7111274478345
 30
0.0
 10
254.3405097673608
 20
586.7111421787066
 30
0.0
 10
253.9780019033928
 20
586.7112121186285
 30
0.0
 10
253.6354715701266
 20
586.7112623074968
 30
0.0
 10
253.3130216476733
 20
586.7112752875489
 30
0.0
 10
253.0106973152333
 20
586.7112392329483
 30
0.0
 10
252.728497395839
 20
586.7111562198542
 30
0.0
 10
252.4663814638297
 20
586.7110367173547
 30
0.0
 10
252.2242801406924
 20
586.7109012033663
 30
0.0
 10
252.0020945717192
 20
586.7107682817403
 30
0.0
 10
251.3534417600605
 20
586.7105030837034
 30
0.0
 10
250.3347355856023
 20
586.7103705372034
 30
0.0
 10
248.4444424468433
 20
586.7089034934617
 30
0.0
 10
246.2988746941459
 20
586.7086488628665
 30
0.0
 10
244.3913963383686
 20
586.7047842739964
 30
0.0
 10
243.0951137278998
 20
586.7031081749569
 30
0.0
 10
242.2133185770978
 20
586.7014704320943
 30
0.0
 10
241.4707463816341
 20
586.6994131428473
 30
0.0
 10
240.9566152173757
 20
586.6975511930142
 30
0.0
 10
240.6083609691296
 20
586.696268897837
 30
0.0
 10
240.3763351629773
 20
586.6952862665653
 30
0.0
 10
240.1802026812516
 20
586.6942810591152
 30
0.0
 10
240.0200115504696
 20
586.693227390185
 30
0.0
 10
239.8954758984229
 20
586.6921210658674
 30
0.0
 10
239.8073636580087
 20
586.6909757796133
 30
0.0
 10
239.7523042709904
 20
586.6898114817583
 30
0.0
 10
239.745505876702
 20
586.6890693104134
 30
0.0
 10
239.7421110143734
 20
586.688698697967
 30
0.0
  0
SPLINE
  5
F7
330
1F
100
AcDbEntity
  8
0
  6
Continuous
 62
     7
370
    25
100
AcDbSpline
210
0.0
220
0.0
230
1.0
 70
     8
 71
     3
 72
    17
 73
    13
 74
     0
 42
0.000000001
 43
0.00000001
 40
0.0
 40
0.0
 40
0.0
 40
0.0
 40
0.0624900848332801
 40
0.1249824557990329
 40
0.2499714269425058
 40
0.3759677552801111
 40
0.4999589173519233
 40
0.6154352199636561
 40
0.7499391705550645
 40
0.8749211801238695
 40
0.9452189776179782
 40
1.0
 40
1.0
 40
1.0
 40
1.0
 10
254.716316734374
 20
586.7111198889666
 30
0.0
 10
254.7033179727254
 20
579.0032750876113
 30
0.0
 10
254.677319973883
 20
563.5873035016976
 30
0.0
 10
254.6278163888402
 20
532.7545517268602
 30
0.0
 10
254.5743348815726
 20
494.0885890752599
 30
0.0
 10
254.5394366745717
 20
447.8369867777157
 30
0.0
 10
254.5362652759164
 20
402.7587018548679
 30
0.0
 10
254.5642869510023
 20
356.6310586124685
 30
0.0
 10
254.6129494186282
 20
310.3812339448897
 30
0.0
 10
254.6665148255216
 20
269.7039919015654
 30
0.0
 10
254.7050657810943
 20
238.8601834729482
 30
0.0
 10
254.7212131400749
 20
223.4323017241861
 30
0.0
 10
254.7282852313741
 20
216.6753213159675
 30
0.0
  0
SPLINE
  5
F8
330
1F
100
AcDbEntity
  8
0
  6
Continuous
 62
     7
370
    25
100
AcDbSpline
210
0.0
220
0.0
230
1.0
 70
     8
 71
     3
 72
    16
 73
    12
 74
     0
 42
0.000000001
 43
0.00000001
 40
0.0
 40
0.0
 40
0.0
 40
0.0
 40
0.0748909741073533
 40
0.1582548548789754
 40
0.2500916763849486
 40
0.375146987879246
 40
0.5002072085686063
 40
0.6362030076699362
 40
0.7503426246397484
 40
0.8797054393347481
 40
1.0
 40
1.0
 40
1.0
 40
1.0
 10
254.7282852313741
 20
216.6753213159675
 30
0.0
 10
260.5950960540775
 20
216.6690077855674
 30
0.0
 10
272.9924684532987
 20
216.6556664337002
 30
0.0
 10
292.5841365365089
 20
216.6272782425255
 30
0.0
 10
316.105558382996
 20
216.5884340769721
 30
0.0
 10
342.8933688742219
 20
216.5387954415389
 30
0.0
 10
373.1404937409318
 20
216.4816233702525
 30
0.0
 10
402.5325240851376
 20
216.4305621012508
 30
0.0
 10
432.2616379695882
 20
216.3875236198675
 30
0.0
 10
460.760777931253
 20
216.3575398002382
 30
0.0
 10
480.3184622731884
 20
216.3509905436176
 30
0.0
 10
489.7421095503735
 20
216.3478348589649
 30
0.0
  0
SPLINE
  5
F9
330
1F
100
AcDbEntity
  8
0
  6
Continuous
 62
     7
370
    25
100
AcDbSpline
210
0.0
220
0.0
230
1.0
 70
     8
 71
     3
 72
    17
 73
    13
 74
     0
 42
0.000000001
 43
0.00000001
 40
0.0
 40
0.0
 40
0.0
 40
0.0
 40
0.0609274371186202
 40
0.1229873703186466
 40
0.1861797706070071
 40
0.2505046629191858
 40
0.3661466351306819
 40
0.5023216571589761
 40
0.6272598925728219
 40
0.7503420067674579
 40
0.8894167203087625
 40
1.0
 40
1.0
 40
1.0
 40
1.0
 10
489.7421095370077
 20
216.3478369125038
 30
0.0
 10
494.5151147009308
 20
216.3489119296897
 30
0.0
 10
504.1498438375814
 20
216.351081946073
 30
0.0
 10
518.7350101272077
 20
216.359432722047
 30
0.0
 10
533.5863247032357
 20
216.3715122729057
 30
0.0
 10
552.635200317904
 20
216.3919225620386
 30
0.0
 10
577.4014510449314
 20
216.4267360702064
 30
0.0
 10
606.9160662658314
 20
216.4764707199377
 30
0.0
 10
637.0135144161732
 20
216.5324070793802
 30
0.0
 10
667.3381261249804
 20
216.5875474322972
 30
0.0
 10
696.5381981849714
 20
216.6369502664618
 30
0.0
 10
716.0961688991639
 20
216.6619327637965
 30
0.0
 10
724.759158285873
 20
216.6729984879673
 30
0.0
  0
SPLINE
  5
FA
330
1F
100
AcDbEntity
  8
0
  6
Continuous
 62
     7
370
    25
100
AcDbSpline
210
0.0
220
0.0
230
1.0
 70
     8
 71
     3
 72
    17
 73
    13
 74
     0
 42
0.000000001
 43
0.00000001
 40
0.0
 40
0.0
 40
0.0
 40
0.0
 40
0.0545507781834544
 40
0.1264211351054836
 40
0.2506707494274826
 40
0.3863504601668515
 40
0.5007140794893246
 40
0.6266584749448203
 40
0.7494124443669105
 40
0.8734521597077366
 40
0.9364223406768307
 40
1.0
 40
1.0
 40
1.0
 40
1.0
 10
724.759158285873
 20
216.6729984879673
 30
0.0
 10
724.7670718214443
 20
223.401730961494
 30
0.0
 10
724.7854113975778
 20
238.9955322866302
 30
0.0
 10
724.8264410214406
 20
269.9152704759093
 30
0.0
 10
724.881945262177
 20
310.8420964737485
 30
0.0
 10
724.9337652505371
 20
357.0104105411749
 30
0.0
 10
724.9668396828095
 20
403.3878083078969
 30
0.0
 10
724.9689370428466
 20
448.1708642921707
 30
0.0
 10
724.9364883575084
 20
494.1474275466614
 30
0.0
 10
724.8796945346056
 20
532.356174159181
 30
0.0
 10
724.8220438269447
 20
563.2656007948017
 30
0.0
 10
724.7900824444116
 20
578.8749912263603
 30
0.0
 10
724.7740250396744
 20
586.7171519839678
 30
0.0
  0
SPLINE
  5
FB
330
1F
100
AcDbEntity
  8
0
  6
Continuous
 62
     7
370
    25
100
AcDbSpline
210
0.0
220
0.0
230
1.0
 70
     8
 71
     3
 72
    23
 73
    19
 74
     0
 42
0.000000001
 43
0.00000001
 40
0.0
 40
0.0
 40
0.0
 40
0.0
 40
0.0159167658702913
 40
0.0316615124152834
 40
0.0472343335336473
 40
0.0626353028282931
 40
0.0925670324096911
 40
0.125267058615677
 40
0.1771890605467132
 40
0.2513920953220934
 40
0.3272532164293576
 40
0.3757372984087107
 40
0.5001851637809197
 40
0.5989692479410825
 40
0.7004222944739958
 40
0.7982462569213722
 40
0.8981054473349795
 40
1.0
 40
1.0
 40
1.0
 40
1.0
 10
489.7421138173746
 20
587.9331979210094
 30
0.0
 10
488.4951276643467
 20
587.9340357416555
 30
0.0
 10
486.0146320732499
 20
587.93570232826
 30
0.0
 10
482.3140901791578
 20
587.9334295565197
 30
0.0
 10
478.6539665068303
 20
587.9276349374221
 30
0.0
 10
473.8823952625312
 20
587.9148676699455
 30
0.0
 10
467.7690649401229
 20
587.8889776336712
 30
0.0
 10
458.7946876725571
 20
587.8367943300302
 30
0.0
 10
446.3522422205472
 20
587.7423784902364
 30
0.0
 10
430.5287594359528
 20
587.6091748120482
 30
0.0
 10
414.974665577587
 20
587.4757052730341
 30
0.0
 10
395.4843545489516
 20
587.3139972365021
 30
0.0
 10
374.1979634206041
 20
587.1621376045746
 30
0.0
 10
348.7615511151913
 20
587.0160050107719
 30
0.0
 10
325.4106533191694
 20
586.9079692648769
 30
0.0
 10
301.9753519540369
 20
586.8225947527965
 30
0.0
 10
278.5053412699785
 20
586.75518941644
 30
0.0
 10
262.6991443917998
 20
586.7259081978456
 30
0.0
 10
254.716316734374
 20
586.7111198889666
 30
0.0
  0
SPLINE
  5
FC
330
1F
100
AcDbEntity
  8
0
  6
Continuous
 62
     7
370
    25
100
AcDbSpline
210
0.0
220
0.0
230
1.0
 70
     8
 71
     3
 72
    21
 73
    17
 74
     0
 42
0.000000001
 43
0.00000001
 40
0.0
 40
0.0
 40
0.0
 40
0.0
 40
0.0620909640786613
 40
0.124280675591812
 40
0.1865691479702882
 40
0.2489564132901599
 40
0.3783689248288071
 40
0.4997065850722078
 40
0.6251292417813982
 40
0.6862409705184065
 40
0.7488883359096404
 40
0.8185405472881061
 40
0.8744208536918816
 40
0.9182611747824223
 40
0.9601207408724837
 40
1.0
 40
1.0
 40
1.0
 40
1.0
 10
724.7740250396744
 20
586.7171519839678
 30
0.0
 10
719.9094550446954
 20
586.7275591710828
 30
0.0
 10
710.1725786020339
 20
586.748390096562
 30
0.0
 10
695.5557013317465
 20
586.7887896087112
 30
0.0
 10
680.9156513230267
 20
586.8359418169196
 30
0.0
 10
661.0090745724466
 20
586.9098720820589
 30
0.0
 10
636.4764096513012
 20
587.0200755339808
 30
0.0
 10
607.0056180031435
 20
587.1896603752891
 30
0.0
 10
582.8861806804507
 20
587.364714552726
 30
0.0
 10
563.3648523769984
 20
587.5209336381298
 30
0.0
 10
548.2127242875285
 20
587.648122405696
 30
0.0
 10
533.47036270988
 20
587.7671874162031
 30
0.0
 10
520.2011345783195
 20
587.856897180269
 30
0.0
 10
509.1090562147186
 20
587.9086155571088
 30
0.0
 10
499.2704394721359
 20
587.9355896555417
 30
0.0
 10
492.8665056939012
 20
587.9339881461319
 30
0.0
 10
489.7421136574624
 20
587.9332067915116
 30
0.0
  0
SPLINE
  5
FD
330
1F
100
AcDbEntity
  8
0
  6
Continuous
 62
     7
370
    25
100
AcDbSpline
210
0.0
220
0.0
230
1.0
 70
     8
 71
     3
 72
    71
 73
    67
 74
     0
 42
0.000000001
 43
0.00000001
 40
0.0
 40
0.0
 40
0.0
 40
0.0
 40
0.0625
 40
0.0625
 40
0.0937499999999998
 40
0.0937499999999998
 40
0.1093749999999997
 40
0.1093749999999997
 40
0.1249999999999996
 40
0.1249999999999996
 40
0.1874999999999985
 40
0.1874999999999985
 40
0.2031249999999984
 40
0.2031249999999984
 40
0.2187499999999982
 40
0.2187499999999982
 40
0.2499999999999978
 40
0.2499999999999978
 40
0.3124999999999971
 40
0.3124999999999971
 40
0.3281249999999971
 40
0.3281249999999971
 40
0.3437499999999971
 40
0.3437499999999971
 40
0.3749999999999971
 40
0.4062499999999972
 40
0.4062499999999972
 40
0.4218749999999972
 40
0.4218749999999972
 40
0.4374999999999973
 40
0.4374999999999973
 40
0.4999999999999971
 40
0.4999999999999971
 40
0.5312499999999971
 40
0.5312499999999971
 40
0.546874999999997
 40
0.546874999999997
 40
0.5624999999999969
 40
0.5624999999999969
 40
0.6249999999999966
 40
0.6249999999999966
 40
0.6406249999999966
 40
0.6406249999999966
 40
0.6562499999999966
 40
0.6562499999999966
 40
0.6874999999999969
 40
0.6874999999999969
 40
0.7499999999999977
 40
0.7499999999999977
 40
0.765624999999998
 40
0.765624999999998
 40
0.7812499999999982
 40
0.7812499999999982
 40
0.8124999999999986
 40
0.8124999999999986
 40
0.8437499999999989
 40
0.8437499999999989
 40
0.8749999999999992
 40
0.8749999999999992
 40
0.9374999999999999
 40
0.9374999999999999
 40
0.9531249999999999
 40
0.9531249999999999
 40
0.9687499999999999
 40
0.9687499999999999
 40
1.0
 40
1.0
 40
1.0
 40
1.0
 10
489.7421108427678
 20
541.6886986979667
 30
0.0
 10
493.7056365677461
 20
541.6886987093029
 30
0.0
 10
497.6029349560478
 20
541.2998196061222
 30
0.0
 10
503.3536047040553
 20
540.157038949576
 30
0.0
 10
505.2544969031096
 20
539.6821751585575
 30
0.0
 10
508.0812913209871
 20
538.825760423856
 30
0.0
 10
509.0210570065032
 20
538.5156470151593
 30
0.0
 10
510.8850706506594
 20
537.8487830233192
 30
0.0
 10
511.8050534005486
 20
537.4936543136754
 30
0.0
 10
516.3460682014413
 20
535.6117311618256
 30
0.0
 10
519.792079801571
 20
533.7691228620139
 30
0.0
 10
523.8681918886417
 20
531.048310775951
 30
0.0
 10
524.6717400200268
 20
530.4830828130421
 30
0.0
 10
526.2551147503436
 20
529.309822811317
 30
0.0
 10
527.0369471362014
 20
528.7001128779787
 30
0.0
 10
529.3303427685082
 20
526.8183271566118
 30
0.0
 10
530.7855216540054
 20
525.4981497625168
 30
0.0
 10
534.9367167027237
 20
521.3468107901625
 30
0.0
 10
537.4204197665737
 20
518.3266481990225
 30
0.0
 10
540.1619012479812
 20
514.2281713752939
 30
0.0
 10
540.6932374226913
 20
513.3897825226516
 30
0.0
 10
541.7092794357244
 20
511.6951880661521
 30
0.0
 10
542.1944910289408
 20
510.8385147842919
 30
0.0
 10
543.5829610301942
 20
508.2408861372438
 30
0.0
 10
545.2554662322207
 20
504.7038884977044
 30
0.0
 10
546.5758119236574
 20
501.0221319196228
 30
0.0
 10
547.432217702123
 20
498.2057925752692
 30
0.0
 10
547.6953378669523
 20
497.2578262331215
 30
0.0
 10
548.1760826748753
 20
495.3431921273125
 30
0.0
 10
548.3940143903144
 20
494.3744561913699
 30
0.0
 10
549.3578202548846
 20
489.5343737221474
 30
0.0
 10
549.7394534615105
 20
485.6417917651356
 30
0.0
 10
549.7434192428863
 20
479.7729684857033
 30
0.0
 10
549.6493117879934
 20
477.8116664020337
 30
0.0
 10
549.3606603517138
 20
474.8619428139659
 30
0.0
 10
549.2395610205265
 20
473.8767878518908
 30
0.0
 10
548.9507009240031
 20
471.9257386337748
 30
0.0
 10
548.7827290891335
 20
470.9571043722454
 30
0.0
 10
547.827117961654
 20
466.1478120218852
 30
0.0
 10
546.6955228008729
 20
462.4078249441588
 30
0.0
 10
544.8196379411734
 20
457.8678836813754
 30
0.0
 10
544.4211844462545
 20
456.9667081374353
 30
0.0
 10
543.5768034165621
 20
455.1782520286673
 30
0.0
 10
543.1314154512742
 20
454.2924753201493
 30
0.0
 10
541.7388734500619
 20
451.6850284108175
 30
0.0
 10
540.7311224698351
 20
450.0036597813271
 30
0.0
 10
537.4754320737279
 20
445.1262318492804
 30
0.0
 10
534.9973229451872
 20
442.0952243335236
 30
0.0
 10
531.5001773446444
 20
438.5929479207313
 30
0.0
 10
530.7837796221859
 20
437.9102704954474
 30
0.0
 10
529.3253359921555
 20
436.5872836607981
 30
0.0
 10
528.5821040900603
 20
435.9457791497949
 30
0.0
 10
526.3110001290461
 20
434.0803448873333
 30
0.0
 10
524.741817200499
 20
432.915355462135
 30
0.0
 10
521.4941084162488
 20
430.7413817469567
 30
0.0
 10
519.8155859056304
 20
429.7323926843699
 30
0.0
 10
516.3469123933727
 20
427.8736806249643
 30
0.0
 10
514.5486883286301
 20
427.0214762998651
 30
0.0
 10
509.096335720308
 20
424.7597963976494
 30
0.0
 10
505.3569542058096
 20
423.6237949320127
 30
0.0
 10
500.5537630550239
 20
422.6627048162071
 30
0.0
 10
499.5866184441813
 20
422.4936393654256
 30
0.0
 10
497.6391206850291
 20
422.2025102658595
 30
0.0
 10
496.6576476379583
 20
422.0803386422909
 30
0.0
 10
493.7004765723881
 20
421.7866429453786
 30
0.0
 10
491.7238738867522
 20
421.6886986999626
 30
0.0
 10
489.7421110747917
 20
421.688698697967
 30
0.0
  0
SPLINE
  5
FE
330
1F
100
AcDbEntity
  8
0
  6
Continuous
 62
     7
370
    25
100
AcDbSpline
210
0.0
220
0.0
230
1.0
 70
     8
 71
     3
 72
    71
 73
    67
 74
     0
 42
0.000000001
 43
0.00000001
 40
0.0
 40
0.0
 40
0.0
 40
0.0
 40
0.0625000000000028
 40
0.0625000000000028
 40
0.093750000000004
 40
0.093750000000004
 40
0.1093750000000046
 40
0.1093750000000046
 40
0.1250000000000052
 40
0.1250000000000052
 40
0.1875000000000075
 40
0.1875000000000075
 40
0.203125000000008
 40
0.203125000000008
 40
0.2187500000000084
 40
0.2187500000000084
 40
0.2500000000000089
 40
0.2500000000000089
 40
0.3125000000000099
 40
0.3125000000000099
 40
0.3281250000000099
 40
0.3281250000000099
 40
0.34375000000001
 40
0.34375000000001
 40
0.37500000000001
 40
0.40625000000001
 40
0.40625000000001
 40
0.42187500000001
 40
0.42187500000001
 40
0.43750000000001
 40
0.43750000000001
 40
0.5000000000000093
 40
0.5000000000000093
 40
0.5312500000000091
 40
0.5312500000000091
 40
0.5468750000000091
 40
0.5468750000000091
 40
0.5625000000000091
 40
0.5625000000000091
 40
0.6250000000000085
 40
0.6250000000000085
 40
0.6406250000000081
 40
0.6406250000000081
 40
0.6562500000000077
 40
0.6562500000000077
 40
0.6875000000000073
 40
0.6875000000000073
 40
0.7500000000000064
 40
0.7500000000000064
 40
0.7656250000000063
 40
0.7656250000000063
 40
0.7812500000000059
 40
0.7812500000000059
 40
0.8125000000000052
 40
0.8125000000000052
 40
0.8437500000000046
 40
0.8437500000000046
 40
0.8750000000000038
 40
0.8750000000000038
 40
0.9375000000000018
 40
0.9375000000000018
 40
0.9531250000000014
 40
0.9531250000000014
 40
0.9687500000000011
 40
0.9687500000000011
 40
1.0
 40
1.0
 40
1.0
 40
1.0
 10
489.742110959962
 20
421.688698697967
 30
0.0
 10
485.778585294778
 20
421.6886987015613
 30
0.0
 10
481.8812868611748
 20
422.0775778197639
 30
0.0
 10
476.1306171628295
 20
423.2203584845643
 30
0.0
 10
474.2297249874173
 20
423.6952222753726
 30
0.0
 10
471.4029306144598
 20
424.5516370022843
 30
0.0
 10
470.4631649666613
 20
424.8617503993207
 30
0.0
 10
468.599151289763
 20
425.5286144055523
 30
0.0
 10
467.679168528112
 20
425.8837431216704
 30
0.0
 10
463.1381536893779
 20
427.7656662995369
 30
0.0
 10
459.692142125395
 20
429.6082746000472
 30
0.0
 10
455.6160301415753
 20
432.3290866194545
 30
0.0
 10
454.8124820337774
 20
432.8943145656298
 30
0.0
 10
453.2291073559676
 20
434.0675745258371
 30
0.0
 10
452.44727501365
 20
434.6772844210913
 30
0.0
 10
450.1538792905299
 20
436.5590702094578
 30
0.0
 10
448.6987003686664
 20
437.879247637911
 30
0.0
 10
444.5475052654628
 20
442.0305866694957
 30
0.0
 10
442.0638022381145
 20
445.0507492425805
 30
0.0
 10
439.3223208437995
 20
449.1492259239801
 30
0.0
 10
438.7909846818761
 20
449.9876147502759
 30
0.0
 10
437.7749426279979
 20
451.6822092679994
 30
0.0
 10
437.2897310191972
 20
452.5388825759323
 30
0.0
 10
435.9012609829272
 20
455.1365112867862
 30
0.0
 10
434.228755765369
 20
458.6735089729843
 30
0.0
 10
432.9084100945244
 20
462.3552655120056
 30
0.0
 10
432.0520043356012
 20
465.1716047906656
 30
0.0
 10
431.788884177969
 20
466.1195711048369
 30
0.0
 10
431.3081393841392
 20
468.0342051416355
 30
0.0
 10
431.0902076653804
 20
469.0029410772149
 30
0.0
 10
430.1264017585654
 20
473.84302371869
 30
0.0
 10
429.7447685645961
 20
477.7356057199552
 30
0.0
 10
429.7408027871408
 20
483.6044289250045
 30
0.0
 10
429.8349102410104
 20
485.5657309602657
 30
0.0
 10
430.1235616612394
 20
488.5154544387013
 30
0.0
 10
430.2446609928208
 20
489.5006094310332
 30
0.0
 10
430.5335210966574
 20
491.4516587165415
 30
0.0
 10
430.7014929359094
 20
492.4202930052724
 30
0.0
 10
431.6571040845305
 20
497.2295854609043
 30
0.0
 10
432.7886992599386
 20
500.9695725252334
 30
0.0
 10
434.6645840680246
 20
505.509513668283
 30
0.0
 10
435.0630375490957
 20
506.4106891830852
 30
0.0
 10
435.9074185421162
 20
508.199145223535
 30
0.0
 10
436.3528065311841
 20
509.0849219867304
 30
0.0
 10
437.7453485747012
 20
511.6923689824209
 30
0.0
 10
438.7530995769433
 20
513.3737376446268
 30
0.0
 10
442.0087900042924
 20
518.2511656144578
 30
0.0
 10
444.4868991081108
 20
521.2821730745077
 30
0.0
 10
447.9840445598426
 20
524.7844493538834
 30
0.0
 10
448.7004423441854
 20
525.4671268426897
 30
0.0
 10
450.1588860177641
 20
526.7901137192715
 30
0.0
 10
450.9021179380229
 20
527.4316182459598
 30
0.0
 10
453.1732219411809
 20
529.2970525419396
 30
0.0
 10
454.7424048813129
 20
530.4620419714225
 30
0.0
 10
457.9901136486001
 20
532.6360156710408
 30
0.0
 10
459.6686361307517
 20
533.645004713793
 30
0.0
 10
463.1373095395003
 20
535.5037167214573
 30
0.0
 10
464.9355336024669
 20
536.3559210538041
 30
0.0
 10
470.3878863664546
 20
538.6176010258679
 30
0.0
 10
474.1272679004686
 20
539.7536024803679
 30
0.0
 10
478.9304589715109
 20
540.7146925790512
 30
0.0
 10
479.8976035611166
 20
540.8837580261572
 30
0.0
 10
481.8451012663697
 20
541.1748871193571
 30
0.0
 10
482.8265742468054
 20
541.2970587371935
 30
0.0
 10
485.783745357518
 20
541.5907544450382
 30
0.0
 10
487.7603480732989
 20
541.6886986961571
 30
0.0
 10
489.7421109595793
 20
541.6886986979669
 30
0.0
  0
SPLINE
  5
FF
330
1F
100
AcDbEntity
  8
0
  6
Continuous
 62
     8
370
    25
100
AcDbSpline
210
0.0
220
0.0
230
1.0
 70
     8
 71
     3
 72
    12
 73
     8
 74
     0
 42
0.000000001
 43
0.00000001
 40
0.0
 40
0.0
 40
0.0
 40
0.0
 40
0.2636005345609498
 40
0.453113070526515
 40
0.6509913616037081
 40
0.8488696526565249
 40
1.0
 40
1.0
 40
1.0
 40
1.0
 10
522.6990565334864
 20
466.447412675279
 30
0.0
 10
522.8185456685002
 20
466.3921536646661
 30
0.0
 10
523.0239401262572
 20
466.2971668315977
 30
0.0
 10
523.2708802431438
 20
466.1829667796059
 30
0.0
 10
523.4382841021358
 20
466.1055491041267
 30
0.0
 10
523.538008107922
 20
466.0594306890712
 30
0.0
 10
523.5434264443575
 20
466.0569249223945
 30
0.0
 10
523.5457727331809
 20
466.0558398564489
 30
0.0
  0
SPLINE
  5
100
330
1F
100
AcDbEntity
  8
0
  6
Continuous
 62
     8
370
    25
100
AcDbSpline
210
0.0
220
0.0
230
1.0
 70
     8
 71
     3
 72
    12
 73
     8
 74
     0
 42
0.000000001
 43
0.00000001
 40
0.0
 40
0.0
 40
0.0
 40
0.0
 40
0.1511297784501624
 40
0.349007742624028
 40
0.546885706822276
 40
0.736397929728437
 40
0.9999999999999999
 40
0.9999999999999999
 40
0.9999999999999999
 40
0.9999999999999999
 10
455.9384493334961
 20
497.321557521944
 30
0.0
 10
455.9407956214305
 20
497.3204724564176
 30
0.0
 10
455.9462139623023
 20
497.3179666877077
 30
0.0
 10
456.0459379318949
 20
497.2718482892193
 30
0.0
 10
456.2133417831959
 20
497.1944306179693
 30
0.0
 10
456.4602826554594
 20
497.0802302139321
 30
0.0
 10
456.6656781328344
 20
496.9852429181708
 30
0.0
 10
456.7851682347264
 20
496.9299834655577
 30
0.0
  0
SPLINE
  5
101
330
1F
100
AcDbEntity
  8
0
  6
Continuous
 62
     8
370
    25
100
AcDbSpline
210
0.0
220
0.0
230
1.0
 70
     8
 71
     3
 72
    12
 73
     8
 74
     0
 42
0.000000001
 43
0.00000001
 40
0.0
 40
0.0
 40
0.0
 40
0.0
 40
0.2636005345609498
 40
0.453113070526515
 40
0.6509913616037081
 40
0.8488696526565249
 40
1.0
 40
1.0
 40
1.0
 40
1.0
 10
882.6990565334864
 20
466.4474126752789
 30
0.0
 10
882.8185456685003
 20
466.392153664666
 30
0.0
 10
883.0239401262573
 20
466.2971668315977
 30
0.0
 10
883.2708802431439
 20
466.1829667796059
 30
0.0
 10
883.4382841021359
 20
466.1055491041267
 30
0.0
 10
883.538008107922
 20
466.0594306890711
 30
0.0
 10
883.5434264443576
 20
466.0569249223944
 30
0.0
 10
883.5457727331809
 20
466.0558398564489
 30
0.0
  0
SPLINE
  5
102
330
1F
100
AcDbEntity
  8
0
  6
Continuous
 62
     8
370
    25
100
AcDbSpline
210
0.0
220
0.0
230
1.0
 70
     8
 71
     3
 72
    12
 73
     8
 74
     0
 42
0.000000001
 43
0.00000001
 40
0.0
 40
0.0
 40
0.0
 40
0.0
 40
0.1511297784501624
 40
0.349007742624028
 40
0.546885706822276
 40
0.736397929728437
 40
0.9999999999999999
 40
0.9999999999999999
 40
0.9999999999999999
 40
0.9999999999999999
 10
815.9384493334962
 20
497.3215575219439
 30
0.0
 10
815.9407956214307
 20
497.3204724564175
 30
0.0
 10
815.9462139623024
 20
497.3179666877077
 30
0.0
 10
816.045937931895
 20
497.2718482892192
 30
0.0
 10
816.2133417831959
 20
497.1944306179692
 30
0.0
 10
816.4602826554593
 20
497.080230213932
 30
0.0
 10
816.6656781328345
 20
496.9852429181707
 30
0.0
 10
816.7851682347265
 20
496.9299834655577
 30
0.0
  0
LINE
  5
103
330
1F
100
AcDbEntity
  8
0
  6
Continuous
 62
     8
370
    25
100
AcDbLine
 10
835.7234566862
 20
539.98849116
 30
0.0
 11
834.9921110144
 21
539.9884911599
 31
0.0
  0
LINE
  5
104
330
1F
100
AcDbEntity
  8
0
  6
Continuous
 62
     8
370
    25
100
AcDbLine
 10
475.7234585361
 20
539.98849116
 30
0.0
 11
474.9921110144
 21
539.9884911599
 31
0.0
  0
ENDSEC
  0
SECTION
  2
OBJECTS
  0
DICTIONARY
  5
C
330
0
100
AcDbDictionary
281
     1
  3
ACAD_GROUP
350
D
  3
ACAD_LAYOUT
350
1A
  3
ACAD_MLINESTYLE
350
17
  3
ACAD_PLOTSETTINGS
350
19
  3
ACAD_PLOTSTYLENAME
350
E
  3
ACAD_SCALELIST
350
47
  0
DICTIONARY
  5
D
102
{ACAD_REACTORS
330
C
102
}
330
C
100
AcDbDictionary
281
     1
  0
DICTIONARY
  5
1A
102
{ACAD_REACTORS
330
C
102
}
330
C
100
AcDbDictionary
281
     1
  3
Layout1
350
1E
  3
Layout2
350
26
  3
Model
350
22
  0
DICTIONARY
  5
17
102
{ACAD_REACTORS
330
C
102
}
330
C
100
AcDbDictionary
281
     1
  3
Standard
350
18
  0
DICTIONARY
  5
19
102
{ACAD_REACTORS
330
C
102
}
330
C
100
AcDbDictionary
281
     1
  0
ACDBDICTIONARYWDFLT
  5
E
102
{ACAD_REACTORS
330
C
102
}
330
C
100
AcDbDictionary
281
     1
  3
Normal
350
F
100
AcDbDictionaryWithDefault
340
F
  0
DICTIONARY
  5
47
102
{ACAD_REACTORS
330
C
102
}
330
C
100
AcDbDictionary
281
     1
  3
A0
350
48
  3
A1
350
49
  3
A2
350
4A
  3
A3
350
4B
  3
A4
350
4C
  3
A5
350
4D
  3
A6
350
4E
  3
A7
350
4F
  3
A8
350
50
  3
A9
350
51
  3
B0
350
52
  3
B1
350
53
  3
B2
350
54
  3
B3
350
55
  3
B4
350
56
  3
B5
350
57
  3
B6
350
58
  3
B7
350
59
  3
B8
350
5A
  3
B9
350
5B
  3
C0
350
5C
  3
C1
350
5D
  3
C2
350
5E
  3
C3
350
5F
  3
C4
350
60
  3
C5
350
61
  3
C6
350
62
  3
C7
350
63
  3
C8
350
64
  3
C9
350
65
  3
D0
350
66
  3
D1
350
67
  3
D2
350
68
  0
LAYOUT
  5
1E
102
{ACAD_REACTORS
330
1A
102
}
330
1A
100
AcDbPlotSettings
  1

  2
none_device
  4

  6

 40
0.0
 41
0.0
 42
0.0
 43
0.0
 44
0.0
 45
0.0
 46
0.0
 47
0.0
 48
0.0
 49
0.0
140
0.0
141
0.0
142
1.0
143
1.0
 70
   688
 72
     1
 73
     0
 74
     5
  7

 75
    16
147
1.0
148
0.0
149
0.0
100
AcDbLayout
  1
Layout1
 70
     1
 71
     1
 10
0.0
 20
0.0
 11
420.0
 21
297.0
 12
0.0
 22
0.0
 32
0.0
 14
1.0000000000E+20
 24
1.0000000000E+20
 34
1.0000000000E+20
 15
-1.0000000000E+20
 25
-1.0000000000E+20
 35
-1.0000000000E+20
146
0.0
 13
0.0
 23
0.0
 33
0.0
 16
1.0
 26
0.0
 36
0.0
 17
0.0
 27
1.0
 37
0.0
 76
     0
330
1B
  0
LAYOUT
  5
26
102
{ACAD_REACTORS
330
1A
102
}
330
1A
100
AcDbPlotSettings
  1

  2
none_device
  4

  6

 40
0.0
 41
0.0
 42
0.0
 43
0.0
 44
0.0
 45
0.0
 46
0.0
 47
0.0
 48
0.0
 49
0.0
140
0.0
141
0.0
142
1.0
143
1.0
 70
   688
 72
     1
 73
     0
 74
     5
  7

 75
    16
147
1.0
148
0.0
149
0.0
100
AcDbLayout
  1
Layout2
 70
     1
 71
     2
 10
0.0
 20
0.0
 11
0.0
 21
0.0
 12
0.0
 22
0.0
 32
0.0
 14
0.0
 24
0.0
 34
0.0
 15
0.0
 25
0.0
 35
0.0
146
0.0
 13
0.0
 23
0.0
 33
0.0
 16
1.0
 26
0.0
 36
0.0
 17
0.0
 27
1.0
 37
0.0
 76
     0
330
23
  0
LAYOUT
  5
22
102
{ACAD_REACTORS
330
1A
102
}
330
1A
100
AcDbPlotSettings
  1

  2
none_device
  4
Letter_(8.50_x_11.00_Inches)
  6

 40
6.35
 41
6.35
 42
6.35000508
 43
6.35000508
 44
215.9
 45
279.4
 46
0.0
 47
0.0
 48
0.0
 49
0.0
140
0.0
141
0.0
142
1.0
143
1.0
 70
  1712
 72
     1
 73
     0
 74
     0
  7

 75
     0
147
1.0
148
0.0
149
0.0
100
AcDbLayout
  1
Model
 70
     1
 71
     0
 10
0.0
 20
0.0
 11
1200.0
 21
800.0
 12
0.0
 22
0.0
 32
0.0
 14
0.0
 24
0.0
 34
0.0
 15
1200.0
 25
800.0
 35
0.0
146
0.0
 13
0.0
 23
0.0
 33
0.0
 16
1.0
 26
0.0
 36
0.0
 17
0.0
 27
1.0
 37
0.0
 76
     0
330
1F
331
29
  0
MLINESTYLE
  5
18
102
{ACAD_REACTORS
330
17
102
}
330
17
100
AcDbMlineStyle
  2
Standard
 70
     0
  3

 62
   256
 51
90.0
 52
90.0
 71
     2
 49
0.5
 62
   256
  6
BYLAYER
 49
-0.5
 62
   256
  6
BYLAYER
  0
ACDBPLACEHOLDER
  5
F
102
{ACAD_REACTORS
330
E
102
}
330
E
  0
SCALE
  5
48
102
{ACAD_REACTORS
330
47
102
}
330
47
100
AcDbScale
 70
     0
300
1:1
140
1.0
141
1.0
290
     1
  0
SCALE
  5
49
102
{ACAD_REACTORS
330
47
102
}
330
47
100
AcDbScale
 70
     0
300
1:2
140
1.0
141
2.0
290
     0
  0
SCALE
  5
4A
102
{ACAD_REACTORS
330
47
102
}
330
47
100
AcDbScale
 70
     0
300
1:4
140
1.0
141
4.0
290
     0
  0
SCALE
  5
4B
102
{ACAD_REACTORS
330
47
102
}
330
47
100
AcDbScale
 70
     0
300
1:5
140
1.0
141
5.0
290
     0
  0
SCALE
  5
4C
102
{ACAD_REACTORS
330
47
102
}
330
47
100
AcDbScale
 70
     0
300
1:8
140
1.0
141
8.0
290
     0
  0
SCALE
  5
4D
102
{ACAD_REACTORS
330
47
102
}
330
47
100
AcDbScale
 70
     0
300
1:10
140
1.0
141
10.0
290
     0
  0
SCALE
  5
4E
102
{ACAD_REACTORS
330
47
102
}
330
47
100
AcDbScale
 70
     0
300
1:16
140
1.0
141
16.0
290
     0
  0
SCALE
  5
4F
102
{ACAD_REACTORS
330
47
102
}
330
47
100
AcDbScale
 70
     0
300
1:20
140
1.0
141
20.0
290
     0
  0
SCALE
  5
50
102
{ACAD_REACTORS
330
47
102
}
330
47
100
AcDbScale
 70
     0
300
1:30
140
1.0
141
30.0
290
     0
  0
SCALE
  5
51
102
{ACAD_REACTORS
330
47
102
}
330
47
100
AcDbScale
 70
     0
300
1:40
140
1.0
141
40.0
290
     0
  0
SCALE
  5
52
102
{ACAD_REACTORS
330
47
102
}
330
47
100
AcDbScale
 70
     0
300
1:50
140
1.0
141
50.0
290
     0
  0
SCALE
  5
53
102
{ACAD_REACTORS
330
47
102
}
330
47
100
AcDbScale
 70
     0
300
1:100
140
1.0
141
100.0
290
     0
  0
SCALE
  5
54
102
{ACAD_REACTORS
330
47
102
}
330
47
100
AcDbScale
 70
     0
300
2:1
140
2.0
141
1.0
290
     0
  0
SCALE
  5
55
102
{ACAD_REACTORS
330
47
102
}
330
47
100
AcDbScale
 70
     0
300
4:1
140
4.0
141
1.0
290
     0
  0
SCALE
  5
56
102
{ACAD_REACTORS
330
47
102
}
330
47
100
AcDbScale
 70
     0
300
8:1
140
8.0
141
1.0
290
     0
  0
SCALE
  5
57
102
{ACAD_REACTORS
330
47
102
}
330
47
100
AcDbScale
 70
     0
300
10:1
140
10.0
141
1.0
290
     0
  0
SCALE
  5
58
102
{ACAD_REACTORS
330
47
102
}
330
47
100
AcDbScale
 70
     0
300
100:1
140
100.0
141
1.0
290
     0
  0
SCALE
  5
59
102
{ACAD_REACTORS
330
47
102
}
330
47
100
AcDbScale
 70
     0
300
1/128" = 1'-0"
140
0.0078125
141
12.0
290
     0
  0
SCALE
  5
5A
102
{ACAD_REACTORS
330
47
102
}
330
47
100
AcDbScale
 70
     0
300
1/64" = 1'-0"
140
0.015625
141
12.0
290
     0
  0
SCALE
  5
5B
102
{ACAD_REACTORS
330
47
102
}
330
47
100
AcDbScale
 70
     0
300
1/32" = 1'-0"
140
0.03125
141
12.0
290
     0
  0
SCALE
  5
5C
102
{ACAD_REACTORS
330
47
102
}
330
47
100
AcDbScale
 70
     0
300
1/16" = 1'-0"
140
0.0625
141
12.0
290
     0
  0
SCALE
  5
5D
102
{ACAD_REACTORS
330
47
102
}
330
47
100
AcDbScale
 70
     0
300
3/32" = 1'-0"
140
0.09375
141
12.0
290
     0
  0
SCALE
  5
5E
102
{ACAD_REACTORS
330
47
102
}
330
47
100
AcDbScale
 70
     0
300
1/8" = 1'-0"
140
0.125
141
12.0
290
     0
  0
SCALE
  5
5F
102
{ACAD_REACTORS
330
47
102
}
330
47
100
AcDbScale
 70
     0
300
3/16" = 1'-0"
140
0.1875
141
12.0
290
     0
  0
SCALE
  5
60
102
{ACAD_REACTORS
330
47
102
}
330
47
100
AcDbScale
 70
     0
300
1/4" = 1'-0"
140
0.25
141
12.0
290
     0
  0
SCALE
  5
61
102
{ACAD_REACTORS
330
47
102
}
330
47
100
AcDbScale
 70
     0
300
3/8" = 1'-0"
140
0.375
141
12.0
290
     0
  0
SCALE
  5
62
102
{ACAD_REACTORS
330
47
102
}
330
47
100
AcDbScale
 70
     0
300
1/2" = 1'-0"
140
0.5
141
12.0
290
     0
  0
SCALE
  5
63
102
{ACAD_REACTORS
330
47
102
}
330
47
100
AcDbScale
 70
     0
300
3/4" = 1'-0"
140
0.75
141
12.0
290
     0
  0
SCALE
  5
64
102
{ACAD_REACTORS
330
47
102
}
330
47
100
AcDbScale
 70
     0
300
1" = 1'-0"
140
1.0
141
12.0
290
     0
  0
SCALE
  5
65
102
{ACAD_REACTORS
330
47
102
}
330
47
100
AcDbScale
 70
     0
300
1-1/2" = 1'-0"
140
1.5
141
12.0
290
     0
  0
SCALE
  5
66
102
{ACAD_REACTORS
330
47
102
}
330
47
100
AcDbScale
 70
     0
300
3" = 1'-0"
140
3.0
141
12.0
290
     0
  0
SCALE
  5
67
102
{ACAD_REACTORS
330
47
102
}
330
47
100
AcDbScale
 70
     0
300
6" = 1'-0"
140
6.0
141
12.0
290
     0
  0
SCALE
  5
68
102
{ACAD_REACTORS
330
47
102
}
330
47
100
AcDbScale
 70
     0
300
1'-0" = 1'-0"
140
12.0
141
12.0
290
     0
  0
ENDSEC
  0
EOF
