  0
SECTION
  2
HEADER
  9
$ACADVER
  1
AC1015
  9
$ACADMAINTVER
 70
     6
  9
$DWGCODEPAGE
  3
ANSI_1252
  9
$INSBASE
 10
0.0
 20
0.0
 30
0.0
  9
$EXTMIN
 10
0.0
 20
0.0
 30
0.0
  9
$EXTMAX
 10
1100.0
 20
800.0
 30
0.0
  9
$LIMMIN
 10
0.0
 20
0.0
  9
$LIMMAX
 10
1100.0
 20
800.0
  9
$ORTHOMODE
 70
     0
  9
$REGENMODE
 70
     1
  9
$FILLMODE
 70
     1
  9
$QTEXTMODE
 70
     0
  9
$MIRRTEXT
 70
     1
  9
$LTSCALE
 40
1.0
  9
$ATTMODE
 70
     1
  9
$TEXTSIZE
 40
5.0
  9
$TRACEWID
 40
1.0
  9
$TEXTSTYLE
  7
Standard
  9
$CLAYER
  8
0
  9
$CELTYPE
  6
ByLayer
  9
$CECOLOR
 62
   256
  9
$CELTSCALE
 40
1.0
  9
$DISPSILH
 70
     0
  9
$DIMSCALE
 40
1.0
  9
$DIMASZ
 40
6.0
  9
$DIMEXO
 40
1.0
  9
$DIMDLI
 40
3.75
  9
$DIMRND
 40
0.0
  9
$DIMDLE
 40
0.0
  9
$DIMEXE
 40
1.0
  9
$DIMTP
 40
0.0
  9
$DIMTM
 40
0.0
  9
$DIMTXT
 40
5.0
  9
$DIMCEN
 40
2.5
  9
$DIMTSZ
 40
0.0
  9
$DIMTOL
 70
     0
  9
$DIMLIM
 70
     0
  9
$DIMTIH
 70
     1
  9
$DIMTOH
 70
     1
  9
$DIMSE1
 70
     0
  9
$DIMSE2
 70
     0
  9
$DIMTAD
 70
     1
  9
$DIMZIN
 70
     0
  9
$DIMBLK
  1

  9
$DIMASO
 70
     1
  9
$DIMSHO
 70
     1
  9
$DIMPOST
  1

  9
$DIMAPOST
  1

  9
$DIMALT
 70
     0
  9
$DIMALTD
 70
     3
  9
$DIMALTF
 40
0.0393700787
  9
$DIMLFAC
 40
1.0
  9
$DIMTOFL
 70
     1
  9
$DIMTVP
 40
0.0
  9
$DIMTIX
 70
     0
  9
$DIMSOXD
 70
     0
  9
$DIMSAH
 70
     0
  9
$DIMBLK1
  1

  9
$DIMBLK2
  1

  9
$DIMSTYLE
  2
ISO-25
  9
$DIMCLRD
 70
     0
  9
$DIMCLRE
 70
     0
  9
$DIMCLRT
 70
     0
  9
$DIMTFAC
 40
1.0
  9
$DIMGAP
 40
1.524
  9
$DIMJUST
 70
     0
  9
$DIMSD1
 70
     0
  9
$DIMSD2
 70
     0
  9
$DIMTOLJ
 70
     0
  9
$DIMTZIN
 70
     0
  9
$DIMALTZ
 70
     0
  9
$DIMALTTZ
 70
     0
  9
$DIMUPT
 70
     0
  9
$DIMDEC
 70
     2
  9
$DIMTDEC
 70
     2
  9
$DIMALTU
 70
     2
  9
$DIMALTTD
 70
     3
  9
$DIMTXSTY
  7
Standard
  9
$DIMAUNIT
 70
     0
  9
$DIMADEC
 70
     2
  9
$DIMALTRND
 40
0.0
  9
$DIMAZIN
 70
     0
  9
$DIMDSEP
 70
    44
  9
$DIMATFIT
 70
     3
  9
$DIMFRAC
 70
     0
  9
$DIMLDRBLK
  1

  9
$DIMLUNIT
 70
     2
  9
$DIMLWD
 70
    -2
  9
$DIMLWE
 70
    -2
  9
$DIMTMOVE
 70
     0
  9
$LUNITS
 70
     2
  9
$LUPREC
 70
     2
  9
$SKETCHINC
 40
1.0
  9
$FILLETRAD
 40
10.0
  9
$AUNITS
 70
     0
  9
$AUPREC
 70
     2
  9
$MENU
  1
.
  9
$ELEVATION
 40
0.0
  9
$PELEVATION
 40
0.0
  9
$THICKNESS
 40
0.0
  9
$LIMCHECK
 70
     0
  9
$CHAMFERA
 40
0.0
  9
$CHAMFERB
 40
0.0
  9
$CHAMFERC
 40
0.0
  9
$CHAMFERD
 40
0.0
  9
$SKPOLY
 70
     0
  9
$TDCREATE
 40
2458582.644492859
  9
$TDUCREATE
 40
2458582.519492859
  9
$TDUPDATE
 40
2458582.644493981
  9
$TDUUPDATE
 40
2458582.519493981
  9
$TDINDWG
 40
0.0000000116
  9
$TDUSRTIMER
 40
0.0000000116
  9
$USRTIMER
 70
     1
  9
$ANGBASE
 50
0.0
  9
$ANGDIR
 70
     0
  9
$PDMODE
 70
     0
  9
$PDSIZE
 40
-1.0
  9
$PLINEWID
 40
0.0
  9
$SPLFRAME
 70
     0
  9
$SPLINETYPE
 70
     6
  9
$SPLINESEGS
 70
     8
  9
$HANDSEED
  5
123
  9
$SURFTAB1
 70
     6
  9
$SURFTAB2
 70
     6
  9
$SURFTYPE
 70
     6
  9
$SURFU
 70
     6
  9
$SURFV
 70
     6
  9
$UCSBASE
  2

  9
$UCSNAME
  2

  9
$UCSORG
 10
0.0
 20
0.0
 30
0.0
  9
$UCSXDIR
 10
1.0
 20
0.0
 30
0.0
  9
$UCSYDIR
 10
0.0
 20
1.0
 30
0.0
  9
$UCSORTHOREF
  2

  9
$UCSORTHOVIEW
 70
     0
  9
$UCSORGTOP
 10
0.0
 20
0.0
 30
0.0
  9
$UCSORGBOTTOM
 10
0.0
 20
0.0
 30
0.0
  9
$UCSORGLEFT
 10
0.0
 20
0.0
 30
0.0
  9
$UCSORGRIGHT
 10
0.0
 20
0.0
 30
0.0
  9
$UCSORGFRONT
 10
0.0
 20
0.0
 30
0.0
  9
$UCSORGBACK
 10
0.0
 20
0.0
 30
0.0
  9
$PUCSBASE
  2

  9
$PUCSNAME
  2

  9
$PUCSORG
 10
0.0
 20
0.0
 30
0.0
  9
$PUCSXDIR
 10
1.0
 20
0.0
 30
0.0
  9
$PUCSYDIR
 10
0.0
 20
1.0
 30
0.0
  9
$PUCSORTHOREF
  2

  9
$PUCSORTHOVIEW
 70
     0
  9
$PUCSORGTOP
 10
0.0
 20
0.0
 30
0.0
  9
$PUCSORGBOTTOM
 10
0.0
 20
0.0
 30
0.0
  9
$PUCSORGLEFT
 10
0.0
 20
0.0
 30
0.0
  9
$PUCSORGRIGHT
 10
0.0
 20
0.0
 30
0.0
  9
$PUCSORGFRONT
 10
0.0
 20
0.0
 30
0.0
  9
$PUCSORGBACK
 10
0.0
 20
0.0
 30
0.0
  9
$USERI1
 70
     0
  9
$USERI2
 70
     0
  9
$USERI3
 70
     0
  9
$USERI4
 70
     0
  9
$USERI5
 70
     0
  9
$USERR1
 40
0.0
  9
$USERR2
 40
0.0
  9
$USERR3
 40
0.0
  9
$USERR4
 40
0.0
  9
$USERR5
 40
0.0
  9
$WORLDVIEW
 70
     1
  9
$SHADEDGE
 70
     3
  9
$SHADEDIF
 70
    70
  9
$TILEMODE
 70
     1
  9
$MAXACTVP
 70
    64
  9
$PINSBASE
 10
0.0
 20
0.0
 30
0.0
  9
$PLIMCHECK
 70
     0
  9
$PEXTMIN
 10
1.0000000000E+20
 20
1.0000000000E+20
 30
1.0000000000E+20
  9
$PEXTMAX
 10
-1.0000000000E+20
 20
-1.0000000000E+20
 30
-1.0000000000E+20
  9
$PLIMMIN
 10
0.0
 20
0.0
  9
$PLIMMAX
 10
420.0
 20
297.0
  9
$UNITMODE
 70
     0
  9
$VISRETAIN
 70
     1
  9
$PLINEGEN
 70
     0
  9
$PSLTSCALE
 70
     1
  9
$TREEDEPTH
 70
  3020
  9
$CMLSTYLE
  2
Standard
  9
$CMLJUST
 70
     0
  9
$CMLSCALE
 40
20.0
  9
$PROXYGRAPHICS
 70
     1
  9
$MEASUREMENT
 70
     1
  9
$CELWEIGHT
370
    -1
  9
$ENDCAPS
280
     0
  9
$JOINSTYLE
280
     0
  9
$LWDISPLAY
290
     1
  9
$INSUNITS
 70
     4
  9
$HYPERLINKBASE
  1

  9
$STYLESHEET
  1

  9
$XEDIT
290
     1
  9
$CEPSNTYPE
380
     0
  9
$PSTYLEMODE
290
     1
  9
$FINGERPRINTGUID
  2
{5FCA49BE-3ADE-42D8-BB2D-FF028CA82FD0}
  9
$VERSIONGUID
  2
{FAEB1C32-E019-11D5-929B-00C0DF256EC4}
  9
$EXTNAMES
290
     1
  9
$PSVPSCALE
 40
0.0
  9
$OLESTARTUP
290
     0
  0
ENDSEC
  0
SECTION
  2
CLASSES
  0
CLASS
  1
ACDBDICTIONARYWDFLT
  2
AcDbDictionaryWithDefault
  3
ObjectDBX Classes
 90
        0
280
     0
281
     0
  0
CLASS
  1
VISUALSTYLE
  2
AcDbVisualStyle
  3
ObjectDBX Classes
 90
     4095
280
     0
281
     0
  0
CLASS
  1
MATERIAL
  2
AcDbMaterial
  3
ObjectDBX Classes
 90
     1153
280
     0
281
     0
  0
CLASS
  1
SCALE
  2
AcDbScale
  3
ObjectDBX Classes
 90
     1153
280
     0
281
     0
  0
CLASS
  1
TABLESTYLE
  2
AcDbTableStyle
  3
ObjectDBX Classes
 90
     4095
280
     0
281
     0
  0
CLASS
  1
MLEADERSTYLE
  2
AcDbMLeaderStyle
  3
ACDB_MLEADERSTYLE_CLASS
 90
     4095
280
     0
281
     0
  0
CLASS
  1
SUN
  2
AcDbSun
  3
SCENEOE
 90
     1153
280
     0
281
     0
  0
CLASS
  1
ACDBPLACEHOLDER
  2
AcDbPlaceHolder
  3
ObjectDBX Classes
 90
        0
280
     0
281
     0
  0
CLASS
  1
LAYOUT
  2
AcDbLayout
  3
ObjectDBX Classes
 90
        0
280
     0
281
     0
  0
ENDSEC
  0
SECTION
  2
TABLES
  0
TABLE
  2
VPORT
  5
8
330
0
100
AcDbSymbolTable
 70
     1
  0
VPORT
  5
29
330
8
100
AcDbSymbolTableRecord
100
AcDbViewportTableRecord
  2
*Active
 70
     0
 10
0.0
 20
0.0
 11
1.0
 21
1.0
 12
550.0
 22
400.0
 13
0.0
 23
0.0
 14
10.0
 24
10.0
 15
10.0
 25
10.0
 16
0.0
 26
0.0
 36
1.0
 17
0.0
 27
0.0
 37
0.0
 40
800.0
 41
1.375
 42
50.0
 43
0.0
 44
0.0
 50
0.0
 51
0.0
 71
     0
 72
  2000
 73
     1
 74
     3
 75
     0
 76
     0
 77
     0
 78
     0
281
     0
 65
     1
110
0.0
120
0.0
130
0.0
111
1.0
121
0.0
131
0.0
112
0.0
122
1.0
132
0.0
 79
     0
146
0.0
  0
ENDTAB
  0
TABLE
  2
LTYPE
  5
5
330
0
100
AcDbSymbolTable
 70
     6
  0
LTYPE
  5
14
330
5
100
AcDbSymbolTableRecord
100
AcDbLinetypeTableRecord
  2
ByBlock
 70
     0
  3

 72
    65
 73
     0
 40
0.0
  0
LTYPE
  5
15
330
5
100
AcDbSymbolTableRecord
100
AcDbLinetypeTableRecord
  2
ByLayer
 70
     0
  3

 72
    65
 73
     0
 40
0.0
  0
LTYPE
  5
16
330
5
100
AcDbSymbolTableRecord
100
AcDbLinetypeTableRecord
  2
Continuous
 70
     0
  3
Solid line
 72
    65
 73
     0
 40
0.0
  0
LTYPE
  5
6E
330
5
100
AcDbSymbolTableRecord
100
AcDbLinetypeTableRecord
  2
HIDDEN
 70
     0
  3
Hidden __ __ __ __ __ __ __ __ __ __ __ __ __ __
 72
    65
 73
     2
 40
1.905
 49
1.27
 74
     0
 49
-0.635
 74
     0
  0
LTYPE
  5
6F
330
5
100
AcDbSymbolTableRecord
100
AcDbLinetypeTableRecord
  2
PHANTOM
 70
     0
  3
Phantom ______  __  __  ______  __  __  ______
 72
    65
 73
     6
 40
12.7
 49
6.35
 74
     0
 49
-1.27
 74
     0
 49
1.27
 74
     0
 49
-1.27
 74
     0
 49
1.27
 74
     0
 49
-1.27
 74
     0
  0
LTYPE
  5
70
330
5
100
AcDbSymbolTableRecord
100
AcDbLinetypeTableRecord
  2
CENTER
 70
     0
  3
Center ____ _ ____ _ ____ _ ____ _ ____ _ ____
 72
    65
 73
     4
 40
10.16
 49
6.35
 74
     0
 49
-1.27
 74
     0
 49
1.27
 74
     0
 49
-1.27
 74
     0
  0
LTYPE
  5
71
330
5
100
AcDbSymbolTableRecord
100
AcDbLinetypeTableRecord
  2
CENTERX2
 70
     0
  3
Center (2x) ________  __  ________  __  _____
 72
    65
 73
     4
 40
20.32
 49
12.7
 74
     0
 49
-2.54
 74
     0
 49
2.54
 74
     0
 49
-2.54
 74
     0
  0
LTYPE
  5
72
330
5
100
AcDbSymbolTableRecord
100
AcDbLinetypeTableRecord
  2
DOT2
 70
     0
  3
Dot (.5x) ........................................
 72
    65
 73
     2
 40
0.635
 49
0.0
 74
     0
 49
-0.635
 74
     0
  0
ENDTAB
  0
TABLE
  2
LAYER
  5
2
330
0
100
AcDbSymbolTable
 70
     2
  0
LAYER
  5
10
330
2
100
AcDbSymbolTableRecord
100
AcDbLayerTableRecord
  2
0
 70
     0
 62
     7
  6
Continuous
370
    -3
390
F
  0
LAYER
  5
73
330
2
100
AcDbSymbolTableRecord
100
AcDbLayerTableRecord
  2
TABLE_BL1
 70
     0
 62
   179
  6
Continuous
370
    -3
390
F
  0
ENDTAB
  0
TABLE
  2
STYLE
  5
3
330
0
100
AcDbSymbolTable
 70
     1
  0
STYLE
  5
11
330
3
100
AcDbSymbolTableRecord
100
AcDbTextStyleTableRecord
  2
Standard
 70
     0
 40
0.0
 41
1.0
 50
0.0
 71
     0
 42
5.0
  3
txt
  4

  0
ENDTAB
  0
TABLE
  2
VIEW
  5
6
330
0
100
AcDbSymbolTable
 70
     0
  0
ENDTAB
  0
TABLE
  2
UCS
  5
7
330
0
100
AcDbSymbolTable
 70
     0
  0
ENDTAB
  0
TABLE
  2
APPID
  5
9
330
0
100
AcDbSymbolTable
 70
     1
  0
APPID
  5
12
330
9
100
AcDbSymbolTableRecord
100
AcDbRegAppTableRecord
  2
ACAD
 70
     0
  0
ENDTAB
  0
TABLE
  2
DIMSTYLE
  5
A
330
0
100
AcDbSymbolTable
 70
     1
100
AcDbDimStyleTable
  0
DIMSTYLE
105
27
330
A
100
AcDbSymbolTableRecord
100
AcDbDimStyleTableRecord
  2
ISO-25
 70
     0
 41
2.5
 42
0.625
 43
3.75
 44
1.25
 73
     0
 74
     0
 77
     1
 78
     8
140
2.5
141
2.5
143
0.0393700787
147
0.625
171
     3
172
     1
178
     0
271
     2
272
     2
274
     3
278
    44
283
     0
284
     8
340
11
  0
ENDTAB
  0
TABLE
  2
BLOCK_RECORD
  5
1
330
0
100
AcDbSymbolTable
 70
     1
  0
BLOCK_RECORD
  5
1F
330
1
100
AcDbSymbolTableRecord
100
AcDbBlockTableRecord
  2
*Model_Space
340
22
  0
BLOCK_RECORD
  5
1B
330
1
100
AcDbSymbolTableRecord
100
AcDbBlockTableRecord
  2
*Paper_Space
340
1E
  0
BLOCK_RECORD
  5
23
330
1
100
AcDbSymbolTableRecord
100
AcDbBlockTableRecord
  2
*Paper_Space0
340
26
  0
ENDTAB
  0
ENDSEC
  0
SECTION
  2
BLOCKS
  0
BLOCK
  5
20
330
1F
100
AcDbEntity
  8
0
100
AcDbBlockBegin
  2
*Model_Space
 70
     0
 10
0.0
 20
0.0
 30
0.0
  3
*Model_Space
  1

  0
ENDBLK
  5
21
330
1F
100
AcDbEntity
  8
0
100
AcDbBlockEnd
  0
BLOCK
  5
1C
330
1B
100
AcDbEntity
 67
     1
  8
0
100
AcDbBlockBegin
  2
*Paper_Space
 70
     0
 10
0.0
 20
0.0
 30
0.0
  3
*Paper_Space
  1

  0
ENDBLK
  5
1D
330
1B
100
AcDbEntity
 67
     1
  8
0
100
AcDbBlockEnd
  0
BLOCK
  5
24
330
23
100
AcDbEntity
  8
0
100
AcDbBlockBegin
  2
*Paper_Space0
 70
     0
 10
0.0
 20
0.0
 30
0.0
  3
*Paper_Space0
  1

  0
ENDBLK
  5
25
330
23
100
AcDbEntity
  8
0
100
AcDbBlockEnd
  0
ENDSEC
  0
SECTION
  2
ENTITIES
  0
SPLINE
  5
74
330
1F
100
AcDbEntity
  8
0
  6
Continuous
 62
     7
370
    25
100
AcDbSpline
210
0.0
220
0.0
230
1.0
 70
     8
 71
     3
 72
    29
 73
    25
 74
     0
 42
0.000000001
 43
0.00000001
 40
0.0
 40
0.0
 40
0.0
 40
0.0
 40
0.0349321631354283
 40
0.0633980285407037
 40
0.0838985159533177
 40
0.1410481431521512
 40
0.1993926908899441
 40
0.2579538315117713
 40
0.3167358757198299
 40
0.3756685474647751
 40
0.4347110888246789
 40
0.4938367429729972
 40
0.5530115400290162
 40
0.6120983739683525
 40
0.6710428046490821
 40
0.7298260542752785
 40
0.7884259177201797
 40
0.8467957052647651
 40
0.8655669917079725
 40
0.8834824415714925
 40
0.9012872408899826
 40
0.9267777787773815
 40
0.960493460345083
 40
1.0
 40
1.0
 40
1.0
 40
1.0
 10
400.9171400490092
 20
479.9492846401399
 30
0.0
 10
401.4501945026989
 20
481.2030962813488
 30
0.0
 10
402.4176296236718
 20
483.4786263109625
 30
0.0
 10
403.3014206484812
 20
486.6336108005344
 30
0.0
 10
404.1355212790139
 20
490.6839837076193
 30
0.0
 10
404.55984036104
 20
495.9984589867527
 30
0.0
 10
403.8697784852847
 20
502.7817487360467
 30
0.0
 10
401.9334327929327
 20
509.3882208948921
 30
0.0
 10
398.8083865866998
 20
515.5480863979587
 30
0.0
 10
394.5921969834611
 20
521.0434605275889
 30
0.0
 10
389.425286790616
 20
525.6766821133347
 30
0.0
 10
383.4836672919612
 20
529.281444867973
 30
0.0
 10
376.9765017485272
 20
531.7266642430983
 30
0.0
 10
370.1367052272993
 20
532.9263458737167
 30
0.0
 10
363.2085951131295
 20
532.8445249415862
 30
0.0
 10
356.4323481432543
 20
531.4933276002337
 30
0.0
 10
350.0410566872226
 20
528.9319906294473
 30
0.0
 10
345.5464247215109
 20
526.0818392246526
 30
0.0
 10
342.6799835976234
 20
523.734370051765
 30
0.0
 10
341.1167058418171
 20
522.2960184787274
 30
0.0
 10
339.4532639064386
 20
520.5850197535558
 30
0.0
 10
337.5153207169104
 20
518.2916353165776
 30
0.0
 10
335.284014852036
 20
515.1444234328537
 30
0.0
 10
333.9939508018074
 20
512.5956674426297
 30
0.0
 10
333.2979057255076
 20
511.2205038936799
 30
0.0
  0
SPLINE
  5
75
330
1F
100
AcDbEntity
  8
0
  6
Continuous
 62
     7
370
    25
100
AcDbSpline
210
0.0
220
0.0
230
1.0
 70
     8
 71
     3
 72
    29
 73
    25
 74
     0
 42
0.000000001
 43
0.00000001
 40
0.0
 40
0.0
 40
0.0
 40
0.0
 40
0.0349320710265102
 40
0.063398008288855
 40
0.0838985593605102
 40
0.1410481060249797
 40
0.1993926313976845
 40
0.2579538471995614
 40
0.3167358079564289
 40
0.375668483189818
 40
0.4347110067674811
 40
0.4938368824002606
 40
0.5530116941698361
 40
0.6120982749692268
 40
0.6710427091390962
 40
0.7298262122890272
 40
0.7884258306836253
 40
0.8467958370235322
 40
0.8655669475081245
 40
0.8834823768543452
 40
0.9012873549016647
 40
0.9267779186108525
 40
0.9604934299642977
 40
1.0
 40
1.0
 40
1.0
 40
1.0
 10
333.2979057255076
 20
511.2205038936799
 30
0.0
 10
332.7648681602918
 20
509.9666899402786
 30
0.0
 10
331.7974614482142
 20
507.6911504410576
 30
0.0
 10
330.9136181755464
 20
504.5361803500656
 30
0.0
 10
330.0795276147222
 20
500.4858011940717
 30
0.0
 10
329.6552592076894
 20
495.1713292545852
 30
0.0
 10
330.3452420001111
 20
488.3880308397218
 30
0.0
 10
332.2816634760828
 20
481.7815813278048
 30
0.0
 10
335.40664808007
 20
475.6216898985229
 30
0.0
 10
339.6228518568245
 20
470.1263269432573
 30
0.0
 10
344.7897629719227
 20
465.493095871873
 30
0.0
 10
350.7314044199395
 20
461.8883527862062
 30
0.0
 10
357.2385625173592
 20
459.4431219036805
 30
0.0
 10
364.0783512089726
 20
458.2434411335977
 30
0.0
 10
371.0064588506579
 20
458.3252683349682
 30
0.0
 10
377.7827130095316
 20
459.6764469604782
 30
0.0
 10
384.1739942235386
 20
462.2378188395703
 30
0.0
 10
388.6686559615139
 20
465.0879145393567
 30
0.0
 10
391.5350632289619
 20
467.4354270720779
 30
0.0
 10
393.0983419996516
 20
468.873774814503
 30
0.0
 10
394.7618148636031
 20
470.5847536214027
 30
0.0
 10
396.6997508650614
 20
472.8781475914473
 30
0.0
 10
398.9310287854742
 20
476.0253720896684
 30
0.0
 10
400.2210930126986
 20
478.5741211477201
 30
0.0
 10
400.9171400490092
 20
479.9492846401399
 30
0.0
  0
SPLINE
  5
76
330
1F
100
AcDbEntity
  8
0
  6
Continuous
 62
     7
370
    25
100
AcDbSpline
210
0.0
220
0.0
230
1.0
 70
     8
 71
     3
 72
    29
 73
    25
 74
     0
 42
0.000000001
 43
0.00000001
 40
0.0
 40
0.0
 40
0.0
 40
0.0
 40
0.0349321303718154
 40
0.0633981029943191
 40
0.0838985663312762
 40
0.141048190063996
 40
0.1993926592877808
 40
0.2579538490101182
 40
0.3167358966819312
 40
0.3756685630336135
 40
0.4347111087083285
 40
0.4938368294833338
 40
0.5530116682023144
 40
0.612098318870749
 40
0.6710428474726386
 40
0.7298261932077746
 40
0.7884258523280897
 40
0.846795832560979
 40
0.8655670004852587
 40
0.8834824202300379
 40
0.9012873318962896
 40
0.9267778893629253
 40
0.9604935028929016
 40
1.0
 40
1.0
 40
1.0
 40
1.0
 10
760.9170798483179
 20
479.9495975645249
 30
0.0
 10
761.4501263670129
 20
481.2034104729122
 30
0.0
 10
762.4175491303338
 20
483.4789476089375
 30
0.0
 10
763.3013766688465
 20
486.6339237282979
 30
0.0
 10
764.1354380765098
 20
490.6843086885419
 30
0.0
 10
764.5597534847676
 20
495.9987738585761
 30
0.0
 10
763.8697361061783
 20
502.7820702013474
 30
0.0
 10
761.9333446869124
 20
509.3885272806279
 30
0.0
 10
758.8083340509568
 20
515.5484098377631
 30
0.0
 10
754.592136018975
 20
521.0437793407973
 30
0.0
 10
749.4252297377142
 20
525.6770089732162
 30
0.0
 10
743.4835933117934
 20
529.281750720648
 30
0.0
 10
736.9764387436967
 20
531.7269866789799
 30
0.0
 10
730.1366411165392
 20
532.9266579083278
 30
0.0
 10
723.2085330568984
 20
532.8448366263267
 30
0.0
 10
716.4322821425033
 20
531.493648559022
 30
0.0
 10
710.0410019494699
 20
528.93229033325
 30
0.0
 10
705.546339361577
 20
526.0821891490548
 30
0.0
 10
702.6799330410062
 20
523.7346747769736
 30
0.0
 10
701.1166483099681
 20
522.2963344657367
 30
0.0
 10
699.4531872812823
 20
520.5853480613509
 30
0.0
 10
697.5152610270055
 20
518.2919460183747
 30
0.0
 10
695.2839464282539
 20
515.1447457709974
 30
0.0
 10
693.9938927546497
 20
512.595988892633
 30
0.0
 10
693.297852975397
 20
511.2208242686456
 30
0.0
  0
SPLINE
  5
77
330
1F
100
AcDbEntity
  8
0
  6
Continuous
 62
     7
370
    25
100
AcDbSpline
210
0.0
220
0.0
230
1.0
 70
     8
 71
     3
 72
    29
 73
    25
 74
     0
 42
0.000000001
 43
0.00000001
 40
0.0
 40
0.0
 40
0.0
 40
0.0
 40
0.0349321414680278
 40
0.0633981047682299
 40
0.0838985741019035
 40
0.1410481967288208
 40
0.1993926680510014
 40
0.2579538566402235
 40
0.3167359031746478
 40
0.3756685586859852
 40
0.4347110819410828
 40
0.4938368346344718
 40
0.5530116609976711
 40
0.6120983121049693
 40
0.6710428419347371
 40
0.7298261806720501
 40
0.7884258312628368
 40
0.846795823825081
 40
0.8655669711936506
 40
0.8834824004419943
 40
0.9012873228684336
 40
0.926777855528891
 40
0.9604935036573228
 40
1.0
 40
1.0
 40
1.0
 40
1.0
 10
693.297852975397
 20
511.2208242686456
 30
0.0
 10
692.7648041346331
 20
509.9670116904812
 30
0.0
 10
691.7973774372388
 20
507.69147581293
 30
0.0
 10
690.9135585326787
 20
504.536496919995
 30
0.0
 10
690.0794867614568
 20
500.4861143699507
 30
0.0
 10
689.6551758857116
 20
495.1716473347267
 30
0.0
 10
690.3451976612789
 20
488.3883520422169
 30
0.0
 10
692.28158770004
 20
481.7818943002378
 30
0.0
 10
695.4065993668481
 20
475.6220130566061
 30
0.0
 10
699.6227931700735
 20
470.1266410936462
 30
0.0
 10
704.7897050642522
 20
465.4934186022518
 30
0.0
 10
710.7313341553538
 20
461.8886642465856
 30
0.0
 10
717.2384937576863
 20
459.4434385159711
 30
0.0
 10
724.0782889536234
 20
458.2437570392541
 30
0.0
 10
731.0063975238435
 20
458.3255869298542
 30
0.0
 10
737.7826475698891
 20
459.676772995788
 30
0.0
 10
744.1739288357119
 20
462.2381310214346
 30
0.0
 10
748.6685873452288
 20
465.0882356362692
 30
0.0
 10
751.5350004104746
 20
467.4357422879931
 30
0.0
 10
753.0982794972605
 20
468.8740888473208
 30
0.0
 10
754.7617432367525
 20
470.5850721630925
 30
0.0
 10
756.6996720483436
 20
472.8784734288342
 30
0.0
 10
758.9309853210904
 20
476.0256751522749
 30
0.0
 10
760.2210399102001
 20
478.5744330516787
 30
0.0
 10
760.9170798483179
 20
479.9495975645249
 30
0.0
  0
ARC
  5
78
330
1F
100
AcDbEntity
  8
0
  6
Continuous
 62
     7
370
    25
100
AcDbCircle
 10
367.1075284925
 20
495.5848933934
 30
0.0
 40
36.310563994176
100
AcDbArc
 50
155.1813223123
 51
335.1813223292
  0
ARC
  5
79
330
1F
100
AcDbEntity
  8
0
  6
Continuous
 62
     7
370
    25
100
AcDbCircle
 10
367.1075284925
 20
495.5848933934
 30
0.0
 40
36.310563994176
100
AcDbArc
 50
335.1813223292
 51
155.1813223123
  0
ARC
  5
7A
330
1F
100
AcDbEntity
  8
0
  6
Continuous
 62
     7
370
    25
100
AcDbCircle
 10
727.1074652641
 20
495.585210936
 30
0.0
 40
36.31056399417603
100
AcDbArc
 50
155.1813223123
 51
335.1813223292
  0
ARC
  5
7B
330
1F
100
AcDbEntity
  8
0
  6
Continuous
 62
     7
370
    25
100
AcDbCircle
 10
727.1074652641
 20
495.585210936
 30
0.0
 40
36.31056399417603
100
AcDbArc
 50
335.1813223292
 51
155.1813223123
  0
SPLINE
  5
7C
330
1F
100
AcDbEntity
  8
0
  6
Continuous
 62
     7
370
    25
100
AcDbSpline
210
0.0
220
0.0
230
1.0
 70
     8
 71
     3
 72
     9
 73
     5
 74
     0
 42
0.000000001
 43
0.00000001
 40
0.0
 40
0.0
 40
0.0
 40
0.0
 40
0.5600011246272696
 40
1.0
 40
1.0
 40
1.0
 40
1.0
 10
336.6234574737833
 20
472.4001142354672
 30
0.0
 10
336.4685957733035
 20
472.2823337300301
 30
0.0
 10
336.1920575778082
 20
472.0720118212741
 30
0.0
 10
335.8277938232293
 20
471.7949698398958
 30
0.0
 10
335.6675181808756
 20
471.6730716796583
 30
0.0
  0
SPLINE
  5
7D
330
1F
100
AcDbEntity
  8
0
  6
Continuous
 62
     7
370
    25
100
AcDbSpline
210
0.0
220
0.0
230
1.0
 70
     8
 71
     3
 72
     9
 73
     5
 74
     0
 42
0.000000001
 43
0.00000001
 40
0.0
 40
0.0
 40
0.0
 40
0.0
 40
0.5599974556239522
 40
1.0
 40
1.0
 40
1.0
 40
1.0
 10
398.5475573959635
 20
519.4967131288712
 30
0.0
 10
398.3426758816491
 20
519.3408894419904
 30
0.0
 10
397.9768143723567
 20
519.0626315940021
 30
0.0
 10
397.7093174357678
 20
518.859186800044
 30
0.0
 10
397.5916181030558
 20
518.7696705730622
 30
0.0
  0
ARC
  5
7E
330
1F
100
AcDbEntity
  8
0
  6
Continuous
 62
     7
370
    25
100
AcDbCircle
 10
367.1075284925
 20
495.5848933934
 30
0.0
 40
38.29899805700006
100
AcDbArc
 50
37.2549368278
 51
217.2549368278
  0
ARC
  5
7F
330
1F
100
AcDbEntity
  8
0
  6
Continuous
 62
     7
370
    25
100
AcDbCircle
 10
367.1075284925
 20
495.5848933934
 30
0.0
 40
39.50000000000024
100
AcDbArc
 50
37.2549368278
 51
217.2549368513
  0
ARC
  5
80
330
1F
100
AcDbEntity
  8
0
  6
Continuous
 62
     7
370
    25
100
AcDbCircle
 10
367.1075284925
 20
495.5848933934
 30
0.0
 40
38.29899805700006
100
AcDbArc
 50
217.2549368278
 51
37.2549368278
  0
ARC
  5
81
330
1F
100
AcDbEntity
  8
0
  6
Continuous
 62
     7
370
    25
100
AcDbCircle
 10
367.1075284925
 20
495.5848933934
 30
0.0
 40
39.50000000000024
100
AcDbArc
 50
217.2549368513
 51
37.2549368176
  0
SPLINE
  5
82
330
1F
100
AcDbEntity
  8
0
  6
Continuous
 62
     7
370
    25
100
AcDbSpline
210
0.0
220
0.0
230
1.0
 70
     8
 71
     3
 72
     9
 73
     5
 74
     0
 42
0.000000001
 43
0.00000001
 40
0.0
 40
0.0
 40
0.0
 40
0.0
 40
0.560000728168321
 40
1.0
 40
1.0
 40
1.0
 40
1.0
 10
696.6233842345761
 20
472.4004308851426
 30
0.0
 10
696.4685232336778
 20
472.2826503073409
 30
0.0
 10
696.1919860916553
 20
472.0723281204629
 30
0.0
 10
695.8277225134699
 20
471.795286458753
 30
0.0
 10
695.6674468043135
 20
471.6733883293336
 30
0.0
  0
SPLINE
  5
83
330
1F
100
AcDbEntity
  8
0
  6
Continuous
 62
     7
370
    25
100
AcDbSpline
210
0.0
220
0.0
230
1.0
 70
     8
 71
     3
 72
     9
 73
     5
 74
     0
 42
0.000000001
 43
0.00000001
 40
0.0
 40
0.0
 40
0.0
 40
0.0
 40
0.5599982911176874
 40
1.0
 40
1.0
 40
1.0
 40
1.0
 10
758.5474822941111
 20
519.4970335038369
 30
0.0
 10
758.3425984398615
 20
519.3412058553465
 30
0.0
 10
757.9767332979508
 20
519.0629413481827
 30
0.0
 10
757.709242940765
 20
518.8595038117217
 30
0.0
 10
757.5915467264937
 20
518.7699909480278
 30
0.0
  0
ARC
  5
84
330
1F
100
AcDbEntity
  8
0
  6
Continuous
 62
     7
370
    25
100
AcDbCircle
 10
727.1074652641
 20
495.585210936
 30
0.0
 40
38.29899805700022
100
AcDbArc
 50
37.2549368278
 51
217.2549368278
  0
ARC
  5
85
330
1F
100
AcDbEntity
  8
0
  6
Continuous
 62
     7
370
    25
100
AcDbCircle
 10
727.1074652641
 20
495.585210936
 30
0.0
 40
39.50000000000028
100
AcDbArc
 50
37.2549368278
 51
217.2549368513
  0
ARC
  5
86
330
1F
100
AcDbEntity
  8
0
  6
Continuous
 62
     7
370
    25
100
AcDbCircle
 10
727.1074652641
 20
495.585210936
 30
0.0
 40
38.29899805700022
100
AcDbArc
 50
217.2549368278
 51
37.2549368278
  0
ARC
  5
87
330
1F
100
AcDbEntity
  8
0
  6
Continuous
 62
     7
370
    25
100
AcDbCircle
 10
727.1074652641
 20
495.585210936
 30
0.0
 40
39.50000000000028
100
AcDbArc
 50
217.2549368513
 51
37.2549368176
  0
CIRCLE
  5
88
330
1F
100
AcDbEntity
  8
0
  6
Continuous
 62
     7
370
    25
100
AcDbCircle
 10
727.1074652641
 20
495.585210936
 30
0.0
 40
56.9999999999999
  0
SPLINE
  5
89
330
1F
100
AcDbEntity
  8
0
  6
Continuous
 62
     7
370
    25
100
AcDbSpline
210
0.0
220
0.0
230
1.0
 70
     8
 71
     3
 72
    35
 73
    31
 74
     0
 42
0.000000001
 43
0.00000001
 40
0.0
 40
0.0
 40
0.0
 40
0.0
 40
0.0282546046514294
 40
0.05838346158077
 40
0.0903495471975446
 40
0.1258616491854061
 40
0.1640104734347903
 40
0.2048405627387348
 40
0.2374625075795431
 40
0.2716127288008247
 40
0.307191451726207
 40
0.344055009804978
 40
0.3820151349246633
 40
0.4208413902202986
 40
0.4602672943385604
 40
0.5000000310088586
 40
0.5397327603413345
 40
0.5791586732299422
 40
0.6179849119261408
 40
0.6559450322478976
 40
0.6928085773223521
 40
0.7283873099445412
 40
0.7625375497532506
 40
0.7951595238767075
 40
0.8359928508976201
 40
0.8741416145285831
 40
0.9096505051863549
 40
0.9416198616569316
 40
0.9717470700677664
 40
1.0
 40
1.0
 40
1.0
 40
1.0
 10
771.1153265359686
 20
490.9395764740174
 30
0.0
 10
771.2192477395819
 20
492.2449349162487
 30
0.0
 10
771.4339836976119
 20
494.9422419711994
 30
0.0
 10
771.2831904109952
 20
499.1334239553328
 30
0.0
 10
770.709435100491
 20
503.6237264158815
 30
0.0
 10
769.5689525789091
 20
508.3923547828913
 30
0.0
 10
767.7464842955861
 20
513.3851582815903
 30
0.0
 10
765.3792545420337
 20
517.9969582710422
 30
0.0
 10
762.6037139488303
 20
522.1461327292725
 30
0.0
 10
759.5641427160191
 20
525.7958953831505
 30
0.0
 10
756.0016071378158
 20
529.2285358470768
 30
0.0
 10
751.9312519693116
 20
532.3424217332694
 30
0.0
 10
747.3935725463172
 20
535.0347823459034
 30
0.0
 10
742.4554776168928
 20
537.2097473397598
 30
0.0
 10
737.20872115528
 20
538.786583474288
 30
0.0
 10
731.765179791072
 20
539.707533347183
 30
0.0
 10
726.249327897916
 20
539.9434993082555
 30
0.0
 10
720.7889766422804
 20
539.4969352109031
 30
0.0
 10
715.5055915538037
 20
538.4009934954133
 30
0.0
 10
710.5057664430483
 20
536.7154457554439
 30
0.0
 10
705.8749438409812
 20
534.5200973066368
 30
0.0
 10
701.6741970038626
 20
531.9069734568469
 30
0.0
 10
697.9395482759198
 20
528.9723212832307
 30
0.0
 10
694.3587301693283
 20
525.4940251728113
 30
0.0
 10
691.080668064597
 20
521.4780151390612
 30
0.0
 10
688.2558877455209
 20
516.9757831806332
 30
0.0
 10
686.1449052504413
 20
512.5503754129862
 30
0.0
 10
684.646222932479
 20
508.2789206607939
 30
0.0
 10
683.6237332724226
 20
504.2115843243475
 30
0.0
 10
683.2705329995144
 20
501.5290510131968
 30
0.0
 10
683.099602562456
 20
500.2308453591531
 30
0.0
  0
SPLINE
  5
8A
330
1F
100
AcDbEntity
  8
0
  6
Continuous
 62
     7
370
    25
100
AcDbSpline
210
0.0
220
0.0
230
1.0
 70
     8
 71
     3
 72
    35
 73
    31
 74
     0
 42
0.000000001
 43
0.00000001
 40
0.0
 40
0.0
 40
0.0
 40
0.0
 40
0.0282546045852991
 40
0.058383462271912
 40
0.0903495478138695
 40
0.1258616497186144
 40
0.1640104990629793
 40
0.2048405283241062
 40
0.2374624953731746
 40
0.2716127371161896
 40
0.3071914599582993
 40
0.344055028597886
 40
0.3820151399479726
 40
0.4208413843459357
 40
0.4602672960885286
 40
0.500000024889157
 40
0.5397327556931171
 40
0.5791586658866055
 40
0.6179849077734175
 40
0.655945028006328
 40
0.6928085959643574
 40
0.7283873143418081
 40
0.7625375435300227
 40
0.7951595181274211
 40
0.8359928488708828
 40
0.8741416124125581
 40
0.9096505029872208
 40
0.9416198593829728
 40
0.9717470741278611
 40
1.0
 40
1.0
 40
1.0
 40
1.0
 10
683.099602562456
 20
500.2308453591531
 30
0.0
 10
682.9956809770866
 20
498.9254869043633
 30
0.0
 10
682.7809442271764
 20
496.2281797852187
 30
0.0
 10
682.9317438686483
 20
492.0369979712273
 30
0.0
 10
683.5054971631178
 20
487.5466953574849
 30
0.0
 10
684.6459811644384
 20
482.7780661169168
 30
0.0
 10
686.4684462741608
 20
477.7852631622643
 30
0.0
 10
688.8356772410414
 20
473.1734644346114
 30
0.0
 10
691.6112150407268
 20
469.0242892288011
 30
0.0
 10
694.6507852250596
 20
465.3745229802452
 30
0.0
 10
698.2133223377998
 20
461.9418818932255
 30
0.0
 10
702.2836778605146
 20
458.8279967396749
 30
0.0
 10
706.821358491031
 20
456.1356388533833
 30
0.0
 10
711.7594549487418
 20
453.9606804753074
 30
0.0
 10
717.0062083871103
 20
452.3838354658657
 30
0.0
 10
722.4497515773465
 20
451.4628948575874
 30
0.0
 10
727.9656021763097
 20
451.2269221348511
 30
0.0
 10
733.4259543643078
 20
451.6734819107323
 30
0.0
 10
738.7093388643649
 20
452.7694254889997
 30
0.0
 10
743.7091668514072
 20
454.4549700227558
 30
0.0
 10
748.3399837468608
 20
456.6503308324956
 30
0.0
 10
752.5407356727482
 20
459.2634461844929
 30
0.0
 10
756.2753790818484
 20
462.1981032315874
 30
0.0
 10
759.8562057814855
 20
465.6763901038402
 30
0.0
 10
763.1342590492059
 20
469.6924082412604
 30
0.0
 10
765.9590416645985
 20
474.1946382762495
 30
0.0
 10
768.0700242535244
 20
478.6200463981033
 30
0.0
 10
769.5687046217638
 20
482.8915018112235
 30
0.0
 10
770.5912016043216
 20
486.9588366124798
 30
0.0
 10
770.9443980043852
 20
489.6413706874503
 30
0.0
 10
771.1153265359686
 20
490.9395764740174
 30
0.0
  0
ARC
  5
8B
330
1F
100
AcDbEntity
  8
0
  6
Continuous
 62
     7
370
    25
100
AcDbCircle
 10
727.1074652641
 20
495.585210936
 30
0.0
 40
40.35476230894859
100
AcDbArc
 50
173.973964907
 51
353.973964907
  0
ARC
  5
8C
330
1F
100
AcDbEntity
  8
0
  6
Continuous
 62
     7
370
    25
100
AcDbCircle
 10
727.1074652641
 20
495.585210936
 30
0.0
 40
40.35476230894859
100
AcDbArc
 50
353.973964907
 51
173.973964907
  0
CIRCLE
  5
8D
330
1F
100
AcDbEntity
  8
0
  6
Continuous
 62
     7
370
    25
100
AcDbCircle
 10
727.1074652641
 20
495.585210936
 30
0.0
 40
39.93812333099991
  0
CIRCLE
  5
8E
330
1F
100
AcDbEntity
  8
0
  6
Continuous
 62
     7
370
    25
100
AcDbCircle
 10
367.1075284925
 20
495.5848933934
 30
0.0
 40
56.9999999999999
  0
SPLINE
  5
8F
330
1F
100
AcDbEntity
  8
0
  6
Continuous
 62
     7
370
    25
100
AcDbSpline
210
0.0
220
0.0
230
1.0
 70
     8
 71
     3
 72
    35
 73
    31
 74
     0
 42
0.000000001
 43
0.00000001
 40
0.0
 40
0.0
 40
0.0
 40
0.0
 40
0.0282546084706879
 40
0.0583834124009381
 40
0.0903495449622033
 40
0.1258616663345654
 40
0.1640104637515373
 40
0.2048404694326763
 40
0.2374624149196454
 40
0.2716127809669081
 40
0.3071915142504048
 40
0.3440550837064482
 40
0.3820150208135845
 40
0.4208413750232871
 40
0.4602673120177638
 40
0.500000039561918
 40
0.5397327248981978
 40
0.5791585519449738
 40
0.6179849784549968
 40
0.6559449915536404
 40
0.692808596667487
 40
0.7283872958461862
 40
0.7625374941690759
 40
0.7951594123457076
 40
0.835992866480059
 40
0.8741416166150011
 40
0.9096504595708461
 40
0.9416198939794934
 40
0.9717470124910449
 40
1.0
 40
1.0
 40
1.0
 40
1.0
 10
411.1153755607889
 20
490.9392635496324
 30
0.0
 10
411.2193002244986
 20
492.2446219985872
 30
0.0
 10
411.4340431223264
 20
494.9419264307277
 30
0.0
 10
411.2832420383594
 20
499.1331076161909
 30
0.0
 10
410.7095070131962
 20
503.6234137252501
 30
0.0
 10
409.5689976984218
 20
508.3920376321478
 30
0.0
 10
407.7465529490085
 20
513.3848438699678
 30
0.0
 10
405.3793270224398
 20
517.9966408208326
 30
0.0
 10
402.6037882466735
 20
522.1458203479714
 30
0.0
 10
399.5641963688811
 20
525.7955750899515
 30
0.0
 10
396.0016592987815
 20
529.2282244005171
 30
0.0
 10
391.9313066375514
 20
532.3421004642397
 30
0.0
 10
387.3936380845695
 20
535.0344721874785
 30
0.0
 10
382.4555395260868
 20
537.2094237539466
 30
0.0
 10
377.208778827664
 20
538.7862628216621
 30
0.0
 10
371.7652382739666
 20
539.7072130578576
 30
0.0
 10
366.2493930540547
 20
539.9431772775018
 30
0.0
 10
360.7890390749817
 20
539.4966204419545
 30
0.0
 10
355.505652024903
 20
538.4006869423066
 30
0.0
 10
350.5058232253563
 20
536.7151292681291
 30
0.0
 10
345.8750061974623
 20
534.5197786364735
 30
0.0
 10
341.6742605847443
 20
531.906654048721
 30
0.0
 10
337.9396211697004
 20
528.9719999697293
 30
0.0
 10
334.3588006671617
 20
525.4937054273455
 30
0.0
 10
331.0807250365634
 20
521.4777025907053
 30
0.0
 10
328.2559496263025
 20
516.9754631674888
 30
0.0
 10
326.1449674891551
 20
512.5500560938577
 30
0.0
 10
324.6462642611767
 20
508.2786103340018
 30
0.0
 10
323.6238106873277
 20
504.2112629257775
 30
0.0
 10
323.2706041334373
 20
501.5287325715908
 30
0.0
 10
323.0996702137277
 20
500.2305249841874
 30
0.0
  0
SPLINE
  5
90
330
1F
100
AcDbEntity
  8
0
  6
Continuous
 62
     7
370
    25
100
AcDbSpline
210
0.0
220
0.0
230
1.0
 70
     8
 71
     3
 72
    35
 73
    31
 74
     0
 42
0.000000001
 43
0.00000001
 40
0.0
 40
0.0
 40
0.0
 40
0.0
 40
0.0282546076069386
 40
0.0583834642120125
 40
0.0903495426163377
 40
0.1258616629030867
 40
0.1640104591538419
 40
0.2048405853768121
 40
0.2374625298665215
 40
0.271612737006593
 40
0.3071914692024403
 40
0.3440550375315565
 40
0.3820151716195133
 40
0.4208413283523115
 40
0.4602672641415289
 40
0.4999999859987536
 40
0.5397326712663427
 40
0.5791587130652188
 40
0.6179849283731366
 40
0.6559449403113347
 40
0.692808544298253
 40
0.7283872282278248
 40
0.7625375941559331
 40
0.7951595300162062
 40
0.8359928265105768
 40
0.8741415754793036
 40
0.9096504415522686
 40
0.9416198244101908
 40
0.9717470453059324
 40
1.0
 40
1.0
 40
1.0
 40
1.0
 10
323.0996702137278
 20
500.2305249841874
 30
0.0
 10
322.9957456204099
 20
498.9251665358003
 30
0.0
 10
322.7810026709016
 20
496.2278596287123
 30
0.0
 10
322.931803028815
 20
492.0366783988577
 30
0.0
 10
323.5055392466641
 20
487.5463722494018
 30
0.0
 10
324.6460496913195
 20
482.7777517311543
 30
0.0
 10
326.4684877093167
 20
477.7849358707641
 30
0.0
 10
328.8357501764101
 20
473.1731505544388
 30
0.0
 10
331.6112868599966
 20
469.0239741236411
 30
0.0
 10
334.6508487634158
 20
465.3742031227847
 30
0.0
 10
338.2133887168265
 20
461.9415666268944
 30
0.0
 10
342.2837435961038
 20
458.827677815776
 30
0.0
 10
346.8214253999415
 20
456.1353287867832
 30
0.0
 10
351.7595123872083
 20
453.9603532437635
 30
0.0
 10
357.0062672221155
 20
452.3835219332245
 30
0.0
 10
362.4498078800373
 20
451.4625775646376
 30
0.0
 10
367.9656625029155
 20
451.2266061301043
 30
0.0
 10
373.4260174083391
 20
451.6731639484208
 30
0.0
 10
378.7094027024932
 20
452.7691060880385
 30
0.0
 10
383.7092224633399
 20
454.4546590680507
 30
0.0
 10
388.3400395729379
 20
456.650009104205
 30
0.0
 10
392.5407885825539
 20
459.2631400071728
 30
0.0
 10
396.2754525253091
 20
462.1977756998662
 30
0.0
 10
399.8562718502339
 20
465.6760758736522
 30
0.0
 10
403.1343198540017
 20
469.6920921700153
 30
0.0
 10
405.959097537769
 20
474.1943216022959
 30
0.0
 10
408.0700791730687
 20
478.6197291246546
 30
0.0
 10
409.5687719508475
 20
482.8911800486028
 30
0.0
 10
410.5912801965629
 20
486.9585162431894
 30
0.0
 10
410.944456623284
 20
489.6410549667388
 30
0.0
 10
411.1153755607889
 20
490.9392635496324
 30
0.0
  0
ARC
  5
91
330
1F
100
AcDbEntity
  8
0
  6
Continuous
 62
     7
370
    25
100
AcDbCircle
 10
367.1075284925
 20
495.5848933934
 30
0.0
 40
40.35476230894865
100
AcDbArc
 50
353.973964907
 51
173.973964907
  0
ARC
  5
92
330
1F
100
AcDbEntity
  8
0
  6
Continuous
 62
     7
370
    25
100
AcDbCircle
 10
367.1075284925
 20
495.5848933934
 30
0.0
 40
40.35476230894865
100
AcDbArc
 50
173.973964907
 51
353.973964907
  0
CIRCLE
  5
93
330
1F
100
AcDbEntity
  8
0
  6
Continuous
 62
     7
370
    25
100
AcDbCircle
 10
367.1075284925
 20
495.5848933934
 30
0.0
 40
39.93812333099996
  0
LINE
  5
94
330
1F
100
AcDbEntity
  8
0
  6
Continuous
 62
     7
370
    25
100
AcDbLine
 10
572.1074614945
 20
617.5852309139
 30
0.0
 11
882.1074638787
 21
617.5852309139
 31
0.0
  0
SPLINE
  5
95
330
1F
100
AcDbEntity
  8
0
  6
Continuous
 62
     7
370
    25
100
AcDbSpline
210
0.0
220
0.0
230
1.0
 70
     8
 71
     3
 72
    29
 73
    25
 74
     0
 42
0.000000001
 43
0.00000001
 40
0.0
 40
0.0
 40
0.0
 40
0.0
 40
0.014595508717141
 40
0.029168732909255
 40
0.0437272890339447
 40
0.0582788165812001
 40
0.0728309661104625
 40
0.0873913872007386
 40
0.1019677164084304
 40
0.1165675653273931
 40
0.1783205878865818
 40
0.2400932630121764
 40
0.3044204810932241
 40
0.3687674313279986
 40
0.5000037584451259
 40
0.6312400855622533
 40
0.6955673052189849
 40
0.7599142570549445
 40
0.8216672782594521
 40
0.8834399525097106
 40
0.9126068333060526
 40
0.9417150107881178
 40
0.9708256749151485
 40
1.0
 40
1.0
 40
1.0
 40
1.0
 10
555.107462686567
 20
600.5852238805955
 30
0.0
 10
555.1083145579026
 20
600.7150555064648
 30
0.0
 10
555.1100169999306
 20
600.9745205303668
 30
0.0
 10
555.1238186957653
 20
601.3632864155145
 30
0.0
 10
555.1458599229784
 20
601.7512554644167
 30
0.0
 10
555.1769444688308
 20
602.1384272273617
 30
0.0
 10
555.216857523411
 20
602.5248019819664
 30
0.0
 10
555.2656554198127
 20
602.9103771397913
 30
0.0
 10
555.3233272617101
 20
603.2951608794448
 30
0.0
 10
555.4614269751241
 20
604.0921363046396
 30
0.0
 10
555.7433857709818
 20
605.2902686435939
 30
0.0
 10
556.2837432563923
 20
606.8740714352173
 30
0.0
 10
556.9868015981107
 20
608.4186967897624
 30
0.0
 10
558.1546257517197
 20
610.4177754499715
 30
0.0
 10
560.0006782727504
 20
612.6920090482619
 30
0.0
 10
562.2747736934832
 20
614.5379472447277
 30
0.0
 10
564.2738333666597
 20
615.7058074185558
 30
0.0
 10
565.818283561216
 20
616.4088034536815
 30
0.0
 10
567.4022707989886
 20
616.9492890760376
 30
0.0
 10
568.7266709254416
 20
617.2608573953515
 30
0.0
 10
569.7811077906765
 20
617.4315026204824
 30
0.0
 10
570.5536157488327
 20
617.5197754389109
 30
0.0
 10
571.3294321524304
 20
617.5750210394701
 30
0.0
 10
571.847930401054
 20
617.5818204580307
 30
0.0
 10
572.1074626865671
 20
617.5852238805955
 30
0.0
  0
LINE
  5
96
330
1F
100
AcDbEntity
  8
0
  6
Continuous
 62
     7
370
    25
100
AcDbLine
 10
555.1074568453
 20
230.5852214964
 30
0.0
 11
555.1074568453
 21
600.5852262648
 31
0.0
  0
SPLINE
  5
97
330
1F
100
AcDbEntity
  8
0
  6
Continuous
 62
     7
370
    25
100
AcDbSpline
210
0.0
220
0.0
230
1.0
 70
     8
 71
     3
 72
    29
 73
    25
 74
     0
 42
0.000000001
 43
0.00000001
 40
0.0
 40
0.0
 40
0.0
 40
0.0
 40
0.0145955087196816
 40
0.0291687329136452
 40
0.043727289039494
 40
0.0582788165872155
 40
0.072830966116248
 40
0.0873913872056023
 40
0.1019677164116802
 40
0.116567565328338
 40
0.1783205878868241
 40
0.2400932630133074
 40
0.3044204810906473
 40
0.3687674313287748
 40
0.5000037584451207
 40
0.6312400855614652
 40
0.6955673052211807
 40
0.759914257053822
 40
0.8216672782615866
 40
0.8834399525087827
 40
0.912606833302345
 40
0.9417150107836387
 40
0.9708256749119107
 40
1.0
 40
1.0
 40
1.0
 40
1.0
 10
572.1074626865671
 20
213.5852238805955
 30
0.0
 10
571.9776310606744
 20
213.5860757519309
 30
0.0
 10
571.7181660367318
 20
213.5877781939584
 30
0.0
 10
571.329400151532
 20
213.6015798897903
 30
0.0
 10
570.9414311025962
 20
213.6236211169994
 30
0.0
 10
570.5542593396358
 20
213.6547056628463
 30
0.0
 10
570.167884585034
 20
213.6946187174191
 30
0.0
 10
569.7823094272304
 20
213.7434166138122
 30
0.0
 10
569.3975256876163
 20
213.8010884556992
 30
0.0
 10
568.6005502624566
 20
213.9391881691051
 30
0.0
 10
567.4024179235139
 20
214.2211469649596
 30
0.0
 10
565.8186151318937
 20
214.7615044503129
 30
0.0
 10
564.2739897773185
 20
215.4645627920061
 30
0.0
 10
562.2749111171034
 20
216.6323869456139
 30
0.0
 10
560.0006775187676
 20
218.4784394666462
 30
0.0
 10
558.1547393223076
 20
220.7525348874237
 30
0.0
 10
556.9868791484671
 20
222.7515945605991
 30
0.0
 10
556.2838831133685
 20
224.2960447552099
 30
0.0
 10
555.7433974910667
 20
225.8800319929818
 30
0.0
 10
555.4318291717568
 20
227.2044321194201
 30
0.0
 10
555.2611839466495
 20
228.2588689846065
 30
0.0
 10
555.1729111282377
 20
229.0313769427487
 30
0.0
 10
555.1176655276897
 20
229.8071933463852
 30
0.0
 10
555.110866109131
 20
230.3256915950519
 30
0.0
 10
555.107462686567
 20
230.5852238805955
 30
0.0
  0
LINE
  5
98
330
1F
100
AcDbEntity
  8
0
  6
Continuous
 62
     7
370
    25
100
AcDbLine
 10
882.1074638787
 20
213.5852168472
 30
0.0
 11
572.1074614945
 21
213.5852168472
 31
0.0
  0
SPLINE
  5
99
330
1F
100
AcDbEntity
  8
0
  6
Continuous
 62
     7
370
    25
100
AcDbSpline
210
0.0
220
0.0
230
1.0
 70
     8
 71
     3
 72
    29
 73
    25
 74
     0
 42
0.000000001
 43
0.00000001
 40
0.0
 40
0.0
 40
0.0
 40
0.0
 40
0.0145955087218312
 40
0.0291687329173301
 40
0.0437272890440998
 40
0.0582788165921281
 40
0.0728309661208584
 40
0.0873913872093016
 40
0.101967716413863
 40
0.1165675653284068
 40
0.1783205878917708
 40
0.2400932630133482
 40
0.3044204810836862
 40
0.3687674313287612
 40
0.5000037584451248
 40
0.6312400855614878
 40
0.6955673052173227
 40
0.759914257053704
 40
0.8216672782576302
 40
0.8834399525088282
 40
0.9126068333065952
 40
0.9417150107893011
 40
0.9708256749161617
 40
1.0
 40
1.0
 40
1.0
 40
1.0
 10
899.1074626865671
 20
230.5852238805955
 30
0.0
 10
899.1066108152318
 20
230.4553922546837
 30
0.0
 10
899.1049083732045
 20
230.1959272307083
 30
0.0
 10
899.0911066773727
 20
229.8071613454675
 30
0.0
 10
899.0690654501637
 20
229.4191922965073
 30
0.0
 10
899.0379809043172
 20
229.0320205335385
 30
0.0
 10
898.9980678497444
 20
228.6456457789449
 30
0.0
 10
898.9492699533514
 20
228.2600706211658
 30
0.0
 10
898.8915981114651
 20
227.8752868815925
 30
0.0
 10
898.7534983980336
 20
227.0783114564261
 30
0.0
 10
898.4715396021721
 20
225.8801791175066
 30
0.0
 10
897.9311821168639
 20
224.296376325936
 30
0.0
 10
897.2281237751557
 20
222.751750971418
 30
0.0
 10
896.0602996216059
 20
220.752672311169
 30
0.0
 10
894.2142471005037
 20
218.4784387128112
 30
0.0
 10
891.9401516797858
 20
216.6325005163241
 30
0.0
 10
889.941092006563
 20
215.4646403425691
 30
0.0
 10
888.3966418120175
 20
214.7616443074229
 30
0.0
 10
886.8126545742311
 20
214.2211586850461
 30
0.0
 10
885.4882544477414
 20
213.9095903657773
 30
0.0
 10
884.4338175824666
 20
213.7389451406838
 30
0.0
 10
883.6613096242875
 20
213.6506723222695
 30
0.0
 10
882.8854932206891
 20
213.5954267217195
 30
0.0
 10
882.3669949720728
 20
213.5886273031599
 30
0.0
 10
882.1074626865671
 20
213.5852238805955
 30
0.0
  0
LINE
  5
9A
330
1F
100
AcDbEntity
  8
0
  6
Continuous
 62
     7
370
    25
100
AcDbLine
 10
899.1074685278
 20
600.5852262648
 30
0.0
 11
899.1074685278
 21
230.5852214964
 31
0.0
  0
SPLINE
  5
9B
330
1F
100
AcDbEntity
  8
0
  6
Continuous
 62
     7
370
    25
100
AcDbSpline
210
0.0
220
0.0
230
1.0
 70
     8
 71
     3
 72
    29
 73
    25
 74
     0
 42
0.000000001
 43
0.00000001
 40
0.0
 40
0.0
 40
0.0
 40
0.0
 40
0.0145955087156833
 40
0.0291687329069256
 40
0.0437272890313219
 40
0.0582788165788578
 40
0.0728309661089657
 40
0.087391387200645
 40
0.1019677164102864
 40
0.1165675653317352
 40
0.178320587872824
 40
0.2400932630174508
 40
0.3044204810905303
 40
0.36876743133151
 40
0.5000037584451587
 40
0.6312400855588058
 40
0.6955673052133049
 40
0.7599142570495073
 40
0.8216672782470862
 40
0.8834399525052485
 40
0.9126068332979602
 40
0.9417150107795659
 40
0.970825674909305
 40
1.0
 40
1.0
 40
1.0
 40
1.0
 10
882.1074626865671
 20
617.5852238805955
 30
0.0
 10
882.2372943124176
 20
617.5843720092366
 30
0.0
 10
882.4967593362873
 20
617.5826695671619
 30
0.0
 10
882.8855252213923
 20
617.5688678712617
 30
0.0
 10
883.2734942702659
 20
617.5468266439858
 30
0.0
 10
883.6606660331967
 20
617.5157420980748
 30
0.0
 10
884.0470407878012
 20
617.4758290434394
 30
0.0
 10
884.4326159456401
 20
617.4270311469863
 30
0.0
 10
884.8173996853214
 20
617.3693593050398
 30
0.0
 10
885.6143751103504
 20
617.2312595915862
 30
0.0
 10
886.8125074492419
 20
616.9493007955647
 30
0.0
 10
888.3963102406906
 20
616.4089433100743
 30
0.0
 10
889.9409355952896
 20
615.7058849682799
 30
0.0
 10
891.9400142552579
 20
614.5380608145484
 30
0.0
 10
894.2142478534134
 20
612.6920082936002
 30
0.0
 10
896.0601860498066
 20
610.4179128730791
 30
0.0
 10
897.2280462236337
 20
608.4188532000798
 30
0.0
 10
897.9310422588524
 20
606.8744030057364
 30
0.0
 10
898.471527881352
 20
605.2904157680789
 30
0.0
 10
898.7830962008053
 20
603.9660156417455
 30
0.0
 10
898.9537414260964
 20
602.9115787765495
 30
0.0
 10
899.0420142446281
 20
602.1390708184516
 30
0.0
 10
899.0972598453054
 20
601.3632544148244
 30
0.0
 10
899.1040592639567
 20
600.8447561661487
 30
0.0
 10
899.1074626865671
 20
600.5852238805955
 30
0.0
  0
SPLINE
  5
9C
330
1F
100
AcDbEntity
  8
0
  6
Continuous
 62
     7
370
    25
100
AcDbSpline
210
0.0
220
0.0
230
1.0
 70
     8
 71
     3
 72
    10
 73
     6
 74
     0
 42
0.000000001
 43
0.00000001
 40
0.0
 40
0.0
 40
0.0
 40
0.0
 40
0.5
 40
0.5
 40
1.0
 40
1.0
 40
1.0
 40
1.0
 10
522.1074626865671
 20
617.5852238805955
 30
0.0
 10
526.6160154145672
 20
617.5852238805955
 30
0.0
 10
530.9402497594325
 20
615.7940673680728
 30
0.0
 10
537.3163061740444
 20
609.4180109534609
 30
0.0
 10
539.107462686567
 20
605.0937766085956
 30
0.0
 10
539.107462686567
 20
600.5852238805955
 30
0.0
  0
LINE
  5
9D
330
1F
100
AcDbEntity
  8
0
  6
Continuous
 62
     7
370
    25
100
AcDbLine
 10
212.1074769917
 20
617.5852309139
 30
0.0
 11
522.1074644747
 21
617.5852309139
 31
0.0
  0
SPLINE
  5
9E
330
1F
100
AcDbEntity
  8
0
  6
Continuous
 62
     7
370
    25
100
AcDbSpline
210
0.0
220
0.0
230
1.0
 70
     8
 71
     3
 72
    29
 73
    25
 74
     0
 42
0.000000001
 43
0.00000001
 40
0.0
 40
0.0
 40
0.0
 40
0.0
 40
0.0145955087214937
 40
0.0291687329167531
 40
0.043727289043378
 40
0.058278816591357
 40
0.0728309661201321
 40
0.0873913872087162
 40
0.1019677164135152
 40
0.116567565328387
 40
0.1783205879062029
 40
0.240093263013464
 40
0.3044204811070843
 40
0.3687674313287935
 40
0.5000037584451407
 40
0.6312400855614921
 40
0.6955673052189392
 40
0.7599142570537586
 40
0.8216672782544365
 40
0.883439952508764
 40
0.9126068333011905
 40
0.9417150107821048
 40
0.9708256749107586
 40
0.9999999999999999
 40
0.9999999999999999
 40
0.9999999999999999
 40
0.9999999999999999
 10
195.1074626865671
 20
600.5852238805955
 30
0.0
 10
195.1083145579023
 20
600.7150555065043
 30
0.0
 10
195.1100169999297
 20
600.9745205304746
 30
0.0
 10
195.1238186957619
 20
601.3632864157088
 30
0.0
 10
195.1458599229705
 20
601.7512554646654
 30
0.0
 10
195.1769444688173
 20
602.1384272276329
 30
0.0
 10
195.2168575233898
 20
602.5248019822278
 30
0.0
 10
195.2656554197831
 20
602.9103771400106
 30
0.0
 10
195.3233272616689
 20
603.2951608795905
 30
0.0
 10
195.4614269751234
 20
604.0921363048883
 30
0.0
 10
195.7433857709293
 20
605.2902686438281
 30
0.0
 10
196.2837432564023
 20
606.8740714355644
 30
0.0
 10
196.986801598098
 20
608.4186967899464
 30
0.0
 10
198.154625751647
 20
610.4177754501915
 30
0.0
 10
200.0006782726326
 20
612.6920090483819
 30
0.0
 10
202.274773693367
 20
614.5379472448631
 30
0.0
 10
204.2738333665716
 20
615.7058074186513
 30
0.0
 10
205.8182835611028
 20
616.4088034537659
 30
0.0
 10
207.4022707988877
 20
616.9492890760949
 30
0.0
 10
208.72667092532
 20
617.2608573953881
 30
0.0
 10
209.7811077905539
 20
617.4315026205155
 30
0.0
 10
210.5536157486862
 20
617.5197754389255
 30
0.0
 10
211.3294321523329
 20
617.5750210394734
 30
0.0
 10
211.8479304010132
 20
617.5818204580316
 30
0.0
 10
212.1074626865671
 20
617.5852238805955
 30
0.0
  0
LINE
  5
9F
330
1F
100
AcDbEntity
  8
0
  6
Continuous
 62
     7
370
    25
100
AcDbLine
 10
195.1074574414
 20
230.5852214964
 30
0.0
 11
195.1074574414
 21
600.5852262648
 31
0.0
  0
SPLINE
  5
A0
330
1F
100
AcDbEntity
  8
0
  6
Continuous
 62
     7
370
    25
100
AcDbSpline
210
0.0
220
0.0
230
1.0
 70
     8
 71
     3
 72
    29
 73
    25
 74
     0
 42
0.000000001
 43
0.00000001
 40
0.0
 40
0.0
 40
0.0
 40
0.0
 40
0.0145955087196867
 40
0.0291687329136481
 40
0.0437272890394978
 40
0.0582788165872202
 40
0.0728309661162558
 40
0.0873913872056038
 40
0.1019677164116878
 40
0.1165675653283445
 40
0.1783205878947775
 40
0.2400932630133957
 40
0.3044204810940249
 40
0.3687674313287448
 40
0.5000037584451008
 40
0.6312400855614524
 40
0.695567305213137
 40
0.7599142570537353
 40
0.8216672782576989
 40
0.8834399525088183
 40
0.9126068333054498
 40
0.9417150107877733
 40
0.9708256749150147
 40
1.0
 40
1.0
 40
1.0
 40
1.0
 10
212.1074626865671
 20
213.5852238805955
 30
0.0
 10
211.9776310606745
 20
213.5860757519309
 30
0.0
 10
211.7181660367318
 20
213.5877781939584
 30
0.0
 10
211.3294001515318
 20
213.6015798897903
 30
0.0
 10
210.9414311025965
 20
213.6236211169994
 30
0.0
 10
210.5542593396357
 20
213.6547056628463
 30
0.0
 10
210.167884585034
 20
213.6946187174191
 30
0.0
 10
209.7823094272303
 20
213.7434166138123
 30
0.0
 10
209.3975256876163
 20
213.8010884556989
 30
0.0
 10
208.6005502623875
 20
213.9391881691192
 30
0.0
 10
207.4024179234373
 20
214.2211469649472
 30
0.0
 10
205.818615131799
 20
214.7615044503481
 30
0.0
 10
204.2739897773175
 20
215.4645627920681
 30
0.0
 10
202.2749111170631
 20
216.6323869456048
 30
0.0
 10
200.000677518779
 20
218.4784394666594
 30
0.0
 10
198.1547393223355
 20
220.7525348873571
 30
0.0
 10
196.9868791485292
 20
222.7515945605512
 30
0.0
 10
196.2838831134107
 20
224.2960447551125
 30
0.0
 10
195.743397491028
 20
225.8800319929346
 30
0.0
 10
195.4318291717533
 20
227.2044321194124
 30
0.0
 10
195.2611839466536
 20
228.2588689846717
 30
0.0
 10
195.1729111282403
 20
229.0313769428412
 30
0.0
 10
195.1176655276907
 20
229.8071933464496
 30
0.0
 10
195.1108661091312
 20
230.3256915950795
 30
0.0
 10
195.1074626865671
 20
230.5852238805955
 30
0.0
  0
LINE
  5
A1
330
1F
100
AcDbEntity
  8
0
  6
Continuous
 62
     7
370
    25
100
AcDbLine
 10
522.1074644747
 20
213.5852168472
 30
0.0
 11
212.1074769917
 21
213.5852168472
 31
0.0
  0
SPLINE
  5
A2
330
1F
100
AcDbEntity
  8
0
  6
Continuous
 62
     7
370
    25
100
AcDbSpline
210
0.0
220
0.0
230
1.0
 70
     8
 71
     3
 72
    10
 73
     6
 74
     0
 42
0.000000001
 43
0.00000001
 40
0.0
 40
0.0
 40
0.0
 40
0.0
 40
0.4999999999999999
 40
0.4999999999999999
 40
1.0
 40
1.0
 40
1.0
 40
1.0
 10
539.107462686567
 20
230.5852238805955
 30
0.0
 10
539.107462686567
 20
226.0766711525955
 30
0.0
 10
537.3163061740444
 20
221.7524368077301
 30
0.0
 10
530.9402497594325
 20
215.3763803931183
 30
0.0
 10
526.6160154145672
 20
213.5852238805955
 30
0.0
 10
522.1074626865671
 20
213.5852238805955
 30
0.0
  0
LINE
  5
A3
330
1F
100
AcDbEntity
  8
0
  6
Continuous
 62
     7
370
    25
100
AcDbLine
 10
539.1074691239
 20
230.5852214964
 30
0.0
 11
539.1074691239
 21
600.5852262648
 31
0.0
  0
LINE
  5
A4
330
1F
100
AcDbEntity
  8
0
  6
Continuous
 62
     7
370
    25
100
AcDbLine
 10
177.6074741307
 20
625.5852173241
 30
0.0
 11
177.6074741307
 21
205.5852304371
 31
0.0
  0
ARC
  5
A5
330
1F
100
AcDbEntity
  8
0
  6
Continuous
 62
     7
370
    25
100
AcDbCircle
 10
187.1074626866
 20
625.5852238806
 30
0.0
 40
9.500000000000114
100
AcDbArc
 50
90.0
 51
180.0
  0
LINE
  5
A6
330
1F
100
AcDbEntity
  8
0
  6
Continuous
 62
     7
370
    25
100
AcDbLine
 10
907.1074698391
 20
635.0852291258
 30
0.0
 11
187.1074412289
 21
635.0852291258
 31
0.0
  0
ARC
  5
A7
330
1F
100
AcDbEntity
  8
0
  6
Continuous
 62
     7
370
    25
100
AcDbCircle
 10
907.1074626866
 20
625.5852238806
 30
0.0
 40
9.5
100
AcDbArc
 50
0.0
 51
90.0
  0
LINE
  5
A8
330
1F
100
AcDbEntity
  8
0
  6
Continuous
 62
     7
370
    25
100
AcDbLine
 10
916.6074667397
 20
205.5852304371
 30
0.0
 11
916.6074667397
 21
625.5852173241
 31
0.0
  0
ARC
  5
A9
330
1F
100
AcDbEntity
  8
0
  6
Continuous
 62
     7
370
    25
100
AcDbCircle
 10
907.1074626866
 20
205.5852238806
 30
0.0
 40
9.49999999981003
100
AcDbArc
 50
270.0
 51
0.0
  0
LINE
  5
AA
330
1F
100
AcDbEntity
  8
0
  6
Continuous
 62
     7
370
    25
100
AcDbLine
 10
187.1074412289
 20
196.0852186354
 30
0.0
 11
907.1074698391
 21
196.0852186354
 31
0.0
  0
ARC
  5
AB
330
1F
100
AcDbEntity
  8
0
  6
Continuous
 62
     7
370
    25
100
AcDbCircle
 10
187.1074626866
 20
205.5852238806
 30
0.0
 40
9.500000000000057
100
AcDbArc
 50
180.0
 51
270.0
  0
LINE
  5
AC
330
1F
100
AcDbEntity
  8
0
  6
Continuous
 62
     7
370
    25
100
AcDbLine
 10
212.1074769917
 20
615.5852268608
 30
0.0
 11
522.1074644747
 21
615.5852268608
 31
0.0
  0
LINE
  5
AD
330
1F
100
AcDbEntity
  8
0
  6
Continuous
 62
     7
370
    25
100
AcDbLine
 10
212.1074769917
 20
617.5852309139
 30
0.0
 11
212.1074769917
 21
615.5852268608
 31
0.0
  0
LINE
  5
AE
330
1F
100
AcDbEntity
  8
0
  6
Continuous
 62
     7
370
    25
100
AcDbLine
 10
522.1074644747
 20
617.5852309139
 30
0.0
 11
522.1074644747
 21
615.5852268608
 31
0.0
  0
LINE
  5
AF
330
1F
100
AcDbEntity
  8
0
  6
Continuous
 62
     7
370
    25
100
AcDbLine
 10
572.1074614945
 20
615.5852268608
 30
0.0
 11
882.1074638787
 21
615.5852268608
 31
0.0
  0
LINE
  5
B0
330
1F
100
AcDbEntity
  8
0
  6
Continuous
 62
     7
370
    25
100
AcDbLine
 10
572.1074614945
 20
617.5852309139
 30
0.0
 11
572.1074614945
 21
615.5852268608
 31
0.0
  0
LINE
  5
B1
330
1F
100
AcDbEntity
  8
0
  6
Continuous
 62
     7
370
    25
100
AcDbLine
 10
882.1074638787
 20
617.5852309139
 30
0.0
 11
882.1074638787
 21
615.5852268608
 31
0.0
  0
LINE
  5
B2
330
1F
100
AcDbEntity
  8
0
  6
Continuous
 62
     7
370
    25
100
AcDbLine
 10
899.1074685278
 20
600.5852262648
 30
0.0
 11
897.1074644747
 21
600.5852262648
 31
0.0
  0
LINE
  5
B3
330
1F
100
AcDbEntity
  8
0
  6
Continuous
 62
     7
370
    25
100
AcDbLine
 10
897.1074644747
 20
230.5852214964
 30
0.0
 11
899.1074685278
 21
230.5852214964
 31
0.0
  0
LINE
  5
B4
330
1F
100
AcDbEntity
  8
0
  6
Continuous
 62
     7
370
    25
100
AcDbLine
 10
897.1074644747
 20
600.5852262648
 30
0.0
 11
897.1074644747
 21
230.5852214964
 31
0.0
  0
LINE
  5
B5
330
1F
100
AcDbEntity
  8
0
  6
Continuous
 62
     7
370
    25
100
AcDbLine
 10
555.1074568453
 20
230.5852214964
 30
0.0
 11
557.1074608984
 21
230.5852214964
 31
0.0
  0
LINE
  5
B6
330
1F
100
AcDbEntity
  8
0
  6
Continuous
 62
     7
370
    25
100
AcDbLine
 10
555.1074568453
 20
600.5852262648
 30
0.0
 11
557.1074608984
 21
600.5852262648
 31
0.0
  0
LINE
  5
B7
330
1F
100
AcDbEntity
  8
0
  6
Continuous
 62
     7
370
    25
100
AcDbLine
 10
557.1074608984
 20
230.5852214964
 30
0.0
 11
557.1074608984
 21
600.5852262648
 31
0.0
  0
LINE
  5
B8
330
1F
100
AcDbEntity
  8
0
  6
Continuous
 62
     7
370
    25
100
AcDbLine
 10
195.1074574414
 20
230.5852214964
 30
0.0
 11
197.1074912968
 21
230.5852214964
 31
0.0
  0
LINE
  5
B9
330
1F
100
AcDbEntity
  8
0
  6
Continuous
 62
     7
370
    25
100
AcDbLine
 10
195.1074574414
 20
600.5852262648
 30
0.0
 11
197.1074912968
 21
600.5852262648
 31
0.0
  0
LINE
  5
BA
330
1F
100
AcDbEntity
  8
0
  6
Continuous
 62
     7
370
    25
100
AcDbLine
 10
197.1074912968
 20
230.5852214964
 30
0.0
 11
197.1074912968
 21
600.5852262648
 31
0.0
  0
LINE
  5
BB
330
1F
100
AcDbEntity
  8
0
  6
Continuous
 62
     7
370
    25
100
AcDbLine
 10
539.1074691239
 20
600.5852262648
 30
0.0
 11
537.1074650708
 21
600.5852262648
 31
0.0
  0
LINE
  5
BC
330
1F
100
AcDbEntity
  8
0
  6
Continuous
 62
     7
370
    25
100
AcDbLine
 10
537.1074650708
 20
230.5852214964
 30
0.0
 11
539.1074691239
 21
230.5852214964
 31
0.0
  0
LINE
  5
BD
330
1F
100
AcDbEntity
  8
0
  6
Continuous
 62
     7
370
    25
100
AcDbLine
 10
537.1074650708
 20
600.5852262648
 30
0.0
 11
537.1074650708
 21
230.5852214964
 31
0.0
  0
LINE
  5
BE
330
1F
100
AcDbEntity
  8
0
  6
Continuous
 62
     7
370
    25
100
AcDbLine
 10
882.1074638787
 20
215.5852209004
 30
0.0
 11
572.1074614945
 21
215.5852209004
 31
0.0
  0
LINE
  5
BF
330
1F
100
AcDbEntity
  8
0
  6
Continuous
 62
     7
370
    25
100
AcDbLine
 10
882.1074638787
 20
213.5852168472
 30
0.0
 11
882.1074638787
 21
215.5852209004
 31
0.0
  0
LINE
  5
C0
330
1F
100
AcDbEntity
  8
0
  6
Continuous
 62
     7
370
    25
100
AcDbLine
 10
572.1074614945
 20
213.5852168472
 30
0.0
 11
572.1074614945
 21
215.5852209004
 31
0.0
  0
LINE
  5
C1
330
1F
100
AcDbEntity
  8
0
  6
Continuous
 62
     7
370
    25
100
AcDbLine
 10
522.1074644747
 20
215.5852209004
 30
0.0
 11
522.1074644747
 21
213.5852168472
 31
0.0
  0
LINE
  5
C2
330
1F
100
AcDbEntity
  8
0
  6
Continuous
 62
     7
370
    25
100
AcDbLine
 10
212.1074769917
 20
215.5852209004
 30
0.0
 11
212.1074769917
 21
213.5852168472
 31
0.0
  0
LINE
  5
C3
330
1F
100
AcDbEntity
  8
0
  6
Continuous
 62
     7
370
    25
100
AcDbLine
 10
522.1074644747
 20
215.5852209004
 30
0.0
 11
212.1074769917
 21
215.5852209004
 31
0.0
  0
ARC
  5
C4
330
1F
100
AcDbEntity
  8
0
  6
Continuous
 62
     7
370
    25
100
AcDbCircle
 10
882.1074626866
 20
600.5852238806
 30
0.0
 40
15.0
100
AcDbArc
 50
0.0
 51
90.0
  0
ARC
  5
C5
330
1F
100
AcDbEntity
  8
0
  6
Continuous
 62
     7
370
    25
100
AcDbCircle
 10
212.1074626866
 20
600.5852238806
 30
0.0
 40
15.00000000000003
100
AcDbArc
 50
90.0
 51
180.0
  0
ARC
  5
C6
330
1F
100
AcDbEntity
  8
0
  6
Continuous
 62
     7
370
    25
100
AcDbCircle
 10
572.1074626866
 20
600.5852238806
 30
0.0
 40
15.00000000000011
100
AcDbArc
 50
90.0
 51
180.0
  0
ARC
  5
C7
330
1F
100
AcDbEntity
  8
0
  6
Continuous
 62
     7
370
    25
100
AcDbCircle
 10
522.1074626866
 20
600.5852238806
 30
0.0
 40
15.0
100
AcDbArc
 50
0.0
 51
90.0
  0
ARC
  5
C8
330
1F
100
AcDbEntity
  8
0
  6
Continuous
 62
     7
370
    25
100
AcDbCircle
 10
572.1074626866
 20
230.5852238806
 30
0.0
 40
15.00000000000011
100
AcDbArc
 50
180.0
 51
270.0
  0
ARC
  5
C9
330
1F
100
AcDbEntity
  8
0
  6
Continuous
 62
     7
370
    25
100
AcDbCircle
 10
212.1074626866
 20
230.5852238806
 30
0.0
 40
15.00000000000003
100
AcDbArc
 50
180.0
 51
270.0
  0
ARC
  5
CA
330
1F
100
AcDbEntity
  8
0
  6
Continuous
 62
     7
370
    25
100
AcDbCircle
 10
882.1074626866
 20
230.5852238806
 30
0.0
 40
15.00000000000003
100
AcDbArc
 50
270.0
 51
0.0
  0
ARC
  5
CB
330
1F
100
AcDbEntity
  8
0
  6
Continuous
 62
     7
370
    25
100
AcDbCircle
 10
522.1074626866
 20
230.5852238806
 30
0.0
 40
15.00000000000003
100
AcDbArc
 50
270.0
 51
0.0
  0
ARC
  5
CC
330
1F
100
AcDbEntity
  8
0
  6
Continuous
 62
     7
370
    25
100
AcDbCircle
 10
907.1074626866
 20
625.5852238806
 30
0.0
 40
10.0
100
AcDbArc
 50
0.0
 51
90.0
  0
LINE
  5
CD
330
1F
100
AcDbEntity
  8
0
  6
Continuous
 62
     7
370
    25
100
AcDbLine
 10
917.1074603024
 20
625.5852173241
 30
0.0
 11
916.6074667397
 21
625.5852173241
 31
0.0
  0
LINE
  5
CE
330
1F
100
AcDbEntity
  8
0
  6
Continuous
 62
     7
370
    25
100
AcDbLine
 10
907.1074698391
 20
635.5852226885
 30
0.0
 11
907.1074698391
 21
635.0852291258
 31
0.0
  0
LINE
  5
CF
330
1F
100
AcDbEntity
  8
0
  6
Continuous
 62
     7
370
    25
100
AcDbLine
 10
177.6074741307
 20
625.5852173241
 30
0.0
 11
177.1074507656
 21
625.5852173241
 31
0.0
  0
ARC
  5
D0
330
1F
100
AcDbEntity
  8
0
  6
Continuous
 62
     7
370
    25
100
AcDbCircle
 10
187.1074626866
 20
625.5852238806
 30
0.0
 40
10.00000000000003
100
AcDbArc
 50
90.0
 51
180.0
  0
LINE
  5
D1
330
1F
100
AcDbEntity
  8
0
  6
Continuous
 62
     7
370
    25
100
AcDbLine
 10
187.1074412289
 20
635.0852291258
 30
0.0
 11
187.1074412289
 21
635.5852226885
 31
0.0
  0
LINE
  5
D2
330
1F
100
AcDbEntity
  8
0
  6
Continuous
 62
     7
370
    25
100
AcDbLine
 10
187.1074412289
 20
635.5852226885
 30
0.0
 11
907.1074698391
 21
635.5852226885
 31
0.0
  0
LINE
  5
D3
330
1F
100
AcDbEntity
  8
0
  6
Continuous
 62
     7
370
    25
100
AcDbLine
 10
177.6074741307
 20
205.5852304371
 30
0.0
 11
177.1074507656
 21
205.5852304371
 31
0.0
  0
LINE
  5
D4
330
1F
100
AcDbEntity
  8
0
  6
Continuous
 62
     7
370
    25
100
AcDbLine
 10
177.1074507656
 20
205.5852304371
 30
0.0
 11
177.1074507656
 21
625.5852173241
 31
0.0
  0
LINE
  5
D5
330
1F
100
AcDbEntity
  8
0
  6
Continuous
 62
     7
370
    25
100
AcDbLine
 10
917.1074603024
 20
625.5852173241
 30
0.0
 11
917.1074603024
 21
205.5852304371
 31
0.0
  0
LINE
  5
D6
330
1F
100
AcDbEntity
  8
0
  6
Continuous
 62
     7
370
    25
100
AcDbLine
 10
917.1074603024
 20
205.5852304371
 30
0.0
 11
916.6074667397
 21
205.5852304371
 31
0.0
  0
LINE
  5
D7
330
1F
100
AcDbEntity
  8
0
  6
Continuous
 62
     7
370
    25
100
AcDbLine
 10
187.1074412289
 20
196.0852186354
 30
0.0
 11
187.1074412289
 21
195.5852250727
 31
0.0
  0
ARC
  5
D8
330
1F
100
AcDbEntity
  8
0
  6
Continuous
 62
     7
370
    25
100
AcDbCircle
 10
187.1074626866
 20
205.5852238806
 30
0.0
 40
10.0
100
AcDbArc
 50
180.0
 51
270.0
  0
ARC
  5
D9
330
1F
100
AcDbEntity
  8
0
  6
Continuous
 62
     7
370
    25
100
AcDbCircle
 10
907.1074626866
 20
205.5852238806
 30
0.0
 40
10.0
100
AcDbArc
 50
270.0
 51
0.0
  0
LINE
  5
DA
330
1F
100
AcDbEntity
  8
0
  6
Continuous
 62
     7
370
    25
100
AcDbLine
 10
907.1074698391
 20
195.5852250727
 30
0.0
 11
907.1074698391
 21
196.0852186354
 31
0.0
  0
LINE
  5
DB
330
1F
100
AcDbEntity
  8
0
  6
Continuous
 62
     7
370
    25
100
AcDbLine
 10
907.1074698391
 20
195.5852250727
 30
0.0
 11
187.1074412289
 21
195.5852250727
 31
0.0
  0
SPLINE
  5
DC
330
1F
100
AcDbEntity
  8
0
  6
Continuous
 62
     7
370
    25
100
AcDbSpline
210
0.0
220
0.0
230
1.0
 70
     8
 71
     3
 72
    14
 73
    10
 74
     0
 42
0.000000001
 43
0.00000001
 40
0.0
 40
0.0
 40
0.0
 40
0.0
 40
0.25
 40
0.25
 40
0.5
 40
0.5
 40
0.75
 40
0.75
 40
1.0
 40
1.0
 40
1.0
 40
1.0
 10
882.8102686845672
 20
600.8484405195956
 30
0.0
 10
884.7130834304005
 20
600.8468726304288
 30
0.0
 10
886.5980325099733
 20
600.838861698158
 30
0.0
 10
890.0644295027859
 20
600.8110923309705
 30
0.0
 10
891.6446609267338
 20
600.7913437319289
 30
0.0
 10
894.2747381734005
 20
600.7429230352623
 30
0.0
 10
895.3236468544108
 20
600.7142681907413
 30
0.0
 10
896.7402602547235
 20
600.6521395271997
 30
0.0
 10
897.1074626874004
 20
600.6186875155955
 30
0.0
 10
897.1074626865671
 20
600.5852238805955
 30
0.0
  0
SPLINE
  5
DD
330
1F
100
AcDbEntity
  8
0
  6
Continuous
 62
     7
370
    25
100
AcDbSpline
210
0.0
220
0.0
230
1.0
 70
     8
 71
     3
 72
    14
 73
    10
 74
     0
 42
0.000000001
 43
0.00000001
 40
0.0
 40
0.0
 40
0.0
 40
0.0
 40
0.25
 40
0.25
 40
0.5
 40
0.5
 40
0.75
 40
0.75
 40
1.0
 40
1.0
 40
1.0
 40
1.0
 10
882.1074627055672
 20
615.5852238805955
 30
0.0
 10
882.1984458580667
 20
615.5852238789288
 30
0.0
 10
882.2893949191392
 20
615.20358184124
 30
0.0
 10
882.457813964868
 20
613.7333254328897
 30
0.0
 10
882.5352201573993
 20
612.6452738367384
 30
0.0
 10
882.665013800733
 20
609.9236924229955
 30
0.0
 10
882.7173513132227
 20
608.2912097395799
 30
0.0
 10
882.7891936088482
 20
604.7235399279824
 30
0.0
 10
882.8086709045671
 20
602.7897040251039
 30
0.0
 10
882.810267474567
 20
600.8484436825955
 30
0.0
  0
SPLINE
  5
DE
330
1F
100
AcDbEntity
  8
0
  6
Continuous
 62
     7
370
    25
100
AcDbSpline
210
0.0
220
0.0
230
1.0
 70
     8
 71
     3
 72
    14
 73
    10
 74
     0
 42
0.000000001
 43
0.00000001
 40
0.0
 40
0.0
 40
0.0
 40
0.0
 40
0.25
 40
0.25
 40
0.5
 40
0.5
 40
0.75
 40
0.75
 40
1.0
 40
1.0
 40
1.0
 40
1.0
 10
882.2805164415671
 20
230.1845598915955
 30
0.0
 10
882.2799214474004
 20
228.2551457832705
 30
0.0
 10
882.2749761260777
 20
226.3365104140026
 30
0.0
 10
882.2571060554005
 20
222.8004523462769
 30
0.0
 10
882.2441879813174
 20
221.1843375637446
 30
0.0
 10
882.2122678788173
 20
218.4914615699878
 30
0.0
 10
882.1932778422758
 20
217.4157120363371
 30
0.0
 10
882.1520053051403
 20
215.9623215658856
 30
0.0
 10
882.1297380724005
 20
215.5852238805955
 30
0.0
 10
882.1074626865671
 20
215.5852238805955
 30
0.0
  0
SPLINE
  5
DF
330
1F
100
AcDbEntity
  8
0
  6
Continuous
 62
     7
370
    25
100
AcDbSpline
210
0.0
220
0.0
230
1.0
 70
     8
 71
     3
 72
    14
 73
    10
 74
     0
 42
0.000000001
 43
0.00000001
 40
0.0
 40
0.0
 40
0.0
 40
0.0
 40
0.25
 40
0.25
 40
0.5
 40
0.5
 40
0.75
 40
0.75
 40
1.0
 40
1.0
 40
1.0
 40
1.0
 10
897.1074626865671
 20
230.5852238595955
 30
0.0
 10
897.1074626857338
 20
230.5331592512622
 30
0.0
 10
896.7228248005462
 20
230.4811144542518
 30
0.0
 10
895.2414577570568
 20
230.384796938783
 30
0.0
 10
894.1453044909838
 20
230.3405612698455
 30
0.0
 10
891.4048453701505
 20
230.2665072623456
 30
0.0
 10
889.7616104512234
 20
230.236717863033
 30
0.0
 10
886.1732308995047
 20
230.1960382413142
 30
0.0
 10
884.2294665015671
 20
230.1851638289288
 30
0.0
 10
882.2805228115672
 20
230.1845631405955
 30
0.0
  0
SPLINE
  5
E0
330
1F
100
AcDbEntity
  8
0
  6
Continuous
 62
     7
370
    25
100
AcDbSpline
210
0.0
220
0.0
230
1.0
 70
     8
 71
     3
 72
    14
 73
    10
 74
     0
 42
0.000000001
 43
0.00000001
 40
0.0
 40
0.0
 40
0.0
 40
0.0
 40
0.25
 40
0.25
 40
0.5
 40
0.5
 40
0.75
 40
0.75
 40
1.0
 40
1.0
 40
1.0
 40
1.0
 10
571.856642724567
 20
230.2073596375955
 30
0.0
 10
569.9143215495671
 20
230.2081780225955
 30
0.0
 10
567.9791181476244
 20
230.2186203877361
 30
0.0
 10
564.4085988210879
 20
230.2572107665643
 30
0.0
 10
562.774638083442
 20
230.2853439835538
 30
0.0
 10
560.0504626321922
 20
230.3551355581372
 30
0.0
 10
558.9612983005775
 20
230.3967670055122
 30
0.0
 10
557.4895160459162
 20
230.4873570600694
 30
0.0
 10
557.107462686567
 20
230.5362812814289
 30
0.0
 10
557.107462686567
 20
230.5852238805955
 30
0.0
  0
SPLINE
  5
E1
330
1F
100
AcDbEntity
  8
0
  6
Continuous
 62
     7
370
    25
100
AcDbSpline
210
0.0
220
0.0
230
1.0
 70
     8
 71
     3
 72
    14
 73
    10
 74
     0
 42
0.000000001
 43
0.00000001
 40
0.0
 40
0.0
 40
0.0
 40
0.0
 40
0.25
 40
0.25
 40
0.5
 40
0.5
 40
0.75
 40
0.75
 40
1.0
 40
1.0
 40
1.0
 40
1.0
 10
572.107462677567
 20
215.5852238805955
 30
0.0
 10
572.075147174234
 20
215.5852238822621
 30
0.0
 10
572.042843540932
 20
215.963073467342
 30
0.0
 10
571.9829775978592
 20
217.4192555749893
 30
0.0
 10
571.9554375206508
 20
218.4970416469949
 30
0.0
 10
571.909164431484
 20
221.1946730261547
 30
0.0
 10
571.8904488730883
 20
222.8135008426016
 30
0.0
 10
571.8645917765776
 20
226.3548057946414
 30
0.0
 10
571.8574599357338
 20
228.275967906254
 30
0.0
 10
571.8566458615671
 20
230.2073580595955
 30
0.0
  0
SPLINE
  5
E2
330
1F
100
AcDbEntity
  8
0
  6
Continuous
 62
     7
370
    25
100
AcDbSpline
210
0.0
220
0.0
230
1.0
 70
     8
 71
     3
 72
    14
 73
    10
 74
     0
 42
0.000000001
 43
0.00000001
 40
0.0
 40
0.0
 40
0.0
 40
0.0
 40
0.25
 40
0.25
 40
0.5
 40
0.5
 40
0.75
 40
0.75
 40
1.0
 40
1.0
 40
1.0
 40
1.0
 10
211.8634296295671
 20
230.1998055415955
 30
0.0
 10
209.9205283804004
 20
230.2006179299288
 30
0.0
 10
207.9845767659785
 20
230.2112524914028
 30
0.0
 10
204.4124979626711
 20
230.2505943662727
 30
0.0
 10
202.7777281324421
 20
230.2792865768872
 30
0.0
 10
200.0521325611921
 20
230.3504777448038
 30
0.0
 10
198.9623589835149
 20
230.3929492198872
 30
0.0
 10
197.4897412738537
 20
230.4853722475695
 30
0.0
 10
197.1074626865671
 20
230.5352886780955
 30
0.0
 10
197.1074626865671
 20
230.5852238805955
 30
0.0
  0
SPLINE
  5
E3
330
1F
100
AcDbEntity
  8
0
  6
Continuous
 62
     7
370
    25
100
AcDbSpline
210
0.0
220
0.0
230
1.0
 70
     8
 71
     3
 72
    14
 73
    10
 74
     0
 42
0.000000001
 43
0.00000001
 40
0.0
 40
0.0
 40
0.0
 40
0.0
 40
0.25
 40
0.25
 40
0.5
 40
0.5
 40
0.75
 40
0.75
 40
1.0
 40
1.0
 40
1.0
 40
1.0
 10
212.1074626865672
 20
215.5852238805955
 30
0.0
 10
212.0760314657336
 20
215.5852238805955
 30
0.0
 10
212.044611778395
 20
215.9628242240157
 30
0.0
 10
211.986381035348
 20
217.4180809988162
 30
0.0
 10
211.9595915773583
 20
218.4951920416127
 30
0.0
 10
211.9145736702751
 20
221.1912473516196
 30
0.0
 10
211.8963621785254
 20
222.8091760573499
 30
0.0
 10
211.8711908906864
 20
226.3487424811955
 30
0.0
 10
211.8642405224004
 20
228.2690675341038
 30
0.0
 10
211.8634329065671
 20
230.1998033615955
 30
0.0
  0
SPLINE
  5
E4
330
1F
100
AcDbEntity
  8
0
  6
Continuous
 62
     7
370
    25
100
AcDbSpline
210
0.0
220
0.0
230
1.0
 70
     8
 71
     3
 72
    14
 73
    10
 74
     0
 42
0.000000001
 43
0.00000001
 40
0.0
 40
0.0
 40
0.0
 40
0.0
 40
0.25
 40
0.25
 40
0.5
 40
0.5
 40
0.75
 40
0.75
 40
1.0
 40
1.0
 40
1.0
 40
1.0
 10
522.1074626865671
 20
215.5852238805955
 30
0.0
 10
522.1309319604812
 20
215.5852238805955
 30
0.0
 10
522.154392659332
 20
215.9622382064975
 30
0.0
 10
522.1978782248526
 20
217.4153191642779
 30
0.0
 10
522.2178870130157
 20
218.490842898808
 30
0.0
 10
522.2515214119251
 20
221.1831915702285
 30
0.0
 10
522.2651343929988
 20
222.7990054725473
 30
0.0
 10
522.2839691337186
 20
226.3344814871266
 30
0.0
 10
522.2891838617105
 20
228.2528364700686
 30
0.0
 10
522.2898158495012
 20
230.182031139741
 30
0.0
  0
SPLINE
  5
E5
330
1F
100
AcDbEntity
  8
0
  6
Continuous
 62
     7
370
    25
100
AcDbSpline
210
0.0
220
0.0
230
1.0
 70
     8
 71
     3
 72
    14
 73
    10
 74
     0
 42
0.000000001
 43
0.00000001
 40
0.0
 40
0.0
 40
0.0
 40
0.0
 40
0.25
 40
0.25
 40
0.5
 40
0.5
 40
0.75
 40
0.75
 40
1.0
 40
1.0
 40
1.0
 40
1.0
 10
537.107462686567
 20
230.5852238755955
 30
0.0
 10
537.1074626857338
 20
230.5328508417418
 30
0.0
 10
536.7231341420194
 20
230.4804977046283
 30
0.0
 10
535.2429140436117
 20
230.3836034488996
 30
0.0
 10
534.1475970176991
 20
230.3390995424177
 30
0.0
 10
531.4090854422845
 20
230.2645840370901
 30
0.0
 10
529.7669593557677
 20
230.2346015113545
 30
0.0
 10
526.1807134378071
 20
230.1936361071699
 30
0.0
 10
524.2379708297016
 20
230.1826691240757
 30
0.0
 10
522.2898158655041
 20
230.1820324315311
 30
0.0
  0
SPLINE
  5
E6
330
1F
100
AcDbEntity
  8
0
  6
Continuous
 62
     7
370
    25
100
AcDbSpline
210
0.0
220
0.0
230
1.0
 70
     8
 71
     3
 72
    14
 73
    10
 74
     0
 42
0.000000001
 43
0.00000001
 40
0.0
 40
0.0
 40
0.0
 40
0.0
 40
0.25
 40
0.25
 40
0.5
 40
0.5
 40
0.75
 40
0.75
 40
1.0
 40
1.0
 40
1.0
 40
1.0
 10
211.430431170567
 20
601.0830129195955
 30
0.0
 10
211.433311655567
 20
603.0039596379204
 30
0.0
 10
211.4530673665407
 20
604.9118067094744
 30
0.0
 10
211.5234717283895
 20
608.4254970313928
 30
0.0
 10
211.574094524025
 20
610.030062315821
 30
0.0
 10
211.6988661236077
 20
612.702706073328
 30
0.0
 10
211.7729688395659
 20
613.7697973325306
 30
0.0
 10
211.9338972127691
 20
615.2113211334253
 30
0.0
 10
212.0206643307333
 20
615.5852238805955
 30
0.0
 10
212.107462686567
 20
615.5852238805955
 30
0.0
  0
SPLINE
  5
E7
330
1F
100
AcDbEntity
  8
0
  6
Continuous
 62
     7
370
    25
100
AcDbSpline
210
0.0
220
0.0
230
1.0
 70
     8
 71
     3
 72
    14
 73
    10
 74
     0
 42
0.000000001
 43
0.00000001
 40
0.0
 40
0.0
 40
0.0
 40
0.0
 40
0.25
 40
0.25
 40
0.5
 40
0.5
 40
0.75
 40
0.75
 40
1.0
 40
1.0
 40
1.0
 40
1.0
 10
197.1074626865671
 20
600.5852238865955
 30
0.0
 10
197.1074626882337
 20
600.6485752865958
 30
0.0
 10
197.4755041301279
 20
600.7119045847575
 30
0.0
 10
198.8952385765693
 20
600.829502685513
 30
0.0
 10
199.9464259027093
 20
600.8837300238046
 30
0.0
 10
202.5818434089663
 20
600.9753220258877
 30
0.0
 10
204.1651302679881
 20
601.0126539054397
 30
0.0
 10
207.6374778807659
 20
601.0650765281738
 30
0.0
 10
209.5253145457421
 20
601.0801486184289
 30
0.0
 10
211.430427651567
 20
601.0830080275955
 30
0.0
  0
SPLINE
  5
E8
330
1F
100
AcDbEntity
  8
0
  6
Continuous
 62
     7
370
    25
100
AcDbSpline
210
0.0
220
0.0
230
1.0
 70
     8
 71
     3
 72
    14
 73
    10
 74
     0
 42
0.000000001
 43
0.00000001
 40
0.0
 40
0.0
 40
0.0
 40
0.0
 40
0.25
 40
0.25
 40
0.5
 40
0.5
 40
0.75
 40
0.75
 40
1.0
 40
1.0
 40
1.0
 40
1.0
 10
571.456981363567
 20
601.1060859785955
 30
0.0
 10
571.4598744185671
 20
603.025009548587
 30
0.0
 10
571.4789480588481
 20
604.930288097938
 30
0.0
 10
571.5467030668166
 20
608.43866120332
 30
0.0
 10
571.595359652983
 20
610.0404848295294
 30
0.0
 10
571.7152136471494
 20
612.7083285491198
 30
0.0
 10
571.7863669620659
 20
613.773367169385
 30
0.0
 10
571.9408617750352
 20
615.2120781543681
 30
0.0
 10
572.0241472982334
 20
615.5852238805955
 30
0.0
 10
572.1074626865671
 20
615.5852238805954
 30
0.0
  0
SPLINE
  5
E9
330
1F
100
AcDbEntity
  8
0
  6
Continuous
 62
     7
370
    25
100
AcDbSpline
210
0.0
220
0.0
230
1.0
 70
     8
 71
     3
 72
    14
 73
    10
 74
     0
 42
0.000000001
 43
0.00000001
 40
0.0
 40
0.0
 40
0.0
 40
0.0
 40
0.25
 40
0.25
 40
0.5
 40
0.5
 40
0.75
 40
0.75
 40
1.0
 40
1.0
 40
1.0
 40
1.0
 10
557.107462686567
 20
600.5852238875955
 30
0.0
 10
557.1074626882339
 20
600.6515836192622
 30
0.0
 10
557.4763694907338
 20
600.7179200924653
 30
0.0
 10
558.899322475838
 20
600.84108061296
 30
0.0
 10
559.9528594657338
 20
600.8978610332205
 30
0.0
 10
562.5937819274004
 20
600.9937211344705
 30
0.0
 10
564.1802176777546
 20
601.0327663425121
 30
0.0
 10
567.6586942261921
 20
601.087517721757
 30
0.0
 10
569.5495030679004
 20
601.1032043199289
 30
0.0
 10
571.4569783345671
 20
601.1060820515955
 30
0.0
  0
SPLINE
  5
EA
330
1F
100
AcDbEntity
  8
0
  6
Continuous
 62
     7
370
    25
100
AcDbSpline
210
0.0
220
0.0
230
1.0
 70
     8
 71
     3
 72
    12
 73
     8
 74
     0
 42
0.000000001
 43
0.00000001
 40
0.0
 40
0.0
 40
0.0
 40
0.0
 40
0.2500000000000034
 40
0.2500000000000034
 40
0.5000000000000068
 40
0.5000000000000068
 40
1.0
 40
1.0
 40
1.0
 40
1.0
 10
876.2920596205904
 20
230.1141063511273
 30
0.0
 10
876.7896910113591
 20
230.1208462662182
 30
0.0
 10
877.2920095888508
 20
230.1272603395103
 30
0.0
 10
878.2955015037879
 20
230.1395837773851
 30
0.0
 10
878.7980520478909
 20
230.1455101039927
 30
0.0
 10
880.3020669967046
 20
230.1628263779589
 30
0.0
 10
881.2995408531765
 20
230.1737589485996
 30
0.0
 10
882.2805164415671
 20
230.1845598915955
 30
0.0
  0
SPLINE
  5
EB
330
1F
100
AcDbEntity
  8
0
  6
Continuous
 62
     7
370
    25
100
AcDbSpline
210
0.0
220
0.0
230
1.0
 70
     8
 71
     3
 72
    24
 73
    20
 74
     0
 42
0.000000001
 43
0.00000001
 40
0.0
 40
0.0
 40
0.0
 40
0.0
 40
0.2499999999999981
 40
0.2499999999999981
 40
0.4999999999999961
 40
0.4999999999999961
 40
0.6249999999999951
 40
0.6249999999999951
 40
0.7499999999999941
 40
0.7499999999999941
 40
0.8749999999999931
 40
0.8749999999999931
 40
0.9062499999999949
 40
0.9062499999999949
 40
0.9374999999999966
 40
0.9374999999999966
 40
0.9687499999999983
 40
0.9687499999999983
 40
1.0
 40
1.0
 40
1.0
 40
1.0
 10
882.2805228115672
 20
230.1845631405955
 30
0.0
 10
882.3071929081867
 20
232.5572112479424
 30
0.0
 10
882.3345740127633
 20
234.9705291356178
 30
0.0
 10
882.3946714888801
 20
239.8763013553209
 30
0.0
 10
882.4270837444778
 20
242.3697143689011
 30
0.0
 10
882.4868618740398
 20
246.1846123868015
 30
0.0
 10
882.5086602978974
 20
247.4661695674623
 30
0.0
 10
882.5592989290543
 20
250.0547220329591
 30
0.0
 10
882.5879727258878
 20
251.3653739273578
 30
0.0
 10
882.6609280494275
 20
254.012386254659
 30
0.0
 10
882.7033067277672
 20
255.3422834959714
 30
0.0
 10
882.7862300104817
 20
257.0162998443085
 30
0.0
 10
882.8044507425263
 20
257.3508919701451
 30
0.0
 10
882.8459862736343
 20
258.0180717444125
 30
0.0
 10
882.8692839223725
 20
258.3511735415065
 30
0.0
 10
882.923543556869
 20
259.0051726358883
 30
0.0
 10
882.9545685175672
 20
259.3270036301959
 30
0.0
 10
883.0302261305316
 20
259.9444701767364
 30
0.0
 10
883.0752332887539
 20
260.2403744077858
 30
0.0
 10
883.1314743935671
 20
260.4994010185954
 30
0.0
  0
SPLINE
  5
EC
330
1F
100
AcDbEntity
  8
0
  6
Continuous
 62
     7
370
    25
100
AcDbSpline
210
0.0
220
0.0
230
1.0
 70
     8
 71
     3
 72
    12
 73
     8
 74
     0
 42
0.000000001
 43
0.00000001
 40
0.0
 40
0.0
 40
0.0
 40
0.0
 40
0.2500000000000033
 40
0.2500000000000033
 40
0.5000000000000067
 40
0.5000000000000067
 40
1.0
 40
1.0
 40
1.0
 40
1.0
 10
515.9954309325609
 20
230.1040485462436
 30
0.0
 10
516.5199223329358
 20
230.1116475280828
 30
0.0
 10
517.0503453859118
 20
230.1188456749835
 30
0.0
 10
518.1073991012988
 20
230.132567736021
 30
0.0
 10
518.6369892217123
 20
230.1391441426337
 30
0.0
 10
520.2187463433033
 20
230.1582625071612
 30
0.0
 10
521.2655013543173
 20
230.1702512714081
 30
0.0
 10
522.2898158495046
 20
230.1820311397397
 30
0.0
  0
SPLINE
  5
ED
330
1F
100
AcDbEntity
  8
0
  6
Continuous
 62
     7
370
    25
100
AcDbSpline
210
0.0
220
0.0
230
1.0
 70
     8
 71
     3
 72
    24
 73
    20
 74
     0
 42
0.000000001
 43
0.00000001
 40
0.0
 40
0.0
 40
0.0
 40
0.0
 40
0.0312500000000001
 40
0.0312500000000001
 40
0.0625000000000002
 40
0.0625000000000002
 40
0.1250000000000001
 40
0.1250000000000001
 40
0.1875000000000001
 40
0.1875000000000001
 40
0.25
 40
0.25
 40
0.375
 40
0.375
 40
0.5
 40
0.5
 40
0.75
 40
0.75
 40
1.0
 40
1.0
 40
1.0
 40
1.0
 10
523.1052463735672
 20
259.2514534105955
 30
0.0
 10
523.0548736525933
 20
258.9866573143373
 30
0.0
 10
523.0140251370946
 20
258.6947138624969
 30
0.0
 10
522.9439797223056
 20
258.0853846304627
 30
0.0
 10
522.9148101402864
 20
257.7679832040532
 30
0.0
 10
522.8379591295809
 20
256.8044045429074
 30
0.0
 10
522.8004415665029
 20
256.1503981720334
 30
0.0
 10
522.736778217804
 20
254.8474081888366
 30
0.0
 10
522.711029355475
 20
254.1981207988204
 30
0.0
 10
522.6654558823207
 20
252.9097922644649
 30
0.0
 10
522.6457550611303
 20
252.2695592562938
 30
0.0
 10
522.5923963399714
 20
250.3553126638082
 30
0.0
 10
522.5643207656003
 20
249.0945065496232
 30
0.0
 10
522.514653916689
 20
246.610677234841
 30
0.0
 10
522.49323189856
 20
245.3841869765773
 30
0.0
 10
522.4344180785515
 20
241.7396761368238
 30
0.0
 10
522.4024409681406
 20
239.3662079583922
 30
0.0
 10
522.3431552125622
 20
234.7089538505051
 30
0.0
 10
522.3161340463503
 20
232.4244881536151
 30
0.0
 10
522.2898158655042
 20
230.1820324315312
 30
0.0
  0
SPLINE
  5
EE
330
1F
100
AcDbEntity
  8
0
  6
Continuous
 62
     7
370
    25
100
AcDbSpline
210
0.0
220
0.0
230
1.0
 70
     8
 71
     3
 72
    24
 73
    20
 74
     0
 42
0.000000001
 43
0.00000001
 40
0.0
 40
0.0
 40
0.0
 40
0.0
 40
0.0156250000000011
 40
0.0156250000000011
 40
0.0312500000000023
 40
0.0312500000000023
 40
0.0625000000000043
 40
0.0625000000000043
 40
0.1250000000000046
 40
0.1250000000000046
 40
0.250000000000005
 40
0.250000000000005
 40
0.3750000000000056
 40
0.3750000000000056
 40
0.500000000000006
 40
0.500000000000006
 40
0.750000000000003
 40
0.750000000000003
 40
1.0
 40
1.0
 40
1.0
 40
1.0
 10
571.3373515015671
 20
250.3041166275956
 30
0.0
 10
571.3456681303438
 20
250.2023419342165
 30
0.0
 10
571.354159418632
 20
250.0932199240991
 30
0.0
 10
571.369717629655
 20
249.881921273339
 30
0.0
 10
571.376933507482
 20
249.778246426494
 30
0.0
 10
571.3979295028852
 20
249.4645321506841
 30
0.0
 10
571.4108824087317
 20
249.2522569601246
 30
0.0
 10
571.4473256108117
 20
248.6104348998637
 30
0.0
 10
571.4681532452781
 20
248.1776598679541
 30
0.0
 10
571.5244193503335
 20
246.8732406669139
 30
0.0
 10
571.5537429348791
 20
245.9975936389804
 30
0.0
 10
571.6049924083633
 20
244.2551928750794
 30
0.0
 10
571.6266927801638
 20
243.3878449817414
 30
0.0
 10
571.665874995343
 20
241.6689041123802
 30
0.0
 10
571.6833126642568
 20
240.8169004077309
 30
0.0
 10
571.7318463974175
 20
238.2825876846624
 30
0.0
 10
571.7592249514619
 20
236.6222975301376
 30
0.0
 10
571.8102028513395
 20
233.3683459674035
 30
0.0
 10
571.8336959938783
 20
231.7728375045856
 30
0.0
 10
571.856642724567
 20
230.2073596375955
 30
0.0
  0
SPLINE
  5
EF
330
1F
100
AcDbEntity
  8
0
  6
Continuous
 62
     7
370
    25
100
AcDbSpline
210
0.0
220
0.0
230
1.0
 70
     8
 71
     3
 72
    12
 73
     8
 74
     0
 42
0.000000001
 43
0.00000001
 40
0.0
 40
0.0
 40
0.0
 40
0.0
 40
0.5000000000000044
 40
0.5000000000000044
 40
0.7500000000000022
 40
0.7500000000000022
 40
1.0
 40
1.0
 40
1.0
 40
1.0
 10
571.8566458615671
 20
230.2073580595955
 30
0.0
 10
573.3780417377466
 20
230.1853317125331
 30
0.0
 10
574.9482570743835
 20
230.1627599930988
 30
0.0
 10
577.337462175405
 20
230.1243158225565
 30
0.0
 10
578.1395269925594
 20
230.1107019406763
 30
0.0
 10
579.7386123777214
 20
230.0807772575209
 30
0.0
 10
580.5397589214753
 20
230.0641127999305
 30
0.0
 10
581.3203043995671
 20
230.0455063455955
 30
0.0
  0
SPLINE
  5
F0
330
1F
100
AcDbEntity
  8
0
  6
Continuous
 62
     7
370
    25
100
AcDbSpline
210
0.0
220
0.0
230
1.0
 70
     8
 71
     3
 72
    20
 73
    16
 74
     0
 42
0.000000001
 43
0.00000001
 40
0.0
 40
0.0
 40
0.0
 40
0.0
 40
0.0156250000000021
 40
0.0156250000000021
 40
0.0312500000000042
 40
0.0312500000000042
 40
0.0625000000000058
 40
0.0625000000000058
 40
0.1250000000000052
 40
0.1250000000000052
 40
0.2500000000000041
 40
0.2500000000000041
 40
0.5000000000000013
 40
0.5000000000000013
 40
1.0
 40
1.0
 40
1.0
 40
1.0
 10
211.3085663645671
 20
251.2589992815955
 30
0.0
 10
211.3182638339763
 20
251.1511645648885
 30
0.0
 10
211.3282956333703
 20
251.0324335028365
 30
0.0
 10
211.3459436197352
 20
250.8112147078012
 30
0.0
 10
211.3542978987714
 20
250.7005692965086
 30
0.0
 10
211.3783958617173
 20
250.3650490161118
 30
0.0
 10
211.3930614309935
 20
250.1383887477737
 30
0.0
 10
211.4338864842419
 20
249.4534115225389
 30
0.0
 10
211.4569358179211
 20
248.9904312176616
 30
0.0
 10
211.5185214787791
 20
247.5993969078077
 30
0.0
 10
211.5497622816765
 20
246.669165193871
 30
0.0
 10
211.6311258599015
 20
243.9072144446969
 30
0.0
 10
211.669011800515
 20
242.0977748990051
 30
0.0
 10
211.7692073932769
 20
236.8037130868324
 30
0.0
 10
211.8166932374081
 20
233.4309786590681
 30
0.0
 10
211.8634296295671
 20
230.1998055415955
 30
0.0
  0
SPLINE
  5
F1
330
1F
100
AcDbEntity
  8
0
  6
Continuous
 62
     7
370
    25
100
AcDbSpline
210
0.0
220
0.0
230
1.0
 70
     8
 71
     3
 72
    12
 73
     8
 74
     0
 42
0.000000001
 43
0.00000001
 40
0.0
 40
0.0
 40
0.0
 40
0.0
 40
0.4999999999999817
 40
0.4999999999999817
 40
0.7499999999999909
 40
0.7499999999999909
 40
1.0
 40
1.0
 40
1.0
 40
1.0
 10
211.8634329065671
 20
230.1998033615955
 30
0.0
 10
213.3025662664865
 20
230.1792712282634
 30
0.0
 10
214.7931925604158
 20
230.1581419252643
 30
0.0
 10
217.0688488416629
 20
230.1223726040147
 30
0.0
 10
217.8331740744619
 20
230.1097953414939
 30
0.0
 10
219.3600047129066
 20
230.0821867143576
 30
0.0
 10
220.1244680231919
 20
230.0669411812631
 30
0.0
 10
220.8731226065671
 20
230.0501014295955
 30
0.0
  0
SPLINE
  5
F2
330
1F
100
AcDbEntity
  8
0
  6
Continuous
 62
     7
370
    25
100
AcDbSpline
210
0.0
220
0.0
230
1.0
 70
     8
 71
     3
 72
    24
 73
    20
 74
     0
 42
0.000000001
 43
0.00000001
 40
0.0
 40
0.0
 40
0.0
 40
0.0
 40
0.2500000000000001
 40
0.2500000000000001
 40
0.5000000000000001
 40
0.5000000000000001
 40
0.7500000000000002
 40
0.7500000000000002
 40
0.8750000000000002
 40
0.8750000000000002
 40
0.8906250000000002
 40
0.8906250000000002
 40
0.9062500000000002
 40
0.9062500000000002
 40
0.9375000000000001
 40
0.9375000000000001
 40
0.9687500000000001
 40
0.9687500000000001
 40
1.0
 40
1.0
 40
1.0
 40
1.0
 10
632.5096581236671
 20
230.0401277908738
 30
0.0
 10
652.7575641932558
 20
230.0397152940994
 30
0.0
 10
673.0002099088846
 20
230.0414088244588
 30
0.0
 10
713.4706514253814
 20
230.0487087526617
 30
0.0
 10
733.7034853589901
 20
230.0542798634281
 30
0.0
 10
774.1702395931796
 20
230.0681689889486
 30
0.0
 10
794.4046581909794
 20
230.0764688939811
 30
0.0
 10
824.7765645382464
 20
230.0899238680462
 30
0.0
 10
834.9039302500474
 20
230.0945748978773
 30
0.0
 10
846.3006037875571
 20
230.0999018713912
 30
0.0
 10
847.5669445357955
 20
230.1004950816999
 30
0.0
 10
850.0997056825308
 20
230.10168385161
 30
0.0
 10
851.3653600588417
 20
230.1022790416996
 30
0.0
 10
855.1799900771437
 20
230.1040761722986
 30
0.0
 10
857.7507014952423
 20
230.1052916444202
 30
0.0
 10
862.9741968628617
 20
230.1077678546401
 30
0.0
 10
865.6251354993412
 20
230.1090277046623
 30
0.0
 10
870.9565281611344
 20
230.1115646024525
 30
0.0
 10
873.6351365721573
 20
230.1128407619988
 30
0.0
 10
876.2920596196917
 20
230.1141064137657
 30
0.0
  0
SPLINE
  5
F3
330
1F
100
AcDbEntity
  8
0
  6
Continuous
 62
     7
370
    25
100
AcDbSpline
210
0.0
220
0.0
230
1.0
 70
     8
 71
     3
 72
    20
 73
    16
 74
     0
 42
0.000000001
 43
0.00000001
 40
0.0
 40
0.0
 40
0.0
 40
0.0
 40
0.2500000000000001
 40
0.2500000000000001
 40
0.5000000000000002
 40
0.5000000000000002
 40
0.7500000000000002
 40
0.7500000000000002
 40
0.875
 40
0.875
 40
0.9374999999999998
 40
0.9374999999999998
 40
0.9687499999999999
 40
0.9687499999999999
 40
1.0
 40
1.0
 40
1.0
 40
1.0
 10
294.5234862425671
 20
230.0401296085955
 30
0.0
 10
312.9800355446525
 20
230.0398411064386
 30
0.0
 10
331.43408561531
 20
230.0412943167721
 30
0.0
 10
368.332521691549
 20
230.0474848979703
 30
0.0
 10
386.7809113928433
 20
230.0521889747214
 30
0.0
 10
423.6811971272929
 20
230.0640434107426
 30
0.0
 10
442.1320663444849
 20
230.0711756098412
 30
0.0
 10
469.8219650733823
 20
230.0829192951367
 30
0.0
 10
479.0539486797629
 20
230.0870062208562
 30
0.0
 10
492.90752011767
 20
230.093299661164
 30
0.0
 10
497.5256419232073
 20
230.0954243397599
 30
0.0
 10
504.4534715256844
 20
230.0986404296148
 30
0.0
 10
506.7625413533652
 20
230.0997171380193
 30
0.0
 10
511.3828238067188
 20
230.1018794938352
 30
0.0
 10
513.6958548265836
 20
230.1029661123149
 30
0.0
 10
515.9954363115671
 20
230.1040486195955
 30
0.0
  0
SPLINE
  5
F4
330
1F
100
AcDbEntity
  8
0
  6
Continuous
 62
     7
370
    25
100
AcDbSpline
210
0.0
220
0.0
230
1.0
 70
     8
 71
     3
 72
    14
 73
    10
 74
     0
 42
0.000000001
 43
0.00000001
 40
0.0
 40
0.0
 40
0.0
 40
0.0
 40
0.25
 40
0.25
 40
0.5
 40
0.5
 40
0.75
 40
0.75
 40
1.0
 40
1.0
 40
1.0
 40
1.0
 10
537.107462686567
 20
600.5852238805955
 30
0.0
 10
537.1074626882338
 20
600.6220127228887
 30
0.0
 10
536.7406896306956
 20
600.6587888376118
 30
0.0
 10
535.3256736566831
 20
600.7270973598506
 30
0.0
 10
534.2779312961925
 20
600.7586058464271
 30
0.0
 10
531.6505880830431
 20
600.8118611512007
 30
0.0
 10
530.0719212191676
 20
600.8335890385423
 30
0.0
 10
526.6085726369589
 20
600.8641635280226
 30
0.0
 10
524.7251034531293
 20
600.8729992959903
 30
0.0
 10
522.8234680528091
 20
600.8747565564586
 30
0.0
  0
SPLINE
  5
F5
330
1F
100
AcDbEntity
  8
0
  6
Continuous
 62
     7
370
    25
100
AcDbSpline
210
0.0
220
0.0
230
1.0
 70
     8
 71
     3
 72
    14
 73
    10
 74
     0
 42
0.000000001
 43
0.00000001
 40
0.0
 40
0.0
 40
0.0
 40
0.0
 40
0.25
 40
0.25
 40
0.5
 40
0.5
 40
0.75
 40
0.75
 40
1.0
 40
1.0
 40
1.0
 40
1.0
 10
522.823468068849
 20
600.8747565629442
 30
0.0
 10
522.8216817835782
 20
602.8137614189043
 30
0.0
 10
522.8017203273558
 20
604.744693308346
 30
0.0
 10
522.7283858637337
 20
608.3063150133037
 30
0.0
 10
522.6750407875146
 20
609.9356619795817
 30
0.0
 10
522.5428403543962
 20
612.6517411430312
 30
0.0
 10
522.4640356314096
 20
613.7374330700186
 30
0.0
 10
522.2926099286345
 20
615.2044539344932
 30
0.0
 10
522.2000535878116
 20
615.5852238789289
 30
0.0
 10
522.1074627055671
 20
615.5852238805955
 30
0.0
  0
SPLINE
  5
F6
330
1F
100
AcDbEntity
  8
0
  6
Continuous
 62
     7
370
    25
100
AcDbSpline
210
0.0
220
0.0
230
1.0
 70
     8
 71
     3
 72
    20
 73
    16
 74
     0
 42
0.000000001
 43
0.00000001
 40
0.0
 40
0.0
 40
0.0
 40
0.0
 40
0.0624999999999992
 40
0.0624999999999992
 40
0.1249999999999983
 40
0.1249999999999983
 40
0.1874999999999975
 40
0.1874999999999975
 40
0.2499999999999967
 40
0.2499999999999967
 40
0.4999999999999978
 40
0.4999999999999978
 40
0.7499999999999989
 40
0.7499999999999989
 40
1.0
 40
1.0
 40
1.0
 40
1.0
 10
294.5234862425667
 20
230.0401296309812
 30
0.0
 10
293.0654009666248
 20
230.0401499302633
 30
0.0
 10
291.6144090779215
 20
230.0401820046681
 30
0.0
 10
288.6918884744352
 20
230.0402708472607
 30
0.0
 10
287.2196677474843
 20
230.0403275985263
 30
0.0
 10
284.2308373854431
 20
230.0404658334687
 30
0.0
 10
282.7135358274267
 20
230.040547300371
 30
0.0
 10
279.6437056657634
 20
230.0407344385667
 30
0.0
 10
278.0943176466223
 20
230.0408400768323
 30
0.0
 10
270.3663815369582
 20
230.0414275184237
 30
0.0
 10
264.1833550567013
 20
230.0420878877929
 30
0.0
 10
251.81552631835
 20
230.0437748931534
 30
0.0
 10
245.6317277563242
 20
230.0448035377603
 30
0.0
 10
233.2527649085079
 20
230.0471683662087
 30
0.0
 10
227.0612776431705
 20
230.0485726220862
 30
0.0
 10
220.8731229095668
 20
230.0501021385795
 30
0.0
  0
LWPOLYLINE
  5
F7
330
1F
100
AcDbEntity
  8
0
  6
Continuous
 62
     7
370
    25
100
AcDbPolyline
 90
        3
 70
   128
 43
0.0
 10
632.5096611204
 20
230.0401221188
 10
606.9295157018
 20
230.0417463453
 10
581.3202981177
 20
230.045501438
  0
SPLINE
  5
F8
330
1F
100
AcDbEntity
  8
0
  6
Continuous
 62
     7
370
    25
100
AcDbSpline
210
0.0
220
0.0
230
1.0
 70
     8
 71
     3
 72
    14
 73
    10
 74
     0
 42
0.000000001
 43
0.00000001
 40
0.0
 40
0.0
 40
0.0
 40
0.0
 40
0.1250000000000001
 40
0.1250000000000001
 40
0.2500000000000002
 40
0.2500000000000002
 40
0.5
 40
0.5
 40
1.0
 40
1.0
 40
1.0
 40
1.0
 10
882.8981624825672
 20
596.0182976685954
 30
0.0
 10
882.894127999228
 20
596.223221106949
 30
0.0
 10
882.8901066646317
 20
596.4310120717203
 30
0.0
 10
882.8822707192985
 20
596.8416543299122
 30
0.0
 10
882.8784079924446
 20
597.046976942997
 30
0.0
 10
882.8669686323753
 20
597.661950707891
 30
0.0
 10
882.8595404739687
 20
598.0705745614076
 30
0.0
 10
882.8377306561977
 20
599.285515288005
 30
0.0
 10
882.8238233379004
 20
600.0802706412622
 30
0.0
 10
882.8102686845672
 20
600.8484405195956
 30
0.0
  0
SPLINE
  5
F9
330
1F
100
AcDbEntity
  8
0
  6
Continuous
 62
     7
370
    25
100
AcDbSpline
210
0.0
220
0.0
230
1.0
 70
     8
 71
     3
 72
    32
 73
    28
 74
     0
 42
0.000000001
 43
0.00000001
 40
0.0
 40
0.0
 40
0.0
 40
0.0
 40
0.2500000000000002
 40
0.2500000000000002
 40
0.5000000000000004
 40
0.5000000000000004
 40
0.6249999999999992
 40
0.6249999999999992
 40
0.6874999999999986
 40
0.6874999999999986
 40
0.749999999999998
 40
0.749999999999998
 40
0.8124999999999973
 40
0.8124999999999973
 40
0.8749999999999967
 40
0.8749999999999967
 40
0.9062499999999976
 40
0.9062499999999976
 40
0.9374999999999983
 40
0.9374999999999983
 40
0.9531249999999988
 40
0.9531249999999988
 40
0.9687499999999992
 40
0.9687499999999992
 40
0.9843749999999996
 40
0.9843749999999996
 40
1.0
 40
1.0
 40
1.0
 40
1.0
 10
882.810267474567
 20
600.8484436825955
 30
0.0
 10
880.5514737282693
 20
600.8899811609209
 30
0.0
 10
878.2403792531686
 20
600.9333687081962
 30
0.0
 10
873.4947392882641
 20
601.0294628598194
 30
0.0
 10
871.0599942101503
 20
601.0816867729558
 30
0.0
 10
867.2618837607653
 20
601.1782940304664
 30
0.0
 10
865.976085856283
 20
601.2134788343918
 30
0.0
 10
863.9949159336524
 20
601.2751573195866
 30
0.0
 10
863.3253031402005
 20
601.2972468601533
 30
0.0
 10
861.9635860353525
 20
601.3460345084859
 30
0.0
 10
861.2714788322019
 20
601.3727150748258
 30
0.0
 10
859.8703603039352
 20
601.4329581992133
 30
0.0
 10
859.160069696979
 20
601.4663588845583
 30
0.0
 10
857.6946622121388
 20
601.5466352865645
 30
0.0
 10
856.9381178374254
 20
601.5931837958962
 30
0.0
 10
855.7698593870997
 20
601.685560233808
 30
0.0
 10
855.37418201336
 20
601.7201874895699
 30
0.0
 10
854.570917291457
 20
601.8035234139654
 30
0.0
 10
854.1621230357438
 20
601.8520765148368
 30
0.0
 10
853.5599704746777
 20
601.9452435685117
 30
0.0
 10
853.3619118902863
 20
601.979743356681
 30
0.0
 10
852.9860482742627
 20
602.0570662077797
 30
0.0
 10
852.8054715451735
 20
602.1008410268295
 30
0.0
 10
852.4931044280545
 20
602.1942356795149
 30
0.0
 10
852.3594192832622
 20
602.2446148824599
 30
0.0
 10
852.14724967932
 20
602.3479242826957
 30
0.0
 10
852.0693839590299
 20
602.4008288839939
 30
0.0
 10
852.012763159567
 20
602.4529974225956
 30
0.0
  0
SPLINE
  5
FA
330
1F
100
AcDbEntity
  8
0
  6
Continuous
 62
     7
370
    25
100
AcDbSpline
210
0.0
220
0.0
230
1.0
 70
     8
 71
     3
 72
    14
 73
    10
 74
     0
 42
0.000000001
 43
0.00000001
 40
0.0
 40
0.0
 40
0.0
 40
0.0
 40
0.5000000000000003
 40
0.5000000000000003
 40
0.7500000000000002
 40
0.7500000000000002
 40
0.8750000000000001
 40
0.8750000000000001
 40
1.0
 40
1.0
 40
1.0
 40
1.0
 10
522.8234680528091
 20
600.8747565564586
 30
0.0
 10
522.83921337644
 20
600.053934030543
 30
0.0
 10
522.8555305685857
 20
599.1966469052899
 30
0.0
 10
522.8815101724729
 20
597.8751065152735
 30
0.0
 10
522.8904290285035
 20
597.4287645348672
 30
0.0
 10
522.9042944697233
 20
596.754386296265
 30
0.0
 10
522.9089908131867
 20
596.5291154015657
 30
0.0
 10
522.9185349616084
 20
596.0785438432121
 30
0.0
 10
522.9234788845072
 20
595.8500996228735
 30
0.0
 10
522.9284443525671
 20
595.6250871095955
 30
0.0
  0
SPLINE
  5
FB
330
1F
100
AcDbEntity
  8
0
  6
Continuous
 62
     7
370
    25
100
AcDbSpline
210
0.0
220
0.0
230
1.0
 70
     8
 71
     3
 72
    32
 73
    28
 74
     0
 42
0.000000001
 43
0.00000001
 40
0.0
 40
0.0
 40
0.0
 40
0.0
 40
0.0078124999999978
 40
0.0078124999999978
 40
0.0156249999999957
 40
0.0156249999999957
 40
0.0312499999999946
 40
0.0312499999999946
 40
0.0624999999999931
 40
0.0624999999999931
 40
0.0937499999999916
 40
0.0937499999999916
 40
0.1249999999999901
 40
0.1249999999999901
 40
0.1874999999999894
 40
0.1874999999999894
 40
0.2499999999999887
 40
0.2499999999999887
 40
0.312499999999988
 40
0.312499999999988
 40
0.3749999999999872
 40
0.3749999999999872
 40
0.4999999999999886
 40
0.4999999999999886
 40
0.7499999999999942
 40
0.7499999999999942
 40
1.0
 40
1.0
 40
1.0
 40
1.0
 10
493.8958500894565
 20
602.3858580789002
 30
0.0
 10
493.9335875207728
 20
602.3632138984749
 30
0.0
 10
493.9711128386502
 20
602.3425772235177
 30
0.0
 10
494.0678008793756
 20
602.2964090647502
 30
0.0
 10
494.1237121190155
 20
602.2724901545073
 30
0.0
 10
494.306159708965
 20
602.2031006902247
 30
0.0
 10
494.4507921554148
 20
602.1584468255041
 30
0.0
 10
494.9385484039541
 20
602.0334231622558
 30
0.0
 10
495.3311720483433
 20
601.9632580470553
 30
0.0
 10
496.1186490509033
 20
601.8489907639552
 30
0.0
 10
496.5153872052625
 20
601.8035489505919
 30
0.0
 10
497.292464778146
 20
601.725076328832
 30
0.0
 10
497.6736261027337
 20
601.6921578458397
 30
0.0
 10
498.7950507769935
 20
601.6041026669428
 30
0.0
 10
499.5154119051592
 20
601.559357492194
 30
0.0
 10
500.9059613495523
 20
601.4819387561727
 30
0.0
 10
501.5774597325291
 20
601.4495518633189
 30
0.0
 10
502.8988481205462
 20
601.391014728098
 30
0.0
 10
503.549551350078
 20
601.3650193533823
 30
0.0
 10
504.8263541613017
 20
601.3174172024617
 30
0.0
 10
505.452694710323
 20
601.2958202509528
 30
0.0
 10
507.3025961524287
 20
601.23542994948
 30
0.0
 10
508.4990372271354
 20
601.2008579252013
 30
0.0
 10
512.0244648189712
 20
601.1057780225801
 30
0.0
 10
514.2718766149509
 20
601.0541653398377
 30
0.0
 10
518.6387959959194
 20
600.9590453858191
 30
0.0
 10
520.7579210624405
 20
600.9160033884888
 30
0.0
 10
522.823468068849
 20
600.8747565629442
 30
0.0
  0
SPLINE
  5
FC
330
1F
100
AcDbEntity
  8
0
  6
Continuous
 62
     7
370
    25
100
AcDbSpline
210
0.0
220
0.0
230
1.0
 70
     8
 71
     3
 72
    24
 73
    20
 74
     0
 42
0.000000001
 43
0.00000001
 40
0.0
 40
0.0
 40
0.0
 40
0.0
 40
0.0624999999999999
 40
0.0624999999999999
 40
0.1249999999999999
 40
0.1249999999999999
 40
0.2499999999999998
 40
0.2499999999999998
 40
0.3749999999999998
 40
0.3749999999999998
 40
0.4999999999999998
 40
0.4999999999999998
 40
0.6249999999999998
 40
0.6249999999999998
 40
0.7499999999999998
 40
0.7499999999999998
 40
0.8749999999999998
 40
0.8749999999999998
 40
1.0
 40
1.0
 40
1.0
 40
1.0
 10
883.1314816111637
 20
260.499400995728
 30
0.0
 10
883.1403313116213
 20
267.5619233056586
 30
0.0
 10
883.1486128847769
 20
274.620931835924
 30
0.0
 10
883.1634985786379
 20
288.7076920945707
 30
0.0
 10
883.1701831879062
 20
295.7392218026536
 30
0.0
 10
883.1872758782977
 20
316.7963730303667
 30
0.0
 10
883.19472473813
 20
330.7779725202467
 30
0.0
 10
883.1999418223614
 20
358.6756854603116
 30
0.0
 10
883.1976926828436
 20
372.5972843702377
 30
0.0
 10
883.18364918133
 20
400.4432135777186
 30
0.0
 10
883.1718751216499
 20
414.3616551998288
 30
0.0
 10
883.1411745221246
 20
442.1846751339608
 30
0.0
 10
883.1222868211204
 20
456.0945894100712
 30
0.0
 10
883.0806327591043
 20
483.9592079100211
 30
0.0
 10
883.0579022365206
 20
497.9114790745633
 30
0.0
 10
883.0115746969365
 20
525.8574496723464
 30
0.0
 10
882.987979245121
 20
539.852581631175
 30
0.0
 10
882.9419324898147
 20
567.8967367717023
 30
0.0
 10
882.9194778460021
 20
581.9465914417683
 30
0.0
 10
882.8981624815391
 20
596.0182976685697
 30
0.0
  0
SPLINE
  5
FD
330
1F
100
AcDbEntity
  8
0
  6
Continuous
 62
     7
370
    25
100
AcDbSpline
210
0.0
220
0.0
230
1.0
 70
     8
 71
     3
 72
    24
 73
    20
 74
     0
 42
0.000000001
 43
0.00000001
 40
0.0
 40
0.0
 40
0.0
 40
0.0
 40
0.0624999999999999
 40
0.0624999999999999
 40
0.1249999999999998
 40
0.1249999999999998
 40
0.2499999999999998
 40
0.2499999999999998
 40
0.3749999999999998
 40
0.3749999999999998
 40
0.4999999999999998
 40
0.4999999999999998
 40
0.6249999999999998
 40
0.6249999999999998
 40
0.7499999999999998
 40
0.7499999999999998
 40
0.8749999999999999
 40
0.8749999999999999
 40
1.0
 40
1.0
 40
1.0
 40
1.0
 10
571.0658141135672
 20
590.3191938845955
 30
0.0
 10
571.0579813693012
 20
583.2422264844138
 30
0.0
 10
571.0509203226848
 20
576.1687117388856
 30
0.0
 10
571.0387855424268
 20
562.0338559501442
 30
0.0
 10
571.0337009019104
 20
554.9720581628037
 30
0.0
 10
571.0217393542067
 20
533.7978926171924
 30
0.0
 10
571.0182872974092
 20
519.6965638215532
 30
0.0
 10
571.0211820380972
 20
491.5219713629841
 30
0.0
 10
571.0274974227168
 20
477.4451262574785
 30
0.0
 10
571.048576584659
 20
449.255475357973
 30
0.0
 10
571.0633182650331
 20
435.1409790500172
 30
0.0
 10
571.0983296532685
 20
406.8840092111667
 30
0.0
 10
571.1185631125128
 20
392.7412519351212
 30
0.0
 10
571.1614902574837
 20
364.3963423936395
 30
0.0
 10
571.1841653849131
 20
350.1926657216459
 30
0.0
 10
571.2295284497185
 20
321.7354086610629
 30
0.0
 10
571.2522183077581
 20
307.4814798699216
 30
0.0
 10
571.2961017391705
 20
278.9244455843677
 30
0.0
 10
571.3173043984681
 20
264.6197514253714
 30
0.0
 10
571.3373514925671
 20
250.3041134035955
 30
0.0
  0
SPLINE
  5
FE
330
1F
100
AcDbEntity
  8
0
  6
Continuous
 62
     7
370
    25
100
AcDbSpline
210
0.0
220
0.0
230
1.0
 70
     8
 71
     3
 72
    28
 73
    24
 74
     0
 42
0.000000001
 43
0.00000001
 40
0.0
 40
0.0
 40
0.0
 40
0.0
 40
0.1249999999999998
 40
0.1249999999999998
 40
0.2499999999999998
 40
0.2499999999999998
 40
0.3749999999999997
 40
0.3749999999999997
 40
0.4999999999999997
 40
0.4999999999999997
 40
0.6249999999999996
 40
0.6249999999999996
 40
0.7499999999999996
 40
0.7499999999999996
 40
0.8749999999999996
 40
0.8749999999999996
 40
0.9374999999999997
 40
0.9374999999999997
 40
0.9687499999999997
 40
0.9687499999999997
 40
0.9843749999999999
 40
0.9843749999999999
 40
1.0
 40
1.0
 40
1.0
 40
1.0
 10
211.0888432216268
 20
591.1908806707443
 30
0.0
 10
211.0705834379824
 20
577.0312379292367
 30
0.0
 10
211.0548389289898
 20
562.8901775985513
 30
0.0
 10
211.0313356233017
 20
534.6577849327515
 30
0.0
 10
211.0236207523539
 20
520.572864585008
 30
0.0
 10
211.0178565020899
 20
492.4199331920174
 30
0.0
 10
211.0198180770615
 20
478.3462165138951
 30
0.0
 10
211.0330394820533
 20
450.1574992776569
 30
0.0
 10
211.0442687486662
 20
436.050637531904
 30
0.0
 10
211.0736268941593
 20
407.8037365634097
 30
0.0
 10
211.0917162129506
 20
393.6616540787181
 30
0.0
 10
211.1316565678109
 20
365.3262835698823
 30
0.0
 10
211.153476653547
 20
351.1343834339225
 30
0.0
 10
211.1981129447069
 20
322.6995577888374
 30
0.0
 10
211.2209290490654
 20
308.4540328561554
 30
0.0
 10
211.2544827155819
 20
287.0427412562989
 30
0.0
 10
211.2655618542
 20
279.8991593161464
 30
0.0
 10
211.2819029275401
 20
269.1757649177954
 30
0.0
 10
211.2873040700854
 20
265.599939871849
 30
0.0
 10
211.2953252004919
 20
260.2343326747833
 30
0.0
 10
211.2979852285122
 20
258.4457094964255
 30
0.0
 10
211.3032898643782
 20
254.8586356905919
 30
0.0
 10
211.3059342488028
 20
253.0603180189198
 30
0.0
 10
211.3085665247537
 20
251.2589995204802
 30
0.0
  0
SPLINE
  5
FF
330
1F
100
AcDbEntity
  8
0
  6
Continuous
 62
     7
370
    25
100
AcDbSpline
210
0.0
220
0.0
230
1.0
 70
     8
 71
     3
 72
    32
 73
    28
 74
     0
 42
0.000000001
 43
0.00000001
 40
0.0
 40
0.0
 40
0.0
 40
0.0
 40
0.0156249999999999
 40
0.0156249999999999
 40
0.0312499999999998
 40
0.0312499999999998
 40
0.0468749999999997
 40
0.0468749999999997
 40
0.0624999999999996
 40
0.0624999999999996
 40
0.0937499999999994
 40
0.0937499999999994
 40
0.1249999999999992
 40
0.1249999999999992
 40
0.2499999999999993
 40
0.2499999999999993
 40
0.3749999999999994
 40
0.3749999999999994
 40
0.4999999999999996
 40
0.4999999999999996
 40
0.6249999999999997
 40
0.6249999999999997
 40
0.7499999999999998
 40
0.7499999999999998
 40
0.8749999999999999
 40
0.8749999999999999
 40
1.0
 40
1.0
 40
1.0
 40
1.0
 10
522.928444223272
 20
595.6250871093864
 30
0.0
 10
522.9312105694148
 20
593.8658173488344
 30
0.0
 10
522.9339835723551
 20
592.1115223751416
 30
0.0
 10
522.9395401572176
 20
588.61266225899
 30
0.0
 10
522.9423242938612
 20
586.8677600443764
 30
0.0
 10
522.9479165329598
 20
583.3777922898131
 30
0.0
 10
522.9507251901362
 20
581.6323896777085
 30
0.0
 10
522.9563782275047
 20
578.1326408664621
 30
0.0
 10
522.959223162418
 20
576.3779575951655
 30
0.0
 10
522.9678017806036
 20
571.1041595974464
 30
0.0
 10
522.9735626041092
 20
567.5856984656214
 30
0.0
 10
522.9851234036153
 20
560.5558538661587
 30
0.0
 10
522.9909263216033
 20
557.0426447215168
 30
0.0
 10
523.0199805829009
 20
539.4855726614048
 30
0.0
 10
523.043384172835
 20
525.4699152512951
 30
0.0
 10
523.0880867854852
 20
497.4783153947655
 30
0.0
 10
523.1093773589083
 20
483.5002120406636
 30
0.0
 10
523.1466871665
 20
455.5676849225677
 30
0.0
 10
523.1626620000499
 20
441.6133670336199
 30
0.0
 10
523.1862937949479
 20
413.7001544350223
 30
0.0
 10
523.1939096035994
 20
399.7378654569211
 30
0.0
 10
523.1992540144728
 20
371.7932299593323
 30
0.0
 10
523.1969838538853
 20
357.81774788514
 30
0.0
 10
523.1833523822744
 20
329.8072006198065
 30
0.0
 10
523.1720197697022
 20
315.7667100958892
 30
0.0
 10
523.1427533122105
 20
287.5754243696209
 30
0.0
 10
523.1248631904986
 20
273.4290923308014
 30
0.0
 10
523.1052494165609
 20
259.2514533875956
 30
0.0
  0
SPLINE
  5
100
330
1F
100
AcDbEntity
  8
0
  6
Continuous
 62
     7
370
    25
100
AcDbSpline
210
0.0
220
0.0
230
1.0
 70
     8
 71
     3
 72
    24
 73
    20
 74
     0
 42
0.000000001
 43
0.00000001
 40
0.0
 40
0.0
 40
0.0
 40
0.0
 40
0.0156250000000001
 40
0.0156250000000001
 40
0.0312500000000004
 40
0.0312500000000004
 40
0.0625000000000009
 40
0.0625000000000009
 40
0.1250000000000017
 40
0.1250000000000017
 40
0.1875000000000026
 40
0.1875000000000026
 40
0.2500000000000033
 40
0.2500000000000033
 40
0.5000000000000022
 40
0.5000000000000022
 40
0.7500000000000011
 40
0.7500000000000011
 40
1.0
 40
1.0
 40
1.0
 40
1.0
 10
587.0836003475671
 20
601.8161088485955
 30
0.0
 10
586.9929591884897
 20
601.806391298078
 30
0.0
 10
586.8908602818841
 20
601.7958528130521
 30
0.0
 10
586.7040637819309
 20
601.7773161566596
 30
0.0
 10
586.6122089367942
 20
601.7685055313282
 30
0.0
 10
586.3321353176368
 20
601.7425250265311
 30
0.0
 10
586.1434325898684
 20
601.7261690732298
 30
0.0
 10
585.5744681806078
 20
601.6795967766191
 30
0.0
 10
585.1915248729888
 20
601.6518607134501
 30
0.0
 10
584.431458288752
 20
601.6013451592214
 30
0.0
 10
584.0544060590289
 20
601.5785741565492
 30
0.0
 10
583.3129113632556
 20
601.5367252250571
 30
0.0
 10
582.9485319663991
 20
601.5176553343771
 30
0.0
 10
581.1537875088038
 20
601.4287158212826
 30
0.0
 10
579.8046175910372
 20
601.376522868928
 30
0.0
 10
577.2341986345679
 20
601.2840140045865
 30
0.0
 10
576.0141341414009
 20
601.2446819927144
 30
0.0
 10
573.6692849541997
 20
601.17171410284
 30
0.0
 10
572.5435222045816
 20
601.1382377086516
 30
0.0
 10
571.456981363567
 20
601.1060859785955
 30
0.0
  0
SPLINE
  5
101
330
1F
100
AcDbEntity
  8
0
  6
Continuous
 62
     7
370
    25
100
AcDbSpline
210
0.0
220
0.0
230
1.0
 70
     8
 71
     3
 72
    14
 73
    10
 74
     0
 42
0.000000001
 43
0.00000001
 40
0.0
 40
0.0
 40
0.0
 40
0.0
 40
0.5
 40
0.5
 40
0.7500000000000001
 40
0.7500000000000001
 40
0.875
 40
0.875
 40
1.0
 40
1.0
 40
1.0
 40
1.0
 10
571.4569783345671
 20
601.1060820515955
 30
0.0
 10
571.4117136440441
 20
599.5561510382473
 30
0.0
 10
571.3635217164858
 20
597.8871605090342
 30
0.0
 10
571.2743663197609
 20
595.1653815981789
 30
0.0
 10
571.2417285964127
 20
594.2218304013844
 30
0.0
 10
571.1839841305832
 20
592.7676801672678
 30
0.0
 10
571.1633057818622
 20
592.2765897292543
 30
0.0
 10
571.1178510282313
 20
591.2933467792457
 30
0.0
 10
571.0929842547074
 20
590.8011812525353
 30
0.0
 10
571.0658193905671
 20
590.3191898515955
 30
0.0
  0
SPLINE
  5
102
330
1F
100
AcDbEntity
  8
0
  6
Continuous
 62
     7
370
    25
100
AcDbSpline
210
0.0
220
0.0
230
1.0
 70
     8
 71
     3
 72
    24
 73
    20
 74
     0
 42
0.000000001
 43
0.00000001
 40
0.0
 40
0.0
 40
0.0
 40
0.0
 40
0.0078124999999984
 40
0.0078124999999984
 40
0.0156249999999969
 40
0.0156249999999969
 40
0.0312499999999938
 40
0.0312499999999938
 40
0.0624999999999879
 40
0.0624999999999879
 40
0.1249999999999921
 40
0.1249999999999921
 40
0.2500000000000007
 40
0.2500000000000007
 40
0.5000000000000004
 40
0.5000000000000004
 40
0.7500000000000002
 40
0.7500000000000002
 40
1.0
 40
1.0
 40
1.0
 40
1.0
 10
228.3785524835826
 20
601.8851307944697
 30
0.0
 10
228.3279965513057
 20
601.8787702928416
 30
0.0
 10
228.2701754212519
 20
601.8716678856817
 30
0.0
 10
228.1648301001629
 20
601.8590739402983
 30
0.0
 10
228.1141939673577
 20
601.8531539145537
 30
0.0
 10
227.9582825116075
 20
601.8353331467357
 30
0.0
 10
227.8531838515736
 20
601.8238544807331
 30
0.0
 10
227.5355621043596
 20
601.7905650446744
 30
0.0
 10
227.320769348928
 20
601.7699033743677
 30
0.0
 10
226.6748848897574
 20
601.7119354198456
 30
0.0
 10
226.2433883080204
 20
601.6786344781799
 30
0.0
 10
224.96884876304
 20
601.589354032202
 30
0.0
 10
224.1461855364327
 20
601.5435212688562
 30
0.0
 10
221.7807546074445
 20
601.4244155922407
 30
0.0
 10
220.3289338603811
 20
601.3687882833925
 30
0.0
 10
217.5720840086811
 20
601.2701042806394
 30
0.0
 10
216.2719805459166
 20
601.2286290682028
 30
0.0
 10
213.7775389900172
 20
601.1518138366325
 30
0.0
 10
212.5825484162377
 20
601.1166956414269
 30
0.0
 10
211.430431170567
 20
601.0830129195955
 30
0.0
  0
SPLINE
  5
103
330
1F
100
AcDbEntity
  8
0
  6
Continuous
 62
     7
370
    25
100
AcDbSpline
210
0.0
220
0.0
230
1.0
 70
     8
 71
     3
 72
    12
 73
     8
 74
     0
 42
0.000000001
 43
0.00000001
 40
0.0
 40
0.0
 40
0.0
 40
0.0
 40
0.5
 40
0.5
 40
0.75
 40
0.75
 40
1.0
 40
1.0
 40
1.0
 40
1.0
 10
211.430427651567
 20
601.0830080275955
 30
0.0
 10
211.3900129322063
 20
599.6754320566673
 30
0.0
 10
211.3467483385499
 20
598.1546517767065
 30
0.0
 10
211.2676518726493
 20
595.659422921778
 30
0.0
 10
211.2388671604783
 20
594.7922601192523
 30
0.0
 10
211.1720457299624
 20
593.0074945125573
 30
0.0
 10
211.1337833256268
 20
592.0858839872244
 30
0.0
 10
211.0888451845673
 20
591.1908801625956
 30
0.0
  0
SPLINE
  5
104
330
1F
100
AcDbEntity
  8
0
  6
Continuous
 62
     7
370
    25
100
AcDbSpline
210
0.0
220
0.0
230
1.0
 70
     8
 71
     3
 72
    26
 73
    22
 74
     0
 42
0.000000001
 43
0.00000001
 40
0.0
 40
0.0
 40
0.0
 40
0.0
 40
0.125
 40
0.125
 40
0.25
 40
0.25
 40
0.3749999999999999
 40
0.3749999999999999
 40
0.4999999999999999
 40
0.4999999999999999
 40
0.625
 40
0.625
 40
0.75
 40
0.75
 40
0.875
 40
0.875
 40
0.9375000000000001
 40
0.9375000000000001
 40
0.96875
 40
0.96875
 40
1.0
 40
1.0
 40
1.0
 40
1.0
 10
806.390659049725
 20
602.5676784006953
 30
0.0
 10
797.3141131987916
 20
602.577850380088
 30
0.0
 10
788.2616341806953
 20
602.5794489858251
 30
0.0
 10
770.1853124724364
 20
602.5639821969725
 30
0.0
 10
761.1591177132336
 20
602.5470338555139
 30
0.0
 10
743.0896261090999
 20
602.4982233264651
 30
0.0
 10
734.0462044391261
 20
602.466403770469
 30
0.0
 10
715.9336171632402
 20
602.3935769673539
 30
0.0
 10
706.8642119403642
 20
602.352664330705
 30
0.0
 10
688.6713134873339
 20
602.2672883235675
 30
0.0
 10
679.5461949104496
 20
602.2228427327539
 30
0.0
 10
661.2303060252252
 20
602.1345616134738
 30
0.0
 10
652.0415836654266
 20
602.0907245050846
 30
0.0
 10
633.6009496431885
 20
602.0060676552358
 30
0.0
 10
624.3491971421819
 20
601.9652318445486
 30
0.0
 10
610.4281739338732
 20
601.9070519535829
 30
0.0
 10
605.7806495365675
 20
601.8881623839123
 30
0.0
 10
598.7991607436943
 20
601.8606253053987
 30
0.0
 10
596.4674024216962
 20
601.8515664307109
 30
0.0
 10
591.7833397186549
 20
601.8336509002322
 30
0.0
 10
589.4326097624464
 20
601.8248008909247
 30
0.0
 10
587.0836003480031
 20
601.8161088375384
 30
0.0
  0
SPLINE
  5
105
330
1F
100
AcDbEntity
  8
0
  6
Continuous
 62
     7
370
    25
100
AcDbSpline
210
0.0
220
0.0
230
1.0
 70
     8
 71
     3
 72
    20
 73
    16
 74
     0
 42
0.000000001
 43
0.00000001
 40
0.0
 40
0.0
 40
0.0
 40
0.0
 40
0.2499999999999993
 40
0.2499999999999993
 40
0.3749999999999994
 40
0.3749999999999994
 40
0.4999999999999996
 40
0.4999999999999996
 40
0.6249999999999997
 40
0.6249999999999997
 40
0.7499999999999998
 40
0.7499999999999998
 40
0.8749999999999999
 40
0.8749999999999999
 40
1.0
 40
1.0
 40
1.0
 40
1.0
 10
228.3785524877641
 20
601.8851306881436
 30
0.0
 10
245.3397820560756
 20
601.9520981121833
 30
0.0
 10
262.2109291733744
 20
602.0264284517456
 30
0.0
 10
287.3610882774652
 20
602.1433801857124
 30
0.0
 10
295.7186805585173
 20
602.1832273531786
 30
0.0
 10
312.3846254591572
 20
602.2624070523718
 30
0.0
 10
320.6911739760573
 20
602.3017336437371
 30
0.0
 10
337.2605507083746
 20
602.3765138823817
 30
0.0
 10
345.5245372222937
 20
602.4119525116414
 30
0.0
 10
362.0312522713855
 20
602.4747795169872
 30
0.0
 10
370.2737967239074
 20
602.5020988815776
 30
0.0
 10
386.7434723955682
 20
602.5444949315895
 30
0.0
 10
394.9709925517184
 20
602.5595404317173
 30
0.0
 10
411.439800131013
 20
602.5747213979337
 30
0.0
 10
419.6825671975273
 20
602.5747810392827
 30
0.0
 10
427.9406713835672
 20
602.5676982052042
 30
0.0
  0
SPLINE
  5
106
330
1F
100
AcDbEntity
  8
0
  6
Continuous
 62
     7
370
    25
100
AcDbSpline
210
0.0
220
0.0
230
1.0
 70
     8
 71
     3
 72
    16
 73
    12
 74
     0
 42
0.000000001
 43
0.00000001
 40
0.0
 40
0.0
 40
0.0
 40
0.0
 40
0.5
 40
0.5
 40
0.75
 40
0.75
 40
0.8749999999999987
 40
0.8749999999999987
 40
0.9374999999999993
 40
0.9374999999999993
 40
1.0
 40
1.0
 40
1.0
 40
1.0
 10
493.8958500907203
 20
602.385859648169
 30
0.0
 10
482.8058821741236
 20
602.4311661189863
 30
0.0
 10
471.7728579497874
 20
602.472165127657
 30
0.0
 10
455.2963340033301
 20
602.5198687518563
 30
0.0
 10
449.8152405980724
 20
602.5334661370252
 30
0.0
 10
441.6049416413863
 20
602.5496229305886
 30
0.0
 10
438.8700739953954
 20
602.554303849519
 30
0.0
 10
434.7702434960948
 20
602.5601925441755
 30
0.0
 10
433.4033247101767
 20
602.5619639213047
 30
0.0
 10
430.6715816403261
 20
602.5651244671526
 30
0.0
 10
429.3114244187362
 20
602.5665324849688
 30
0.0
 10
427.940671068566
 20
602.5676983991948
 30
0.0
  0
SPLINE
  5
107
330
1F
100
AcDbEntity
  8
0
  6
Continuous
 62
     7
370
    25
100
AcDbSpline
210
0.0
220
0.0
230
1.0
 70
     8
 71
     3
 72
    31
 73
    27
 74
     0
 42
0.000000001
 43
0.00000001
 40
0.0
 40
0.0
 40
0.0
 40
0.0
 40
0.0312499999999997
 40
0.0312499999999997
 40
0.0624999999999995
 40
0.0624999999999995
 40
0.1249999999999999
 40
0.1249999999999999
 40
0.2499999999999997
 40
0.2499999999999997
 40
0.5000000000000004
 40
0.5000000000000004
 40
0.7500000000000011
 40
0.7500000000000011
 40
0.8750000000000019
 40
0.8750000000000019
 40
0.9062500000000014
 40
0.9218750000000017
 40
0.9218750000000017
 40
0.9375000000000019
 40
0.9375000000000019
 40
0.9687500000000013
 40
0.9687500000000013
 40
0.9843750000000007
 40
0.9843750000000007
 40
1.0
 40
1.0
 40
1.0
 40
1.0
 10
806.3906590468672
 20
602.5676759253208
 30
0.0
 10
806.8696444182011
 20
602.5671502468543
 30
0.0
 10
807.350861757484
 20
602.566571597081
 30
0.0
 10
808.3072609024357
 20
602.5653725590789
 30
0.0
 10
808.7817189347882
 20
602.5647551616736
 30
0.0
 10
810.1972626102659
 20
602.5628631267747
 30
0.0
 10
811.1401517961219
 20
602.5615131490581
 30
0.0
 10
813.9712508845275
 20
602.5571872638204
 30
0.0
 10
815.859835896956
 20
602.5539420473593
 30
0.0
 10
821.5295310836665
 20
602.5431746525835
 30
0.0
 10
825.3146094258378
 20
602.5346186811903
 30
0.0
 10
832.8961607384038
 20
602.5150869152453
 30
0.0
 10
836.6925803523746
 20
602.5041119510928
 30
0.0
 10
842.3961071106947
 20
602.4861292670754
 30
0.0
 10
844.2987685864318
 20
602.4798820222716
 30
0.0
 10
846.6790624331621
 20
602.4717892730919
 30
0.0
 10
847.3932985238337
 20
602.4693401767629
 30
0.0
 10
848.1077609564422
 20
602.4668601037683
 30
0.0
 10
848.5841201017747
 20
602.4651999419285
 30
0.0
 10
848.8216012138481
 20
602.4643684814431
 30
0.0
 10
849.5458998378639
 20
602.461832577278
 30
0.0
 10
850.0491220299359
 20
602.4600727741044
 30
0.0
 10
850.7991863883501
 20
602.4574002469616
 30
0.0
 10
851.0474028549944
 20
602.4565067608252
 30
0.0
 10
851.5351279397505
 20
602.4547367962516
 30
0.0
 10
851.7743178410567
 20
602.4538608969301
 30
0.0
 10
852.0127631595872
 20
602.4529974239189
 30
0.0
  0
SPLINE
  5
108
330
1F
100
AcDbEntity
  8
0
  6
Continuous
 62
     7
370
    25
100
AcDbSpline
210
0.0
220
0.0
230
1.0
 70
     8
 71
     3
 72
    10
 73
     6
 74
     0
 42
0.000000001
 43
0.00000001
 40
0.0
 40
0.0
 40
0.0
 40
0.0
 40
0.5
 40
0.5
 40
1.0
 40
1.0
 40
1.0
 40
1.0
 10
713.2986122403596
 20
437.1958785395637
 30
0.0
 10
715.5601342649825
 20
436.6610374784691
 30
0.0
 10
717.8452120229427
 20
436.2589142044541
 30
0.0
 10
722.4616022518928
 20
435.7202400589426
 30
0.0
 10
724.7835571746139
 20
435.5852238805955
 30
0.0
 10
727.107462686567
 20
435.5852238805955
 30
0.0
  0
SPLINE
  5
109
330
1F
100
AcDbEntity
  8
0
  6
Continuous
 62
     7
370
    25
100
AcDbSpline
210
0.0
220
0.0
230
1.0
 70
     8
 71
     3
 72
    10
 73
     6
 74
     0
 42
0.000000001
 43
0.00000001
 40
0.0
 40
0.0
 40
0.0
 40
0.0
 40
0.4993325714623551
 40
0.7495852801789664
 40
0.9999999999999999
 40
0.9999999999999999
 40
0.9999999999999999
 40
0.9999999999999999
 10
392.4373362484263
 20
549.976382699794
 30
0.0
 10
391.5095192334038
 20
550.3923420621462
 30
0.0
 10
390.1167040699073
 20
551.0167696140256
 30
0.0
 10
388.219357072347
 20
551.7564101934473
 30
0.0
 10
387.258989337588
 20
552.0980607133079
 30
0.0
 10
386.778650087385
 20
552.2689412506287
 30
0.0
  0
SPLINE
  5
10A
330
1F
100
AcDbEntity
  8
0
  6
Continuous
 62
     7
370
    25
100
AcDbSpline
210
0.0
220
0.0
230
1.0
 70
     8
 71
     3
 72
    25
 73
    21
 74
     0
 42
0.000000001
 43
0.00000001
 40
0.0
 40
0.0
 40
0.0
 40
0.0
 40
0.1249999999999994
 40
0.2499999999999988
 40
0.2499999999999988
 40
0.3749999999999982
 40
0.3749999999999982
 40
0.4999999999999977
 40
0.4999999999999977
 40
0.5624999999999982
 40
0.5624999999999982
 40
0.6249999999999989
 40
0.6249999999999989
 40
0.7499999999999991
 40
0.7499999999999991
 40
0.8750000000000004
 40
0.8750000000000004
 40
0.9375000000000003
 40
0.9375000000000003
 40
1.0
 40
1.0
 40
1.0
 40
1.0
 10
367.1074484571603
 20
555.5852238805938
 30
0.0
 10
364.5744152164392
 20
555.5852232798678
 30
0.0
 10
359.5489325780289
 20
555.2657061580983
 30
0.0
 10
354.6026924192692
 20
554.3223143137328
 30
0.0
 10
349.6970249898061
 20
553.0594940473028
 30
0.0
 10
347.3094306900206
 20
552.279891171034
 30
0.0
 10
342.6626473703728
 20
550.4368270865815
 30
0.0
 10
340.4029475564504
 20
549.3731925126492
 30
0.0
 10
337.1096091376199
 20
547.5630841379233
 30
0.0
 10
336.0279108435244
 20
546.9238360488345
 30
0.0
 10
333.8973698607863
 20
545.5720359076518
 30
0.0
 10
332.8475493478047
 20
544.8583799662136
 30
0.0
 10
329.7919369900919
 20
542.6372571253397
 30
0.0
 10
327.8644404016324
 20
541.0409250307835
 30
0.0
 10
324.2230951229498
 20
537.6229044039028
 30
0.0
 10
322.5092496218088
 20
535.801212507725
 30
0.0
 10
320.1022343676016
 20
532.8959475152111
 30
0.0
 10
319.3257929119927
 20
531.8965803957753
 30
0.0
 10
317.836742466074
 20
529.8488884156809
 30
0.0
 10
317.1251604434707
 20
528.8022906825593
 30
0.0
 10
316.4465674528504
 20
527.7329095534155
 30
0.0
  0
SPLINE
  5
10B
330
1F
100
AcDbEntity
  8
0
  6
Continuous
 62
     7
370
    25
100
AcDbSpline
210
0.0
220
0.0
230
1.0
 70
     8
 71
     3
 72
     8
 73
     4
 74
     0
 42
0.000000001
 43
0.00000001
 40
0.0
 40
0.0
 40
0.0
 40
0.0
 40
1.0
 40
1.0
 40
1.0
 40
1.0
 10
780.773094146562
 20
468.7524081505981
 30
0.0
 10
781.6838277683516
 20
470.5738753941773
 30
0.0
 10
782.5012371586934
 20
472.4405284109957
 30
0.0
 10
783.2221483650026
 20
474.345119097182
 30
0.0
  0
SPLINE
  5
10C
330
1F
100
AcDbEntity
  8
0
  6
Continuous
 62
     7
370
    25
100
AcDbSpline
210
0.0
220
0.0
230
1.0
 70
     8
 71
     3
 72
     8
 73
     4
 74
     0
 42
0.000000001
 43
0.00000001
 40
0.0
 40
0.0
 40
0.0
 40
0.0
 40
1.0
 40
1.0
 40
1.0
 40
1.0
 10
417.7683579204466
 20
463.4375382080329
 30
0.0
 10
418.8593950493687
 20
465.1568818101688
 30
0.0
 10
419.8624345571678
 20
466.9310889718077
 30
0.0
 10
420.7730941465734
 20
468.7524081506207
 30
0.0
  0
SPLINE
  5
10D
330
1F
100
AcDbEntity
  8
0
  6
Continuous
 62
     7
370
    25
100
AcDbSpline
210
0.0
220
0.0
230
1.0
 70
     8
 71
     3
 72
     8
 73
     4
 74
     0
 42
0.000000001
 43
0.00000001
 40
0.0
 40
0.0
 40
0.0
 40
0.0
 40
1.0
 40
1.0
 40
1.0
 40
1.0
 10
707.4362645839685
 20
438.9015051845995
 30
0.0
 10
709.3600124498
 20
438.2338985730576
 30
0.0
 10
711.3169783413999
 20
437.6645271601304
 30
0.0
 10
713.2986122403596
 20
437.1958785395637
 30
0.0
  0
SPLINE
  5
10E
330
1F
100
AcDbEntity
  8
0
  6
Continuous
 62
     7
370
    25
100
AcDbSpline
210
0.0
220
0.0
230
1.0
 70
     8
 71
     3
 72
    10
 73
     6
 74
     0
 42
0.000000001
 43
0.00000001
 40
0.0
 40
0.0
 40
0.0
 40
0.0
 40
0.4993317527622551
 40
0.7495846106072468
 40
0.9999999999999999
 40
0.9999999999999999
 40
0.9999999999999999
 40
0.9999999999999999
 10
347.4362764778422
 20
438.9015047969287
 30
0.0
 10
346.4805744079713
 20
439.2486317784292
 30
0.0
 10
345.0458978428667
 20
439.7697303102569
 30
0.0
 10
343.1687707626239
 20
440.5592804206919
 30
0.0
 10
342.241417480736
 20
440.9824244921916
 30
0.0
 10
341.7775903168009
 20
441.1940652104086
 30
0.0
  0
ARC
  5
10F
330
1F
100
AcDbEntity
  8
0
  6
Continuous
 62
     7
370
    25
100
AcDbCircle
 10
727.1074626866
 20
495.5852238806
 30
0.0
 40
60.0
100
AcDbArc
 50
270.0
 51
333.4349488229
  0
ARC
  5
110
330
1F
100
AcDbEntity
  8
0
  6
Continuous
 62
     7
370
    25
100
AcDbCircle
 10
367.1074626866
 20
495.5852238806
 30
0.0
 40
60.00000000000006
100
AcDbArc
 50
270.0000000001
 51
327.6021737736
  0
ARC
  5
111
330
1F
100
AcDbEntity
  8
0
  6
Continuous
 62
     7
370
    25
100
AcDbCircle
 10
367.1074626866
 20
495.5852238806
 30
0.0
 40
60.00000000006143
100
AcDbArc
 50
250.8614686711
 51
270.0000000001
  0
SPLINE
  5
112
330
1F
100
AcDbEntity
  8
0
  6
Continuous
 62
     7
370
    25
100
AcDbSpline
210
0.0
220
0.0
230
1.0
 70
     8
 71
     3
 72
     8
 73
     4
 74
     0
 42
0.000000001
 43
0.00000001
 40
0.0
 40
0.0
 40
0.0
 40
0.0
 40
1.0
 40
1.0
 40
1.0
 40
1.0
 10
746.7786607891699
 20
552.2689425766035
 30
0.0
 10
744.854912923334
 20
552.9365491881468
 30
0.0
 10
742.8979470317345
 20
553.5059206010606
 30
0.0
 10
740.9163131327746
 20
553.9745692216273
 30
0.0
  0
SPLINE
  5
113
330
1F
100
AcDbEntity
  8
0
  6
Continuous
 62
     7
370
    25
100
AcDbSpline
210
0.0
220
0.0
230
1.0
 70
     8
 71
     3
 72
    38
 73
    34
 74
     0
 42
0.000000001
 43
0.00000001
 40
0.0
 40
0.0
 40
0.0
 40
0.0
 40
0.1249999999999995
 40
0.1249999999999995
 40
0.1874999999999991
 40
0.1874999999999991
 40
0.2187499999999988
 40
0.2187499999999988
 40
0.2499999999999986
 40
0.2499999999999986
 40
0.3749999999999977
 40
0.3749999999999977
 40
0.4062499999999977
 40
0.4062499999999977
 40
0.4374999999999977
 40
0.4374999999999977
 40
0.4999999999999977
 40
0.4999999999999977
 40
0.6249999999999977
 40
0.6249999999999977
 40
0.6562499999999978
 40
0.6562499999999978
 40
0.6874999999999979
 40
0.6874999999999979
 40
0.7499999999999981
 40
0.7499999999999981
 40
0.8124999999999988
 40
0.8124999999999988
 40
0.843749999999999
 40
0.843749999999999
 40
0.8749999999999991
 40
0.8749999999999991
 40
1.0
 40
1.0
 40
1.0
 40
1.0
 10
783.2221483650026
 20
474.3451190971821
 30
0.0
 10
784.6495329886043
 20
478.1161569669289
 30
0.0
 10
785.6763890835332
 20
481.9655385191549
 30
0.0
 10
786.6402810251582
 20
487.8523535969437
 30
0.0
 10
786.864775945926
 20
489.8335599106857
 30
0.0
 10
787.0527533544536
 20
492.8344679222137
 30
0.0
 10
787.0905793923711
 20
493.842298800421
 30
0.0
 10
787.1152933063721
 20
495.854188342934
 30
0.0
 10
787.1023184989602
 20
496.8564545596391
 30
0.0
 10
786.9132790647875
 20
501.8497549533458
 30
0.0
 10
786.3683740175586
 20
505.7872279340014
 30
0.0
 10
785.1971598843003
 20
510.6379017364127
 30
0.0
 10
784.9381850336614
 20
511.6044450337059
 30
0.0
 10
784.3698849883924
 20
513.5302199983548
 30
0.0
 10
784.0597044097468
 20
514.4915856043363
 30
0.0
 10
783.0628700627453
 20
517.3343799346508
 30
0.0
 10
782.3082432418132
 20
519.1825038420025
 30
0.0
 10
779.7817136230431
 20
524.5896109663973
 30
0.0
 10
777.7497790421615
 20
528.0126974662162
 30
0.0
 10
774.7607258044458
 20
532.0568305394901
 30
0.0
 10
774.1407773866976
 20
532.8528003515793
 30
0.0
 10
772.8695514463473
 20
534.4032117218544
 30
0.0
 10
772.2166396467873
 20
535.1599171759285
 30
0.0
 10
770.2068384294921
 20
537.3754212044023
 30
0.0
 10
768.7990074476162
 20
538.7797403289867
 30
0.0
 10
765.8487302186165
 20
541.4444142984722
 30
0.0
 10
764.3062874644402
 20
542.7047728789055
 30
0.0
 10
761.8896171150968
 20
544.4851507616725
 30
0.0
 10
761.066860942438
 20
545.0602161707905
 30
0.0
 10
759.3862009804502
 20
546.1727583744874
 30
0.0
 10
758.5337740741589
 20
546.7065812783476
 30
0.0
 10
754.2176989351173
 20
549.2614268428484
 30
0.0
 10
750.5879390060171
 20
550.946992144357
 30
0.0
 10
746.7786607891699
 20
552.2689425766034
 30
0.0
  0
SPLINE
  5
114
330
1F
100
AcDbEntity
  8
0
  6
Continuous
 62
     7
370
    25
100
AcDbSpline
210
0.0
220
0.0
230
1.0
 70
     8
 71
     3
 72
    38
 73
    34
 74
     0
 42
0.000000001
 43
0.00000001
 40
0.0
 40
0.0
 40
0.0
 40
0.0
 40
0.1250000000000008
 40
0.1250000000000008
 40
0.1875000000000012
 40
0.1875000000000012
 40
0.2187500000000012
 40
0.2187500000000012
 40
0.2500000000000012
 40
0.2500000000000012
 40
0.3750000000000011
 40
0.3750000000000011
 40
0.4062500000000012
 40
0.4062500000000012
 40
0.4375000000000011
 40
0.4375000000000011
 40
0.500000000000001
 40
0.500000000000001
 40
0.6250000000000006
 40
0.6250000000000006
 40
0.6562500000000006
 40
0.6562500000000006
 40
0.6875000000000006
 40
0.6875000000000006
 40
0.7500000000000006
 40
0.7500000000000006
 40
0.8125000000000006
 40
0.8125000000000006
 40
0.8437500000000004
 40
0.8437500000000004
 40
0.8750000000000002
 40
0.8750000000000002
 40
1.0
 40
1.0
 40
1.0
 40
1.0
 10
670.992777007999
 20
516.8253286636592
 30
0.0
 10
669.5653923844285
 20
513.0542907939233
 30
0.0
 10
668.538536289528
 20
509.2049092417156
 30
0.0
 10
667.5746443479384
 20
503.318094163954
 30
0.0
 10
667.3501494271813
 20
501.3368878502217
 30
0.0
 10
667.1621720186685
 20
498.3359798387087
 30
0.0
 10
667.1243459807555
 20
497.3281489605065
 30
0.0
 10
667.0996320667633
 20
495.3162594180029
 30
0.0
 10
667.1126068741794
 20
494.3139932013027
 30
0.0
 10
667.3016463083716
 20
489.3206928076214
 30
0.0
 10
667.8465513556116
 20
485.383219826989
 30
0.0
 10
669.0177654888787
 20
480.5325460246065
 30
0.0
 10
669.2767403395188
 20
479.5660027273191
 30
0.0
 10
669.8450403847902
 20
477.6402277626818
 30
0.0
 10
670.1552209634369
 20
476.6788621567057
 30
0.0
 10
671.1520553104415
 20
473.8360678264058
 30
0.0
 10
671.9066821313746
 20
471.9879439190636
 30
0.0
 10
674.4332117501466
 20
466.5808367946952
 30
0.0
 10
676.4651463310281
 20
463.1577502948899
 30
0.0
 10
679.4541995687397
 20
459.1136172216343
 30
0.0
 10
680.0741479864889
 20
458.3176474095458
 30
0.0
 10
681.3453739268399
 20
456.7672360392742
 30
0.0
 10
681.9982857263999
 20
456.0105305852022
 30
0.0
 10
684.0080869436939
 20
453.7950265567355
 30
0.0
 10
685.4159179255674
 20
452.390707432157
 30
0.0
 10
688.3661951545587
 20
449.7260334626845
 30
0.0
 10
689.908637908729
 20
448.4656748822584
 30
0.0
 10
692.3253082580599
 20
446.6852969995028
 30
0.0
 10
693.1480644307137
 20
446.1102315903886
 30
0.0
 10
694.8287243926906
 20
444.9976893866994
 30
0.0
 10
695.6811512989907
 20
444.4638664828341
 30
0.0
 10
699.9972264380385
 20
441.9090209183316
 30
0.0
 10
703.6269863671234
 20
440.2234556168144
 30
0.0
 10
707.4362645839541
 20
438.9015051845732
 30
0.0
  0
SPLINE
  5
115
330
1F
100
AcDbEntity
  8
0
  6
Continuous
 62
     7
370
    25
100
AcDbSpline
210
0.0
220
0.0
230
1.0
 70
     8
 71
     3
 72
    38
 73
    34
 74
     0
 42
0.000000001
 43
0.00000001
 40
0.0
 40
0.0
 40
0.0
 40
0.0
 40
0.1249999999999986
 40
0.1249999999999986
 40
0.1874999999999972
 40
0.1874999999999972
 40
0.2187499999999971
 40
0.2187499999999971
 40
0.2499999999999971
 40
0.2499999999999971
 40
0.3749999999999948
 40
0.3749999999999948
 40
0.4062499999999949
 40
0.4062499999999949
 40
0.4374999999999951
 40
0.4374999999999951
 40
0.4999999999999956
 40
0.4999999999999956
 40
0.6249999999999958
 40
0.6249999999999958
 40
0.656249999999996
 40
0.656249999999996
 40
0.6874999999999961
 40
0.6874999999999961
 40
0.7499999999999964
 40
0.7499999999999964
 40
0.8124999999999967
 40
0.8124999999999967
 40
0.8437499999999972
 40
0.8437499999999972
 40
0.8749999999999978
 40
0.8749999999999978
 40
1.0
 40
1.0
 40
1.0
 40
1.0
 10
341.7775930830455
 20
441.194069214891
 30
0.0
 10
338.1223810366841
 20
442.8962953411167
 30
0.0
 10
334.6991288471611
 20
444.9343121115155
 30
0.0
 10
329.8980591605548
 20
448.4745665877944
 30
0.0
 10
328.3537642017877
 20
449.7358075330231
 30
0.0
 10
326.1234766921233
 20
451.752388888745
 30
0.0
 10
325.3925639855516
 20
452.4473135965706
 30
0.0
 10
323.9698313498822
 20
453.8700367184981
 30
0.0
 10
323.2791648861232
 20
454.5964563575871
 30
0.0
 10
319.9272943376068
 20
458.302362767236
 30
0.0
 10
317.5674882506969
 20
461.5011010640049
 30
0.0
 10
315.0182019153247
 20
465.7908461683375
 30
0.0
 10
314.5285544263219
 20
466.6634967622674
 30
0.0
 10
313.5904032420219
 20
468.4387279417947
 30
0.0
 10
313.1410215042799
 20
469.3434332254122
 30
0.0
 10
311.8691687702926
 20
472.0742841310599
 30
0.0
 10
311.118607637896
 20
473.9240626717239
 30
0.0
 10
309.1507732869764
 20
479.5585794360863
 30
0.0
 10
308.2145204792355
 20
483.4276499481415
 30
0.0
 10
307.5295917148472
 20
488.4096494550162
 30
0.0
 10
307.4174295803161
 20
489.4123076137163
 30
0.0
 10
307.244530786196
 20
491.4097799814683
 30
0.0
 10
307.1833828010719
 20
492.4073558695354
 30
0.0
 10
307.0746281381223
 20
495.3966583623193
 30
0.0
 10
307.1015290171276
 20
497.3849681298199
 30
0.0
 10
307.3522201885908
 20
501.3525585259792
 30
0.0
 10
307.5760053722238
 20
503.3318393889234
 30
0.0
 10
308.0623409056248
 20
506.2938516789887
 30
0.0
 10
308.2496087213938
 20
507.2800354829542
 30
0.0
 10
308.6755515517831
 20
509.250045611487
 30
0.0
 10
308.9128583278721
 20
510.2274318058788
 30
0.0
 10
310.2178015166783
 20
515.0702469047629
 30
0.0
 10
311.638603571626
 20
518.8115843007134
 30
0.0
 10
313.4418312265671
 20
522.4180396105955
 30
0.0
  0
SPLINE
  5
116
330
1F
100
AcDbEntity
  8
0
  6
Continuous
 62
     7
370
    25
100
AcDbSpline
210
0.0
220
0.0
230
1.0
 70
     8
 71
     3
 72
    38
 73
    34
 74
     0
 42
0.000000001
 43
0.00000001
 40
0.0
 40
0.0
 40
0.0
 40
0.0
 40
0.1250000000000017
 40
0.1250000000000017
 40
0.1875000000000023
 40
0.1875000000000023
 40
0.2187500000000024
 40
0.2187500000000024
 40
0.2500000000000026
 40
0.2500000000000026
 40
0.3750000000000024
 40
0.3750000000000024
 40
0.4062500000000022
 40
0.4062500000000022
 40
0.4375000000000019
 40
0.4375000000000019
 40
0.5000000000000018
 40
0.5000000000000018
 40
0.6250000000000012
 40
0.6250000000000012
 40
0.6562500000000018
 40
0.6562500000000018
 40
0.6875000000000023
 40
0.6875000000000023
 40
0.750000000000003
 40
0.750000000000003
 40
0.8125000000000038
 40
0.8125000000000038
 40
0.8437500000000032
 40
0.8437500000000032
 40
0.8750000000000027
 40
0.8750000000000027
 40
1.0
 40
1.0
 40
1.0
 40
1.0
 10
420.7730941465791
 20
468.7524081506131
 30
0.0
 10
422.5763217800153
 20
472.3588634174888
 30
0.0
 10
423.9890563274085
 20
476.0839605981262
 30
0.0
 10
425.5462077439239
 20
481.8423414571458
 30
0.0
 10
425.9708812557445
 20
483.7904759085119
 30
0.0
 10
426.4628539340118
 20
486.756743761881
 30
0.0
 10
426.6029053590194
 20
487.7555126118681
 30
0.0
 10
426.8319504312514
 20
489.7544742737488
 30
0.0
 10
426.9208985233489
 20
490.7528699455248
 30
0.0
 10
427.2402840764246
 20
495.7395293216555
 30
0.0
 10
427.0983476075911
 20
499.7119926832073
 30
0.0
 10
426.4261491977864
 20
504.6565777751938
 30
0.0
 10
426.2667405587956
 20
505.6444353260803
 30
0.0
 10
425.8970905807248
 20
507.6179935258188
 30
0.0
 10
425.6862151465261
 20
508.6059040063474
 30
0.0
 10
424.9834420691005
 20
511.5352838592224
 30
0.0
 10
424.4205386912104
 20
513.4505286200852
 30
0.0
 10
422.4565897011993
 20
519.0864008067304
 30
0.0
 10
420.7830480645404
 20
522.6982609429298
 30
0.0
 10
418.2204574139716
 20
527.025219869336
 30
0.0
 10
417.6846095294663
 20
527.8800712207192
 30
0.0
 10
416.5775265427973
 20
529.5516444978841
 30
0.0
 10
416.0048956912399
 20
530.3707846893534
 30
0.0
 10
414.2306517115653
 20
532.7790652662246
 30
0.0
 10
412.9728242739428
 20
534.3191852225866
 30
0.0
 10
410.3086206840597
 20
537.2698865571635
 30
0.0
 10
408.9022483862523
 20
538.680471296568
 30
0.0
 10
406.6790219946039
 20
540.6972268211895
 30
0.0
 10
405.9189669069758
 20
541.3529279071092
 30
0.0
 10
404.3600711388129
 20
542.6305079717031
 30
0.0
 10
403.5663075810728
 20
543.2481954450759
 30
0.0
 10
399.532216010265
 20
546.228437071174
 30
0.0
 10
396.0925453269912
 20
548.274151873222
 30
0.0
 10
392.4373333363389
 20
549.9763780590632
 30
0.0
  0
SPLINE
  5
117
330
1F
100
AcDbEntity
  8
0
  6
Continuous
 62
     7
370
    25
100
AcDbSpline
210
0.0
220
0.0
230
1.0
 70
     8
 71
     3
 72
     8
 73
     4
 74
     0
 42
0.000000001
 43
0.00000001
 40
0.0
 40
0.0
 40
0.0
 40
0.0
 40
1.0
 40
1.0
 40
1.0
 40
1.0
 10
673.4418312265647
 20
522.4180396105968
 30
0.0
 10
672.5311716370817
 20
520.5967204316307
 30
0.0
 10
671.7136296123971
 20
518.7297645282421
 30
0.0
 10
670.9927770079992
 20
516.8253286636591
 30
0.0
  0
SPLINE
  5
118
330
1F
100
AcDbEntity
  8
0
  6
Continuous
 62
     7
370
    25
100
AcDbSpline
210
0.0
220
0.0
230
1.0
 70
     8
 71
     3
 72
     8
 73
     4
 74
     0
 42
0.000000001
 43
0.00000001
 40
0.0
 40
0.0
 40
0.0
 40
0.0
 40
1.0
 40
1.0
 40
1.0
 40
1.0
 10
316.446567452851
 20
527.7329095534154
 30
0.0
 10
315.355530323865
 20
526.0135659511983
 30
0.0
 10
314.3524908160141
 20
524.239358789502
 30
0.0
 10
313.4418312265621
 20
522.418039610598
 30
0.0
  0
SPLINE
  5
119
330
1F
100
AcDbEntity
  8
0
  6
Continuous
 62
     7
370
    25
100
AcDbSpline
210
0.0
220
0.0
230
1.0
 70
     8
 71
     3
 72
    32
 73
    28
 74
     0
 42
0.000000001
 43
0.00000001
 40
0.0
 40
0.0
 40
0.0
 40
0.0
 40
0.1249999999999998
 40
0.1249999999999998
 40
0.2499999999999995
 40
0.2499999999999995
 40
0.2812499999999997
 40
0.2812499999999997
 40
0.3124999999999999
 40
0.3124999999999999
 40
0.3750000000000003
 40
0.3750000000000003
 40
0.5000000000000019
 40
0.5000000000000019
 40
0.5625000000000026
 40
0.5625000000000026
 40
0.5937500000000024
 40
0.5937500000000024
 40
0.6250000000000024
 40
0.6250000000000024
 40
0.7500000000000016
 40
0.7500000000000016
 40
0.8750000000000008
 40
0.8750000000000008
 40
0.9375000000000003
 40
0.9375000000000003
 40
1.0
 40
1.0
 40
1.0
 40
1.0
 10
727.1074626865673
 20
555.5852238805955
 30
0.0
 10
724.3151363992839
 20
555.5852238805955
 30
0.0
 10
721.5558401687994
 20
555.3912749831236
 30
0.0
 10
716.1006213153538
 20
554.6312542644149
 30
0.0
 10
713.4047065038267
 20
554.0651365752889
 30
0.0
 10
710.075071229759
 20
553.1210974595937
 30
0.0
 10
709.411166095125
 20
552.9204171412908
 30
0.0
 10
708.0874528565638
 20
552.4949991864263
 30
0.0
 10
707.4264445151762
 20
552.269820377652
 30
0.0
 10
705.4589225588269
 20
551.5609734113028
 30
0.0
 10
704.171071752173
 20
551.0454080898693
 30
0.0
 10
700.377156169939
 20
549.3730567056393
 30
0.0
 10
697.9404074653546
 20
548.0911940268871
 30
0.0
 10
694.4228189726798
 20
545.9202272889235
 30
0.0
 10
693.2732929259722
 20
545.1550633877025
 30
0.0
 10
691.584097647056
 20
543.9439929334459
 30
0.0
 10
691.0268868064647
 20
543.5297391412113
 30
0.0
 10
689.924338348879
 20
542.679807050035
 30
0.0
 10
689.3781716656739
 20
542.2433986192685
 30
0.0
 10
686.6970442601726
 20
540.0234148512501
 30
0.0
 10
684.6979101975382
 20
538.1176654302412
 30
0.0
 10
680.9813080852346
 20
534.0554277816369
 30
0.0
 10
679.2638556148369
 20
531.8989256853896
 30
0.0
 10
676.903859135374
 20
528.4717273368011
 30
0.0
 10
676.1516332520094
 20
527.2940441179727
 30
0.0
 10
674.7330963441559
 20
524.8917348370527
 30
0.0
 10
674.0662143659347
 20
523.6668058893433
 30
0.0
 10
673.441831226562
 20
522.418039610598
 30
0.0
  0
SPLINE
  5
11A
330
1F
100
AcDbEntity
  8
0
  6
Continuous
 62
     7
370
    25
100
AcDbSpline
210
0.0
220
0.0
230
1.0
 70
     8
 71
     3
 72
    11
 73
     7
 74
     0
 42
0.000000001
 43
0.00000001
 40
0.0
 40
0.0
 40
0.0
 40
0.0
 40
0.2456545493308574
 40
0.4929815333421055
 40
0.7455804581595874
 40
0.9999999999999999
 40
0.9999999999999999
 40
0.9999999999999999
 40
0.9999999999999999
 10
386.778650087385
 20
552.2689412506287
 30
0.0
 10
385.2154924521104
 20
552.7706250038211
 30
0.0
 10
382.0785350866056
 20
553.7774080109964
 30
0.0
 10
377.1960216436424
 20
554.791773992649
 30
0.0
 10
372.1947849386351
 20
555.4616168991787
 30
0.0
 10
368.8072818828284
 20
555.5439234345674
 30
0.0
 10
367.1074483814524
 20
555.5852244766419
 30
0.0
  0
SPLINE
  5
11B
330
1F
100
AcDbEntity
  8
0
  6
Continuous
 62
     7
370
    25
100
AcDbSpline
210
0.0
220
0.0
230
1.0
 70
     8
 71
     3
 72
    10
 73
     6
 74
     0
 42
0.000000001
 43
0.00000001
 40
0.0
 40
0.0
 40
0.0
 40
0.0
 40
0.5
 40
0.5
 40
1.0
 40
1.0
 40
1.0
 40
1.0
 10
740.9163131327746
 20
553.9745692216272
 30
0.0
 10
738.6547911081497
 20
554.5094102827223
 30
0.0
 10
736.3697133501954
 20
554.9115335567362
 30
0.0
 10
731.7533231212416
 20
555.4502077022483
 30
0.0
 10
729.4313681985219
 20
555.5852238805957
 30
0.0
 10
727.1074626865671
 20
555.5852238805955
 30
0.0
  0
SPLINE
  5
11C
330
1F
100
AcDbEntity
  8
0
  6
Continuous
 62
     8
370
    25
100
AcDbSpline
210
0.0
220
0.0
230
1.0
 70
     8
 71
     3
 72
    12
 73
     8
 74
     0
 42
0.000000001
 43
0.00000001
 40
0.0
 40
0.0
 40
0.0
 40
0.0
 40
0.2636095900070394
 40
0.4531224963986553
 40
0.6509926507797862
 40
0.8488774955230769
 40
1.0
 40
1.0
 40
1.0
 40
1.0
 10
400.0644658031748
 20
480.3436066182321
 30
0.0
 10
400.1839583763852
 20
480.2883480104443
 30
0.0
 10
400.3893559610208
 20
480.1933631568675
 30
0.0
 10
400.6363083361762
 20
480.0791673871063
 30
0.0
 10
400.8036801373486
 20
480.0017423285938
 30
0.0
 10
400.9034386699079
 20
479.9556306789786
 30
0.0
 10
400.9088405391892
 20
479.9531207292944
 30
0.0
 10
400.9111795845316
 20
479.9520339043801
 30
0.0
  0
SPLINE
  5
11D
330
1F
100
AcDbEntity
  8
0
  6
Continuous
 62
     8
370
    25
100
AcDbSpline
210
0.0
220
0.0
230
1.0
 70
     8
 71
     3
 72
    12
 73
     8
 74
     0
 42
0.000000001
 43
0.00000001
 40
0.0
 40
0.0
 40
0.0
 40
0.0
 40
0.1511254670011528
 40
0.3490054646171032
 40
0.5468887325035222
 40
0.7364033836363144
 40
1.0
 40
1.0
 40
1.0
 40
1.0
 10
333.3038661899851
 20
511.2177546294396
 30
0.0
 10
333.3062197330016
 20
511.2166680782805
 30
0.0
 10
333.3116549477957
 20
511.2141588235556
 30
0.0
 10
333.4113493396044
 20
511.1680423129353
 30
0.0
 10
333.5787731913519
 20
511.0906238453958
 30
0.0
 10
333.8257114732211
 20
510.9764307700455
 30
0.0
 10
334.031097210239
 20
510.8814369429111
 30
0.0
 10
334.1505799713419
 20
510.8261744650071
 30
0.0
  0
SPLINE
  5
11E
330
1F
100
AcDbEntity
  8
0
  6
Continuous
 62
     8
370
    25
100
AcDbSpline
210
0.0
220
0.0
230
1.0
 70
     8
 71
     3
 72
    12
 73
     8
 74
     0
 42
0.000000001
 43
0.00000001
 40
0.0
 40
0.0
 40
0.0
 40
0.0
 40
0.2635994328235405
 40
0.4531114253093567
 40
0.6509969747034281
 40
0.8488676213720857
 40
0.9999999999999999
 40
0.9999999999999999
 40
0.9999999999999999
 40
0.9999999999999999
 10
760.0644093277739
 20
480.3439269931977
 30
0.0
 10
760.1838993883415
 20
480.2886695763978
 30
0.0
 10
760.3892955497602
 20
480.1936854308822
 30
0.0
 10
760.6362367532319
 20
480.0794725897701
 30
0.0
 10
760.8036338667243
 20
480.0020633770905
 30
0.0
 10
760.9033646346809
 20
479.9559383659025
 30
0.0
 10
760.9087812302088
 20
479.9534373291005
 30
0.0
 10
760.911126834421
 20
479.9523542793459
 30
0.0
  0
SPLINE
  5
11F
330
1F
100
AcDbEntity
  8
0
  6
Continuous
 62
     8
370
    25
100
AcDbSpline
210
0.0
220
0.0
230
1.0
 70
     8
 71
     3
 72
    12
 73
     8
 74
     0
 42
0.000000001
 43
0.00000001
 40
0.0
 40
0.0
 40
0.0
 40
0.0
 40
0.1511321369762059
 40
0.3490033008921105
 40
0.5468871224456022
 40
0.7363988119129841
 40
1.0
 40
1.0
 40
1.0
 40
1.0
 10
693.3038022640036
 20
511.2180675538247
 30
0.0
 10
693.3061475793863
 20
511.2169844735185
 30
0.0
 10
693.3115635208704
 20
511.2144833601908
 30
0.0
 10
693.4113005968711
 20
511.1683589522622
 30
0.0
 10
693.5786916864708
 20
511.0909488716367
 30
0.0
 10
693.8256346910088
 20
510.9767358262582
 30
0.0
 10
694.0310322244816
 20
510.8817521655686
 30
0.0
 10
694.150523495941
 20
510.8264948399728
 30
0.0
  0
LINE
  5
120
330
1F
100
AcDbEntity
  8
0
  6
Continuous
 62
     8
370
    25
100
AcDbLine
 10
353.1034861031
 20
553.88468906
 30
0.0
 11
352.3575339737
 21
553.88468906
 31
0.0
  0
LINE
  5
121
330
1F
100
AcDbEntity
  8
0
  6
Continuous
 62
     8
370
    25
100
AcDbLine
 10
381.2503788891
 20
553.88468906
 30
0.0
 11
381.8575416031
 21
553.88468906
 31
0.0
  0
LINE
  5
122
330
1F
100
AcDbEntity
  8
0
  6
Continuous
 62
     8
370
    25
100
AcDbLine
 10
713.037176271
 20
553.8850019844
 30
0.0
 11
712.3574653911
 21
553.8850019844
 31
0.0
  0
ENDSEC
  0
SECTION
  2
OBJECTS
  0
DICTIONARY
  5
C
330
0
100
AcDbDictionary
281
     1
  3
ACAD_GROUP
350
D
  3
ACAD_LAYOUT
350
1A
  3
ACAD_MLINESTYLE
350
17
  3
ACAD_PLOTSETTINGS
350
19
  3
ACAD_PLOTSTYLENAME
350
E
  3
ACAD_SCALELIST
350
47
  0
DICTIONARY
  5
D
102
{ACAD_REACTORS
330
C
102
}
330
C
100
AcDbDictionary
281
     1
  0
DICTIONARY
  5
1A
102
{ACAD_REACTORS
330
C
102
}
330
C
100
AcDbDictionary
281
     1
  3
Layout1
350
1E
  3
Layout2
350
26
  3
Model
350
22
  0
DICTIONARY
  5
17
102
{ACAD_REACTORS
330
C
102
}
330
C
100
AcDbDictionary
281
     1
  3
Standard
350
18
  0
DICTIONARY
  5
19
102
{ACAD_REACTORS
330
C
102
}
330
C
100
AcDbDictionary
281
     1
  0
ACDBDICTIONARYWDFLT
  5
E
102
{ACAD_REACTORS
330
C
102
}
330
C
100
AcDbDictionary
281
     1
  3
Normal
350
F
100
AcDbDictionaryWithDefault
340
F
  0
DICTIONARY
  5
47
102
{ACAD_REACTORS
330
C
102
}
330
C
100
AcDbDictionary
281
     1
  3
A0
350
48
  3
A1
350
49
  3
A2
350
4A
  3
A3
350
4B
  3
A4
350
4C
  3
A5
350
4D
  3
A6
350
4E
  3
A7
350
4F
  3
A8
350
50
  3
A9
350
51
  3
B0
350
52
  3
B1
350
53
  3
B2
350
54
  3
B3
350
55
  3
B4
350
56
  3
B5
350
57
  3
B6
350
58
  3
B7
350
59
  3
B8
350
5A
  3
B9
350
5B
  3
C0
350
5C
  3
C1
350
5D
  3
C2
350
5E
  3
C3
350
5F
  3
C4
350
60
  3
C5
350
61
  3
C6
350
62
  3
C7
350
63
  3
C8
350
64
  3
C9
350
65
  3
D0
350
66
  3
D1
350
67
  3
D2
350
68
  0
LAYOUT
  5
1E
102
{ACAD_REACTORS
330
1A
102
}
330
1A
100
AcDbPlotSettings
  1

  2
none_device
  4

  6

 40
0.0
 41
0.0
 42
0.0
 43
0.0
 44
0.0
 45
0.0
 46
0.0
 47
0.0
 48
0.0
 49
0.0
140
0.0
141
0.0
142
1.0
143
1.0
 70
   688
 72
     1
 73
     0
 74
     5
  7

 75
    16
147
1.0
148
0.0
149
0.0
100
AcDbLayout
  1
Layout1
 70
     1
 71
     1
 10
0.0
 20
0.0
 11
420.0
 21
297.0
 12
0.0
 22
0.0
 32
0.0
 14
1.0000000000E+20
 24
1.0000000000E+20
 34
1.0000000000E+20
 15
-1.0000000000E+20
 25
-1.0000000000E+20
 35
-1.0000000000E+20
146
0.0
 13
0.0
 23
0.0
 33
0.0
 16
1.0
 26
0.0
 36
0.0
 17
0.0
 27
1.0
 37
0.0
 76
     0
330
1B
  0
LAYOUT
  5
26
102
{ACAD_REACTORS
330
1A
102
}
330
1A
100
AcDbPlotSettings
  1

  2
none_device
  4

  6

 40
0.0
 41
0.0
 42
0.0
 43
0.0
 44
0.0
 45
0.0
 46
0.0
 47
0.0
 48
0.0
 49
0.0
140
0.0
141
0.0
142
1.0
143
1.0
 70
   688
 72
     1
 73
     0
 74
     5
  7

 75
    16
147
1.0
148
0.0
149
0.0
100
AcDbLayout
  1
Layout2
 70
     1
 71
     2
 10
0.0
 20
0.0
 11
0.0
 21
0.0
 12
0.0
 22
0.0
 32
0.0
 14
0.0
 24
0.0
 34
0.0
 15
0.0
 25
0.0
 35
0.0
146
0.0
 13
0.0
 23
0.0
 33
0.0
 16
1.0
 26
0.0
 36
0.0
 17
0.0
 27
1.0
 37
0.0
 76
     0
330
23
  0
LAYOUT
  5
22
102
{ACAD_REACTORS
330
1A
102
}
330
1A
100
AcDbPlotSettings
  1

  2
none_device
  4
Letter_(8.50_x_11.00_Inches)
  6

 40
6.35
 41
6.35
 42
6.35000508
 43
6.35000508
 44
215.9
 45
279.4
 46
0.0
 47
0.0
 48
0.0
 49
0.0
140
0.0
141
0.0
142
1.0
143
1.0
 70
  1712
 72
     1
 73
     0
 74
     0
  7

 75
     0
147
1.0
148
0.0
149
0.0
100
AcDbLayout
  1
Model
 70
     1
 71
     0
 10
0.0
 20
0.0
 11
1100.0
 21
800.0
 12
0.0
 22
0.0
 32
0.0
 14
0.0
 24
0.0
 34
0.0
 15
1100.0
 25
800.0
 35
0.0
146
0.0
 13
0.0
 23
0.0
 33
0.0
 16
1.0
 26
0.0
 36
0.0
 17
0.0
 27
1.0
 37
0.0
 76
     0
330
1F
331
29
  0
MLINESTYLE
  5
18
102
{ACAD_REACTORS
330
17
102
}
330
17
100
AcDbMlineStyle
  2
Standard
 70
     0
  3

 62
   256
 51
90.0
 52
90.0
 71
     2
 49
0.5
 62
   256
  6
BYLAYER
 49
-0.5
 62
   256
  6
BYLAYER
  0
ACDBPLACEHOLDER
  5
F
102
{ACAD_REACTORS
330
E
102
}
330
E
  0
SCALE
  5
48
102
{ACAD_REACTORS
330
47
102
}
330
47
100
AcDbScale
 70
     0
300
1:1
140
1.0
141
1.0
290
     1
  0
SCALE
  5
49
102
{ACAD_REACTORS
330
47
102
}
330
47
100
AcDbScale
 70
     0
300
1:2
140
1.0
141
2.0
290
     0
  0
SCALE
  5
4A
102
{ACAD_REACTORS
330
47
102
}
330
47
100
AcDbScale
 70
     0
300
1:4
140
1.0
141
4.0
290
     0
  0
SCALE
  5
4B
102
{ACAD_REACTORS
330
47
102
}
330
47
100
AcDbScale
 70
     0
300
1:5
140
1.0
141
5.0
290
     0
  0
SCALE
  5
4C
102
{ACAD_REACTORS
330
47
102
}
330
47
100
AcDbScale
 70
     0
300
1:8
140
1.0
141
8.0
290
     0
  0
SCALE
  5
4D
102
{ACAD_REACTORS
330
47
102
}
330
47
100
AcDbScale
 70
     0
300
1:10
140
1.0
141
10.0
290
     0
  0
SCALE
  5
4E
102
{ACAD_REACTORS
330
47
102
}
330
47
100
AcDbScale
 70
     0
300
1:16
140
1.0
141
16.0
290
     0
  0
SCALE
  5
4F
102
{ACAD_REACTORS
330
47
102
}
330
47
100
AcDbScale
 70
     0
300
1:20
140
1.0
141
20.0
290
     0
  0
SCALE
  5
50
102
{ACAD_REACTORS
330
47
102
}
330
47
100
AcDbScale
 70
     0
300
1:30
140
1.0
141
30.0
290
     0
  0
SCALE
  5
51
102
{ACAD_REACTORS
330
47
102
}
330
47
100
AcDbScale
 70
     0
300
1:40
140
1.0
141
40.0
290
     0
  0
SCALE
  5
52
102
{ACAD_REACTORS
330
47
102
}
330
47
100
AcDbScale
 70
     0
300
1:50
140
1.0
141
50.0
290
     0
  0
SCALE
  5
53
102
{ACAD_REACTORS
330
47
102
}
330
47
100
AcDbScale
 70
     0
300
1:100
140
1.0
141
100.0
290
     0
  0
SCALE
  5
54
102
{ACAD_REACTORS
330
47
102
}
330
47
100
AcDbScale
 70
     0
300
2:1
140
2.0
141
1.0
290
     0
  0
SCALE
  5
55
102
{ACAD_REACTORS
330
47
102
}
330
47
100
AcDbScale
 70
     0
300
4:1
140
4.0
141
1.0
290
     0
  0
SCALE
  5
56
102
{ACAD_REACTORS
330
47
102
}
330
47
100
AcDbScale
 70
     0
300
8:1
140
8.0
141
1.0
290
     0
  0
SCALE
  5
57
102
{ACAD_REACTORS
330
47
102
}
330
47
100
AcDbScale
 70
     0
300
10:1
140
10.0
141
1.0
290
     0
  0
SCALE
  5
58
102
{ACAD_REACTORS
330
47
102
}
330
47
100
AcDbScale
 70
     0
300
100:1
140
100.0
141
1.0
290
     0
  0
SCALE
  5
59
102
{ACAD_REACTORS
330
47
102
}
330
47
100
AcDbScale
 70
     0
300
1/128" = 1'-0"
140
0.0078125
141
12.0
290
     0
  0
SCALE
  5
5A
102
{ACAD_REACTORS
330
47
102
}
330
47
100
AcDbScale
 70
     0
300
1/64" = 1'-0"
140
0.015625
141
12.0
290
     0
  0
SCALE
  5
5B
102
{ACAD_REACTORS
330
47
102
}
330
47
100
AcDbScale
 70
     0
300
1/32" = 1'-0"
140
0.03125
141
12.0
290
     0
  0
SCALE
  5
5C
102
{ACAD_REACTORS
330
47
102
}
330
47
100
AcDbScale
 70
     0
300
1/16" = 1'-0"
140
0.0625
141
12.0
290
     0
  0
SCALE
  5
5D
102
{ACAD_REACTORS
330
47
102
}
330
47
100
AcDbScale
 70
     0
300
3/32" = 1'-0"
140
0.09375
141
12.0
290
     0
  0
SCALE
  5
5E
102
{ACAD_REACTORS
330
47
102
}
330
47
100
AcDbScale
 70
     0
300
1/8" = 1'-0"
140
0.125
141
12.0
290
     0
  0
SCALE
  5
5F
102
{ACAD_REACTORS
330
47
102
}
330
47
100
AcDbScale
 70
     0
300
3/16" = 1'-0"
140
0.1875
141
12.0
290
     0
  0
SCALE
  5
60
102
{ACAD_REACTORS
330
47
102
}
330
47
100
AcDbScale
 70
     0
300
1/4" = 1'-0"
140
0.25
141
12.0
290
     0
  0
SCALE
  5
61
102
{ACAD_REACTORS
330
47
102
}
330
47
100
AcDbScale
 70
     0
300
3/8" = 1'-0"
140
0.375
141
12.0
290
     0
  0
SCALE
  5
62
102
{ACAD_REACTORS
330
47
102
}
330
47
100
AcDbScale
 70
     0
300
1/2" = 1'-0"
140
0.5
141
12.0
290
     0
  0
SCALE
  5
63
102
{ACAD_REACTORS
330
47
102
}
330
47
100
AcDbScale
 70
     0
300
3/4" = 1'-0"
140
0.75
141
12.0
290
     0
  0
SCALE
  5
64
102
{ACAD_REACTORS
330
47
102
}
330
47
100
AcDbScale
 70
     0
300
1" = 1'-0"
140
1.0
141
12.0
290
     0
  0
SCALE
  5
65
102
{ACAD_REACTORS
330
47
102
}
330
47
100
AcDbScale
 70
     0
300
1-1/2" = 1'-0"
140
1.5
141
12.0
290
     0
  0
SCALE
  5
66
102
{ACAD_REACTORS
330
47
102
}
330
47
100
AcDbScale
 70
     0
300
3" = 1'-0"
140
3.0
141
12.0
290
     0
  0
SCALE
  5
67
102
{ACAD_REACTORS
330
47
102
}
330
47
100
AcDbScale
 70
     0
300
6" = 1'-0"
140
6.0
141
12.0
290
     0
  0
SCALE
  5
68
102
{ACAD_REACTORS
330
47
102
}
330
47
100
AcDbScale
 70
     0
300
1'-0" = 1'-0"
140
12.0
141
12.0
290
     0
  0
ENDSEC
  0
EOF
