  0
SECTION
  2
HEADER
  9
$ACADVER
  1
AC1015
  9
$ACADMAINTVER
 70
     6
  9
$DWGCODEPAGE
  3
ANSI_1252
  9
$INSBASE
 10
0.0
 20
0.0
 30
0.0
  9
$EXTMIN
 10
0.0
 20
0.0
 30
0.0
  9
$EXTMAX
 10
800.0
 20
650.0
 30
0.0
  9
$LIMMIN
 10
0.0
 20
0.0
  9
$LIMMAX
 10
800.0
 20
650.0
  9
$ORTHOMODE
 70
     0
  9
$REGENMODE
 70
     1
  9
$FILLMODE
 70
     1
  9
$QTEXTMODE
 70
     0
  9
$MIRRTEXT
 70
     1
  9
$LTSCALE
 40
1.0
  9
$ATTMODE
 70
     1
  9
$TEXTSIZE
 40
5.0
  9
$TRACEWID
 40
1.0
  9
$TEXTSTYLE
  7
Standard
  9
$CLAYER
  8
0
  9
$CELTYPE
  6
ByLayer
  9
$CECOLOR
 62
   256
  9
$CELTSCALE
 40
1.0
  9
$DISPSILH
 70
     0
  9
$DIMSCALE
 40
1.0
  9
$DIMASZ
 40
6.0
  9
$DIMEXO
 40
1.0
  9
$DIMDLI
 40
3.75
  9
$DIMRND
 40
0.0
  9
$DIMDLE
 40
0.0
  9
$DIMEXE
 40
1.0
  9
$DIMTP
 40
0.0
  9
$DIMTM
 40
0.0
  9
$DIMTXT
 40
5.0
  9
$DIMCEN
 40
2.5
  9
$DIMTSZ
 40
0.0
  9
$DIMTOL
 70
     0
  9
$DIMLIM
 70
     0
  9
$DIMTIH
 70
     1
  9
$DIMTOH
 70
     1
  9
$DIMSE1
 70
     0
  9
$DIMSE2
 70
     0
  9
$DIMTAD
 70
     1
  9
$DIMZIN
 70
     0
  9
$DIMBLK
  1

  9
$DIMASO
 70
     1
  9
$DIMSHO
 70
     1
  9
$DIMPOST
  1

  9
$DIMAPOST
  1

  9
$DIMALT
 70
     0
  9
$DIMALTD
 70
     3
  9
$DIMALTF
 40
0.0393700787
  9
$DIMLFAC
 40
1.0
  9
$DIMTOFL
 70
     1
  9
$DIMTVP
 40
0.0
  9
$DIMTIX
 70
     0
  9
$DIMSOXD
 70
     0
  9
$DIMSAH
 70
     0
  9
$DIMBLK1
  1

  9
$DIMBLK2
  1

  9
$DIMSTYLE
  2
ISO-25
  9
$DIMCLRD
 70
     0
  9
$DIMCLRE
 70
     0
  9
$DIMCLRT
 70
     0
  9
$DIMTFAC
 40
1.0
  9
$DIMGAP
 40
1.524
  9
$DIMJUST
 70
     0
  9
$DIMSD1
 70
     0
  9
$DIMSD2
 70
     0
  9
$DIMTOLJ
 70
     0
  9
$DIMTZIN
 70
     0
  9
$DIMALTZ
 70
     0
  9
$DIMALTTZ
 70
     0
  9
$DIMUPT
 70
     0
  9
$DIMDEC
 70
     2
  9
$DIMTDEC
 70
     2
  9
$DIMALTU
 70
     2
  9
$DIMALTTD
 70
     3
  9
$DIMTXSTY
  7
Standard
  9
$DIMAUNIT
 70
     0
  9
$DIMADEC
 70
     2
  9
$DIMALTRND
 40
0.0
  9
$DIMAZIN
 70
     0
  9
$DIMDSEP
 70
    44
  9
$DIMATFIT
 70
     3
  9
$DIMFRAC
 70
     0
  9
$DIMLDRBLK
  1

  9
$DIMLUNIT
 70
     2
  9
$DIMLWD
 70
    -2
  9
$DIMLWE
 70
    -2
  9
$DIMTMOVE
 70
     0
  9
$LUNITS
 70
     2
  9
$LUPREC
 70
     2
  9
$SKETCHINC
 40
1.0
  9
$FILLETRAD
 40
10.0
  9
$AUNITS
 70
     0
  9
$AUPREC
 70
     2
  9
$MENU
  1
.
  9
$ELEVATION
 40
0.0
  9
$PELEVATION
 40
0.0
  9
$THICKNESS
 40
0.0
  9
$LIMCHECK
 70
     0
  9
$CHAMFERA
 40
0.0
  9
$CHAMFERB
 40
0.0
  9
$CHAMFERC
 40
0.0
  9
$CHAMFERD
 40
0.0
  9
$SKPOLY
 70
     0
  9
$TDCREATE
 40
2458564.407223981
  9
$TDUCREATE
 40
2458564.323890648
  9
$TDUPDATE
 40
2458564.407225405
  9
$TDUUPDATE
 40
2458564.323892072
  9
$TDINDWG
 40
0.0000000116
  9
$TDUSRTIMER
 40
0.0000000116
  9
$USRTIMER
 70
     1
  9
$ANGBASE
 50
0.0
  9
$ANGDIR
 70
     0
  9
$PDMODE
 70
     0
  9
$PDSIZE
 40
-1.0
  9
$PLINEWID
 40
0.0
  9
$SPLFRAME
 70
     0
  9
$SPLINETYPE
 70
     6
  9
$SPLINESEGS
 70
     8
  9
$HANDSEED
  5
261
  9
$SURFTAB1
 70
     6
  9
$SURFTAB2
 70
     6
  9
$SURFTYPE
 70
     6
  9
$SURFU
 70
     6
  9
$SURFV
 70
     6
  9
$UCSBASE
  2

  9
$UCSNAME
  2

  9
$UCSORG
 10
0.0
 20
0.0
 30
0.0
  9
$UCSXDIR
 10
1.0
 20
0.0
 30
0.0
  9
$UCSYDIR
 10
0.0
 20
1.0
 30
0.0
  9
$UCSORTHOREF
  2

  9
$UCSORTHOVIEW
 70
     0
  9
$UCSORGTOP
 10
0.0
 20
0.0
 30
0.0
  9
$UCSORGBOTTOM
 10
0.0
 20
0.0
 30
0.0
  9
$UCSORGLEFT
 10
0.0
 20
0.0
 30
0.0
  9
$UCSORGRIGHT
 10
0.0
 20
0.0
 30
0.0
  9
$UCSORGFRONT
 10
0.0
 20
0.0
 30
0.0
  9
$UCSORGBACK
 10
0.0
 20
0.0
 30
0.0
  9
$PUCSBASE
  2

  9
$PUCSNAME
  2

  9
$PUCSORG
 10
0.0
 20
0.0
 30
0.0
  9
$PUCSXDIR
 10
1.0
 20
0.0
 30
0.0
  9
$PUCSYDIR
 10
0.0
 20
1.0
 30
0.0
  9
$PUCSORTHOREF
  2

  9
$PUCSORTHOVIEW
 70
     0
  9
$PUCSORGTOP
 10
0.0
 20
0.0
 30
0.0
  9
$PUCSORGBOTTOM
 10
0.0
 20
0.0
 30
0.0
  9
$PUCSORGLEFT
 10
0.0
 20
0.0
 30
0.0
  9
$PUCSORGRIGHT
 10
0.0
 20
0.0
 30
0.0
  9
$PUCSORGFRONT
 10
0.0
 20
0.0
 30
0.0
  9
$PUCSORGBACK
 10
0.0
 20
0.0
 30
0.0
  9
$USERI1
 70
     0
  9
$USERI2
 70
     0
  9
$USERI3
 70
     0
  9
$USERI4
 70
     0
  9
$USERI5
 70
     0
  9
$USERR1
 40
0.0
  9
$USERR2
 40
0.0
  9
$USERR3
 40
0.0
  9
$USERR4
 40
0.0
  9
$USERR5
 40
0.0
  9
$WORLDVIEW
 70
     1
  9
$SHADEDGE
 70
     3
  9
$SHADEDIF
 70
    70
  9
$TILEMODE
 70
     1
  9
$MAXACTVP
 70
    64
  9
$PINSBASE
 10
0.0
 20
0.0
 30
0.0
  9
$PLIMCHECK
 70
     0
  9
$PEXTMIN
 10
1.0000000000E+20
 20
1.0000000000E+20
 30
1.0000000000E+20
  9
$PEXTMAX
 10
-1.0000000000E+20
 20
-1.0000000000E+20
 30
-1.0000000000E+20
  9
$PLIMMIN
 10
0.0
 20
0.0
  9
$PLIMMAX
 10
420.0
 20
297.0
  9
$UNITMODE
 70
     0
  9
$VISRETAIN
 70
     1
  9
$PLINEGEN
 70
     0
  9
$PSLTSCALE
 70
     1
  9
$TREEDEPTH
 70
  3020
  9
$CMLSTYLE
  2
Standard
  9
$CMLJUST
 70
     0
  9
$CMLSCALE
 40
20.0
  9
$PROXYGRAPHICS
 70
     1
  9
$MEASUREMENT
 70
     1
  9
$CELWEIGHT
370
    -1
  9
$ENDCAPS
280
     0
  9
$JOINSTYLE
280
     0
  9
$LWDISPLAY
290
     1
  9
$INSUNITS
 70
     4
  9
$HYPERLINKBASE
  1

  9
$STYLESHEET
  1

  9
$XEDIT
290
     1
  9
$CEPSNTYPE
380
     0
  9
$PSTYLEMODE
290
     1
  9
$FINGERPRINTGUID
  2
{9669FE79-E6DA-4DA2-ADE2-2AFDA71EAF04}
  9
$VERSIONGUID
  2
{FAEB1C32-E019-11D5-929B-00C0DF256EC4}
  9
$EXTNAMES
290
     1
  9
$PSVPSCALE
 40
0.0
  9
$OLESTARTUP
290
     0
  0
ENDSEC
  0
SECTION
  2
CLASSES
  0
CLASS
  1
ACDBDICTIONARYWDFLT
  2
AcDbDictionaryWithDefault
  3
ObjectDBX Classes
 90
        0
280
     0
281
     0
  0
CLASS
  1
VISUALSTYLE
  2
AcDbVisualStyle
  3
ObjectDBX Classes
 90
     4095
280
     0
281
     0
  0
CLASS
  1
MATERIAL
  2
AcDbMaterial
  3
ObjectDBX Classes
 90
     1153
280
     0
281
     0
  0
CLASS
  1
SCALE
  2
AcDbScale
  3
ObjectDBX Classes
 90
     1153
280
     0
281
     0
  0
CLASS
  1
TABLESTYLE
  2
AcDbTableStyle
  3
ObjectDBX Classes
 90
     4095
280
     0
281
     0
  0
CLASS
  1
MLEADERSTYLE
  2
AcDbMLeaderStyle
  3
ACDB_MLEADERSTYLE_CLASS
 90
     4095
280
     0
281
     0
  0
CLASS
  1
SUN
  2
AcDbSun
  3
SCENEOE
 90
     1153
280
     0
281
     0
  0
CLASS
  1
ACDBPLACEHOLDER
  2
AcDbPlaceHolder
  3
ObjectDBX Classes
 90
        0
280
     0
281
     0
  0
CLASS
  1
LAYOUT
  2
AcDbLayout
  3
ObjectDBX Classes
 90
        0
280
     0
281
     0
  0
ENDSEC
  0
SECTION
  2
TABLES
  0
TABLE
  2
VPORT
  5
8
330
0
100
AcDbSymbolTable
 70
     1
  0
VPORT
  5
29
330
8
100
AcDbSymbolTableRecord
100
AcDbViewportTableRecord
  2
*Active
 70
     0
 10
0.0
 20
0.0
 11
1.0
 21
1.0
 12
400.0
 22
325.0
 13
0.0
 23
0.0
 14
10.0
 24
10.0
 15
10.0
 25
10.0
 16
0.0
 26
0.0
 36
1.0
 17
0.0
 27
0.0
 37
0.0
 40
650.0
 41
1.2307692308
 42
50.0
 43
0.0
 44
0.0
 50
0.0
 51
0.0
 71
     0
 72
  2000
 73
     1
 74
     3
 75
     0
 76
     0
 77
     0
 78
     0
281
     0
 65
     1
110
0.0
120
0.0
130
0.0
111
1.0
121
0.0
131
0.0
112
0.0
122
1.0
132
0.0
 79
     0
146
0.0
  0
ENDTAB
  0
TABLE
  2
LTYPE
  5
5
330
0
100
AcDbSymbolTable
 70
     6
  0
LTYPE
  5
14
330
5
100
AcDbSymbolTableRecord
100
AcDbLinetypeTableRecord
  2
ByBlock
 70
     0
  3

 72
    65
 73
     0
 40
0.0
  0
LTYPE
  5
15
330
5
100
AcDbSymbolTableRecord
100
AcDbLinetypeTableRecord
  2
ByLayer
 70
     0
  3

 72
    65
 73
     0
 40
0.0
  0
LTYPE
  5
16
330
5
100
AcDbSymbolTableRecord
100
AcDbLinetypeTableRecord
  2
Continuous
 70
     0
  3
Solid line
 72
    65
 73
     0
 40
0.0
  0
LTYPE
  5
6E
330
5
100
AcDbSymbolTableRecord
100
AcDbLinetypeTableRecord
  2
HIDDEN
 70
     0
  3
Hidden __ __ __ __ __ __ __ __ __ __ __ __ __ __
 72
    65
 73
     2
 40
1.905
 49
1.27
 74
     0
 49
-0.635
 74
     0
  0
LTYPE
  5
6F
330
5
100
AcDbSymbolTableRecord
100
AcDbLinetypeTableRecord
  2
PHANTOM
 70
     0
  3
Phantom ______  __  __  ______  __  __  ______
 72
    65
 73
     6
 40
12.7
 49
6.35
 74
     0
 49
-1.27
 74
     0
 49
1.27
 74
     0
 49
-1.27
 74
     0
 49
1.27
 74
     0
 49
-1.27
 74
     0
  0
LTYPE
  5
70
330
5
100
AcDbSymbolTableRecord
100
AcDbLinetypeTableRecord
  2
CENTER
 70
     0
  3
Center ____ _ ____ _ ____ _ ____ _ ____ _ ____
 72
    65
 73
     4
 40
10.16
 49
6.35
 74
     0
 49
-1.27
 74
     0
 49
1.27
 74
     0
 49
-1.27
 74
     0
  0
LTYPE
  5
71
330
5
100
AcDbSymbolTableRecord
100
AcDbLinetypeTableRecord
  2
CENTERX2
 70
     0
  3
Center (2x) ________  __  ________  __  _____
 72
    65
 73
     4
 40
20.32
 49
12.7
 74
     0
 49
-2.54
 74
     0
 49
2.54
 74
     0
 49
-2.54
 74
     0
  0
LTYPE
  5
72
330
5
100
AcDbSymbolTableRecord
100
AcDbLinetypeTableRecord
  2
DOT2
 70
     0
  3
Dot (.5x) ........................................
 72
    65
 73
     2
 40
0.635
 49
0.0
 74
     0
 49
-0.635
 74
     0
  0
ENDTAB
  0
TABLE
  2
LAYER
  5
2
330
0
100
AcDbSymbolTable
 70
     2
  0
LAYER
  5
10
330
2
100
AcDbSymbolTableRecord
100
AcDbLayerTableRecord
  2
0
 70
     0
 62
     7
  6
Continuous
370
    -3
390
F
  0
LAYER
  5
73
330
2
100
AcDbSymbolTableRecord
100
AcDbLayerTableRecord
  2
TABLE_BL1
 70
     0
 62
   179
  6
Continuous
370
    -3
390
F
  0
ENDTAB
  0
TABLE
  2
STYLE
  5
3
330
0
100
AcDbSymbolTable
 70
     1
  0
STYLE
  5
11
330
3
100
AcDbSymbolTableRecord
100
AcDbTextStyleTableRecord
  2
Standard
 70
     0
 40
0.0
 41
1.0
 50
0.0
 71
     0
 42
5.0
  3
txt
  4

  0
ENDTAB
  0
TABLE
  2
VIEW
  5
6
330
0
100
AcDbSymbolTable
 70
     0
  0
ENDTAB
  0
TABLE
  2
UCS
  5
7
330
0
100
AcDbSymbolTable
 70
     0
  0
ENDTAB
  0
TABLE
  2
APPID
  5
9
330
0
100
AcDbSymbolTable
 70
     1
  0
APPID
  5
12
330
9
100
AcDbSymbolTableRecord
100
AcDbRegAppTableRecord
  2
ACAD
 70
     0
  0
ENDTAB
  0
TABLE
  2
DIMSTYLE
  5
A
330
0
100
AcDbSymbolTable
 70
     1
100
AcDbDimStyleTable
  0
DIMSTYLE
105
27
330
A
100
AcDbSymbolTableRecord
100
AcDbDimStyleTableRecord
  2
ISO-25
 70
     0
 41
2.5
 42
0.625
 43
3.75
 44
1.25
 73
     0
 74
     0
 77
     1
 78
     8
140
2.5
141
2.5
143
0.0393700787
147
0.625
171
     3
172
     1
178
     0
271
     2
272
     2
274
     3
278
    44
283
     0
284
     8
340
11
  0
ENDTAB
  0
TABLE
  2
BLOCK_RECORD
  5
1
330
0
100
AcDbSymbolTable
 70
     1
  0
BLOCK_RECORD
  5
1F
330
1
100
AcDbSymbolTableRecord
100
AcDbBlockTableRecord
  2
*Model_Space
340
22
  0
BLOCK_RECORD
  5
1B
330
1
100
AcDbSymbolTableRecord
100
AcDbBlockTableRecord
  2
*Paper_Space
340
1E
  0
BLOCK_RECORD
  5
23
330
1
100
AcDbSymbolTableRecord
100
AcDbBlockTableRecord
  2
*Paper_Space0
340
26
  0
ENDTAB
  0
ENDSEC
  0
SECTION
  2
BLOCKS
  0
BLOCK
  5
20
330
1F
100
AcDbEntity
  8
0
100
AcDbBlockBegin
  2
*Model_Space
 70
     0
 10
0.0
 20
0.0
 30
0.0
  3
*Model_Space
  1

  0
ENDBLK
  5
21
330
1F
100
AcDbEntity
  8
0
100
AcDbBlockEnd
  0
BLOCK
  5
1C
330
1B
100
AcDbEntity
 67
     1
  8
0
100
AcDbBlockBegin
  2
*Paper_Space
 70
     0
 10
0.0
 20
0.0
 30
0.0
  3
*Paper_Space
  1

  0
ENDBLK
  5
1D
330
1B
100
AcDbEntity
 67
     1
  8
0
100
AcDbBlockEnd
  0
BLOCK
  5
24
330
23
100
AcDbEntity
  8
0
100
AcDbBlockBegin
  2
*Paper_Space0
 70
     0
 10
0.0
 20
0.0
 30
0.0
  3
*Paper_Space0
  1

  0
ENDBLK
  5
25
330
23
100
AcDbEntity
  8
0
100
AcDbBlockEnd
  0
ENDSEC
  0
SECTION
  2
ENTITIES
  0
LINE
  5
74
330
1F
100
AcDbEntity
  8
0
  6
Continuous
 62
     7
370
    25
100
AcDbLine
 10
396.189552127
 20
493.3774454915
 30
0.0
 11
396.189552127
 21
493.6703278148
 31
0.0
  0
LINE
  5
75
330
1F
100
AcDbEntity
  8
0
  6
Continuous
 62
     7
370
    25
100
AcDbLine
 10
386.1895523506
 20
493.6703278148
 30
0.0
 11
386.1895523506
 21
493.3774454915
 31
0.0
  0
SPLINE
  5
76
330
1F
100
AcDbEntity
  8
0
  6
Continuous
 62
     7
370
    25
100
AcDbSpline
210
0.0
220
0.0
230
1.0
 70
     8
 71
     3
 72
    11
 73
     7
 74
     0
 42
0.000000001
 43
0.00000001
 40
0.0
 40
0.0
 40
0.0
 40
0.0
 40
0.2475999213068406
 40
0.5000040549639683
 40
0.7524128370106131
 40
1.0
 40
1.0
 40
1.0
 40
1.0
 10
386.1964813905198
 20
493.377445491534
 30
0.0
 10
386.1982885900995
 20
493.3450226727933
 30
0.0
 10
386.2019380545792
 20
493.2795479312904
 30
0.0
 10
386.2318313059131
 20
493.1850053269279
 30
0.0
 10
386.2774404135679
 20
493.096985296036
 30
0.0
 10
386.3210755580827
 20
493.0480950371934
 30
0.0
 10
386.3426827365893
 20
493.0238856398876
 30
0.0
  0
LINE
  5
77
330
1F
100
AcDbEntity
  8
0
  6
Continuous
 62
     7
370
    25
100
AcDbLine
 10
386.3359986345
 20
493.0238856399
 30
0.0
 11
386.962736352
 21
492.3971577012
 31
0.0
  0
LINE
  5
78
330
1F
100
AcDbEntity
  8
0
  6
Continuous
 62
     7
370
    25
100
AcDbLine
 10
395.1895524288
 20
492.1703322255
 30
0.0
 11
396.0431058431
 21
493.0238856399
 31
0.0
  0
SPLINE
  5
79
330
1F
100
AcDbEntity
  8
0
  6
Continuous
 62
     7
370
    25
100
AcDbSpline
210
0.0
220
0.0
230
1.0
 70
     8
 71
     3
 72
    12
 73
     8
 74
     0
 42
0.000000001
 43
0.00000001
 40
0.0
 40
0.0
 40
0.0
 40
0.0
 40
0.2195609935764479
 40
0.4470603318587656
 40
0.674731502531963
 40
0.9025654930504124
 40
1.0
 40
1.0
 40
1.0
 40
1.0
 10
387.2964445973176
 20
490.4170615994747
 30
0.0
 10
387.8492787431833
 20
490.2238826560663
 30
0.0
 10
388.9749350480111
 20
489.8305402816238
 30
0.0
 10
390.7738023582059
 20
489.6167525093683
 30
0.0
 10
392.5911355982449
 20
489.7116652903839
 30
0.0
 10
394.0516653509827
 20
489.9956477153879
 30
0.0
 10
394.8439111166779
 20
490.3473977142544
 30
0.0
 10
395.081229135989
 20
490.4527647816952
 30
0.0
  0
LINE
  5
7A
330
1F
100
AcDbEntity
  8
0
  6
Continuous
 62
     7
370
    25
100
AcDbLine
 10
386.962736352
 20
492.5770743215
 30
0.0
 11
386.962736352
 21
490.8156229579
 31
0.0
  0
SPLINE
  5
7B
330
1F
100
AcDbEntity
  8
0
  6
Continuous
 62
     7
370
    25
100
AcDbSpline
210
0.0
220
0.0
230
1.0
 70
     8
 71
     3
 72
     9
 73
     5
 74
     0
 42
0.000000001
 43
0.00000001
 40
0.0
 40
0.0
 40
0.0
 40
0.0
 40
0.4676188801420751
 40
1.0
 40
1.0
 40
1.0
 40
1.0
 10
386.9657496462005
 20
490.8260835730846
 30
0.0
 10
386.9676669529545
 20
490.7943180346325
 30
0.0
 10
386.971767101249
 20
490.7263876327578
 30
0.0
 10
387.0148481728912
 20
490.662494677542
 30
0.0
 10
387.0377837220568
 20
490.628479274493
 30
0.0
  0
SPLINE
  5
7C
330
1F
100
AcDbEntity
  8
0
  6
Continuous
 62
     7
370
    25
100
AcDbSpline
210
0.0
220
0.0
230
1.0
 70
     8
 71
     3
 72
    11
 73
     7
 74
     0
 42
0.000000001
 43
0.00000001
 40
0.0
 40
0.0
 40
0.0
 40
0.0
 40
0.2475871800059415
 40
0.4999959794005289
 40
0.7524001304052794
 40
1.0
 40
1.0
 40
1.0
 40
1.0
 10
396.0364217410225
 20
493.0238856398876
 30
0.0
 10
396.0580289195268
 20
493.0480950370314
 30
0.0
 10
396.1016640640367
 20
493.0969852955469
 30
0.0
 10
396.1472731717283
 20
493.1850053289288
 30
0.0
 10
396.1771664201923
 20
493.2795479152161
 30
0.0
 10
396.180815886741
 20
493.3450226705083
 30
0.0
 10
396.1826230870921
 20
493.377445491534
 30
0.0
  0
LINE
  5
7D
330
1F
100
AcDbEntity
  8
0
  6
Continuous
 62
     7
370
    25
100
AcDbLine
 10
395.4163681256
 20
490.8156229579
 30
0.0
 11
395.4163681256
 21
492.3971577012
 31
0.0
  0
LINE
  5
7E
330
1F
100
AcDbEntity
  8
0
  6
Continuous
 62
     7
370
    25
100
AcDbLine
 10
395.3413207556
 20
490.6284792745
 30
0.0
 11
395.3478269751
 21
490.6401021802
 31
0.0
  0
SPLINE
  5
7F
330
1F
100
AcDbEntity
  8
0
  6
Continuous
 62
     7
370
    25
100
AcDbSpline
210
0.0
220
0.0
230
1.0
 70
     8
 71
     3
 72
     9
 73
     5
 74
     0
 42
0.000000001
 43
0.00000001
 40
0.0
 40
0.0
 40
0.0
 40
0.0
 40
0.3262144574760156
 40
0.9999999999999999
 40
0.9999999999999999
 40
0.9999999999999999
 40
0.9999999999999999
 10
395.3745182143885
 20
490.6877858960445
 30
0.0
 10
395.3836647311747
 20
490.7023145550733
 30
0.0
 10
395.4117030862402
 20
490.7468516952761
 30
0.0
 10
395.412689918262
 20
490.794188630502
 30
0.0
 10
395.4133548314113
 20
490.8260835730846
 30
0.0
  0
SPLINE
  5
80
330
1F
100
AcDbEntity
  8
0
  6
Continuous
 62
     7
370
    25
100
AcDbSpline
210
0.0
220
0.0
230
1.0
 70
     8
 71
     3
 72
    18
 73
    14
 74
     0
 42
0.000000001
 43
0.00000001
 40
0.0
 40
0.0
 40
0.0
 40
0.0
 40
0.1181634741431477
 40
0.241730171355351
 40
0.3519953742603288
 40
0.439343418409758
 40
0.5540330687406406
 40
0.6249959640856927
 40
0.7018579133833931
 40
0.7811806445850034
 40
0.8592623405960824
 40
0.9329153026131797
 40
1.0
 40
1.0
 40
1.0
 40
1.0
 10
399.3628941016632
 20
380.2402338409241
 30
0.0
 10
399.7141164176261
 20
381.3033940697364
 30
0.0
 10
400.4326212791088
 20
383.4783293122264
 30
0.0
 10
399.8969765938942
 20
386.859491827882
 30
0.0
 10
398.4187459428404
 20
389.5357683109567
 30
0.0
 10
396.2580258159629
 20
391.5619741977785
 30
0.0
 10
393.8837424208555
 20
392.6672026403218
 30
0.0
 10
391.4319663716432
 20
393.0214286860956
 30
0.0
 10
389.2913522926737
 20
392.8335117107389
 30
0.0
 10
387.1937241380443
 20
392.1099310289339
 30
0.0
 10
385.371248424171
 20
390.909240238197
 30
0.0
 10
383.9334411095208
 20
389.4108039892095
 30
0.0
 10
383.3122908705873
 20
388.2423837291803
 30
0.0
 10
383.0162103759486
 20
387.6854388439472
 30
0.0
  0
SPLINE
  5
81
330
1F
100
AcDbEntity
  8
0
  6
Continuous
 62
     7
370
    25
100
AcDbSpline
210
0.0
220
0.0
230
1.0
 70
     8
 71
     3
 72
    18
 73
    14
 74
     0
 42
0.000000001
 43
0.00000001
 40
0.0
 40
0.0
 40
0.0
 40
0.0
 40
0.1181634607256906
 40
0.2417302751773918
 40
0.3519954655617609
 40
0.4393434997928236
 40
0.5540330811525086
 40
0.6249959874694653
 40
0.7018579280394948
 40
0.7811806935287934
 40
0.8592624532749145
 40
0.9329153102306439
 40
1.0
 40
1.0
 40
1.0
 40
1.0
 10
383.0162103759486
 20
387.6854388439472
 30
0.0
 10
382.6649881706414
 20
386.6222786319852
 30
0.0
 10
381.9464831453494
 20
384.4473422428773
 30
0.0
 10
382.4821271959913
 20
381.0661780921325
 30
0.0
 10
383.960358698309
 20
378.3899010822985
 30
0.0
 10
386.1210777587655
 20
376.3636937031836
 30
0.0
 10
388.4953634033487
 20
375.2584727067353
 30
0.0
 10
390.9471376118354
 20
374.9042389588204
 30
0.0
 10
393.0877528615709
 20
375.092156852441
 30
0.0
 10
395.1853810005764
 20
375.8157416679711
 30
0.0
 10
397.0078536427849
 20
377.0164364475037
 30
0.0
 10
398.4456645207591
 20
378.5148687875345
 30
0.0
 10
399.06681384134
 20
379.6832887262052
 30
0.0
 10
399.3628941016632
 20
380.2402338409241
 30
0.0
  0
LINE
  5
82
330
1F
100
AcDbEntity
  8
0
  6
Continuous
 62
     7
370
    25
100
AcDbLine
 10
396.1324159528
 20
493.6703278148
 30
0.0
 11
396.189552127
 21
493.6703278148
 31
0.0
  0
LINE
  5
83
330
1F
100
AcDbEntity
  8
0
  6
Continuous
 62
     7
370
    25
100
AcDbLine
 10
386.1895523506
 20
493.6703278148
 30
0.0
 11
396.1324159528
 21
493.6703278148
 31
0.0
  0
SPLINE
  5
84
330
1F
100
AcDbEntity
  8
0
  6
Continuous
 62
     7
370
    25
100
AcDbSpline
210
0.0
220
0.0
230
1.0
 70
     8
 71
     3
 72
     9
 73
     5
 74
     0
 42
0.000000001
 43
0.00000001
 40
0.0
 40
0.0
 40
0.0
 40
0.0
 40
0.559986682047457
 40
1.0
 40
1.0
 40
1.0
 40
1.0
 10
396.1324159527558
 20
493.377445491534
 30
0.0
 10
396.12388305726
 20
493.3031735946273
 30
0.0
 10
396.1086453814912
 20
493.1705420530428
 30
0.0
 10
396.0246165811126
 20
493.0686982635954
 30
0.0
 10
395.9876427898544
 20
493.0238856398876
 30
0.0
  0
SPLINE
  5
85
330
1F
100
AcDbEntity
  8
0
  6
Continuous
 62
     7
370
    25
100
AcDbSpline
210
0.0
220
0.0
230
1.0
 70
     8
 71
     3
 72
    10
 73
     6
 74
     0
 42
0.000000001
 43
0.00000001
 40
0.0
 40
0.0
 40
0.0
 40
0.0
 40
0.2592495178013847
 40
0.8669366534260579
 40
1.0
 40
1.0
 40
1.0
 40
1.0
 10
395.2354414860147
 20
492.2962470376308
 30
0.0
 10
395.2050458530753
 20
492.2433399714621
 30
0.0
 10
395.1034021218824
 20
492.0664174634634
 30
0.0
 10
394.9808499179397
 20
492.2855047867693
 30
0.0
 10
394.8976846716731
 20
492.4921130064399
 30
0.0
 10
394.8827454360563
 20
492.5292266928967
 30
0.0
  0
SPLINE
  5
86
330
1F
100
AcDbEntity
  8
0
  6
Continuous
 62
     7
370
    25
100
AcDbSpline
210
0.0
220
0.0
230
1.0
 70
     8
 71
     3
 72
    11
 73
     7
 74
     0
 42
0.000000001
 43
0.00000001
 40
0.0
 40
0.0
 40
0.0
 40
0.0
 40
0.2658497830975503
 40
0.5326198429723524
 40
0.7842154680478541
 40
1.0
 40
1.0
 40
1.0
 40
1.0
 10
394.8827454360563
 20
492.5292266928967
 30
0.0
 10
394.8623734678013
 20
492.5601847831645
 30
0.0
 10
394.8215590108302
 20
492.6222081295257
 30
0.0
 10
394.6648098425529
 20
492.6433699528933
 30
0.0
 10
394.4677392570979
 20
492.6106293415123
 30
0.0
 10
394.3241868316624
 20
492.5549385493707
 30
0.0
 10
394.2579101777065
 20
492.5292266928967
 30
0.0
  0
SPLINE
  5
87
330
1F
100
AcDbEntity
  8
0
  6
Continuous
 62
     7
370
    25
100
AcDbSpline
210
0.0
220
0.0
230
1.0
 70
     8
 71
     3
 72
    10
 73
     6
 74
     0
 42
0.000000001
 43
0.00000001
 40
0.0
 40
0.0
 40
0.0
 40
0.0
 40
0.47499890531495
 40
0.9281018431519996
 40
1.0
 40
1.0
 40
1.0
 40
1.0
 10
394.2579101777065
 20
492.5292266928967
 30
0.0
 10
393.7520380679593
 20
492.3615779513594
 30
0.0
 10
392.7636129743387
 20
492.0340085521843
 30
0.0
 10
391.643323030076
 20
492.277663965296
 30
0.0
 10
391.1048389300929
 20
492.4989252703372
 30
0.0
 10
391.0310942947527
 20
492.5292266928967
 30
0.0
  0
SPLINE
  5
88
330
1F
100
AcDbEntity
  8
0
  6
Continuous
 62
     7
370
    25
100
AcDbSpline
210
0.0
220
0.0
230
1.0
 70
     8
 71
     3
 72
    11
 73
     7
 74
     0
 42
0.000000001
 43
0.00000001
 40
0.0
 40
0.0
 40
0.0
 40
0.0
 40
0.2658514178245857
 40
0.5326216222323069
 40
0.7842148484620549
 40
1.0
 40
1.0
 40
1.0
 40
1.0
 10
391.0310942947527
 20
492.5292266928967
 30
0.0
 10
390.9444513920018
 20
492.5601847566339
 30
0.0
 10
390.7708661472974
 20
492.622207875652
 30
0.0
 10
390.4844557228235
 20
492.6433701413297
 30
0.0
 10
390.2316512148945
 20
492.6106288959017
 30
0.0
 10
390.1022604029276
 20
492.5549385260924
 30
0.0
 10
390.0425216189015
 20
492.5292266928967
 30
0.0
  0
SPLINE
  5
89
330
1F
100
AcDbEntity
  8
0
  6
Continuous
 62
     7
370
    25
100
AcDbSpline
210
0.0
220
0.0
230
1.0
 70
     8
 71
     3
 72
    10
 73
     6
 74
     0
 42
0.000000001
 43
0.00000001
 40
0.0
 40
0.0
 40
0.0
 40
0.0
 40
0.4749984890441789
 40
0.928101444623232
 40
1.0
 40
1.0
 40
1.0
 40
1.0
 10
390.0425216189015
 20
492.5292266928967
 30
0.0
 10
389.6185149110973
 20
492.3615778447099
 30
0.0
 10
388.7900465114718
 20
492.0340080907415
 30
0.0
 10
387.8510504803205
 20
492.2776650756214
 30
0.0
 10
387.3997117513046
 20
492.4989252774831
 30
0.0
 10
387.3379012575734
 20
492.5292266928967
 30
0.0
  0
SPLINE
  5
8A
330
1F
100
AcDbEntity
  8
0
  6
Continuous
 62
     7
370
    25
100
AcDbSpline
210
0.0
220
0.0
230
1.0
 70
     8
 71
     3
 72
    11
 73
     7
 74
     0
 42
0.000000001
 43
0.00000001
 40
0.0
 40
0.0
 40
0.0
 40
0.0
 40
0.3120759037328689
 40
0.6252296159816989
 40
0.920568770398947
 40
0.9999999999999999
 40
0.9999999999999999
 40
0.9999999999999999
 40
0.9999999999999999
 10
387.3379012575734
 20
492.5292266928967
 30
0.0
 10
387.2714505778013
 20
492.5603109614834
 30
0.0
 10
387.1383197192547
 20
492.6225868535953
 30
0.0
 10
387.0113126823048
 20
492.6418839301389
 30
0.0
 10
386.9595580536191
 20
492.6208526188088
 30
0.0
 10
386.9664942330905
 20
492.5847303136345
 30
0.0
 10
386.967964331283
 20
492.5770743214901
 30
0.0
  0
LINE
  5
8B
330
1F
100
AcDbEntity
  8
0
  6
Continuous
 62
     7
370
    25
100
AcDbLine
 10
391.0310942948
 20
490.8175005042
 30
0.0
 11
394.2579101777
 21
490.8175005042
 31
0.0
  0
LINE
  5
8C
330
1F
100
AcDbEntity
  8
0
  6
Continuous
 62
     7
370
    25
100
AcDbLine
 10
391.0310942948
 20
492.5292266929
 30
0.0
 11
391.0310942948
 21
490.8175005042
 31
0.0
  0
LINE
  5
8D
330
1F
100
AcDbEntity
  8
0
  6
Continuous
 62
     7
370
    25
100
AcDbLine
 10
394.2579101777
 20
490.8175005042
 30
0.0
 11
394.2579101777
 21
492.5292266929
 31
0.0
  0
LINE
  5
8E
330
1F
100
AcDbEntity
  8
0
  6
Continuous
 62
     7
370
    25
100
AcDbLine
 10
387.417200348
 20
490.5428124988
 30
0.0
 11
390.2016493731
 21
490.5428124988
 31
0.0
  0
SPLINE
  5
8F
330
1F
100
AcDbEntity
  8
0
  6
Continuous
 62
     7
370
    25
100
AcDbSpline
210
0.0
220
0.0
230
1.0
 70
     8
 71
     3
 72
    11
 73
     7
 74
     0
 42
0.000000001
 43
0.00000001
 40
0.0
 40
0.0
 40
0.0
 40
0.0
 40
0.2505606525609094
 40
0.5006025576191245
 40
0.7504333937861466
 40
0.9999999999999999
 40
0.9999999999999999
 40
0.9999999999999999
 40
0.9999999999999999
 10
390.2016493730608
 20
490.5428124987896
 30
0.0
 10
390.2534939331277
 20
490.5529754854909
 30
0.0
 10
390.3570757170306
 20
490.5732804179842
 30
0.0
 10
390.542594967832
 20
490.5815984651201
 30
0.0
 10
390.7345517255476
 20
490.5732052441138
 30
0.0
 10
390.8542551336465
 20
490.5529398397725
 30
0.0
 10
390.9140751703072
 20
490.5428124987896
 30
0.0
  0
LINE
  5
90
330
1F
100
AcDbEntity
  8
0
  6
Continuous
 62
     7
370
    25
100
AcDbLine
 10
390.9140751703
 20
490.5428124988
 30
0.0
 11
394.2361325963
 21
490.5428124988
 31
0.0
  0
SPLINE
  5
91
330
1F
100
AcDbEntity
  8
0
  6
Continuous
 62
     7
370
    25
100
AcDbSpline
210
0.0
220
0.0
230
1.0
 70
     8
 71
     3
 72
    11
 73
     7
 74
     0
 42
0.000000001
 43
0.00000001
 40
0.0
 40
0.0
 40
0.0
 40
0.0
 40
0.2505591664345897
 40
0.5006013601093312
 40
0.7504300960645715
 40
0.9999999999999999
 40
0.9999999999999999
 40
0.9999999999999999
 40
0.9999999999999999
 10
394.236132596283
 20
490.5428124987896
 30
0.0
 10
394.292794976487
 20
490.552975483033
 30
0.0
 10
394.4060028267557
 20
490.5732804824766
 30
0.0
 10
394.5427271183386
 20
490.5815985008711
 30
0.0
 10
394.6444178380455
 20
490.5732049972091
 30
0.0
 10
394.6724286707549
 20
490.5529398305359
 30
0.0
 10
394.6864268282789
 20
490.5428124987896
 30
0.0
  0
ARC
  5
92
330
1F
100
AcDbEntity
  8
0
  6
Continuous
 62
     7
370
    25
100
AcDbCircle
 10
394.8536615886
 20
490.8134583137
 30
0.0
 40
0.4587218160356456
100
AcDbArc
 50
294.5304456689
 51
323.8430005519
  0
ARC
  5
93
330
1F
100
AcDbEntity
  8
0
  6
Continuous
 62
     7
370
    25
100
AcDbCircle
 10
387.5254396512
 20
490.8134552833
 30
0.0
 40
0.4587177898720481
100
AcDbArc
 50
216.156898124
 51
245.4652619708
  0
SPLINE
  5
94
330
1F
100
AcDbEntity
  8
0
  6
Continuous
 62
     7
370
    25
100
AcDbSpline
210
0.0
220
0.0
230
1.0
 70
     8
 71
     3
 72
    11
 73
     7
 74
     0
 42
0.000000001
 43
0.00000001
 40
0.0
 40
0.0
 40
0.0
 40
0.0
 40
0.2505619094781321
 40
0.5006016193771519
 40
0.7504316570614643
 40
1.0
 40
1.0
 40
1.0
 40
1.0
 10
387.1550688991684
 20
490.5428124987896
 30
0.0
 10
387.1502509550114
 20
490.5529754765754
 30
0.0
 10
387.1406251078424
 20
490.5732802513428
 30
0.0
 10
387.1894198287745
 20
490.5815985232658
 30
0.0
 10
387.2796876160895
 20
490.5732051107788
 30
0.0
 10
387.3713787867017
 20
490.5529398296484
 30
0.0
 10
387.4172003480035
 20
490.5428124987896
 30
0.0
  0
ARC
  5
95
330
1F
100
AcDbEntity
  8
0
  6
Continuous
 62
     7
370
    25
100
AcDbCircle
 10
393.8641542207
 20
490.7105106514
 30
0.0
 40
0.4080325750555199
100
AcDbArc
 50
335.732829671
 51
15.2011825821
  0
ARC
  5
96
330
1F
100
AcDbEntity
  8
0
  6
Continuous
 62
     7
370
    25
100
AcDbCircle
 10
390.5133827768
 20
490.8757798078
 30
0.0
 40
0.5209814709692316
100
AcDbArc
 50
320.2741073352
 51
353.5771961135
  0
LINE
  5
97
330
1F
100
AcDbEntity
  8
0
  6
Continuous
 62
     7
370
    25
100
AcDbLine
 10
387.3379012576
 20
490.8175005042
 30
0.0
 11
390.0425216189
 21
490.8175005042
 31
0.0
  0
LINE
  5
98
330
1F
100
AcDbEntity
  8
0
  6
Continuous
 62
     7
370
    25
100
AcDbLine
 10
387.3379012576
 20
492.5292266929
 30
0.0
 11
387.3379012576
 21
490.8175005042
 31
0.0
  0
LINE
  5
99
330
1F
100
AcDbEntity
  8
0
  6
Continuous
 62
     7
370
    25
100
AcDbLine
 10
390.0425216189
 20
490.8175005042
 30
0.0
 11
390.0425216189
 21
492.5292266929
 31
0.0
  0
SPLINE
  5
9A
330
1F
100
AcDbEntity
  8
0
  6
Continuous
 62
     7
370
    25
100
AcDbSpline
210
0.0
220
0.0
230
1.0
 70
     8
 71
     3
 72
    11
 73
     7
 74
     0
 42
0.000000001
 43
0.00000001
 40
0.0
 40
0.0
 40
0.0
 40
0.0
 40
0.2534213194932818
 40
0.4994281398406172
 40
0.7460227718056317
 40
1.0
 40
1.0
 40
1.0
 40
1.0
 10
391.0310942947527
 20
490.817500504237
 30
0.0
 10
390.9464536943169
 20
490.827461986556
 30
0.0
 10
390.7796488741257
 20
490.8470935021467
 30
0.0
 10
390.5155260391828
 20
490.8551075547006
 30
0.0
 10
390.260171244624
 20
490.847159432182
 30
0.0
 10
390.115781330578
 20
490.8274835423547
 30
0.0
 10
390.0425216189015
 20
490.817500504237
 30
0.0
  0
SPLINE
  5
9B
330
1F
100
AcDbEntity
  8
0
  6
Continuous
 62
     7
370
    25
100
AcDbSpline
210
0.0
220
0.0
230
1.0
 70
     8
 71
     3
 72
    11
 73
     7
 74
     0
 42
0.000000001
 43
0.00000001
 40
0.0
 40
0.0
 40
0.0
 40
0.0
 40
0.2442968405580805
 40
0.4999998648527501
 40
0.755711803918435
 40
1.0
 40
1.0
 40
1.0
 40
1.0
 10
390.2016494894761
 20
490.5428124987896
 30
0.0
 10
390.1833161769162
 20
490.5555679259647
 30
0.0
 10
390.1457935721156
 20
490.5816743293432
 30
0.0
 10
390.0975091445218
 20
490.648868438458
 30
0.0
 10
390.0600066089967
 20
490.7297809468568
 30
0.0
 10
390.0482604925472
 20
490.7887094409697
 30
0.0
 10
390.0425216189015
 20
490.817500504237
 30
0.0
  0
ARC
  5
9C
330
1F
100
AcDbEntity
  8
0
  6
Continuous
 62
     7
370
    25
100
AcDbCircle
 10
387.6128266655
 20
490.7480779509
 30
0.0
 40
0.2835550578133196
100
AcDbArc
 50
165.8282607545
 51
226.3774016739
  0
LINE
  5
9D
330
1F
100
AcDbEntity
  8
0
  6
Continuous
 62
     7
370
    25
100
AcDbLine
 10
394.8827454361
 20
492.5292266929
 30
0.0
 11
394.8827454361
 21
490.8175005042
 31
0.0
  0
SPLINE
  5
9E
330
1F
100
AcDbEntity
  8
0
  6
Continuous
 62
     7
370
    25
100
AcDbSpline
210
0.0
220
0.0
230
1.0
 70
     8
 71
     3
 72
    11
 73
     7
 74
     0
 42
0.000000001
 43
0.00000001
 40
0.0
 40
0.0
 40
0.0
 40
0.0
 40
0.2534189078574065
 40
0.4994258536903847
 40
0.746022076026049
 40
1.0
 40
1.0
 40
1.0
 40
1.0
 10
394.8827454360563
 20
490.817500504237
 30
0.0
 10
394.8628144683535
 20
490.8274619945465
 30
0.0
 10
394.8235354712023
 20
490.847093622841
 30
0.0
 10
394.6828880388636
 20
490.8551075233862
 30
0.0
 10
394.4953901717731
 20
490.8471594764464
 30
0.0
 10
394.3378445894638
 20
490.8274835451504
 30
0.0
 10
394.2579101777065
 20
490.817500504237
 30
0.0
  0
SPLINE
  5
9F
330
1F
100
AcDbEntity
  8
0
  6
Continuous
 62
     7
370
    25
100
AcDbSpline
210
0.0
220
0.0
230
1.0
 70
     8
 71
     3
 72
    11
 73
     7
 74
     0
 42
0.000000001
 43
0.00000001
 40
0.0
 40
0.0
 40
0.0
 40
0.0
 40
0.2442874988915298
 40
0.4999992850774812
 40
0.7557036187575166
 40
1.0
 40
1.0
 40
1.0
 40
1.0
 10
394.8827454360563
 20
490.817500504237
 30
0.0
 10
394.8794775440227
 20
490.7887094355907
 30
0.0
 10
394.8727889345446
 20
490.7297808624747
 30
0.0
 10
394.8297834631688
 20
490.6488681689161
 30
0.0
 10
394.7669521656138
 20
490.5816745770316
 30
0.0
 10
394.7128573558546
 20
490.5555679765834
 30
0.0
 10
394.6864270611096
 20
490.5428124987896
 30
0.0
  0
LINE
  5
A0
330
1F
100
AcDbEntity
  8
0
  6
Continuous
 62
     7
370
    25
100
AcDbLine
 10
394.8827454361
 20
490.8175005042
 30
0.0
 11
395.4049407976
 21
490.8175005042
 31
0.0
  0
SPLINE
  5
A1
330
1F
100
AcDbEntity
  8
0
  6
Continuous
 62
     7
370
    25
100
AcDbSpline
210
0.0
220
0.0
230
1.0
 70
     8
 71
     3
 72
    11
 73
     7
 74
     0
 42
0.000000001
 43
0.00000001
 40
0.0
 40
0.0
 40
0.0
 40
0.0
 40
0.244295527318464
 40
0.500000266452563
 40
0.7557117236895308
 40
1.0
 40
1.0
 40
1.0
 40
1.0
 10
395.2240355784434
 20
490.5428124987896
 30
0.0
 10
395.2497498164198
 20
490.5555680141422
 30
0.0
 10
395.3023792115665
 20
490.5816747593005
 30
0.0
 10
395.3614408090088
 20
490.6488679917981
 30
0.0
 10
395.3999070411445
 20
490.7297811059976
 30
0.0
 10
395.4032886311454
 20
490.7887094713155
 30
0.0
 10
395.4049407976109
 20
490.817500504237
 30
0.0
  0
SPLINE
  5
A2
330
1F
100
AcDbEntity
  8
0
  6
Continuous
 62
     7
370
    25
100
AcDbSpline
210
0.0
220
0.0
230
1.0
 70
     8
 71
     3
 72
    11
 73
     7
 74
     0
 42
0.000000001
 43
0.00000001
 40
0.0
 40
0.0
 40
0.0
 40
0.0
 40
0.2534202103762125
 40
0.4994259790341084
 40
0.7460215246007069
 40
0.9999999999999999
 40
0.9999999999999999
 40
0.9999999999999999
 40
0.9999999999999999
 10
387.3379012575734
 20
490.817500504237
 30
0.0
 10
387.2731914307021
 20
490.8274619881957
 30
0.0
 10
387.1456650246969
 20
490.8470935079995
 30
0.0
 10
387.0221893892183
 20
490.8551075574532
 30
0.0
 10
386.9543337444784
 20
490.8471594129953
 30
0.0
 10
386.9674890260629
 20
490.8274835398306
 30
0.0
 10
386.9741636800009
 20
490.817500504237
 30
0.0
  0
SPLINE
  5
A3
330
1F
100
AcDbEntity
  8
0
  6
Continuous
 62
     7
370
    25
100
AcDbSpline
210
0.0
220
0.0
230
1.0
 70
     8
 71
     3
 72
    11
 73
     7
 74
     0
 42
0.000000001
 43
0.00000001
 40
0.0
 40
0.0
 40
0.0
 40
0.0
 40
0.244295527318464
 40
0.500000266452563
 40
0.7557117236895308
 40
1.0
 40
1.0
 40
1.0
 40
1.0
 10
387.1550688991684
 20
490.5428124987896
 30
0.0
 10
387.1293546611921
 20
490.5555680141422
 30
0.0
 10
387.0767252660453
 20
490.5816747593005
 30
0.0
 10
387.017663668603
 20
490.6488679917981
 30
0.0
 10
386.9791974364673
 20
490.7297811059976
 30
0.0
 10
386.9758158464664
 20
490.7887094713155
 30
0.0
 10
386.9741636800009
 20
490.817500504237
 30
0.0
  0
LWPOLYLINE
  5
A4
330
1F
100
AcDbEntity
  8
0
  6
Continuous
 62
     7
370
    25
100
AcDbPolyline
 90
        3
 70
   128
 43
0.0
 10
400.6428712519
 20
400.8464722359
 10
399.5620006236
 20
401.4077393734
 10
399.3394676136
 20
401.512807461
  0
LWPOLYLINE
  5
A5
330
1F
100
AcDbEntity
  8
0
  6
Continuous
 62
     7
370
    25
100
AcDbPolyline
 90
        3
 70
   128
 43
0.0
 10
392.4748373457
 20
403.2701014006
 10
391.9187881757
 20
403.2990916097
 10
390.8615319588
 20
403.3100588643
  0
LINE
  5
A6
330
1F
100
AcDbEntity
  8
0
  6
Continuous
 62
     7
370
    25
100
AcDbLine
 10
383.8760274003
 20
401.8774910295
 30
0.0
 11
382.4496468069
 21
401.2265710556
 31
0.0
  0
LINE
  5
A7
330
1F
100
AcDbEntity
  8
0
  6
Continuous
 62
     7
370
    25
100
AcDbLine
 10
376.8324976327
 20
396.9357891404
 30
0.0
 11
375.8930325048
 21
395.8135305369
 31
0.0
  0
LWPOLYLINE
  5
A8
330
1F
100
AcDbEntity
  8
0
  6
Continuous
 62
     7
370
    25
100
AcDbPolyline
 90
        3
 70
   128
 43
0.0
 10
372.6440717938
 20
389.4843964302
 10
372.4061002495
 20
388.6108978116
 10
372.2545554402
 20
387.9488615715
  0
LWPOLYLINE
  5
A9
330
1F
100
AcDbEntity
  8
0
  6
Continuous
 62
     7
370
    25
100
AcDbPolyline
 90
        3
 70
   128
 43
0.0
 10
372.0973444643
 20
380.8148039901
 10
372.1093659761
 20
380.7427419746
 10
372.4140127661
 20
379.2829161906
  0
LINE
  5
AA
330
1F
100
AcDbEntity
  8
0
  6
Continuous
 62
     7
370
    25
100
AcDbLine
 10
375.3473547759
 20
372.8521524393
 30
0.0
 11
376.2322835165
 21
371.6867363477
 31
0.0
  0
LWPOLYLINE
  5
AB
330
1F
100
AcDbEntity
  8
0
  6
Continuous
 62
     7
370
    25
100
AcDbPolyline
 90
        3
 70
   128
 43
0.0
 10
381.6531480762
 20
367.1259863698
 10
382.817103854
 20
366.5179333114
 10
383.0894235062
 20
366.389831754
  0
LWPOLYLINE
  5
AC
330
1F
100
AcDbEntity
  8
0
  6
Continuous
 62
     7
370
    25
100
AcDbPolyline
 90
        3
 70
   128
 43
0.0
 10
390.0053458993
 20
364.6491079056
 10
390.4603163019
 20
364.6265810752
 10
391.5805349307
 20
364.616787287
  0
LINE
  5
AD
330
1F
100
AcDbEntity
  8
0
  6
Continuous
 62
     7
370
    25
100
AcDbLine
 10
398.4968316282
 20
366.0456335568
 30
0.0
 11
399.8393605935
 21
366.6537834728
 31
0.0
  0
LINE
  5
AE
330
1F
100
AcDbEntity
  8
0
  6
Continuous
 62
     7
370
    25
100
AcDbLine
 10
405.4817141505
 20
370.9184287512
 30
0.0
 11
406.5191078471
 21
372.1549047553
 31
0.0
  0
LWPOLYLINE
  5
AF
330
1F
100
AcDbEntity
  8
0
  6
Continuous
 62
     7
370
    25
100
AcDbPolyline
 90
        3
 70
   128
 43
0.0
 10
409.7350326838
 20
378.4412725293
 10
409.9730042281
 20
379.3147748732
 10
410.1365575107
 20
380.0342848921
  0
LWPOLYLINE
  5
B0
330
1F
100
AcDbEntity
  8
0
  6
Continuous
 62
     7
370
    25
100
AcDbPolyline
 90
        3
 70
   128
 43
0.0
 10
410.2834904107
 20
387.1003596508
 10
410.2697385015
 20
387.182926985
 10
409.9919082137
 20
388.5338215554
  0
LINE
  5
B1
330
1F
100
AcDbEntity
  8
0
  6
Continuous
 62
     7
370
    25
100
AcDbLine
 10
407.0876420947
 20
394.9933929765
 30
0.0
 11
406.0609967919
 21
396.3427676284
 31
0.0
  0
SPLINE
  5
B2
330
1F
100
AcDbEntity
  8
0
  6
Continuous
 62
     7
370
    25
100
AcDbSpline
210
0.0
220
0.0
230
1.0
 70
     8
 71
     3
 72
     9
 73
     5
 74
     0
 42
0.000000001
 43
0.00000001
 40
0.0
 40
0.0
 40
0.0
 40
0.0
 40
0.5600062956444763
 40
1.0
 40
1.0
 40
1.0
 40
1.0
 10
407.7029464306671
 20
396.3738514506634
 30
0.0
 10
407.6315825876215
 20
396.3202153818266
 30
0.0
 10
407.5041485862529
 20
396.2244377642285
 30
0.0
 10
407.304280429381
 20
396.0742249458728
 30
0.0
 10
407.2163396986562
 20
396.0081322514828
 30
0.0
  0
SPLINE
  5
B3
330
1F
100
AcDbEntity
  8
0
  6
Continuous
 62
     7
370
    25
100
AcDbSpline
210
0.0
220
0.0
230
1.0
 70
     8
 71
     3
 72
     9
 73
     5
 74
     0
 42
0.000000001
 43
0.00000001
 40
0.0
 40
0.0
 40
0.0
 40
0.0
 40
0.5600006404659171
 40
0.9999999999999999
 40
0.9999999999999999
 40
0.9999999999999999
 40
0.9999999999999999
 10
375.1627647789556
 20
371.9175404333885
 30
0.0
 10
375.0512117060355
 20
371.8337004656196
 30
0.0
 10
374.8520100179318
 20
371.6839864086872
 30
0.0
 10
374.7298905393204
 20
371.5922049966996
 30
0.0
 10
374.6761580469447
 20
371.5518212342079
 30
0.0
  0
SPLINE
  5
B4
330
1F
100
AcDbEntity
  8
0
  6
Continuous
 62
     7
370
    25
100
AcDbSpline
210
0.0
220
0.0
230
1.0
 70
     8
 71
     3
 72
     9
 73
     5
 74
     0
 42
0.000000001
 43
0.00000001
 40
0.0
 40
0.0
 40
0.0
 40
0.0
 40
0.5600013979963514
 40
1.0
 40
1.0
 40
1.0
 40
1.0
 10
373.5667759092885
 20
370.7180379354771
 30
0.0
 10
373.8222039189993
 20
370.9100100331254
 30
0.0
 10
374.2783242262427
 20
371.2528164945651
 30
0.0
 10
374.5545979810564
 20
371.4604588764582
 30
0.0
 10
374.6761580469447
 20
371.5518212342079
 30
0.0
  0
SPLINE
  5
B5
330
1F
100
AcDbEntity
  8
0
  6
Continuous
 62
     7
370
    25
100
AcDbSpline
210
0.0
220
0.0
230
1.0
 70
     8
 71
     3
 72
     9
 73
     5
 74
     0
 42
0.000000001
 43
0.00000001
 40
0.0
 40
0.0
 40
0.0
 40
0.0
 40
0.5600017644456654
 40
1.0
 40
1.0
 40
1.0
 40
1.0
 10
407.7029464306671
 20
396.3738514506634
 30
0.0
 10
407.8652273027471
 20
396.4958180967962
 30
0.0
 10
408.1550136612609
 20
396.7136149929427
 30
0.0
 10
408.611482906037
 20
397.0566821016125
 30
0.0
 10
408.8123285683233
 20
397.2076310241039
 30
0.0
  0
SPLINE
  5
B6
330
1F
100
AcDbEntity
  8
0
  6
Continuous
 62
     7
370
    25
100
AcDbSpline
210
0.0
220
0.0
230
1.0
 70
     8
 71
     3
 72
    11
 73
     7
 74
     0
 42
0.000000001
 43
0.00000001
 40
0.0
 40
0.0
 40
0.0
 40
0.0
 40
0.2723420744630538
 40
0.5618927665648356
 40
0.7876485978181754
 40
1.0
 40
1.0
 40
1.0
 40
1.0
 10
412.7732472034532
 20
400.1845552050884
 30
0.0
 10
412.7687446011985
 20
400.1811682900923
 30
0.0
 10
412.7594548884626
 20
400.1741804493737
 30
0.0
 10
412.6905489307924
 20
400.1224060021317
 30
0.0
 10
412.6028205073652
 20
400.0564595144015
 30
0.0
 10
412.5396386100155
 20
400.0089755475504
 30
0.0
 10
412.5090142252284
 20
399.9859599792774
 30
0.0
  0
SPLINE
  5
B7
330
1F
100
AcDbEntity
  8
0
  6
Continuous
 62
     7
370
    25
100
AcDbSpline
210
0.0
220
0.0
230
1.0
 70
     8
 71
     3
 72
    11
 73
     7
 74
     0
 42
0.000000001
 43
0.00000001
 40
0.0
 40
0.0
 40
0.0
 40
0.0
 40
0.2723528878647046
 40
0.5618962734813925
 40
0.7876528160299847
 40
1.0
 40
1.0
 40
1.0
 40
1.0
 10
369.8700902523834
 20
367.9397089803036
 30
0.0
 10
369.8309035173617
 20
367.9102577043886
 30
0.0
 10
369.750056640535
 20
367.8494962330647
 30
0.0
 10
369.6640076113998
 20
367.7848225090859
 30
0.0
 10
369.6142130290619
 20
367.7474014031337
 30
0.0
 10
369.6085851064901
 20
367.7431689388651
 30
0.0
 10
369.6058572741586
 20
367.7411174797829
 30
0.0
  0
LINE
  5
B8
330
1F
100
AcDbEntity
  8
0
  6
Continuous
 62
     7
370
    25
100
AcDbLine
 10
412.7732472035
 20
400.1845552051
 30
0.0
 11
411.84822782
 21
401.3472853625
 31
0.0
  0
LWPOLYLINE
  5
B9
330
1F
100
AcDbEntity
  8
0
  6
Continuous
 62
     7
370
    25
100
AcDbPolyline
 90
        3
 70
   128
 43
0.0
 10
404.6310971963
 20
407.3791711056
 10
403.197153798
 20
408.145835849
 10
402.2594851913
 20
408.5891751969
  0
LWPOLYLINE
  5
BA
330
1F
100
AcDbEntity
  8
0
  6
Continuous
 62
     7
370
    25
100
AcDbPolyline
 90
        3
 70
   128
 43
0.0
 10
393.1398789637
 20
410.8923061216
 10
391.0666259972
 20
410.962557646
 10
390.4783531098
 20
410.9534679377
  0
LWPOLYLINE
  5
BB
330
1F
100
AcDbEntity
  8
0
  6
Continuous
 62
     7
370
    25
100
AcDbPolyline
 90
        3
 70
   128
 43
0.0
 10
381.2622319447
 20
409.0715630376
 10
378.9622488903
 20
408.035500201
 10
378.8382470148
 20
407.9721106612
  0
LINE
  5
BC
330
1F
100
AcDbEntity
  8
0
  6
Continuous
 62
     7
370
    25
100
AcDbLine
 10
371.350809327
 20
402.2774307453
 30
0.0
 11
369.644475496
 21
400.235807749
 31
0.0
  0
LWPOLYLINE
  5
BD
330
1F
100
AcDbEntity
  8
0
  6
Continuous
 62
     7
370
    25
100
AcDbPolyline
 90
        3
 70
   128
 43
0.0
 10
365.3689113917
 20
391.8555213535
 10
365.2888474526
 20
391.5886788094
 10
364.7176729055
 20
389.2769275629
  0
LWPOLYLINE
  5
BE
330
1F
100
AcDbEntity
  8
0
  6
Continuous
 62
     7
370
    25
100
AcDbPolyline
 90
        3
 70
   128
 43
0.0
 10
364.5015408757
 20
379.8701560521
 10
364.6213648381
 20
379.153324517
 10
365.0332757743
 20
377.2658801102
  0
LINE
  5
BF
330
1F
100
AcDbEntity
  8
0
  6
Continuous
 62
     7
370
    25
100
AcDbLine
 10
368.9206925692
 20
368.6952909851
 30
0.0
 11
369.6058572742
 21
367.7411174798
 31
0.0
  0
LINE
  5
C0
330
1F
100
AcDbEntity
  8
0
  6
Continuous
 62
     7
370
    25
100
AcDbLine
 10
369.6058572742
 20
367.7411174798
 30
0.0
 11
370.5308766576
 21
366.5783835971
 31
0.0
  0
LWPOLYLINE
  5
C1
330
1F
100
AcDbEntity
  8
0
  6
Continuous
 62
     7
370
    25
100
AcDbPolyline
 90
        3
 70
   128
 43
0.0
 10
377.7480072813
 20
360.546497854
 10
379.1819506796
 20
359.7798368358
 10
380.1196192863
 20
359.336497488
  0
LWPOLYLINE
  5
C2
330
1F
100
AcDbEntity
  8
0
  6
Continuous
 62
     7
370
    25
100
AcDbPolyline
 90
        3
 70
   128
 43
0.0
 10
389.2392255139
 20
357.0333665633
 10
391.3124784804
 20
356.9631150389
 10
391.9007513678
 20
356.9722047472
  0
LWPOLYLINE
  5
C3
330
1F
100
AcDbEntity
  8
0
  6
Continuous
 62
     7
370
    25
100
AcDbPolyline
 90
        3
 70
   128
 43
0.0
 10
401.1168725329
 20
358.854105922
 10
403.4168555873
 20
359.8901724839
 10
403.5408574628
 20
359.9535620236
  0
LINE
  5
C4
330
1F
100
AcDbEntity
  8
0
  6
Continuous
 62
     7
370
    25
100
AcDbLine
 10
411.0282951506
 20
365.6482456648
 30
0.0
 11
412.7346289816
 21
367.6898612106
 31
0.0
  0
LWPOLYLINE
  5
C5
330
1F
100
AcDbEntity
  8
0
  6
Continuous
 62
     7
370
    25
100
AcDbPolyline
 90
        3
 70
   128
 43
0.0
 10
417.0101930859
 20
376.0701476061
 10
417.090257025
 20
376.3369901502
 10
417.6614315721
 20
378.6487451219
  0
LWPOLYLINE
  5
C6
330
1F
100
AcDbEntity
  8
0
  6
Continuous
 62
     7
370
    25
100
AcDbPolyline
 90
        3
 70
   128
 43
0.0
 10
417.877563602
 20
388.0555166328
 10
417.7577396395
 20
388.7723444426
 10
417.3458287033
 20
390.6597925746
  0
LINE
  5
C7
330
1F
100
AcDbEntity
  8
0
  6
Continuous
 62
     7
370
    25
100
AcDbLine
 10
413.4584119084
 20
399.2303816998
 30
0.0
 11
412.7732472035
 21
400.1845552051
 31
0.0
  0
SPLINE
  5
C8
330
1F
100
AcDbEntity
  8
0
  6
Continuous
 62
     7
370
    25
100
AcDbSpline
210
0.0
220
0.0
230
1.0
 70
     8
 71
     3
 72
     9
 73
     5
 74
     0
 42
0.000000001
 43
0.00000001
 40
0.0
 40
0.0
 40
0.0
 40
0.0
 40
0.5600001251115571
 40
1.0
 40
1.0
 40
1.0
 40
1.0
 10
360.7054700615245
 20
360.7780544483479
 30
0.0
 10
360.5506089158975
 20
360.6602753499296
 30
0.0
 10
360.2740712176316
 20
360.449955578314
 30
0.0
 10
359.9098082787822
 20
360.1729139150182
 30
0.0
 10
359.749532631262
 20
360.0510156178291
 30
0.0
  0
SPLINE
  5
C9
330
1F
100
AcDbEntity
  8
0
  6
Continuous
 62
     7
370
    25
100
AcDbSpline
210
0.0
220
0.0
230
1.0
 70
     8
 71
     3
 72
     9
 73
     5
 74
     0
 42
0.000000001
 43
0.00000001
 40
0.0
 40
0.0
 40
0.0
 40
0.0
 40
0.5600008092822362
 40
1.0
 40
1.0
 40
1.0
 40
1.0
 10
422.6295718463498
 20
407.8746570670422
 30
0.0
 10
422.4246876028971
 20
407.718833790927
 30
0.0
 10
422.0588234111733
 20
407.4405783428414
 30
0.0
 10
421.7913309031435
 20
407.2371311232203
 30
0.0
 10
421.6736344160873
 20
407.1476145112331
 30
0.0
  0
ARC
  5
CA
330
1F
100
AcDbEntity
  8
0
  6
Continuous
 62
     7
370
    25
100
AcDbCircle
 10
391.1895522388
 20
383.9628358209
 30
0.0
 40
38.298998057
100
AcDbArc
 50
37.2549368278
 51
217.2549368278
  0
ARC
  5
CB
330
1F
100
AcDbEntity
  8
0
  6
Continuous
 62
     7
370
    25
100
AcDbCircle
 10
391.1895522388
 20
383.9628358209
 30
0.0
 40
39.50000000000011
100
AcDbArc
 50
37.2549368278
 51
217.2549368513
  0
ARC
  5
CC
330
1F
100
AcDbEntity
  8
0
  6
Continuous
 62
     7
370
    25
100
AcDbCircle
 10
391.1895522388
 20
383.9628358209
 30
0.0
 40
38.298998057
100
AcDbArc
 50
217.2549368278
 51
37.2549368278
  0
ARC
  5
CD
330
1F
100
AcDbEntity
  8
0
  6
Continuous
 62
     7
370
    25
100
AcDbCircle
 10
391.1895522388
 20
383.9628358209
 30
0.0
 40
39.50000000000011
100
AcDbArc
 50
217.2549368513
 51
37.2549368176
  0
SPLINE
  5
CE
330
1F
100
AcDbEntity
  8
0
  6
Continuous
 62
     7
370
    25
100
AcDbSpline
210
0.0
220
0.0
230
1.0
 70
     8
 71
     3
 72
    12
 73
     8
 74
     0
 42
0.000000001
 43
0.00000001
 40
0.0
 40
0.0
 40
0.0
 40
0.0
 40
0.3203754995990751
 40
0.5620064884785603
 40
0.762512049407527
 40
0.8964626787621234
 40
1.0
 40
1.0
 40
1.0
 40
1.0
 10
409.2505083890993
 20
415.4619930708225
 30
0.0
 10
409.2913042644623
 20
415.5602574637498
 30
0.0
 10
409.3628688712623
 20
415.7326340233826
 30
0.0
 10
409.3294294404565
 20
416.0075556440186
 30
0.0
 10
409.2270498368661
 20
416.2139522758239
 30
0.0
 10
409.0941834297776
 20
416.3549468164106
 30
0.0
 10
409.0014931842558
 20
416.4094460792933
 30
0.0
 10
408.9610831352311
 20
416.4332060539539
 30
0.0
  0
LINE
  5
CF
330
1F
100
AcDbEntity
  8
0
  6
Continuous
 62
     7
370
    25
100
AcDbLine
 10
407.0487314375
 20
417.4088893854
 30
0.0
 11
408.9610831352
 21
416.433206054
 31
0.0
  0
SPLINE
  5
D0
330
1F
100
AcDbEntity
  8
0
  6
Continuous
 62
     7
370
    25
100
AcDbSpline
210
0.0
220
0.0
230
1.0
 70
     8
 71
     3
 72
    12
 73
     8
 74
     0
 42
0.000000001
 43
0.00000001
 40
0.0
 40
0.0
 40
0.0
 40
0.0
 40
0.1369206870470634
 40
0.2732922192817945
 40
0.4609276282794518
 40
0.7173054987664071
 40
1.0
 40
1.0
 40
1.0
 40
1.0
 10
407.0487314375478
 20
417.4088893854435
 30
0.0
 10
406.9912197289451
 20
417.432725638756
 30
0.0
 10
406.8764269768947
 20
417.4803025440991
 30
0.0
 10
406.6764386436426
 20
417.4923723414847
 30
0.0
 10
406.4543468809675
 20
417.4441568717187
 30
0.0
 10
406.2316626781315
 20
417.3070342051608
 30
0.0
 10
406.1403887891523
 20
417.1536431528459
 30
0.0
 10
406.0925239237386
 20
417.0732034766491
 30
0.0
  0
SPLINE
  5
D1
330
1F
100
AcDbEntity
  8
0
  6
Continuous
 62
     7
370
    25
100
AcDbSpline
210
0.0
220
0.0
230
1.0
 70
     8
 71
     3
 72
    11
 73
     7
 74
     0
 42
0.000000001
 43
0.00000001
 40
0.0
 40
0.0
 40
0.0
 40
0.0
 40
0.2603295496727688
 40
0.5282091365375859
 40
0.7614183953819049
 40
1.0
 40
1.0
 40
1.0
 40
1.0
 10
399.2585915612418
 20
401.924176367503
 30
0.0
 10
399.9152073531489
 20
403.3797195870699
 30
0.0
 10
401.2474820062421
 20
406.3330194647324
 30
0.0
 10
403.0644409293245
 20
410.3607464875882
 30
0.0
 10
404.7134651747765
 20
414.0161938412332
 30
0.0
 10
405.6293611971777
 20
416.0464938321703
 30
0.0
 10
406.0925239237386
 20
417.0732034766491
 30
0.0
  0
SPLINE
  5
D2
330
1F
100
AcDbEntity
  8
0
  6
Continuous
 62
     7
370
    25
100
AcDbSpline
210
0.0
220
0.0
230
1.0
 70
     8
 71
     3
 72
    12
 73
     8
 74
     0
 42
0.000000001
 43
0.00000001
 40
0.0
 40
0.0
 40
0.0
 40
0.0
 40
0.2229052515408547
 40
0.4458350960256393
 40
0.6679336586748091
 40
0.8889145358946153
 40
1.0
 40
1.0
 40
1.0
 40
1.0
 10
399.2585915612418
 20
401.924176367503
 30
0.0
 10
399.2332197577101
 20
401.8490152122295
 30
0.0
 10
399.1824733513977
 20
401.6986846092171
 30
0.0
 10
399.2067519273153
 20
401.4568482683167
 30
0.0
 10
399.3045828660331
 20
401.2389529944407
 30
0.0
 10
399.4421060912814
 20
401.0914058690582
 30
0.0
 10
399.5443413086826
 20
401.0324979054074
 30
0.0
 10
399.5785418438155
 20
401.0127915465649
 30
0.0
  0
LINE
  5
D3
330
1F
100
AcDbEntity
  8
0
  6
Continuous
 62
     7
370
    25
100
AcDbLine
 10
400.070386334
 20
400.7618559921
 30
0.0
 11
399.5785418438
 21
401.0127915466
 31
0.0
  0
SPLINE
  5
D4
330
1F
100
AcDbEntity
  8
0
  6
Continuous
 62
     7
370
    25
100
AcDbSpline
210
0.0
220
0.0
230
1.0
 70
     8
 71
     3
 72
    12
 73
     8
 74
     0
 42
0.000000001
 43
0.00000001
 40
0.0
 40
0.0
 40
0.0
 40
0.0
 40
0.220134686879274
 40
0.4402567019337178
 40
0.6607468836364947
 40
0.8821606742213027
 40
1.0
 40
1.0
 40
1.0
 40
1.0
 10
400.0703863339859
 20
400.7618559920605
 30
0.0
 10
400.1437529972901
 20
400.7330574766683
 30
0.0
 10
400.2904821006223
 20
400.6754621036406
 30
0.0
 10
400.5312221498573
 20
400.6871856440665
 30
0.0
 10
400.7525040594516
 20
400.7723998973229
 30
0.0
 10
400.9084859207883
 20
400.9020599860842
 30
0.0
 10
400.9734883941205
 20
401.002736406066
 30
0.0
 10
400.9960669564444
 20
401.037706288081
 30
0.0
  0
SPLINE
  5
D5
330
1F
100
AcDbEntity
  8
0
  6
Continuous
 62
     7
370
    25
100
AcDbSpline
210
0.0
220
0.0
230
1.0
 70
     8
 71
     3
 72
    11
 73
     7
 74
     0
 42
0.000000001
 43
0.00000001
 40
0.0
 40
0.0
 40
0.0
 40
0.0
 40
0.283226957056512
 40
0.5762691526469469
 40
0.7861907145586761
 40
1.0
 40
1.0
 40
1.0
 40
1.0
 10
409.2505083890993
 20
415.4619930708225
 30
0.0
 10
408.5812688855654
 20
414.2925254600814
 30
0.0
 10
407.2195973638028
 20
411.9130623041241
 30
0.0
 10
405.0372191805734
 20
408.0994469070817
 30
0.0
 10
402.9395519277725
 20
404.433869901761
 30
0.0
 10
401.6478457411999
 20
402.1766641012936
 30
0.0
 10
400.9960669564444
 20
401.037706288081
 30
0.0
  0
SPLINE
  5
D6
330
1F
100
AcDbEntity
  8
0
  6
Continuous
 62
     7
370
    25
100
AcDbSpline
210
0.0
220
0.0
230
1.0
 70
     8
 71
     3
 72
    13
 73
     9
 74
     0
 42
0.000000001
 43
0.00000001
 40
0.0
 40
0.0
 40
0.0
 40
0.0
 40
0.3201787716707656
 40
0.4946644419200706
 40
0.6890197844706267
 40
0.8387711736686659
 40
0.9672347939978265
 40
1.0
 40
1.0
 40
1.0
 40
1.0
 10
393.7949383171636
 20
420.1789481961544
 30
0.0
 10
393.7893025079268
 20
420.2853334224121
 30
0.0
 10
393.7805953896618
 20
420.4496946894027
 30
0.0
 10
393.6582003250691
 20
420.6614836997903
 30
0.0
 10
393.5166699484369
 20
420.8018316239108
 30
0.0
 10
393.3382451400086
 20
420.8939880487147
 30
0.0
 10
393.2000991969276
 20
420.9246743565659
 30
0.0
 10
393.1275305856936
 20
420.9277786824142
 30
0.0
 10
393.1127830647293
 20
420.9284095489796
 30
0.0
  0
LINE
  5
D7
330
1F
100
AcDbEntity
  8
0
  6
Continuous
 62
     7
370
    25
100
AcDbLine
 10
390.9664783196
 20
420.9777323925
 30
0.0
 11
393.1127830647
 21
420.928409549
 31
0.0
  0
SPLINE
  5
D8
330
1F
100
AcDbEntity
  8
0
  6
Continuous
 62
     7
370
    25
100
AcDbSpline
210
0.0
220
0.0
230
1.0
 70
     8
 71
     3
 72
    12
 73
     8
 74
     0
 42
0.000000001
 43
0.00000001
 40
0.0
 40
0.0
 40
0.0
 40
0.0
 40
0.1369198719823039
 40
0.2732919300191893
 40
0.4609274765495773
 40
0.7173055757398704
 40
1.0
 40
1.0
 40
1.0
 40
1.0
 10
390.9664783196186
 20
420.9777323925312
 30
0.0
 10
390.9043206131271
 20
420.9742531600069
 30
0.0
 10
390.7802538920098
 20
420.9673086153051
 30
0.0
 10
390.5948346192476
 20
420.8914115950544
 30
0.0
 10
390.4156574841662
 20
420.7516086903989
 30
0.0
 10
390.2745212913903
 20
420.531447813053
 30
0.0
 10
390.2588388390279
 20
420.3536461610095
 30
0.0
 10
390.2506148215744
 20
420.2604053938206
 30
0.0
  0
SPLINE
  5
D9
330
1F
100
AcDbEntity
  8
0
  6
Continuous
 62
     7
370
    25
100
AcDbSpline
210
0.0
220
0.0
230
1.0
 70
     8
 71
     3
 72
    11
 73
     7
 74
     0
 42
0.000000001
 43
0.00000001
 40
0.0
 40
0.0
 40
0.0
 40
0.0
 40
0.2603295742420702
 40
0.5282088593707273
 40
0.7614182563757466
 40
1.0
 40
1.0
 40
1.0
 40
1.0
 10
390.6663729931589
 20
403.6464674794491
 30
0.0
 10
390.6264262535827
 20
405.242762033552
 30
0.0
 10
390.5453742954696
 20
408.4816446234275
 30
0.0
 10
390.4348351085322
 20
412.898848730957
 30
0.0
 10
390.3345130892212
 20
416.9077795290299
 30
0.0
 10
390.2787924103112
 20
419.1344117892335
 30
0.0
 10
390.2506148215744
 20
420.2604053938206
 30
0.0
  0
SPLINE
  5
DA
330
1F
100
AcDbEntity
  8
0
  6
Continuous
 62
     7
370
    25
100
AcDbSpline
210
0.0
220
0.0
230
1.0
 70
     8
 71
     3
 72
    12
 73
     8
 74
     0
 42
0.000000001
 43
0.00000001
 40
0.0
 40
0.0
 40
0.0
 40
0.0
 40
0.22289877759877
 40
0.4458334893522448
 40
0.6679300880700738
 40
0.8889149030804887
 40
1.0
 40
1.0
 40
1.0
 40
1.0
 10
390.6663729931589
 20
403.6464674794491
 30
0.0
 10
390.6761245268228
 20
403.5677440899134
 30
0.0
 10
390.6956291662233
 20
403.4102846196175
 30
0.0
 10
390.8224279286273
 20
403.2029301450671
 30
0.0
 10
391.0051177280865
 20
403.0490676464358
 30
0.0
 10
391.1930360851872
 20
402.9757905217377
 30
0.0
 10
391.3107075073774
 20
402.9670796492553
 30
0.0
 10
391.350071330684
 20
402.9641656601246
 30
0.0
  0
LINE
  5
DB
330
1F
100
AcDbEntity
  8
0
  6
Continuous
 62
     7
370
    25
100
AcDbLine
 10
391.9020867098
 20
402.9514773214
 30
0.0
 11
391.3500713307
 21
402.9641656601
 31
0.0
  0
SPLINE
  5
DC
330
1F
100
AcDbEntity
  8
0
  6
Continuous
 62
     7
370
    25
100
AcDbSpline
210
0.0
220
0.0
230
1.0
 70
     8
 71
     3
 72
    12
 73
     8
 74
     0
 42
0.000000001
 43
0.00000001
 40
0.0
 40
0.0
 40
0.0
 40
0.0
 40
0.2201344540067019
 40
0.4402563602647468
 40
0.6607447638142426
 40
0.8821616863352011
 40
1.0
 40
1.0
 40
1.0
 40
1.0
 10
391.9020867097552
 20
402.951477321368
 30
0.0
 10
391.9806829290095
 20
402.9573644890227
 30
0.0
 10
392.1378708875033
 20
402.9691384887611
 30
0.0
 10
392.3496820755782
 20
403.0841543686133
 30
0.0
 10
392.5120813529727
 20
403.2569380219896
 30
0.0
 10
392.5963545934961
 20
403.4414386336422
 30
0.0
 10
392.6112375011745
 20
403.5603493115962
 30
0.0
 10
392.6164069917414
 20
403.6016522371586
 30
0.0
  0
SPLINE
  5
DD
330
1F
100
AcDbEntity
  8
0
  6
Continuous
 62
     7
370
    25
100
AcDbSpline
210
0.0
220
0.0
230
1.0
 70
     8
 71
     3
 72
    11
 73
     7
 74
     0
 42
0.000000001
 43
0.00000001
 40
0.0
 40
0.0
 40
0.0
 40
0.0
 40
0.2832266936652512
 40
0.5762691446878905
 40
0.7861908076116996
 40
1.0
 40
1.0
 40
1.0
 40
1.0
 10
393.7949383171636
 20
420.1789481961544
 30
0.0
 10
393.699387282974
 20
418.8349249864726
 30
0.0
 10
393.5049737125794
 20
416.1002988978757
 30
0.0
 10
393.1933843382192
 20
411.7174498548767
 30
0.0
 10
392.8938887996655
 20
407.5047348119134
 30
0.0
 10
392.7094649282094
 20
404.9106130407085
 30
0.0
 10
392.6164069917414
 20
403.6016522371586
 30
0.0
  0
SPLINE
  5
DE
330
1F
100
AcDbEntity
  8
0
  6
Continuous
 62
     7
370
    25
100
AcDbSpline
210
0.0
220
0.0
230
1.0
 70
     8
 71
     3
 72
    13
 73
     9
 74
     0
 42
0.000000001
 43
0.00000001
 40
0.0
 40
0.0
 40
0.0
 40
0.0
 40
0.1923235129897835
 40
0.4540916207480188
 40
0.6566887768747575
 40
0.8131117725890166
 40
0.9441959218661089
 40
1.0
 40
1.0
 40
1.0
 40
1.0
 10
377.8233401017624
 20
417.7228643023785
 30
0.0
 10
377.79530646118
 20
417.7797981426638
 30
0.0
 10
377.7291167317515
 20
417.9142236188245
 30
0.0
 10
377.5579130322861
 20
418.0660619946279
 30
0.0
 10
377.3415179544281
 20
418.1554520537851
 30
0.0
 10
377.137367489919
 20
418.1718439263449
 30
0.0
 10
376.9847398061952
 20
418.1440804524913
 30
0.0
 10
376.9068273338241
 20
418.1117692134163
 30
0.0
 10
376.8835629808146
 20
418.1021212065037
 30
0.0
  0
LINE
  5
DF
330
1F
100
AcDbEntity
  8
0
  6
Continuous
 62
     7
370
    25
100
AcDbLine
 10
374.9284086289
 20
417.215315851
 30
0.0
 11
376.8835629808
 21
418.1021212065
 31
0.0
  0
SPLINE
  5
E0
330
1F
100
AcDbEntity
  8
0
  6
Continuous
 62
     7
370
    25
100
AcDbSpline
210
0.0
220
0.0
230
1.0
 70
     8
 71
     3
 72
    12
 73
     8
 74
     0
 42
0.000000001
 43
0.00000001
 40
0.0
 40
0.0
 40
0.0
 40
0.0
 40
0.1369194906043587
 40
0.2732896500344842
 40
0.4609254929285139
 40
0.7173071848171819
 40
0.9999999999999999
 40
0.9999999999999999
 40
0.9999999999999999
 40
0.9999999999999999
 10
374.9284086289245
 20
417.2153158509548
 30
0.0
 10
374.8739164252513
 20
417.185211639799
 30
0.0
 10
374.7651506446766
 20
417.1251239978204
 30
0.0
 10
374.6310178349112
 20
416.9762996853741
 30
0.0
 10
374.5302472860528
 20
416.7725949117209
 30
0.0
 10
374.4986125174076
 20
416.5129950498956
 30
0.0
 10
374.5616287888911
 20
416.3459972133145
 30
0.0
 10
374.5946747722465
 20
416.2584228837307
 30
0.0
  0
SPLINE
  5
E1
330
1F
100
AcDbEntity
  8
0
  6
Continuous
 62
     7
370
    25
100
AcDbSpline
210
0.0
220
0.0
230
1.0
 70
     8
 71
     3
 72
    11
 73
     7
 74
     0
 42
0.000000001
 43
0.00000001
 40
0.0
 40
0.0
 40
0.0
 40
0.0
 40
0.2603295971342782
 40
0.5282091762957949
 40
0.7614184837973069
 40
1.0
 40
1.0
 40
1.0
 40
1.0
 10
382.1777769836027
 20
401.4701752388294
 30
0.0
 10
381.4491795387587
 20
402.8910544180596
 30
0.0
 10
379.9708541373109
 20
405.7740205853289
 30
0.0
 10
377.9547090803489
 20
409.7058255173611
 30
0.0
 10
376.1249132906439
 20
413.2742189488339
 30
0.0
 10
375.1086117674832
 20
415.2561655329743
 30
0.0
 10
374.5946747722465
 20
416.2584228837307
 30
0.0
  0
SPLINE
  5
E2
330
1F
100
AcDbEntity
  8
0
  6
Continuous
 62
     7
370
    25
100
AcDbSpline
210
0.0
220
0.0
230
1.0
 70
     8
 71
     3
 72
    12
 73
     8
 74
     0
 42
0.000000001
 43
0.00000001
 40
0.0
 40
0.0
 40
0.0
 40
0.0
 40
0.2229024620714878
 40
0.4458313843265186
 40
0.6679310824824674
 40
0.8889144962352037
 40
1.0
 40
1.0
 40
1.0
 40
1.0
 10
382.1777769836027
 20
401.4701752388294
 30
0.0
 10
382.2207193052822
 20
401.4034765360954
 30
0.0
 10
382.3066090462148
 20
401.2700712129941
 30
0.0
 10
382.5108252360408
 20
401.1382803268772
 30
0.0
 10
382.742176350209
 20
401.0789038518008
 30
0.0
 10
382.9432782419138
 20
401.0944345518695
 30
0.0
 10
383.0530774972166
 20
401.1376357134317
 30
0.0
 10
383.0898081424075
 20
401.152087601405
 30
0.0
  0
LINE
  5
E3
330
1F
100
AcDbEntity
  8
0
  6
Continuous
 62
     7
370
    25
100
AcDbLine
 10
383.5926608654
 20
401.3801647746
 30
0.0
 11
383.0898081424
 21
401.1520876014
 31
0.0
  0
SPLINE
  5
E4
330
1F
100
AcDbEntity
  8
0
  6
Continuous
 62
     7
370
    25
100
AcDbSpline
210
0.0
220
0.0
230
1.0
 70
     8
 71
     3
 72
    12
 73
     8
 74
     0
 42
0.000000001
 43
0.00000001
 40
0.0
 40
0.0
 40
0.0
 40
0.0
 40
0.2201341045863815
 40
0.4402543360854184
 40
0.6607458834218695
 40
0.8821607779692272
 40
1.0
 40
1.0
 40
1.0
 40
1.0
 10
383.59266086541
 20
401.380164774638
 30
0.0
 10
383.660919634382
 20
401.4195704104446
 30
0.0
 10
383.7974328705853
 20
401.4983791986725
 30
0.0
 10
383.9383675150099
 20
401.6939069877919
 30
0.0
 10
384.0097115121794
 20
401.9200445640855
 30
0.0
 10
384.0055905932911
 20
402.1228403251455
 30
0.0
 10
383.9674045337451
 20
402.2364324748049
 30
0.0
 10
383.9541406842309
 20
402.2758884751614
 30
0.0
  0
SPLINE
  5
E5
330
1F
100
AcDbEntity
  8
0
  6
Continuous
 62
     7
370
    25
100
AcDbSpline
210
0.0
220
0.0
230
1.0
 70
     8
 71
     3
 72
    11
 73
     7
 74
     0
 42
0.000000001
 43
0.00000001
 40
0.0
 40
0.0
 40
0.0
 40
0.0
 40
0.2832268669922378
 40
0.5762690436075987
 40
0.7861909501347845
 40
1.0
 40
1.0
 40
1.0
 40
1.0
 10
377.8233401017624
 20
417.7228643023785
 30
0.0
 10
378.320402364731
 20
416.4704815457596
 30
0.0
 10
379.3317527282621
 20
413.9223143430796
 30
0.0
 10
380.9526666689073
 20
409.8383114105616
 30
0.0
 10
382.5106596006198
 20
405.9128392624735
 30
0.0
 10
383.4700466415732
 20
403.4955970183262
 30
0.0
 10
383.9541406842309
 20
402.2758884751614
 30
0.0
  0
SPLINE
  5
E6
330
1F
100
AcDbEntity
  8
0
  6
Continuous
 62
     7
370
    25
100
AcDbSpline
210
0.0
220
0.0
230
1.0
 70
     8
 71
     3
 72
    12
 73
     8
 74
     0
 42
0.000000001
 43
0.00000001
 40
0.0
 40
0.0
 40
0.0
 40
0.0
 40
0.320328016571131
 40
0.5619268913929607
 40
0.7389305545542386
 40
0.8801325515669064
 40
0.9999999999999999
 40
0.9999999999999999
 40
0.9999999999999999
 40
0.9999999999999999
 10
364.4990840467054
 20
408.5801897966679
 30
0.0
 10
364.4124025895494
 20
408.6418400009208
 30
0.0
 10
364.2603439520237
 20
408.7499882297282
 30
0.0
 10
363.9929522376679
 20
408.7775535376857
 30
0.0
 10
363.7770660178082
 20
408.7294267465116
 30
0.0
 10
363.6075442590027
 20
408.6387543412008
 30
0.0
 10
363.525493335774
 20
408.5533469200495
 30
0.0
 10
363.4878204675752
 20
408.5141329490955
 30
0.0
  0
LINE
  5
E7
330
1F
100
AcDbEntity
  8
0
  6
Continuous
 62
     7
370
    25
100
AcDbLine
 10
362.1110574814
 20
406.8668393814
 30
0.0
 11
363.4878204676
 21
408.5141329491
 31
0.0
  0
SPLINE
  5
E8
330
1F
100
AcDbEntity
  8
0
  6
Continuous
 62
     7
370
    25
100
AcDbSpline
210
0.0
220
0.0
230
1.0
 70
     8
 71
     3
 72
    12
 73
     8
 74
     0
 42
0.000000001
 43
0.00000001
 40
0.0
 40
0.0
 40
0.0
 40
0.0
 40
0.1369179339774682
 40
0.2732896290670955
 40
0.4609274640190613
 40
0.7173075987944502
 40
1.0
 40
1.0
 40
1.0
 40
1.0
 10
362.111057481392
 20
406.8668393814381
 30
0.0
 10
362.0750233548233
 20
406.8160741041176
 30
0.0
 10
362.0030988610944
 20
406.7147460793267
 30
0.0
 10
361.9468251246315
 20
406.5224599846544
 30
0.0
 10
361.9444176655318
 20
406.2952043446498
 30
0.0
 10
362.0285489049063
 20
406.0475886306708
 30
0.0
 10
362.157781946564
 20
405.924471545499
 30
0.0
 10
362.2255524160701
 20
405.859908314925
 30
0.0
  0
SPLINE
  5
E9
330
1F
100
AcDbEntity
  8
0
  6
Continuous
 62
     7
370
    25
100
AcDbSpline
210
0.0
220
0.0
230
1.0
 70
     8
 71
     3
 72
    11
 73
     7
 74
     0
 42
0.000000001
 43
0.00000001
 40
0.0
 40
0.0
 40
0.0
 40
0.0
 40
0.2603296021453179
 40
0.5282092178600486
 40
0.7614184666869798
 40
1.0
 40
1.0
 40
1.0
 40
1.0
 10
375.4740723880369
 20
395.8263380849178
 30
0.0
 10
374.2011322571271
 20
396.7903796415007
 30
0.0
 10
371.6183345061623
 20
398.746421645141
 30
0.0
 10
368.0959073395309
 20
401.4140885545784
 30
0.0
 10
364.8990479025089
 20
403.8351781887736
 30
0.0
 10
363.123457132491
 20
405.1798941765162
 30
0.0
 10
362.2255524160701
 20
405.859908314925
 30
0.0
  0
SPLINE
  5
EA
330
1F
100
AcDbEntity
  8
0
  6
Continuous
 62
     7
370
    25
100
AcDbSpline
210
0.0
220
0.0
230
1.0
 70
     8
 71
     3
 72
    12
 73
     8
 74
     0
 42
0.000000001
 43
0.00000001
 40
0.0
 40
0.0
 40
0.0
 40
0.0
 40
0.2229019581118925
 40
0.4458331604551618
 40
0.6679315789583058
 40
0.8889147058629934
 40
1.0
 40
1.0
 40
1.0
 40
1.0
 10
375.4740723880369
 20
395.8263380849178
 30
0.0
 10
375.5417014664962
 20
395.7848768591592
 30
0.0
 10
375.6769684961968
 20
395.7019489680231
 30
0.0
 10
375.9181437601304
 20
395.6718187478858
 30
0.0
 10
376.1523449278855
 20
395.7187034121873
 30
0.0
 10
376.326796120811
 20
395.8199446980083
 30
0.0
 10
376.4069761790542
 20
395.9065088413461
 30
0.0
 10
376.433798438533
 20
395.935466738921
 30
0.0
  0
LINE
  5
EB
330
1F
100
AcDbEntity
  8
0
  6
Continuous
 62
     7
370
    25
100
AcDbLine
 10
376.787891938
 20
396.3591440046
 30
0.0
 11
376.4337984385
 21
395.9354667389
 31
0.0
  0
SPLINE
  5
EC
330
1F
100
AcDbEntity
  8
0
  6
Continuous
 62
     7
370
    25
100
AcDbSpline
210
0.0
220
0.0
230
1.0
 70
     8
 71
     3
 72
    12
 73
     8
 74
     0
 42
0.000000001
 43
0.00000001
 40
0.0
 40
0.0
 40
0.0
 40
0.0
 40
0.2201362649342282
 40
0.4402611324457272
 40
0.6607553379299984
 40
0.8834183349402331
 40
1.0
 40
1.0
 40
1.0
 40
1.0
 10
376.7878919380146
 20
396.3591440045651
 30
0.0
 10
376.8322942906217
 20
396.4242625184313
 30
0.0
 10
376.9210966969308
 20
396.554496174692
 30
0.0
 10
376.9632337488342
 20
396.7918096464974
 30
0.0
 10
376.9293421555968
 20
397.0269480625875
 30
0.0
 10
376.8374391136977
 20
397.2078192704877
 30
0.0
 10
376.7537099724758
 20
397.2935383816476
 30
0.0
 10
376.7249363946158
 20
397.3229958140667
 30
0.0
  0
SPLINE
  5
ED
330
1F
100
AcDbEntity
  8
0
  6
Continuous
 62
     7
370
    25
100
AcDbSpline
210
0.0
220
0.0
230
1.0
 70
     8
 71
     3
 72
    11
 73
     7
 74
     0
 42
0.000000001
 43
0.00000001
 40
0.0
 40
0.0
 40
0.0
 40
0.0
 40
0.2832269394207236
 40
0.5762691603346928
 40
0.7861910049394228
 40
1.0
 40
1.0
 40
1.0
 40
1.0
 10
364.4990840467054
 20
408.5801897966679
 30
0.0
 10
365.4903098156686
 20
407.6674974469373
 30
0.0
 10
367.5071124642825
 20
405.8104832268249
 30
0.0
 10
370.739491724452
 20
402.8342143461471
 30
0.0
 10
373.8463899330286
 20
399.9734702623081
 30
0.0
 10
375.759570636017
 20
398.2118740415046
 30
0.0
 10
376.7249363946158
 20
397.3229958140667
 30
0.0
  0
SPLINE
  5
EE
330
1F
100
AcDbEntity
  8
0
  6
Continuous
 62
     7
370
    25
100
AcDbSpline
210
0.0
220
0.0
230
1.0
 70
     8
 71
     3
 72
    12
 73
     8
 74
     0
 42
0.000000001
 43
0.00000001
 40
0.0
 40
0.0
 40
0.0
 40
0.0
 40
0.3203308234543393
 40
0.5619301218319309
 40
0.7389344545477525
 40
0.8801321760500066
 40
0.9999999999999999
 40
0.9999999999999999
 40
0.9999999999999999
 40
0.9999999999999999
 10
356.4612039836484
 20
394.5617435896214
 30
0.0
 10
356.356355909014
 20
394.5796829711824
 30
0.0
 10
356.17242952092
 20
394.6111525586466
 30
0.0
 10
355.9195602493839
 20
394.5199567488283
 30
0.0
 10
355.7459404263549
 20
394.3829256989916
 30
0.0
 10
355.6325358014549
 20
394.2276911385985
 30
0.0
 10
355.5956719978303
 20
394.1151409143279
 30
0.0
 10
355.5787460418779
 20
394.0634636604603
 30
0.0
  0
LINE
  5
EF
330
1F
100
AcDbEntity
  8
0
  6
Continuous
 62
     7
370
    25
100
AcDbLine
 10
355.053059152
 20
391.981942805
 30
0.0
 11
355.5787460419
 21
394.0634636605
 31
0.0
  0
SPLINE
  5
F0
330
1F
100
AcDbEntity
  8
0
  6
Continuous
 62
     7
370
    25
100
AcDbSpline
210
0.0
220
0.0
230
1.0
 70
     8
 71
     3
 72
    12
 73
     8
 74
     0
 42
0.000000001
 43
0.00000001
 40
0.0
 40
0.0
 40
0.0
 40
0.0
 40
0.1369172058320702
 40
0.2732909255389207
 40
0.4609262363053508
 40
0.7173073895992136
 40
1.0
 40
1.0
 40
1.0
 40
1.0
 10
355.053059151991
 20
391.9819428050335
 30
0.0
 10
355.0426206211293
 20
391.9205706307459
 30
0.0
 10
355.0217849946416
 20
391.7980698960027
 30
0.0
 10
355.0545120517745
 20
391.6004095656571
 30
0.0
 10
355.1509438251551
 20
391.3946163890881
 30
0.0
 10
355.3341796738607
 20
391.2080233280194
 30
0.0
 10
355.5040344550009
 20
391.1531740034141
 30
0.0
 10
355.5931070359784
 20
391.12441078065
 30
0.0
  0
SPLINE
  5
F1
330
1F
100
AcDbEntity
  8
0
  6
Continuous
 62
     7
370
    25
100
AcDbSpline
210
0.0
220
0.0
230
1.0
 70
     8
 71
     3
 72
    11
 73
     7
 74
     0
 42
0.000000001
 43
0.00000001
 40
0.0
 40
0.0
 40
0.0
 40
0.0
 40
0.2603295872349791
 40
0.5282090171965729
 40
0.7614184649213145
 40
1.0
 40
1.0
 40
1.0
 40
1.0
 10
371.8830117496091
 20
387.8327964269932
 30
0.0
 10
370.3178509437275
 20
388.1490614781467
 30
0.0
 10
367.1421379569318
 20
388.7907636128051
 30
0.0
 10
362.8110812429449
 20
389.6659029523941
 30
0.0
 10
358.880340924469
 20
390.4601804295015
 30
0.0
 10
356.6971380725632
 20
390.9013262822584
 30
0.0
 10
355.5931070359784
 20
391.12441078065
 30
0.0
  0
SPLINE
  5
F2
330
1F
100
AcDbEntity
  8
0
  6
Continuous
 62
     7
370
    25
100
AcDbSpline
210
0.0
220
0.0
230
1.0
 70
     8
 71
     3
 72
    12
 73
     8
 74
     0
 42
0.000000001
 43
0.00000001
 40
0.0
 40
0.0
 40
0.0
 40
0.0
 40
0.2229013716755148
 40
0.4458311214477087
 40
0.667931490656979
 40
0.8889122089747292
 40
1.0
 40
1.0
 40
1.0
 40
1.0
 10
371.8830117496091
 20
387.8327964269932
 30
0.0
 10
371.9619325162942
 20
387.8247857417334
 30
0.0
 10
372.1197840972522
 20
387.8087633513547
 30
0.0
 10
372.3501574728571
 20
387.88623805898
 30
0.0
 10
372.5408153346485
 20
388.0301101447141
 30
0.0
 10
372.6540652759094
 20
388.197016160475
 30
0.0
 10
372.6887446445347
 20
388.3097980145276
 30
0.0
 10
372.7003460290271
 20
388.3475272381123
 30
0.0
  0
LINE
  5
F3
330
1F
100
AcDbEntity
  8
0
  6
Continuous
 62
     7
370
    25
100
AcDbLine
 10
372.8355498525
 20
388.8828738057
 30
0.0
 11
372.700346029
 21
388.3475272381
 31
0.0
  0
SPLINE
  5
F4
330
1F
100
AcDbEntity
  8
0
  6
Continuous
 62
     7
370
    25
100
AcDbSpline
210
0.0
220
0.0
230
1.0
 70
     8
 71
     3
 72
    12
 73
     8
 74
     0
 42
0.000000001
 43
0.00000001
 40
0.0
 40
0.0
 40
0.0
 40
0.0
 40
0.2200853448335976
 40
0.4401592254748142
 40
0.588534886524649
 40
0.8110251182854923
 40
1.0
 40
1.0
 40
1.0
 40
1.0
 10
372.8355498524743
 20
388.882873805743
 30
0.0
 10
372.8473262384146
 20
388.9607870661655
 30
0.0
 10
372.870878396866
 20
389.1166095285274
 30
0.0
 10
372.8126236966014
 20
389.3236830509147
 30
0.0
 10
372.7053586103584
 20
389.5036921034904
 30
0.0
 10
372.5585814699149
 20
389.6451610706663
 30
0.0
 10
372.422927745245
 20
389.6991614664783
 30
0.0
 10
372.3606256308395
 20
389.7239623987492
 30
0.0
  0
SPLINE
  5
F5
330
1F
100
AcDbEntity
  8
0
  6
Continuous
 62
     7
370
    25
100
AcDbSpline
210
0.0
220
0.0
230
1.0
 70
     8
 71
     3
 72
    11
 73
     7
 74
     0
 42
0.000000001
 43
0.00000001
 40
0.0
 40
0.0
 40
0.0
 40
0.0
 40
0.2832268164197738
 40
0.5762691608890778
 40
0.7861909153741522
 40
1.0
 40
1.0
 40
1.0
 40
1.0
 10
356.4612039836484
 20
394.5617435896214
 30
0.0
 10
357.7502693941732
 20
394.1695165125777
 30
0.0
 10
360.37307415484
 20
393.3714693099042
 30
0.0
 10
364.576696882836
 20
392.0924044909752
 30
0.0
 10
368.6171495115707
 20
390.8630105944283
 30
0.0
 10
371.1051917786529
 20
390.1059602046834
 30
0.0
 10
372.3606256308395
 20
389.7239623987492
 30
0.0
  0
SPLINE
  5
F6
330
1F
100
AcDbEntity
  8
0
  6
Continuous
 62
     7
370
    25
100
AcDbSpline
210
0.0
220
0.0
230
1.0
 70
     8
 71
     3
 72
    12
 73
     8
 74
     0
 42
0.000000001
 43
0.00000001
 40
0.0
 40
0.0
 40
0.0
 40
0.0
 40
0.320328900064685
 40
0.5619275293606388
 40
0.738932714521585
 40
0.8801332832050706
 40
1.0
 40
1.0
 40
1.0
 40
1.0
 10
355.3016962023813
 20
378.4440553211983
 30
0.0
 10
355.1994495287409
 20
378.4147249126628
 30
0.0
 10
355.0200863158291
 20
378.3632729081757
 30
0.0
 10
354.8318291632388
 20
378.1713963860594
 30
0.0
 10
354.73484543237
 20
377.9726074374968
 30
0.0
 10
354.7000387463382
 20
377.783537488276
 30
0.0
 10
354.7156563737799
 20
377.6661381226182
 30
0.0
 10
354.7228270681936
 20
377.6122352504547
 30
0.0
  0
LINE
  5
F7
330
1F
100
AcDbEntity
  8
0
  6
Continuous
 62
     7
370
    25
100
AcDbLine
 10
355.1523344132
 20
375.5087649846
 30
0.0
 11
354.7228270682
 21
377.6122352505
 31
0.0
  0
SPLINE
  5
F8
330
1F
100
AcDbEntity
  8
0
  6
Continuous
 62
     7
370
    25
100
AcDbSpline
210
0.0
220
0.0
230
1.0
 70
     8
 71
     3
 72
    12
 73
     8
 74
     0
 42
0.000000001
 43
0.00000001
 40
0.0
 40
0.0
 40
0.0
 40
0.0
 40
0.1369198932665511
 40
0.2732923015254696
 40
0.4609288682224091
 40
0.7173062007704396
 40
1.0
 40
1.0
 40
1.0
 40
1.0
 10
355.1523344131547
 20
375.5087649845894
 30
0.0
 10
355.1695576085075
 20
375.4489397449925
 30
0.0
 10
355.2039351309062
 20
375.3295284817443
 30
0.0
 10
355.3191890569416
 20
375.1656455280267
 30
0.0
 10
355.4953605074763
 20
375.0220710056354
 30
0.0
 10
355.741406701336
 20
374.9334641519546
 30
0.0
 10
355.9182399083713
 20
374.957740811501
 30
0.0
 10
356.0109728487569
 20
374.9704717123325
 30
0.0
  0
SPLINE
  5
F9
330
1F
100
AcDbEntity
  8
0
  6
Continuous
 62
     7
370
    25
100
AcDbSpline
210
0.0
220
0.0
230
1.0
 70
     8
 71
     3
 72
    11
 73
     7
 74
     0
 42
0.000000001
 43
0.00000001
 40
0.0
 40
0.0
 40
0.0
 40
0.0
 40
0.2603296405693379
 40
0.5282090670452053
 40
0.7614184435003829
 40
1.0
 40
1.0
 40
1.0
 40
1.0
 10
372.1158498438436
 20
379.0727539384182
 30
0.0
 10
370.5684662775863
 20
378.678599698364
 30
0.0
 10
367.4288236763584
 20
377.8788604026171
 30
0.0
 10
363.1469638834265
 20
376.7881712859887
 30
0.0
 10
359.2608689109061
 20
375.7982937369671
 30
0.0
 10
357.1024639643054
 20
375.2484991839393
 30
0.0
 10
356.0109728487569
 20
374.9704717123325
 30
0.0
  0
SPLINE
  5
FA
330
1F
100
AcDbEntity
  8
0
  6
Continuous
 62
     7
370
    25
100
AcDbSpline
210
0.0
220
0.0
230
1.0
 70
     8
 71
     3
 72
    12
 73
     8
 74
     0
 42
0.000000001
 43
0.00000001
 40
0.0
 40
0.0
 40
0.0
 40
0.0
 40
0.2228995289717756
 40
0.4458333805015684
 40
0.667932588433942
 40
0.8889160846513942
 40
1.0
 40
1.0
 40
1.0
 40
1.0
 10
372.1158498438436
 20
379.0727539384182
 30
0.0
 10
372.1904303832167
 20
379.0997778330566
 30
0.0
 10
372.3396029460378
 20
379.153829783532
 30
0.0
 10
372.5135386604381
 20
379.3235949988311
 30
0.0
 10
372.6228988679021
 20
379.5359391075393
 30
0.0
 10
372.6525122415822
 20
379.7354529822914
 30
0.0
 10
372.634824830861
 20
379.8521118934524
 30
0.0
 10
372.6289079996187
 20
379.8911368870552
 30
0.0
  0
LINE
  5
FB
330
1F
100
AcDbEntity
  8
0
  6
Continuous
 62
     7
370
    25
100
AcDbLine
 10
372.5184419664
 20
380.4321347201
 30
0.0
 11
372.6289079996
 21
379.8911368871
 31
0.0
  0
SPLINE
  5
FC
330
1F
100
AcDbEntity
  8
0
  6
Continuous
 62
     7
370
    25
100
AcDbSpline
210
0.0
220
0.0
230
1.0
 70
     8
 71
     3
 72
    13
 73
     9
 74
     0
 42
0.000000001
 43
0.00000001
 40
0.0
 40
0.0
 40
0.0
 40
0.0
 40
0.2200607040527532
 40
0.2941795266557479
 40
0.5152194872316829
 40
0.7362286658820866
 40
0.9580126626727812
 40
1.0
 40
1.0
 40
1.0
 40
1.0
 10
372.5184419663984
 20
380.4321347200687
 30
0.0
 10
372.4956124148927
 20
380.5076538958938
 30
0.0
 10
372.4650936237953
 20
380.6086087460262
 30
0.0
 10
372.3613071106589
 20
380.759813716652
 30
0.0
 10
372.2256079246869
 20
380.8877135243094
 30
0.0
 10
372.0068029170533
 20
380.9835464069681
 30
0.0
 10
371.8324529237841
 20
380.998204897988
 30
0.0
 10
371.7402873616367
 20
380.985837493339
 30
0.0
 10
371.725616371854
 20
380.9838688397224
 30
0.0
  0
SPLINE
  5
FD
330
1F
100
AcDbEntity
  8
0
  6
Continuous
 62
     7
370
    25
100
AcDbSpline
210
0.0
220
0.0
230
1.0
 70
     8
 71
     3
 72
    11
 73
     7
 74
     0
 42
0.000000001
 43
0.00000001
 40
0.0
 40
0.0
 40
0.0
 40
0.0
 40
0.28322698851771
 40
0.5762691602936638
 40
0.7861909416599636
 40
1.0
 40
1.0
 40
1.0
 40
1.0
 10
355.3016962023813
 20
378.4440553211983
 30
0.0
 10
356.6332868688974
 20
378.6499742715046
 30
0.0
 10
359.3426142506701
 20
379.0689482584207
 30
0.0
 10
363.6849098186566
 20
379.740445870479
 30
0.0
 10
367.8586472491618
 20
380.3858768045034
 30
0.0
 10
370.4287672973312
 20
380.7833227808219
 30
0.0
 10
371.725616371854
 20
380.9838688397224
 30
0.0
  0
ARC
  5
FE
330
1F
100
AcDbEntity
  8
0
  6
Continuous
 62
     7
370
    25
100
AcDbCircle
 10
391.1895522388
 20
383.9628358209
 30
0.0
 40
16.42261912900004
100
AcDbArc
 50
307.2549368278
 51
127.2549368278
  0
ARC
  5
FF
330
1F
100
AcDbEntity
  8
0
  6
Continuous
 62
     7
370
    25
100
AcDbCircle
 10
391.1895522388
 20
383.9628358209
 30
0.0
 40
16.42261912900004
100
AcDbArc
 50
127.2549368278
 51
307.2549368278
  0
SPLINE
  5
100
330
1F
100
AcDbEntity
  8
0
  6
Continuous
 62
     7
370
    25
100
AcDbSpline
210
0.0
220
0.0
230
1.0
 70
     8
 71
     3
 72
    12
 73
     8
 74
     0
 42
0.000000001
 43
0.00000001
 40
0.0
 40
0.0
 40
0.0
 40
0.0
 40
0.3203288466047182
 40
0.5619268427422809
 40
0.738931116752745
 40
0.8801314270814364
 40
1.0
 40
1.0
 40
1.0
 40
1.0
 10
388.5841661604482
 20
347.7467189007814
 30
0.0
 10
388.5900090301625
 20
347.6405089926748
 30
0.0
 10
388.6002587012924
 20
347.4541935891046
 30
0.0
 10
388.745431609981
 20
347.2279580882578
 30
0.0
 10
388.9176581576901
 20
347.0891764893549
 30
0.0
 10
389.0942409513958
 20
347.0131653524539
 30
0.0
 10
389.2121733132097
 20
347.0022683204788
 30
0.0
 10
389.2663214128825
 20
346.9972649985369
 30
0.0
  0
LINE
  5
101
330
1F
100
AcDbEntity
  8
0
  6
Continuous
 62
     7
370
    25
100
AcDbLine
 10
391.412626158
 20
346.9479402923
 30
0.0
 11
389.2663214129
 21
346.9972649985
 31
0.0
  0
SPLINE
  5
102
330
1F
100
AcDbEntity
  8
0
  6
Continuous
 62
     7
370
    25
100
AcDbSpline
210
0.0
220
0.0
230
1.0
 70
     8
 71
     3
 72
    12
 73
     8
 74
     0
 42
0.000000001
 43
0.00000001
 40
0.0
 40
0.0
 40
0.0
 40
0.0
 40
0.1369198119756195
 40
0.2732913440731926
 40
0.4609268083701776
 40
0.717305699633903
 40
1.0
 40
1.0
 40
1.0
 40
1.0
 10
391.4126261579932
 20
346.9479402923401
 30
0.0
 10
391.4747838079327
 20
346.9514196955657
 30
0.0
 10
391.5988502045431
 20
346.9583645691408
 30
0.0
 10
391.7842702800193
 20
347.0342585368065
 30
0.0
 10
391.9634472504244
 20
347.174062449029
 30
0.0
 10
392.10458295193
 20
347.394224890361
 30
0.0
 10
392.1202655670371
 20
347.5720266328611
 30
0.0
 10
392.1284896560374
 20
347.6652672910507
 30
0.0
  0
SPLINE
  5
103
330
1F
100
AcDbEntity
  8
0
  6
Continuous
 62
     7
370
    25
100
AcDbSpline
210
0.0
220
0.0
230
1.0
 70
     8
 71
     3
 72
    11
 73
     7
 74
     0
 42
0.000000001
 43
0.00000001
 40
0.0
 40
0.0
 40
0.0
 40
0.0
 40
0.2603297602936712
 40
0.5282090346837476
 40
0.7614184223400114
 40
1.0
 40
1.0
 40
1.0
 40
1.0
 10
391.7127314844529
 20
364.2792052054222
 30
0.0
 10
391.7526782161208
 20
362.6829093706393
 30
0.0
 10
391.8337301271635
 20
359.4440254220303
 30
0.0
 10
391.9442693792689
 20
355.0268203593191
 30
0.0
 10
392.0445913517179
 20
351.0178898698567
 30
0.0
 10
392.100312061048
 20
348.7912595497025
 30
0.0
 10
392.1284896560374
 20
347.6652672910507
 30
0.0
  0
SPLINE
  5
104
330
1F
100
AcDbEntity
  8
0
  6
Continuous
 62
     7
370
    25
100
AcDbSpline
210
0.0
220
0.0
230
1.0
 70
     8
 71
     3
 72
    12
 73
     8
 74
     0
 42
0.000000001
 43
0.00000001
 40
0.0
 40
0.0
 40
0.0
 40
0.0
 40
0.222842162520471
 40
0.4114711902028321
 40
0.6322890762667002
 40
0.8531344923462297
 40
1.0
 40
1.0
 40
1.0
 40
1.0
 10
391.7127314844529
 20
364.2792052054222
 30
0.0
 10
391.7030382380935
 20
364.3579583339337
 30
0.0
 10
391.6851399572145
 20
364.5033735603624
 30
0.0
 10
391.5714255536345
 20
364.7014267507233
 30
0.0
 10
391.4065800451168
 20
364.8560899140361
 30
0.0
 10
391.2115344310566
 20
364.9451489736664
 30
0.0
 10
391.0811209265192
 20
364.9568382654923
 30
0.0
 10
391.0290331469278
 20
364.9615070247467
 30
0.0
  0
LINE
  5
105
330
1F
100
AcDbEntity
  8
0
  6
Continuous
 62
     7
370
    25
100
AcDbLine
 10
390.4770177679
 20
364.9741953635
 30
0.0
 11
391.0290331469
 21
364.9615070247
 31
0.0
  0
SPLINE
  5
106
330
1F
100
AcDbEntity
  8
0
  6
Continuous
 62
     7
370
    25
100
AcDbSpline
210
0.0
220
0.0
230
1.0
 70
     8
 71
     3
 72
    12
 73
     8
 74
     0
 42
0.000000001
 43
0.00000001
 40
0.0
 40
0.0
 40
0.0
 40
0.0
 40
0.2201334438627996
 40
0.4402548461866108
 40
0.6607452899599981
 40
0.8821585212331563
 40
1.0
 40
1.0
 40
1.0
 40
1.0
 10
390.4770177678566
 20
364.9741953635033
 30
0.0
 10
390.3984215672963
 20
364.9683096927687
 30
0.0
 10
390.2412334654733
 20
364.9565386732521
 30
0.0
 10
390.0294208839395
 20
364.8415219601277
 30
0.0
 10
389.8670255350381
 20
364.6687354835172
 30
0.0
 10
389.7827486751909
 20
364.4842357760803
 30
0.0
 10
389.7678667737762
 20
364.365324688873
 30
0.0
 10
389.7626974858704
 20
364.3240204477127
 30
0.0
  0
SPLINE
  5
107
330
1F
100
AcDbEntity
  8
0
  6
Continuous
 62
     7
370
    25
100
AcDbSpline
210
0.0
220
0.0
230
1.0
 70
     8
 71
     3
 72
    11
 73
     7
 74
     0
 42
0.000000001
 43
0.00000001
 40
0.0
 40
0.0
 40
0.0
 40
0.0
 40
0.2832269415736984
 40
0.576269056073165
 40
0.7861908587623103
 40
1.0
 40
1.0
 40
1.0
 40
1.0
 10
388.5841661604482
 20
347.7467189007814
 30
0.0
 10
388.6797171135746
 20
349.0907449142341
 30
0.0
 10
388.8741303189677
 20
351.8253738934075
 30
0.0
 10
389.1857205416479
 20
356.2082210709565
 30
0.0
 10
389.485215497141
 20
360.4209369562886
 30
0.0
 10
389.6696395164976
 20
363.0150597268115
 30
0.0
 10
389.7626974858704
 20
364.3240204477127
 30
0.0
  0
SPLINE
  5
108
330
1F
100
AcDbEntity
  8
0
  6
Continuous
 62
     7
370
    25
100
AcDbSpline
210
0.0
220
0.0
230
1.0
 70
     8
 71
     3
 72
    12
 73
     8
 74
     0
 42
0.000000001
 43
0.00000001
 40
0.0
 40
0.0
 40
0.0
 40
0.0
 40
0.3203294821570674
 40
0.5619268440702099
 40
0.7389312386735238
 40
0.8801315904988527
 40
0.9999999999999999
 40
0.9999999999999999
 40
0.9999999999999999
 40
0.9999999999999999
 10
373.1285960885126
 20
352.4636777514036
 30
0.0
 10
373.0877771729783
 20
352.3654500859037
 30
0.0
 10
373.0161720112241
 20
352.1931376228014
 30
0.0
 10
373.0488087746668
 20
351.9263185081358
 30
0.0
 10
373.1437653795749
 20
351.7265541212223
 30
0.0
 10
373.2698818825463
 20
351.5814547393807
 30
0.0
 10
373.3714067224523
 20
351.5204669878381
 30
0.0
 10
373.4180213423807
 20
351.4924647682722
 30
0.0
  0
LINE
  5
109
330
1F
100
AcDbEntity
  8
0
  6
Continuous
 62
     7
370
    25
100
AcDbLine
 10
375.3303730401
 20
350.5167795741
 30
0.0
 11
373.4180213424
 21
351.4924647683
 31
0.0
  0
SPLINE
  5
10A
330
1F
100
AcDbEntity
  8
0
  6
Continuous
 62
     7
370
    25
100
AcDbSpline
210
0.0
220
0.0
230
1.0
 70
     8
 71
     3
 72
    12
 73
     8
 74
     0
 42
0.000000001
 43
0.00000001
 40
0.0
 40
0.0
 40
0.0
 40
0.0
 40
0.1369199977292336
 40
0.2732918635054105
 40
0.4609278174158432
 40
0.7173066730167181
 40
1.0
 40
1.0
 40
1.0
 40
1.0
 10
375.330373040064
 20
350.5167795741375
 30
0.0
 10
375.3878848665761
 20
350.4929451182333
 30
0.0
 10
375.5026782824523
 20
350.4453716229241
 30
0.0
 10
375.7026657485376
 20
350.4332968644035
 30
0.0
 10
375.9247578175915
 20
350.4815168241699
 30
0.0
 10
376.1474408283736
 20
350.6186405799197
 30
0.0
 10
376.2387154737998
 20
350.7720292333032
 30
0.0
 10
376.2865805538732
 20
350.8524673455771
 30
0.0
  0
SPLINE
  5
10B
330
1F
100
AcDbEntity
  8
0
  6
Continuous
 62
     7
370
    25
100
AcDbSpline
210
0.0
220
0.0
230
1.0
 70
     8
 71
     3
 72
    11
 73
     7
 74
     0
 42
0.000000001
 43
0.00000001
 40
0.0
 40
0.0
 40
0.0
 40
0.0
 40
0.2603295311099951
 40
0.5282090988736837
 40
0.7614183410890387
 40
1.0
 40
1.0
 40
1.0
 40
1.0
 10
383.12051291637
 20
366.0014963173683
 30
0.0
 10
382.4638971217221
 20
364.5459531043347
 30
0.0
 10
381.1316224630676
 20
361.5926532399281
 30
0.0
 10
379.3146635807653
 20
357.5649261198667
 30
0.0
 10
377.6656390386199
 20
353.9094787421243
 30
0.0
 10
376.7497432371402
 20
351.8791776822766
 30
0.0
 10
376.2865805538732
 20
350.8524673455771
 30
0.0
  0
SPLINE
  5
10C
330
1F
100
AcDbEntity
  8
0
  6
Continuous
 62
     7
370
    25
100
AcDbSpline
210
0.0
220
0.0
230
1.0
 70
     8
 71
     3
 72
    13
 73
     9
 74
     0
 42
0.000000001
 43
0.00000001
 40
0.0
 40
0.0
 40
0.0
 40
0.0
 40
0.222880196091685
 40
0.4457883510065292
 40
0.6678653049638733
 40
0.7058058069908881
 40
0.9258788990860911
 40
1.0
 40
1.0
 40
1.0
 40
1.0
 10
383.12051291637
 20
366.0014963173683
 30
0.0
 10
383.1458852692655
 20
366.0766798123061
 30
0.0
 10
383.1966331578477
 20
366.227056233446
 30
0.0
 10
383.1723453479667
 20
366.4685380761427
 30
0.0
 10
383.1014253311937
 20
366.6275187839902
 30
0.0
 10
383.0023168972143
 20
366.7657294610164
 30
0.0
 10
382.9148734651899
 20
366.8495140738769
 30
0.0
 10
382.8235669586481
 20
366.90012594564
 30
0.0
 10
382.8005626337963
 20
366.9128774130161
 30
0.0
  0
LINE
  5
10D
330
1F
100
AcDbEntity
  8
0
  6
Continuous
 62
     7
370
    25
100
AcDbLine
 10
382.3087181436
 20
367.1638166928
 30
0.0
 11
382.8005626338
 21
366.912877413
 31
0.0
  0
SPLINE
  5
10E
330
1F
100
AcDbEntity
  8
0
  6
Continuous
 62
     7
370
    25
100
AcDbSpline
210
0.0
220
0.0
230
1.0
 70
     8
 71
     3
 72
    12
 73
     8
 74
     0
 42
0.000000001
 43
0.00000001
 40
0.0
 40
0.0
 40
0.0
 40
0.0
 40
0.2201338385686327
 40
0.4402550053612674
 40
0.6607430809852117
 40
0.8821582743247655
 40
1.0
 40
1.0
 40
1.0
 40
1.0
 10
382.3087181436259
 20
367.1638166928108
 30
0.0
 10
382.2353514351912
 20
367.1926153160206
 30
0.0
 10
382.0886222416004
 20
367.2502109046774
 30
0.0
 10
381.8478833274154
 20
367.2384857684991
 30
0.0
 10
381.6265984454826
 20
367.1532777630941
 30
0.0
 10
381.4706177493636
 20
367.0236127699638
 30
0.0
 10
381.4056160287731
 20
366.9229337699198
 30
0.0
 10
381.3830375211674
 20
366.8879626715
 30
0.0
  0
SPLINE
  5
10F
330
1F
100
AcDbEntity
  8
0
  6
Continuous
 62
     7
370
    25
100
AcDbSpline
210
0.0
220
0.0
230
1.0
 70
     8
 71
     3
 72
    11
 73
     7
 74
     0
 42
0.000000001
 43
0.00000001
 40
0.0
 40
0.0
 40
0.0
 40
0.0
 40
0.2832269094734872
 40
0.5762691268786615
 40
0.7861908697284915
 40
1.0
 40
1.0
 40
1.0
 40
1.0
 10
373.1285960885126
 20
352.4636777514036
 30
0.0
 10
373.7978355617158
 20
353.6331447272989
 30
0.0
 10
375.1595071896431
 20
356.0126068849218
 30
0.0
 10
377.3418866399993
 20
359.8262222196796
 30
0.0
 10
379.4395506672215
 20
363.4918016735939
 30
0.0
 10
380.7312584457762
 20
365.749006330941
 30
0.0
 10
381.3830375211674
 20
366.8879626715
 30
0.0
  0
SPLINE
  5
110
330
1F
100
AcDbEntity
  8
0
  6
Continuous
 62
     7
370
    25
100
AcDbSpline
210
0.0
220
0.0
230
1.0
 70
     8
 71
     3
 72
    12
 73
     8
 74
     0
 42
0.000000001
 43
0.00000001
 40
0.0
 40
0.0
 40
0.0
 40
0.0
 40
0.3203293432264566
 40
0.5619277340279497
 40
0.7389311640951158
 40
0.8801316732379226
 40
1.0
 40
1.0
 40
1.0
 40
1.0
 10
404.5557643758494
 20
350.2028083824928
 30
0.0
 10
404.6071111989148
 20
350.109651166886
 30
0.0
 10
404.6971847577216
 20
349.9462330343258
 30
0.0
 10
404.9261415090246
 20
349.8053881322475
 30
0.0
 10
405.141527636655
 20
349.7550801798316
 30
0.0
 10
405.3336029031744
 20
349.7632121373341
 30
0.0
 10
405.4445847770069
 20
349.8045621302185
 30
0.0
 10
405.4955414967972
 20
349.8235477530773
 30
0.0
  0
LINE
  5
111
330
1F
100
AcDbEntity
  8
0
  6
Continuous
 62
     7
370
    25
100
AcDbLine
 10
407.4506958487
 20
350.7103549713
 30
0.0
 11
405.4955414968
 21
349.8235477531
 31
0.0
  0
SPLINE
  5
112
330
1F
100
AcDbEntity
  8
0
  6
Continuous
 62
     7
370
    25
100
AcDbSpline
210
0.0
220
0.0
230
1.0
 70
     8
 71
     3
 72
    12
 73
     8
 74
     0
 42
0.000000001
 43
0.00000001
 40
0.0
 40
0.0
 40
0.0
 40
0.0
 40
0.1369196820758279
 40
0.2732919294265322
 40
0.4609280347149833
 40
0.7173058151922594
 40
1.0
 40
1.0
 40
1.0
 40
1.0
 10
407.4506958486873
 20
350.7103549712713
 30
0.0
 10
407.5051882132513
 20
350.7404589947843
 30
0.0
 10
407.6139550700314
 20
350.8005466793642
 30
0.0
 10
407.7480853879587
 20
350.9493750848497
 30
0.0
 10
407.8488568702442
 20
351.1530785180153
 30
0.0
 10
407.8804916998283
 20
351.4126724813548
 30
0.0
 10
407.8174758063913
 20
351.5796707057023
 30
0.0
 10
407.7844297053653
 20
351.6672460758503
 30
0.0
  0
SPLINE
  5
113
330
1F
100
AcDbEntity
  8
0
  6
Continuous
 62
     7
370
    25
100
AcDbSpline
210
0.0
220
0.0
230
1.0
 70
     8
 71
     3
 72
    11
 73
     7
 74
     0
 42
0.000000001
 43
0.00000001
 40
0.0
 40
0.0
 40
0.0
 40
0.0
 40
0.2603297336286147
 40
0.5282091066764987
 40
0.7614183797771601
 40
1.0
 40
1.0
 40
1.0
 40
1.0
 10
400.2013274940091
 20
366.4554974460419
 30
0.0
 10
400.9299246789905
 20
365.0346168160269
 30
0.0
 10
402.4082485832245
 20
362.1516495966741
 30
0.0
 10
404.4243962494194
 20
358.2198465942989
 30
0.0
 10
406.2541916359587
 20
354.6514534933306
 30
0.0
 10
407.2704927624745
 20
352.6695047882393
 30
0.0
 10
407.7844297053653
 20
351.6672460758503
 30
0.0
  0
SPLINE
  5
114
330
1F
100
AcDbEntity
  8
0
  6
Continuous
 62
     7
370
    25
100
AcDbSpline
210
0.0
220
0.0
230
1.0
 70
     8
 71
     3
 72
    12
 73
     8
 74
     0
 42
0.000000001
 43
0.00000001
 40
0.0
 40
0.0
 40
0.0
 40
0.0
 40
0.116585454382834
 40
0.3388937394394454
 40
0.5612376705973252
 40
0.7827183232767725
 40
1.0
 40
1.0
 40
1.0
 40
1.0
 10
400.2013274940091
 20
366.4554974460419
 30
0.0
 10
400.1806226454318
 20
366.4910938500831
 30
0.0
 10
400.120437233829
 20
366.5945664362642
 30
0.0
 10
399.9703426936127
 20
366.7318329722091
 30
0.0
 10
399.7517044338496
 20
366.8275523077961
 30
0.0
 10
399.5115021184439
 20
366.8495191012124
 30
0.0
 10
399.3628908573843
 20
366.7987344187886
 30
0.0
 10
399.2892963352043
 20
366.7735850834663
 30
0.0
  0
LINE
  5
115
330
1F
100
AcDbEntity
  8
0
  6
Continuous
 62
     7
370
    25
100
AcDbLine
 10
398.7864436122
 20
366.5455041849
 30
0.0
 11
399.2892963352
 21
366.7735850835
 31
0.0
  0
SPLINE
  5
116
330
1F
100
AcDbEntity
  8
0
  6
Continuous
 62
     7
370
    25
100
AcDbSpline
210
0.0
220
0.0
230
1.0
 70
     8
 71
     3
 72
    12
 73
     8
 74
     0
 42
0.000000001
 43
0.00000001
 40
0.0
 40
0.0
 40
0.0
 40
0.0
 40
0.2201326930177109
 40
0.4402562744450425
 40
0.660745040261023
 40
0.8821604850990353
 40
1.0
 40
1.0
 40
1.0
 40
1.0
 10
398.7864436122018
 20
366.545504184943
 30
0.0
 10
398.7181845376575
 20
366.5061000942848
 30
0.0
 10
398.5816692139044
 20
366.4272935439569
 30
0.0
 10
398.4407391230958
 20
366.231763089278
 30
0.0
 10
398.3693922327273
 20
366.0056272770934
 30
0.0
 10
398.373513974985
 20
365.8028323163118
 30
0.0
 10
398.4116999672402
 20
365.6892401988743
 30
0.0
 10
398.4249637933809
 20
365.6497842097099
 30
0.0
  0
SPLINE
  5
117
330
1F
100
AcDbEntity
  8
0
  6
Continuous
 62
     7
370
    25
100
AcDbSpline
210
0.0
220
0.0
230
1.0
 70
     8
 71
     3
 72
    11
 73
     7
 74
     0
 42
0.000000001
 43
0.00000001
 40
0.0
 40
0.0
 40
0.0
 40
0.0
 40
0.2832268669922378
 40
0.5762690436075987
 40
0.7861909501347845
 40
1.0
 40
1.0
 40
1.0
 40
1.0
 10
404.5557643758494
 20
350.2028083824928
 30
0.0
 10
404.0587021128808
 20
351.4551911391117
 30
0.0
 10
403.0473517493497
 20
354.0033583417917
 30
0.0
 10
401.4264378087046
 20
358.0873612743097
 30
0.0
 10
399.8684448769921
 20
362.0128334223978
 30
0.0
 10
398.9090578360387
 20
364.4300756665452
 30
0.0
 10
398.4249637933809
 20
365.6497842097099
 30
0.0
  0
SPLINE
  5
118
330
1F
100
AcDbEntity
  8
0
  6
Continuous
 62
     7
370
    25
100
AcDbSpline
210
0.0
220
0.0
230
1.0
 70
     8
 71
     3
 72
    12
 73
     8
 74
     0
 42
0.000000001
 43
0.00000001
 40
0.0
 40
0.0
 40
0.0
 40
0.0
 40
0.3203294283353229
 40
0.5619281757072129
 40
0.7389315092989013
 40
0.8801323970002725
 40
1.0
 40
1.0
 40
1.0
 40
1.0
 10
417.8800204309064
 20
359.3454828882034
 30
0.0
 10
417.9667016992481
 20
359.2838295731003
 30
0.0
 10
418.1187596829319
 20
359.1756761166343
 30
0.0
 10
418.3861522778606
 20
359.148126165628
 30
0.0
 10
418.6020376649154
 20
359.1962458881945
 30
0.0
 10
418.7715610111027
 20
359.286914457269
 30
0.0
 10
418.8536112634961
 20
359.3723218558985
 30
0.0
 10
418.8912840100366
 20
359.4115360104855
 30
0.0
  0
LINE
  5
119
330
1F
100
AcDbEntity
  8
0
  6
Continuous
 62
     7
370
    25
100
AcDbLine
 10
420.2680469962
 20
361.0588333034
 30
0.0
 11
418.89128401
 21
359.4115360105
 31
0.0
  0
SPLINE
  5
11A
330
1F
100
AcDbEntity
  8
0
  6
Continuous
 62
     7
370
    25
100
AcDbSpline
210
0.0
220
0.0
230
1.0
 70
     8
 71
     3
 72
    13
 73
     9
 74
     0
 42
0.000000001
 43
0.00000001
 40
0.0
 40
0.0
 40
0.0
 40
0.0
 40
0.136823768610902
 40
0.2731016740099874
 40
0.4606104609622012
 40
0.7168122333914858
 40
0.8076503563245376
 40
1.0
 40
1.0
 40
1.0
 40
1.0
 10
420.2680469962198
 20
361.0588333034332
 30
0.0
 10
420.3040888507859
 20
361.1096064495663
 30
0.0
 10
420.3760287696783
 20
361.2109501805896
 30
0.0
 10
420.4321727379084
 20
361.4031041424645
 30
0.0
 10
420.4353489090295
 20
361.6311417120698
 30
0.0
 10
420.370278078043
 20
361.810205541494
 30
0.0
 10
420.2713613952773
 20
361.9618499733699
 30
0.0
 10
420.2012046391847
 20
362.0237321413099
 30
0.0
 10
420.1535520615417
 20
362.0657643699463
 30
0.0
  0
SPLINE
  5
11B
330
1F
100
AcDbEntity
  8
0
  6
Continuous
 62
     7
370
    25
100
AcDbSpline
210
0.0
220
0.0
230
1.0
 70
     8
 71
     3
 72
    11
 73
     7
 74
     0
 42
0.000000001
 43
0.00000001
 40
0.0
 40
0.0
 40
0.0
 40
0.0
 40
0.2603296337344833
 40
0.5282090558860122
 40
0.7614184377367894
 40
1.0
 40
1.0
 40
1.0
 40
1.0
 10
406.9050320895749
 20
372.0993308746632
 30
0.0
 10
408.1779718348157
 20
371.1352886573832
 30
0.0
 10
410.760767697845
 20
369.1792461503551
 30
0.0
 10
414.2832001272358
 20
366.5115894312411
 30
0.0
 10
417.4800554675649
 20
364.0904935058215
 30
0.0
 10
419.2556471055218
 20
362.7457780755168
 30
0.0
 10
420.1535520615417
 20
362.0657643699463
 30
0.0
  0
SPLINE
  5
11C
330
1F
100
AcDbEntity
  8
0
  6
Continuous
 62
     7
370
    25
100
AcDbSpline
210
0.0
220
0.0
230
1.0
 70
     8
 71
     3
 72
    12
 73
     8
 74
     0
 42
0.000000001
 43
0.00000001
 40
0.0
 40
0.0
 40
0.0
 40
0.0
 40
0.2229011884036078
 40
0.4458325942679246
 40
0.6679309361410826
 40
0.88891508945438
 40
1.0
 40
1.0
 40
1.0
 40
1.0
 10
406.9050320895749
 20
372.0993308746632
 30
0.0
 10
406.8374028990875
 20
372.1407911746285
 30
0.0
 10
406.7021353500035
 20
372.2237173950988
 30
0.0
 10
406.46096107988
 20
372.2538613568079
 30
0.0
 10
406.2267586927238
 20
372.2069682492988
 30
0.0
 10
406.0523090442136
 20
372.1057245032421
 30
0.0
 10
405.9721283625601
 20
372.0191600618797
 30
0.0
 10
405.9453060390788
 20
371.99020222066
 30
0.0
  0
LINE
  5
11D
330
1F
100
AcDbEntity
  8
0
  6
Continuous
 62
     7
370
    25
100
AcDbLine
 10
405.5912125396
 20
371.5665286803
 30
0.0
 11
405.9453060391
 21
371.9902022207
 31
0.0
  0
SPLINE
  5
11E
330
1F
100
AcDbEntity
  8
0
  6
Continuous
 62
     7
370
    25
100
AcDbSpline
210
0.0
220
0.0
230
1.0
 70
     8
 71
     3
 72
    12
 73
     8
 74
     0
 42
0.000000001
 43
0.00000001
 40
0.0
 40
0.0
 40
0.0
 40
0.0
 40
0.2201329787240127
 40
0.4402545601954378
 40
0.6607420195439955
 40
0.8821585411757041
 40
1.0
 40
1.0
 40
1.0
 40
1.0
 10
405.5912125395972
 20
371.5665286803062
 30
0.0
 10
405.5468103563123
 20
371.5014101648894
 30
0.0
 10
405.4580082886391
 20
371.3711765055276
 30
0.0
 10
405.4158689159667
 20
371.1338642977416
 30
0.0
 10
405.4497058994951
 20
370.8991677065197
 30
0.0
 10
405.5414078186231
 20
370.7182433858931
 30
0.0
 10
405.6250981850499
 20
370.6324674627954
 30
0.0
 10
405.654168082996
 20
370.6026731455143
 30
0.0
  0
SPLINE
  5
11F
330
1F
100
AcDbEntity
  8
0
  6
Continuous
 62
     7
370
    25
100
AcDbSpline
210
0.0
220
0.0
230
1.0
 70
     8
 71
     3
 72
    11
 73
     7
 74
     0
 42
0.000000001
 43
0.00000001
 40
0.0
 40
0.0
 40
0.0
 40
0.0
 40
0.2832268649768581
 40
0.5762692403727373
 40
0.7861909802266551
 40
0.9999999999999999
 40
0.9999999999999999
 40
0.9999999999999999
 40
0.9999999999999999
 10
417.8800204309064
 20
359.3454828882034
 30
0.0
 10
416.888794294756
 20
360.2581734138849
 30
0.0
 10
414.8719900888285
 20
362.1151846687065
 30
0.0
 10
411.6396150896911
 20
365.0914592187603
 30
0.0
 10
408.5327133225948
 20
367.9521983407279
 30
0.0
 10
406.6195336271359
 20
369.7137946186276
 30
0.0
 10
405.654168082996
 20
370.6026731455143
 30
0.0
  0
SPLINE
  5
120
330
1F
100
AcDbEntity
  8
0
  6
Continuous
 62
     7
370
    25
100
AcDbSpline
210
0.0
220
0.0
230
1.0
 70
     8
 71
     3
 72
    12
 73
     8
 74
     0
 42
0.000000001
 43
0.00000001
 40
0.0
 40
0.0
 40
0.0
 40
0.0
 40
0.3203296932892237
 40
0.5619267570207508
 40
0.738930539425718
 40
0.8801299788891255
 40
1.0
 40
1.0
 40
1.0
 40
1.0
 10
425.9179004939634
 20
373.3639290952499
 30
0.0
 10
426.0227483526463
 20
373.3459924959384
 30
0.0
 10
426.2066739094852
 20
373.3145278665446
 30
0.0
 10
426.4595448297572
 20
373.4057109057127
 30
0.0
 10
426.6331652235856
 20
373.5427435764705
 30
0.0
 10
426.7465688605441
 20
373.6979818060639
 30
0.0
 10
426.7834324991389
 20
373.8105342873015
 30
0.0
 10
426.8003584357339
 20
373.8622127497013
 30
0.0
  0
LINE
  5
121
330
1F
100
AcDbEntity
  8
0
  6
Continuous
 62
     7
370
    25
100
AcDbLine
 10
427.3260453256
 20
375.9437261545
 30
0.0
 11
426.8003584357
 21
373.8622127497
 31
0.0
  0
SPLINE
  5
122
330
1F
100
AcDbEntity
  8
0
  6
Continuous
 62
     7
370
    25
100
AcDbSpline
210
0.0
220
0.0
230
1.0
 70
     8
 71
     3
 72
    13
 73
     9
 74
     0
 42
0.000000001
 43
0.00000001
 40
0.0
 40
0.0
 40
0.0
 40
0.0
 40
0.1368516810734683
 40
0.2731548403699727
 40
0.4606987944950606
 40
0.5051897535806287
 40
0.7678000400678685
 40
1.0
 40
1.0
 40
1.0
 40
1.0
 10
427.3260453256208
 20
375.9437261545475
 30
0.0
 10
427.3364865950831
 20
376.0051153273332
 30
0.0
 10
427.3573272838556
 20
376.127647616021
 30
0.0
 10
427.3245560440416
 20
376.3250447786024
 30
0.0
 10
427.2634896984152
 20
376.4567044372985
 30
0.0
 10
427.1586112484262
 20
376.6044273772707
 30
0.0
 10
427.0158445557011
 20
376.7319087272127
 30
0.0
 10
426.8594083651813
 20
376.7791111767874
 30
0.0
 10
426.7859974416334
 20
376.8012619042213
 30
0.0
  0
SPLINE
  5
123
330
1F
100
AcDbEntity
  8
0
  6
Continuous
 62
     7
370
    25
100
AcDbSpline
210
0.0
220
0.0
230
1.0
 70
     8
 71
     3
 72
    11
 73
     7
 74
     0
 42
0.000000001
 43
0.00000001
 40
0.0
 40
0.0
 40
0.0
 40
0.0
 40
0.2603295489546924
 40
0.5282090537474554
 40
0.7614184333403582
 40
1.0
 40
1.0
 40
1.0
 40
1.0
 10
410.4960927280027
 20
380.0928762578781
 30
0.0
 10
412.0612537693243
 20
379.7766138388087
 30
0.0
 10
415.2369679205545
 20
379.1349169058892
 30
0.0
 10
419.5680215353891
 20
378.259760430616
 30
0.0
 10
423.4987646352918
 20
377.4654998909207
 30
0.0
 10
425.6819666146285
 20
377.0243489981348
 30
0.0
 10
426.7859974416334
 20
376.8012619042213
 30
0.0
  0
SPLINE
  5
124
330
1F
100
AcDbEntity
  8
0
  6
Continuous
 62
     7
370
    25
100
AcDbSpline
210
0.0
220
0.0
230
1.0
 70
     8
 71
     3
 72
    12
 73
     8
 74
     0
 42
0.000000001
 43
0.00000001
 40
0.0
 40
0.0
 40
0.0
 40
0.0
 40
0.2229023430655548
 40
0.4458341240181739
 40
0.6679333530382644
 40
0.8889150343759692
 40
1.0
 40
1.0
 40
1.0
 40
1.0
 10
410.4960927280027
 20
380.0928762578781
 30
0.0
 10
410.417171786735
 20
380.1008873808536
 30
0.0
 10
410.2593194814031
 20
380.1169106848038
 30
0.0
 10
410.0289490978561
 20
380.0394292989314
 30
0.0
 10
409.8382877092288
 20
379.895563243687
 30
0.0
 10
409.7250405012671
 20
379.7286572003406
 30
0.0
 10
409.6903599864901
 20
379.6158770707505
 30
0.0
 10
409.6787584485847
 20
379.5781491720493
 30
0.0
  0
LINE
  5
125
330
1F
100
AcDbEntity
  8
0
  6
Continuous
 62
     7
370
    25
100
AcDbLine
 10
409.5435546251
 20
379.0427951538
 30
0.0
 11
409.6787584486
 21
379.578149172
 31
0.0
  0
SPLINE
  5
126
330
1F
100
AcDbEntity
  8
0
  6
Continuous
 62
     7
370
    25
100
AcDbSpline
210
0.0
220
0.0
230
1.0
 70
     8
 71
     3
 72
    12
 73
     8
 74
     0
 42
0.000000001
 43
0.00000001
 40
0.0
 40
0.0
 40
0.0
 40
0.0
 40
0.2201336630538979
 40
0.44025247741492
 40
0.6607418355925261
 40
0.8821572761711033
 40
1.0
 40
1.0
 40
1.0
 40
1.0
 10
409.5435546251375
 20
379.042795153838
 30
0.0
 10
409.53180419296
 20
378.964859700874
 30
0.0
 10
409.5083041212078
 20
378.8089940519322
 30
0.0
 10
409.5733014306052
 20
378.5768988819324
 30
0.0
 10
409.70562042006
 20
378.3801277023088
 30
0.0
 10
409.8667401195023
 20
378.2569059513332
 30
0.0
 10
409.9793599008415
 20
378.2159372190908
 30
0.0
 10
410.0184788467723
 20
378.2017065608318
 30
0.0
  0
SPLINE
  5
127
330
1F
100
AcDbEntity
  8
0
  6
Continuous
 62
     7
370
    25
100
AcDbSpline
210
0.0
220
0.0
230
1.0
 70
     8
 71
     3
 72
    11
 73
     7
 74
     0
 42
0.000000001
 43
0.00000001
 40
0.0
 40
0.0
 40
0.0
 40
0.0
 40
0.2832268793442865
 40
0.5762691375964765
 40
0.786190960024487
 40
1.0
 40
1.0
 40
1.0
 40
1.0
 10
425.9179004939634
 20
373.3639290952499
 30
0.0
 10
424.6288353930687
 20
373.7561586917881
 30
0.0
 10
422.0060319511138
 20
374.5542108112061
 30
0.0
 10
417.8024056957535
 20
375.8332607129689
 30
0.0
 10
413.7619562802912
 20
377.062664343162
 30
0.0
 10
411.273912919595
 20
377.8197108266938
 30
0.0
 10
410.0184788467723
 20
378.2017065608318
 30
0.0
  0
SPLINE
  5
128
330
1F
100
AcDbEntity
  8
0
  6
Continuous
 62
     7
370
    25
100
AcDbSpline
210
0.0
220
0.0
230
1.0
 70
     8
 71
     3
 72
    12
 73
     8
 74
     0
 42
0.000000001
 43
0.00000001
 40
0.0
 40
0.0
 40
0.0
 40
0.0
 40
0.3203288541756648
 40
0.5619274488611781
 40
0.7389326086650787
 40
0.8801305617163468
 40
1.0
 40
1.0
 40
1.0
 40
1.0
 10
427.0774082752305
 20
389.481617363673
 30
0.0
 10
427.1796549449636
 20
389.5109477802308
 30
0.0
 10
427.3590181510211
 20
389.5623997987907
 30
0.0
 10
427.5472753420324
 20
389.7542762420236
 30
0.0
 10
427.6442585278391
 20
389.9530644648556
 30
0.0
 10
427.6790658143381
 20
390.1421336811821
 30
0.0
 10
427.6634482395526
 20
390.2595332616522
 30
0.0
 10
427.6562774094182
 20
390.3134374344166
 30
0.0
  0
LINE
  5
129
330
1F
100
AcDbEntity
  8
0
  6
Continuous
 62
     7
370
    25
100
AcDbLine
 10
427.2267700645
 20
392.4169077003
 30
0.0
 11
427.6562774094
 21
390.3134374344
 31
0.0
  0
SPLINE
  5
12A
330
1F
100
AcDbEntity
  8
0
  6
Continuous
 62
     7
370
    25
100
AcDbSpline
210
0.0
220
0.0
230
1.0
 70
     8
 71
     3
 72
    12
 73
     8
 74
     0
 42
0.000000001
 43
0.00000001
 40
0.0
 40
0.0
 40
0.0
 40
0.0
 40
0.1335502124324347
 40
0.237449769308259
 40
0.4314226963072614
 40
0.6784610052383999
 40
1.0
 40
1.0
 40
1.0
 40
1.0
 10
427.2267700644571
 20
392.4169077002819
 30
0.0
 10
427.2101660439007
 20
392.4752768279972
 30
0.0
 10
427.1806444072151
 20
392.5790560407611
 30
0.0
 10
427.0790849545115
 20
392.737121717147
 30
0.0
 10
426.9176538196272
 20
392.8841109006837
 30
0.0
 10
426.6614719545292
 20
392.9913366961391
 30
0.0
 10
426.4740957074861
 20
392.9682567523028
 30
0.0
 10
426.3681316288549
 20
392.9552046978291
 30
0.0
  0
SPLINE
  5
12B
330
1F
100
AcDbEntity
  8
0
  6
Continuous
 62
     7
370
    25
100
AcDbSpline
210
0.0
220
0.0
230
1.0
 70
     8
 71
     3
 72
    11
 73
     7
 74
     0
 42
0.000000001
 43
0.00000001
 40
0.0
 40
0.0
 40
0.0
 40
0.0
 40
0.2603296204624472
 40
0.5282090262483066
 40
0.7614183846912614
 40
1.0
 40
1.0
 40
1.0
 40
1.0
 10
410.2632546337682
 20
388.8529150211628
 30
0.0
 10
411.8106382070219
 20
389.2470692125631
 30
0.0
 10
414.9502808224456
 20
390.0468084095911
 30
0.0
 10
419.2321405112808
 20
391.1374982501218
 30
0.0
 10
423.1182362411511
 20
392.1273734576818
 30
0.0
 10
425.27664062382
 20
392.6771741016055
 30
0.0
 10
426.3681316288549
 20
392.9552046978291
 30
0.0
  0
SPLINE
  5
12C
330
1F
100
AcDbEntity
  8
0
  6
Continuous
 62
     7
370
    25
100
AcDbSpline
210
0.0
220
0.0
230
1.0
 70
     8
 71
     3
 72
    12
 73
     8
 74
     0
 42
0.000000001
 43
0.00000001
 40
0.0
 40
0.0
 40
0.0
 40
0.0
 40
0.2228985081670031
 40
0.4458351503307429
 40
0.6679285345959106
 40
0.88891588814883
 40
1.0
 40
1.0
 40
1.0
 40
1.0
 10
410.2632546337682
 20
388.8529150211628
 30
0.0
 10
410.1886737290854
 20
388.8258928358518
 30
0.0
 10
410.0394991602447
 20
388.7718438422114
 30
0.0
 10
409.8655696024766
 20
388.6020748356025
 30
0.0
 10
409.7562030704778
 20
388.389734904016
 30
0.0
 10
409.7265923665265
 20
388.1902208033937
 30
0.0
 10
409.7442797257443
 20
388.0735607620967
 30
0.0
 10
409.7501964779931
 20
388.0345357978161
 30
0.0
  0
LINE
  5
12D
330
1F
100
AcDbEntity
  8
0
  6
Continuous
 62
     7
370
    25
100
AcDbLine
 10
409.8606625112
 20
387.4935342395
 30
0.0
 11
409.750196478
 21
388.0345357978
 31
0.0
  0
SPLINE
  5
12E
330
1F
100
AcDbEntity
  8
0
  6
Continuous
 62
     7
370
    25
100
AcDbSpline
210
0.0
220
0.0
230
1.0
 70
     8
 71
     3
 72
    12
 73
     8
 74
     0
 42
0.000000001
 43
0.00000001
 40
0.0
 40
0.0
 40
0.0
 40
0.0
 40
0.2201303240806063
 40
0.4402519091786898
 40
0.6607421817554124
 40
0.8821580620505511
 40
1.0
 40
1.0
 40
1.0
 40
1.0
 10
409.8606625112134
 20
387.4935342395123
 30
0.0
 10
409.883890085164
 20
387.4182196713584
 30
0.0
 10
409.9303443109507
 20
387.2675935249734
 30
0.0
 10
410.0896104613383
 20
387.0866876683777
 30
0.0
 10
410.2941994886409
 20
386.9668108101087
 30
0.0
 10
410.4928272486827
 20
386.9256952959612
 30
0.0
 10
410.6120691671262
 20
386.93765100405
 30
0.0
 10
410.6534881057578
 20
386.9418038451489
 30
0.0
  0
SPLINE
  5
12F
330
1F
100
AcDbEntity
  8
0
  6
Continuous
 62
     7
370
    25
100
AcDbSpline
210
0.0
220
0.0
230
1.0
 70
     8
 71
     3
 72
    11
 73
     7
 74
     0
 42
0.000000001
 43
0.00000001
 40
0.0
 40
0.0
 40
0.0
 40
0.0
 40
0.2832269882686047
 40
0.5762691325749724
 40
0.7861909719725926
 40
1.0
 40
1.0
 40
1.0
 40
1.0
 10
427.0774082752305
 20
389.481617363673
 30
0.0
 10
425.7458177126569
 20
389.2756976355261
 30
0.0
 10
423.0364906703073
 20
388.8567220857566
 30
0.0
 10
418.6941934889542
 20
388.1852354721923
 30
0.0
 10
414.520458256487
 20
387.539788673462
 30
0.0
 10
411.9503373464656
 20
387.1423474594839
 30
0.0
 10
410.6534881057578
 20
386.9418038451489
 30
0.0
  0
SPLINE
  5
130
330
1F
100
AcDbEntity
  8
0
  6
Continuous
 62
     7
370
    25
100
AcDbSpline
210
0.0
220
0.0
230
1.0
 70
     8
 71
     3
 72
    12
 73
     8
 74
     0
 42
0.000000001
 43
0.00000001
 40
0.0
 40
0.0
 40
0.0
 40
0.0
 40
0.1369195209948726
 40
0.2732916967983935
 40
0.4609274456797927
 40
0.7173055716762535
 40
1.0
 40
1.0
 40
1.0
 40
1.0
 10
362.3892249079782
 20
360.710019471627
 30
0.0
 10
362.4307004597715
 20
360.66359284214
 30
0.0
 10
362.5134857619905
 20
360.5709251768066
 30
0.0
 10
362.6884284542646
 20
360.4732745457961
 30
0.0
 10
362.9094479711319
 20
360.4203562526329
 30
0.0
 10
363.1695729224805
 20
360.4472825781662
 30
0.0
 10
363.3183623236189
 20
360.5458782927183
 30
0.0
 10
363.3963888051349
 20
360.5975827598389
 30
0.0
  0
SPLINE
  5
131
330
1F
100
AcDbEntity
  8
0
  6
Continuous
 62
     7
370
    25
100
AcDbSpline
210
0.0
220
0.0
230
1.0
 70
     8
 71
     3
 72
    11
 73
     7
 74
     0
 42
0.000000001
 43
0.00000001
 40
0.0
 40
0.0
 40
0.0
 40
0.0
 40
0.2603295836764269
 40
0.5282090530088662
 40
0.7614184113824917
 40
1.0
 40
1.0
 40
1.0
 40
1.0
 10
376.1264666455227
 20
371.2812533998306
 30
0.0
 10
374.9033393987927
 20
370.2547489835091
 30
0.0
 10
372.4216126753803
 20
368.1719702305244
 30
0.0
 10
369.0370227490611
 20
365.3314645991521
 30
0.0
 10
365.9652640563409
 20
362.7535032155271
 30
0.0
 10
364.2591563076367
 20
361.3216576662686
 30
0.0
 10
363.3963888051349
 20
360.5975827598389
 30
0.0
  0
SPLINE
  5
132
330
1F
100
AcDbEntity
  8
0
  6
Continuous
 62
     7
370
    25
100
AcDbSpline
210
0.0
220
0.0
230
1.0
 70
     8
 71
     3
 72
    12
 73
     8
 74
     0
 42
0.000000001
 43
0.00000001
 40
0.0
 40
0.0
 40
0.0
 40
0.0
 40
0.2229009072201283
 40
0.4458327388624537
 40
0.6679323440003284
 40
0.8889144541595543
 40
1.0
 40
1.0
 40
1.0
 40
1.0
 10
376.1264666455227
 20
371.2812533998306
 30
0.0
 10
376.1819360438732
 20
371.3379613308061
 30
0.0
 10
376.2928825361871
 20
371.4513850601992
 30
0.0
 10
376.3759376476518
 20
371.6798052587678
 30
0.0
 10
376.3823349011174
 20
371.9185701602307
 30
0.0
 10
376.3224501169419
 20
372.1111754563326
 30
0.0
 10
376.2558975534021
 20
372.2086074780952
 30
0.0
 10
376.2336339341837
 20
372.2412011050995
 30
0.0
  0
SPLINE
  5
133
330
1F
100
AcDbEntity
  8
0
  6
Continuous
 62
     7
370
    25
100
AcDbSpline
210
0.0
220
0.0
230
1.0
 70
     8
 71
     3
 72
     9
 73
     5
 74
     0
 42
0.000000001
 43
0.00000001
 40
0.0
 40
0.0
 40
0.0
 40
0.0
 40
0.4999973149610002
 40
1.0
 40
1.0
 40
1.0
 40
1.0
 10
375.8993766742188
 20
372.6806922280605
 30
0.0
 10
375.955086367127
 20
372.6074444422133
 30
0.0
 10
376.0665063512774
 20
372.4609480838218
 30
0.0
 10
376.1779245404401
 20
372.3144503602417
 30
0.0
 10
376.2336339341837
 20
372.2412011050995
 30
0.0
  0
SPLINE
  5
134
330
1F
100
AcDbEntity
  8
0
  6
Continuous
 62
     7
370
    25
100
AcDbSpline
210
0.0
220
0.0
230
1.0
 70
     8
 71
     3
 72
    12
 73
     8
 74
     0
 42
0.000000001
 43
0.00000001
 40
0.0
 40
0.0
 40
0.0
 40
0.0
 40
0.2201352912312935
 40
0.4402547167501791
 40
0.6607436775633282
 40
0.8821602130441398
 40
1.0
 40
1.0
 40
1.0
 40
1.0
 10
375.8993766742188
 20
372.6806922280605
 30
0.0
 10
375.8457709398961
 20
372.7384726898627
 30
0.0
 10
375.738563334753
 20
372.8540294490816
 30
0.0
 10
375.5165763475122
 20
372.947917138706
 30
0.0
 10
375.2802340881169
 20
372.9671583001635
 30
0.0
 10
375.0834416853772
 20
372.91800788444
 30
0.0
 10
374.9811930168696
 20
372.8555045698689
 30
0.0
 10
374.945677212103
 20
372.8337942087467
 30
0.0
  0
SPLINE
  5
135
330
1F
100
AcDbEntity
  8
0
  6
Continuous
 62
     7
370
    25
100
AcDbSpline
210
0.0
220
0.0
230
1.0
 70
     8
 71
     3
 72
    11
 73
     7
 74
     0
 42
0.000000001
 43
0.00000001
 40
0.0
 40
0.0
 40
0.0
 40
0.0
 40
0.2832268725175713
 40
0.5762691125207862
 40
0.7861909783404124
 40
1.0
 40
1.0
 40
1.0
 40
1.0
 10
361.2502211245138
 20
363.419430556279
 30
0.0
 10
362.3605977659079
 20
364.1827109955566
 30
0.0
 10
364.6198317009233
 20
365.735723735616
 30
0.0
 10
368.2407524629211
 20
368.2247755468865
 30
0.0
 10
371.7211178750037
 20
370.6172066792082
 30
0.0
 10
373.8642705938416
 20
372.0904267672423
 30
0.0
 10
374.945677212103
 20
372.8337942087467
 30
0.0
  0
SPLINE
  5
136
330
1F
100
AcDbEntity
  8
0
  6
Continuous
 62
     7
370
    25
100
AcDbSpline
210
0.0
220
0.0
230
1.0
 70
     8
 71
     3
 72
    12
 73
     8
 74
     0
 42
0.000000001
 43
0.00000001
 40
0.0
 40
0.0
 40
0.0
 40
0.0
 40
0.3203294378360103
 40
0.5619285544086448
 40
0.7389314311684413
 40
0.8801304760884341
 40
1.0
 40
1.0
 40
1.0
 40
1.0
 10
361.2502211245138
 20
363.419430556279
 30
0.0
 10
361.1708254613937
 20
363.3486413735532
 30
0.0
 10
361.0315479397749
 20
363.2244615186338
 30
0.0
 10
360.9451844033099
 20
362.9699028625452
 30
0.0
 10
360.9440630772045
 20
362.7487233942778
 30
0.0
 10
360.994731869489
 20
362.5632738384365
 30
0.0
 10
361.0597412858644
 20
362.4642760845768
 30
0.0
 10
361.0895903321344
 20
362.4188213074024
 30
0.0
  0
LINE
  5
137
330
1F
100
AcDbEntity
  8
0
  6
Continuous
 62
     7
370
    25
100
AcDbLine
 10
361.0895903321
 20
362.4188213074
 30
0.0
 11
361.7394076201
 21
361.5644222522
 31
0.0
  0
LINE
  5
138
330
1F
100
AcDbEntity
  8
0
  6
Continuous
 62
     7
370
    25
100
AcDbLine
 10
362.389224908
 20
360.7100194716
 30
0.0
 11
361.7394076201
 21
361.5644222522
 31
0.0
  0
SPLINE
  5
139
330
1F
100
AcDbEntity
  8
0
  6
Continuous
 62
     7
370
    25
100
AcDbSpline
210
0.0
220
0.0
230
1.0
 70
     8
 71
     3
 72
    12
 73
     8
 74
     0
 42
0.000000001
 43
0.00000001
 40
0.0
 40
0.0
 40
0.0
 40
0.0
 40
0.2201311932958143
 40
0.4402541338396634
 40
0.6607435009212035
 40
0.8821598457290597
 40
1.0
 40
1.0
 40
1.0
 40
1.0
 10
406.479727803393
 20
395.2449767315205
 30
0.0
 10
406.5333343120217
 20
395.1872001301334
 30
0.0
 10
406.6405453195627
 20
395.0716490934129
 30
0.0
 10
406.862525815791
 20
394.9777478472711
 30
0.0
 10
407.0988702653272
 20
394.9585177808868
 30
0.0
 10
407.2956631620069
 20
395.00766039961
 30
0.0
 10
407.3979114876296
 20
395.0701641737225
 30
0.0
 10
407.4334272655088
 20
395.0918747508343
 30
0.0
  0
SPLINE
  5
13A
330
1F
100
AcDbEntity
  8
0
  6
Continuous
 62
     7
370
    25
100
AcDbSpline
210
0.0
220
0.0
230
1.0
 70
     8
 71
     3
 72
    11
 73
     7
 74
     0
 42
0.000000001
 43
0.00000001
 40
0.0
 40
0.0
 40
0.0
 40
0.0
 40
0.2832269337071994
 40
0.5762690434129806
 40
0.7861908881498507
 40
1.0
 40
1.0
 40
1.0
 40
1.0
 10
421.128883353098
 20
404.5062421285923
 30
0.0
 10
420.0185069672923
 20
403.7429599074048
 30
0.0
 10
417.7592743113398
 20
402.1899440635352
 30
0.0
 10
414.1383513068793
 20
399.7008974056994
 30
0.0
 10
410.6579857028398
 20
397.3084661071189
 30
0.0
 10
408.5148337679812
 20
395.8352436035304
 30
0.0
 10
407.4334272655088
 20
395.0918747508343
 30
0.0
  0
SPLINE
  5
13B
330
1F
100
AcDbEntity
  8
0
  6
Continuous
 62
     7
370
    25
100
AcDbSpline
210
0.0
220
0.0
230
1.0
 70
     8
 71
     3
 72
    12
 73
     8
 74
     0
 42
0.000000001
 43
0.00000001
 40
0.0
 40
0.0
 40
0.0
 40
0.0
 40
0.3203283701441329
 40
0.5619278112511487
 40
0.7389309257747246
 40
0.8801326801341218
 40
0.9999999999999999
 40
0.9999999999999999
 40
0.9999999999999999
 40
0.9999999999999999
 10
421.128883353098
 20
404.5062421285923
 30
0.0
 10
421.2082790223263
 20
404.5770298279987
 30
0.0
 10
421.3475568346916
 20
404.7012073305191
 30
0.0
 10
421.4339203452884
 20
404.9557663552235
 30
0.0
 10
421.4350406492024
 20
405.1769461422635
 30
0.0
 10
421.3843742840628
 20
405.3623973869882
 30
0.0
 10
421.3193633033702
 20
405.4613942210786
 30
0.0
 10
421.2895141454774
 20
405.5068476521786
 30
0.0
  0
LINE
  5
13C
330
1F
100
AcDbEntity
  8
0
  6
Continuous
 62
     7
370
    25
100
AcDbLine
 10
420.6396968576
 20
406.3612504327
 30
0.0
 11
421.2895141455
 21
405.5068476522
 31
0.0
  0
LINE
  5
13D
330
1F
100
AcDbEntity
  8
0
  6
Continuous
 62
     7
370
    25
100
AcDbLine
 10
420.6396968576
 20
406.3612504327
 30
0.0
 11
419.9898795696
 21
407.2156532132
 31
0.0
  0
SPLINE
  5
13E
330
1F
100
AcDbEntity
  8
0
  6
Continuous
 62
     7
370
    25
100
AcDbSpline
210
0.0
220
0.0
230
1.0
 70
     8
 71
     3
 72
    12
 73
     8
 74
     0
 42
0.000000001
 43
0.00000001
 40
0.0
 40
0.0
 40
0.0
 40
0.0
 40
0.1369213827573265
 40
0.2732921497907886
 40
0.4609277817097602
 40
0.7173057478933484
 40
0.9999999999999999
 40
0.9999999999999999
 40
0.9999999999999999
 40
0.9999999999999999
 10
419.9898795696336
 20
407.2156532132443
 30
0.0
 10
419.9484043842417
 20
407.2620816391907
 30
0.0
 10
419.8656208017911
 20
407.3547517837862
 30
0.0
 10
419.6906746300967
 20
407.4523967245524
 30
0.0
 10
419.4696568835469
 20
407.5053170832942
 30
0.0
 10
419.2095314363571
 20
407.4783899016257
 30
0.0
 10
419.0607421131336
 20
407.3797943216041
 30
0.0
 10
418.9827156724769
 20
407.3280899250324
 30
0.0
  0
SPLINE
  5
13F
330
1F
100
AcDbEntity
  8
0
  6
Continuous
 62
     7
370
    25
100
AcDbSpline
210
0.0
220
0.0
230
1.0
 70
     8
 71
     3
 72
    11
 73
     7
 74
     0
 42
0.000000001
 43
0.00000001
 40
0.0
 40
0.0
 40
0.0
 40
0.0
 40
0.2603295859795406
 40
0.5282089373239014
 40
0.7614184092717808
 40
1.0
 40
1.0
 40
1.0
 40
1.0
 10
406.2526378320891
 20
396.6444192850407
 30
0.0
 10
407.4757648580845
 20
397.6709240575922
 30
0.0
 10
409.9574905681384
 20
399.753703058785
 30
0.0
 10
413.3420837832946
 20
402.5942033938294
 30
0.0
 10
416.4138394099095
 20
405.1721701719449
 30
0.0
 10
418.1199479657386
 20
406.604015368236
 30
0.0
 10
418.9827156724769
 20
407.3280899250324
 30
0.0
  0
SPLINE
  5
140
330
1F
100
AcDbEntity
  8
0
  6
Continuous
 62
     7
370
    25
100
AcDbSpline
210
0.0
220
0.0
230
1.0
 70
     8
 71
     3
 72
    12
 73
     8
 74
     0
 42
0.000000001
 43
0.00000001
 40
0.0
 40
0.0
 40
0.0
 40
0.0
 40
0.2229037123934462
 40
0.4458356944372323
 40
0.6679354494151042
 40
0.8889143792154415
 40
1.0
 40
1.0
 40
1.0
 40
1.0
 10
406.2526378320891
 20
396.6444192850407
 30
0.0
 10
406.1971685031664
 20
396.5877100240235
 30
0.0
 10
406.0862228104516
 20
396.4742843098659
 30
0.0
 10
406.0031668225197
 20
396.2458638740286
 30
0.0
 10
405.9967691046887
 20
396.0070997968382
 30
0.0
 10
406.0566551379191
 20
395.8144962843195
 30
0.0
 10
406.1232069517754
 20
395.7170652149663
 30
0.0
 10
406.1454705434281
 20
395.6844715797718
 30
0.0
  0
SPLINE
  5
141
330
1F
100
AcDbEntity
  8
0
  6
Continuous
 62
     7
370
    25
100
AcDbSpline
210
0.0
220
0.0
230
1.0
 70
    24
 71
     3
 72
     9
 73
     5
 74
     0
 42
0.000000001
 43
0.00000001
 40
0.0
 40
0.0
 40
0.0
 40
0.0
 40
0.4999999999999999
 40
0.9999999999999999
 40
0.9999999999999999
 40
0.9999999999999999
 40
0.9999999999999999
 10
406.479727803393
 20
395.2449767315205
 30
0.0
 10
406.4240182600655
 20
395.3182258728957
 30
0.0
 10
406.3125991734105
 20
395.4647241556461
 30
0.0
 10
406.2011800867556
 20
395.6112224383966
 30
0.0
 10
406.1454705434281
 20
395.6844715797718
 30
0.0
  0
SPLINE
  5
142
330
1F
100
AcDbEntity
  8
0
  6
Continuous
 62
     7
370
    25
100
AcDbSpline
210
0.0
220
0.0
230
1.0
 70
     8
 71
     3
 72
    19
 73
    15
 74
     0
 42
0.000000001
 43
0.00000001
 40
0.0
 40
0.0
 40
0.0
 40
0.0
 40
0.0903185374914314
 40
0.2045632318995751
 40
0.2714199557082139
 40
0.3439361990411834
 40
0.4207855409090051
 40
0.4999999698189933
 40
0.5792144383613751
 40
0.6560637695671369
 40
0.7285800625086855
 40
0.7954368413959033
 40
0.9096815961607848
 40
1.0
 40
1.0
 40
1.0
 40
1.0
 10
383.7271107832331
 20
387.3616515123661
 30
0.0
 10
384.1070895639644
 20
388.040425232134
 30
0.0
 10
384.9677067705597
 20
389.5777856644527
 30
0.0
 10
386.859866698461
 20
391.0541217954889
 30
0.0
 10
388.8695627909464
 20
391.8968763773842
 30
0.0
 10
390.7095428897358
 20
392.224291256264
 30
0.0
 10
392.6813221064979
 20
392.1098150369233
 30
0.0
 10
394.6236075235316
 20
391.5026454858218
 30
0.0
 10
396.3565790874269
 20
390.4359027856863
 30
0.0
 10
397.7372074081574
 20
389.0234975924602
 30
0.0
 10
398.6979537354836
 20
387.4204709934271
 30
0.0
 10
399.3813276192245
 20
385.3511423271372
 30
0.0
 10
399.5095552297032
 20
382.9546041529366
 30
0.0
 10
398.9146536871659
 20
381.2962231969099
 30
0.0
 10
398.6519936943787
 20
380.5640174472149
 30
0.0
  0
SPLINE
  5
143
330
1F
100
AcDbEntity
  8
0
  6
Continuous
 62
     7
370
    25
100
AcDbSpline
210
0.0
220
0.0
230
1.0
 70
     8
 71
     3
 72
    19
 73
    15
 74
     0
 42
0.000000001
 43
0.00000001
 40
0.0
 40
0.0
 40
0.0
 40
0.0
 40
0.0903184369374616
 40
0.2045632499070928
 40
0.2714199339031644
 40
0.3439361946083812
 40
0.4207855464700884
 40
0.5000000376472548
 40
0.5792146012075976
 40
0.6560639508236564
 40
0.7285801366846756
 40
0.7954369315883394
 40
0.9096817137220978
 40
1.0
 40
1.0
 40
1.0
 40
1.0
 10
398.6519936943787
 20
380.5640174472149
 30
0.0
 10
398.2720144667344
 20
379.8852454563341
 30
0.0
 10
397.4113952140128
 20
378.3478870928734
 30
0.0
 10
395.5192402127348
 20
376.8715453626338
 30
0.0
 10
393.5095406043068
 20
376.0287971219128
 30
0.0
 10
391.6695619606948
 20
375.7013825732657
 30
0.0
 10
389.6977815676441
 20
375.8158517116333
 30
0.0
 10
387.7554965384676
 20
376.4230279100649
 30
0.0
 10
386.0225261907998
 20
377.4897736346281
 30
0.0
 10
384.6418982767819
 20
378.9021782430361
 30
0.0
 10
383.6811498194294
 20
380.5052023936171
 30
0.0
 10
382.9977772075342
 20
382.574530485474
 30
0.0
 10
382.8695487498047
 20
384.9710674039814
 30
0.0
 10
383.4644507947174
 20
386.629446995401
 30
0.0
 10
383.7271107832331
 20
387.3616515123661
 30
0.0
  0
ARC
  5
144
330
1F
100
AcDbEntity
  8
0
  6
Continuous
 62
     7
370
    25
100
AcDbCircle
 10
391.1895522388
 20
383.9628358209
 30
0.0
 40
8.91131119600005
100
AcDbArc
 50
337.3074712698
 51
33.6929108129
  0
SPLINE
  5
145
330
1F
100
AcDbEntity
  8
0
  6
Continuous
 62
     7
370
    25
100
AcDbSpline
210
0.0
220
0.0
230
1.0
 70
     8
 71
     3
 72
     9
 73
     5
 74
     0
 42
0.000000001
 43
0.00000001
 40
0.0
 40
0.0
 40
0.0
 40
0.0
 40
0.7733293869242798
 40
1.0
 40
1.0
 40
1.0
 40
1.0
 10
399.3610463576752
 20
380.2410757565315
 30
0.0
 10
399.3761099412072
 20
380.2342152101808
 30
0.0
 10
399.3955888124189
 20
380.2253437687656
 30
0.0
 10
399.3689356013555
 20
380.2374823754949
 30
0.0
 10
399.3628941016632
 20
380.2402338409241
 30
0.0
  0
SPLINE
  5
146
330
1F
100
AcDbEntity
  8
0
  6
Continuous
 62
     7
370
    25
100
AcDbSpline
210
0.0
220
0.0
230
1.0
 70
     8
 71
     3
 72
    13
 73
     9
 74
     0
 42
0.000000001
 43
0.00000001
 40
0.0
 40
0.0
 40
0.0
 40
0.0
 40
0.2017367306476474
 40
0.3473525713521929
 40
0.5000012363050125
 40
0.652651482158658
 40
0.798266293678602
 40
1.0
 40
1.0
 40
1.0
 40
1.0
 10
383.0797796609241
 20
387.6564858877476
 30
0.0
 10
383.0444489277681
 20
387.6725770686023
 30
0.0
 10
382.983616074127
 20
387.7002830447425
 30
0.0
 10
383.0098574402872
 20
387.6883333251328
 30
0.0
 10
383.0951504601176
 20
387.6494835428583
 30
0.0
 10
383.2420291868743
 20
387.5825869683359
 30
0.0
 10
383.4537375619049
 20
387.4861704827579
 30
0.0
 10
383.6266730150433
 20
387.4073999855439
 30
0.0
 10
383.7271107832331
 20
387.3616515123661
 30
0.0
  0
ARC
  5
147
330
1F
100
AcDbEntity
  8
0
  6
Continuous
 62
     7
370
    25
100
AcDbCircle
 10
391.1895522388
 20
383.9628358209
 30
0.0
 40
8.911311195999994
100
AcDbArc
 50
155.512792029
 51
213.6929108093
  0
CIRCLE
  5
148
330
1F
100
AcDbEntity
  8
0
  6
Continuous
 62
     7
370
    25
100
AcDbCircle
 10
391.1895522388
 20
383.9628358209
 30
0.0
 40
57.00000000000001
  0
SPLINE
  5
149
330
1F
100
AcDbEntity
  8
0
  6
Continuous
 62
     7
370
    25
100
AcDbSpline
210
0.0
220
0.0
230
1.0
 70
     8
 71
     3
 72
    35
 73
    31
 74
     0
 42
0.000000001
 43
0.00000001
 40
0.0
 40
0.0
 40
0.0
 40
0.0
 40
0.0282546045320069
 40
0.0583834345360691
 40
0.0903495200177339
 40
0.1258616740106122
 40
0.1640104980987543
 40
0.2048405395250376
 40
0.2374624693212385
 40
0.2716126903981788
 40
0.3071914228265689
 40
0.3440549913966255
 40
0.3820151163558663
 40
0.4208413653533347
 40
0.4602672693049566
 40
0.5000000025029342
 40
0.539732733341612
 40
0.5791586400228661
 40
0.6179848818364463
 40
0.6559450083492306
 40
0.6928085762377301
 40
0.7283873087095399
 40
0.7625375378333422
 40
0.7951594840727284
 40
0.8359928524625182
 40
0.8741416159322394
 40
0.9096504580346575
 40
0.9416198649435661
 40
0.9717470211580295
 40
1.0
 40
1.0
 40
1.0
 40
1.0
 10
435.1974123629171
 20
379.317203762513
 30
0.0
 10
435.3013335813015
 20
380.6225622031425
 30
0.0
 10
435.5160694712902
 20
383.3198680167231
 30
0.0
 10
435.3652762055738
 20
387.5110487765439
 30
0.0
 10
434.7915200809941
 20
392.0013522764908
 30
0.0
 10
433.6510394722019
 20
396.769983469265
 30
0.0
 10
431.8285721568578
 20
401.7627879619873
 30
0.0
 10
429.4613375265141
 20
406.3745818873531
 30
0.0
 10
426.685804175084
 20
410.5237575239066
 30
0.0
 10
423.6462318899254
 20
414.1735193136035
 30
0.0
 10
420.0836947964597
 20
417.6061594684944
 30
0.0
 10
416.0133380346497
 20
420.7200448069806
 30
0.0
 10
411.475658625196
 20
423.4124057109718
 30
0.0
 10
406.5375641440239
 20
425.5873711606214
 30
0.0
 10
401.2908080623651
 20
427.1642067414328
 30
0.0
 10
395.8472667273126
 20
428.0851577171349
 30
0.0
 10
390.3314154915657
 20
428.321120081307
 30
0.0
 10
384.8710631316945
 20
427.8745689992457
 30
0.0
 10
379.5876785760352
 20
426.7786230621171
 30
0.0
 10
374.5878503384043
 20
425.0930791601556
 30
0.0
 10
369.9570318509478
 20
422.8977189358775
 30
0.0
 10
365.7562821496691
 20
420.2845987586979
 30
0.0
 10
362.0216388553931
 20
417.3499429201204
 30
0.0
 10
358.4408105918541
 20
413.8716570252593
 30
0.0
 10
355.1627564467199
 20
409.8556387810707
 30
0.0
 10
352.3379757348491
 20
405.3534084419152
 30
0.0
 10
350.226987246253
 20
400.9280029386815
 30
0.0
 10
348.7283121638091
 20
396.656548190878
 30
0.0
 10
347.7058160844454
 20
392.5892111665569
 30
0.0
 10
347.3526205595074
 20
389.906677209464
 30
0.0
 10
347.1816921146947
 20
388.6084689223583
 30
0.0
  0
SPLINE
  5
14A
330
1F
100
AcDbEntity
  8
0
  6
Continuous
 62
     7
370
    25
100
AcDbSpline
210
0.0
220
0.0
230
1.0
 70
     8
 71
     3
 72
    35
 73
    31
 74
     0
 42
0.000000001
 43
0.00000001
 40
0.0
 40
0.0
 40
0.0
 40
0.0
 40
0.0282546309286537
 40
0.058383460544051
 40
0.0903495456133501
 40
0.1258616469930045
 40
0.164010470589023
 40
0.2048405353411357
 40
0.2374624870011326
 40
0.2716127076375317
 40
0.3071914396069525
 40
0.3440550158465859
 40
0.3820151266353851
 40
0.4208413697285888
 40
0.4602672808882206
 40
0.5000000091013511
 40
0.5397327405734172
 40
0.579158650024031
 40
0.6179848913367488
 40
0.6559450173598438
 40
0.69280857903033
 40
0.7283873110431707
 40
0.7625375314439147
 40
0.7951594959433582
 40
0.8359928534210245
 40
0.8741415936894945
 40
0.9096504837391142
 40
0.9416198396621595
 40
0.9717470215224956
 40
1.0
 40
1.0
 40
1.0
 40
1.0
 10
347.1816921146947
 20
388.6084689223583
 30
0.0
 10
347.0777708710337
 20
387.3031092375551
 30
0.0
 10
346.8630350337725
 20
384.6058021714691
 30
0.0
 10
347.0138283854209
 20
380.41462021751
 30
0.0
 10
347.5875834965649
 20
375.9243189442164
 30
0.0
 10
348.7280663361967
 20
371.1556907694136
 30
0.0
 10
350.5505328692415
 20
366.1628875085588
 30
0.0
 10
352.9177672638472
 20
361.5510911419263
 30
0.0
 10
355.6932991511192
 20
357.4019119109141
 30
0.0
 10
358.7328726216418
 20
353.7521495940459
 30
0.0
 10
362.2954103627649
 20
350.3195098101824
 30
0.0
 10
366.3657647941427
 20
347.2056217083114
 30
0.0
 10
370.9034465487987
 20
344.5132651038459
 30
0.0
 10
375.8415413978238
 20
342.3383032936671
 30
0.0
 10
381.0882952425271
 20
340.7614591826907
 30
0.0
 10
386.5318383511818
 20
339.8405185441015
 30
0.0
 10
392.0476891139514
 20
339.6045450132743
 30
0.0
 10
397.5080410471091
 20
340.0511080400225
 30
0.0
 10
402.7914260210309
 20
341.1470506702043
 30
0.0
 10
407.7912535661965
 20
342.8325960858996
 30
0.0
 10
412.4220732638653
 20
345.0279531251563
 30
0.0
 10
416.622821402606
 20
347.6410745050516
 30
0.0
 10
420.3574675952202
 20
350.5757275508986
 30
0.0
 10
423.9382919602775
 20
354.054017659541
 30
0.0
 10
427.2163471778827
 20
358.0700335148146
 30
0.0
 10
430.0411322217072
 20
362.572262520234
 30
0.0
 10
432.1521133930406
 20
366.9976700965559
 30
0.0
 10
433.6507946971983
 20
371.2691236876229
 30
0.0
 10
434.6732876758691
 20
375.3364604921742
 30
0.0
 10
435.0264837355444
 20
378.0189955308907
 30
0.0
 10
435.1974123629171
 20
379.317203762513
 30
0.0
  0
SPLINE
  5
14B
330
1F
100
AcDbEntity
  8
0
  6
Continuous
 62
     7
370
    25
100
AcDbSpline
210
0.0
220
0.0
230
1.0
 70
     8
 71
     3
 72
    11
 73
     7
 74
     0
 42
0.000000001
 43
0.00000001
 40
0.0
 40
0.0
 40
0.0
 40
0.0
 40
0.2706998649799739
 40
0.5623154333545825
 40
0.7892986429245511
 40
1.0
 40
1.0
 40
1.0
 40
1.0
 10
347.1816921146947
 20
388.6084689223583
 30
0.0
 10
347.7199460039393
 20
388.5516501013574
 30
0.0
 10
348.8380421249246
 20
388.4336223367104
 30
0.0
 10
350.1216718495633
 20
388.2981090634532
 30
0.0
 10
350.891278115538
 20
388.2168741653508
 30
0.0
 10
351.0036720144793
 20
388.2050045294567
 30
0.0
 10
351.0577784391481
 20
388.1992904865559
 30
0.0
  0
SPLINE
  5
14C
330
1F
100
AcDbEntity
  8
0
  6
Continuous
 62
     7
370
    25
100
AcDbSpline
210
0.0
220
0.0
230
1.0
 70
     8
 71
     3
 72
    11
 73
     7
 74
     0
 42
0.000000001
 43
0.00000001
 40
0.0
 40
0.0
 40
0.0
 40
0.0
 40
0.2706996726986962
 40
0.5623163846554119
 40
0.7892984678934586
 40
1.0
 40
1.0
 40
1.0
 40
1.0
 10
431.3213260384637
 20
379.7263784730251
 30
0.0
 10
431.4055932451457
 20
379.7174836328331
 30
0.0
 10
431.5806390090877
 20
379.699006645665
 30
0.0
 10
432.6295380614835
 20
379.5882792635238
 30
0.0
 10
433.9114252799483
 20
379.4529603530668
 30
0.0
 10
434.779513449415
 20
379.3613197046127
 30
0.0
 10
435.1974123629171
 20
379.317203762513
 30
0.0
  0
ARC
  5
14D
330
1F
100
AcDbEntity
  8
0
  6
Continuous
 62
     7
370
    25
100
AcDbCircle
 10
391.1895522388
 20
383.9628358209
 30
0.0
 40
40.35476230894865
100
AcDbArc
 50
353.973964907
 51
173.973964907
  0
ARC
  5
14E
330
1F
100
AcDbEntity
  8
0
  6
Continuous
 62
     7
370
    25
100
AcDbCircle
 10
391.1895522388
 20
383.9628358209
 30
0.0
 40
40.35476230894865
100
AcDbArc
 50
173.973964907
 51
353.973964907
  0
CIRCLE
  5
14F
330
1F
100
AcDbEntity
  8
0
  6
Continuous
 62
     7
370
    25
100
AcDbCircle
 10
391.1895522388
 20
383.9628358209
 30
0.0
 40
39.93812333100002
  0
ARC
  5
150
330
1F
100
AcDbEntity
  8
0
  6
Continuous
 62
     7
370
    25
100
AcDbCircle
 10
241.1895522388
 20
443.9628358209
 30
0.0
 40
70.2679491924311
100
AcDbArc
 50
90.0
 51
180.0
  0
LINE
  5
151
330
1F
100
AcDbEntity
  8
0
  6
Continuous
 62
     7
370
    25
100
AcDbLine
 10
241.1895462783
 20
514.2307861173
 30
0.0
 11
241.1895462783
 21
513.2307840907
 31
0.0
  0
ARC
  5
152
330
1F
100
AcDbEntity
  8
0
  6
Continuous
 62
     7
370
    25
100
AcDbCircle
 10
241.1895522388
 20
443.9628358209
 30
0.0
 40
69.2679491924311
100
AcDbArc
 50
90.0
 51
180.0
  0
LINE
  5
153
330
1F
100
AcDbEntity
  8
0
  6
Continuous
 62
     7
370
    25
100
AcDbLine
 10
170.9216007503
 20
443.9628331387
 30
0.0
 11
171.9216027769
 21
443.9628331387
 31
0.0
  0
LINE
  5
154
330
1F
100
AcDbEntity
  8
0
  6
Continuous
 62
     7
370
    25
100
AcDbLine
 10
541.1895581993
 20
513.2307840907
 30
0.0
 11
241.1895462783
 21
513.2307840907
 31
0.0
  0
LINE
  5
155
330
1F
100
AcDbEntity
  8
0
  6
Continuous
 62
     7
370
    25
100
AcDbLine
 10
241.1895462783
 20
514.2307861173
 30
0.0
 11
541.1895581993
 21
514.2307861173
 31
0.0
  0
LINE
  5
156
330
1F
100
AcDbEntity
  8
0
  6
Continuous
 62
     7
370
    25
100
AcDbLine
 10
541.1895581993
 20
513.2307840907
 30
0.0
 11
541.1895581993
 21
514.2307861173
 31
0.0
  0
ARC
  5
157
330
1F
100
AcDbEntity
  8
0
  6
Continuous
 62
     7
370
    25
100
AcDbCircle
 10
541.1895522388
 20
443.9628358209
 30
0.0
 40
69.2679491924311
100
AcDbArc
 50
0.0
 51
90.0
  0
ARC
  5
158
330
1F
100
AcDbEntity
  8
0
  6
Continuous
 62
     7
370
    25
100
AcDbCircle
 10
541.1895522388
 20
443.9628358209
 30
0.0
 40
70.2679491924311
100
AcDbArc
 50
0.0
 51
90.0
  0
LINE
  5
159
330
1F
100
AcDbEntity
  8
0
  6
Continuous
 62
     7
370
    25
100
AcDbLine
 10
610.4575017007
 20
443.9628331387
 30
0.0
 11
611.4575037273
 21
443.9628331387
 31
0.0
  0
LINE
  5
15A
330
1F
100
AcDbEntity
  8
0
  6
Continuous
 62
     7
370
    25
100
AcDbLine
 10
597.5640484603
 20
443.9628331387
 30
0.0
 11
597.5640484603
 21
203.9628385031
 31
0.0
  0
ARC
  5
15B
330
1F
100
AcDbEntity
  8
0
  6
Continuous
 62
     7
370
    25
100
AcDbCircle
 10
541.1895522388
 20
443.9628358209
 30
0.0
 40
56.37449676102614
100
AcDbArc
 50
0.0
 51
90.0
  0
LINE
  5
15C
330
1F
100
AcDbEntity
  8
0
  6
Continuous
 62
     7
370
    25
100
AcDbLine
 10
241.1895462783
 20
500.3373308503
 30
0.0
 11
541.1895581993
 21
500.3373308503
 31
0.0
  0
ARC
  5
15D
330
1F
100
AcDbEntity
  8
0
  6
Continuous
 62
     7
370
    25
100
AcDbCircle
 10
241.1895522388
 20
443.9628358209
 30
0.0
 40
56.37449676102614
100
AcDbArc
 50
90.0
 51
180.0
  0
LINE
  5
15E
330
1F
100
AcDbEntity
  8
0
  6
Continuous
 62
     7
370
    25
100
AcDbLine
 10
184.8150560173
 20
203.9628385031
 30
0.0
 11
184.8150560173
 21
443.9628331387
 31
0.0
  0
ARC
  5
15F
330
1F
100
AcDbEntity
  8
0
  6
Continuous
 62
     7
370
    25
100
AcDbCircle
 10
241.1895522388
 20
203.9628358209
 30
0.0
 40
56.37449676102619
100
AcDbArc
 50
180.0
 51
270.0
  0
LINE
  5
160
330
1F
100
AcDbEntity
  8
0
  6
Continuous
 62
     7
370
    25
100
AcDbLine
 10
541.1895581993
 20
147.5883407914
 30
0.0
 11
241.1895462783
 21
147.5883407914
 31
0.0
  0
ARC
  5
161
330
1F
100
AcDbEntity
  8
0
  6
Continuous
 62
     7
370
    25
100
AcDbCircle
 10
541.1895522388
 20
203.9628358209
 30
0.0
 40
56.37449676102614
100
AcDbArc
 50
270.0
 51
0.0
  0
LINE
  5
162
330
1F
100
AcDbEntity
  8
0
  6
Continuous
 62
     7
370
    25
100
AcDbLine
 10
610.4575017007
 20
203.9628385031
 30
0.0
 11
610.4575017007
 21
443.9628331387
 31
0.0
  0
ARC
  5
163
330
1F
100
AcDbEntity
  8
0
  6
Continuous
 62
     7
370
    25
100
AcDbCircle
 10
541.1895522388
 20
203.9628358209
 30
0.0
 40
69.26794919243108
100
AcDbArc
 50
270.0
 51
0.0
  0
LINE
  5
164
330
1F
100
AcDbEntity
  8
0
  6
Continuous
 62
     7
370
    25
100
AcDbLine
 10
241.1895462783
 20
134.6948875511
 30
0.0
 11
541.1895581993
 21
134.6948875511
 31
0.0
  0
ARC
  5
165
330
1F
100
AcDbEntity
  8
0
  6
Continuous
 62
     7
370
    25
100
AcDbCircle
 10
241.1895522388
 20
203.9628358209
 30
0.0
 40
69.26794919243108
100
AcDbArc
 50
180.0
 51
270.0
  0
LINE
  5
166
330
1F
100
AcDbEntity
  8
0
  6
Continuous
 62
     7
370
    25
100
AcDbLine
 10
171.9216027769
 20
443.9628331387
 30
0.0
 11
171.9216027769
 21
203.9628385031
 31
0.0
  0
ARC
  5
167
330
1F
100
AcDbEntity
  8
0
  6
Continuous
 62
     7
370
    25
100
AcDbCircle
 10
241.1895522388
 20
443.9628358209
 30
0.0
 40
54.8802047138885
100
AcDbArc
 50
90.0
 51
180.0
  0
LINE
  5
168
330
1F
100
AcDbEntity
  8
0
  6
Continuous
 62
     7
370
    25
100
AcDbLine
 10
186.3093444618
 20
443.9628331387
 30
0.0
 11
184.8150560173
 21
443.9628331387
 31
0.0
  0
LINE
  5
169
330
1F
100
AcDbEntity
  8
0
  6
Continuous
 62
     7
370
    25
100
AcDbLine
 10
241.1895462783
 20
498.8430424058
 30
0.0
 11
241.1895462783
 21
500.3373308503
 31
0.0
  0
LINE
  5
16A
330
1F
100
AcDbEntity
  8
0
  6
Continuous
 62
     7
370
    25
100
AcDbLine
 10
597.5640484603
 20
443.9628331387
 30
0.0
 11
596.0697600158
 21
443.9628331387
 31
0.0
  0
ARC
  5
16B
330
1F
100
AcDbEntity
  8
0
  6
Continuous
 62
     7
370
    25
100
AcDbCircle
 10
541.1895522388
 20
443.9628358209
 30
0.0
 40
54.88020471388847
100
AcDbArc
 50
0.0
 51
90.0
  0
LINE
  5
16C
330
1F
100
AcDbEntity
  8
0
  6
Continuous
 62
     7
370
    25
100
AcDbLine
 10
541.1895581993
 20
500.3373308503
 30
0.0
 11
541.1895581993
 21
498.8430424058
 31
0.0
  0
LINE
  5
16D
330
1F
100
AcDbEntity
  8
0
  6
Continuous
 62
     7
370
    25
100
AcDbLine
 10
541.1895581993
 20
498.8430424058
 30
0.0
 11
241.1895462783
 21
498.8430424058
 31
0.0
  0
LINE
  5
16E
330
1F
100
AcDbEntity
  8
0
  6
Continuous
 62
     7
370
    25
100
AcDbLine
 10
186.3093444618
 20
443.9628331387
 30
0.0
 11
186.3093444618
 21
203.9628385031
 31
0.0
  0
LINE
  5
16F
330
1F
100
AcDbEntity
  8
0
  6
Continuous
 62
     7
370
    25
100
AcDbLine
 10
186.3093444618
 20
203.9628385031
 30
0.0
 11
184.8150560173
 21
203.9628385031
 31
0.0
  0
LINE
  5
170
330
1F
100
AcDbEntity
  8
0
  6
Continuous
 62
     7
370
    25
100
AcDbLine
 10
170.9216007503
 20
203.9628385031
 30
0.0
 11
170.9216007503
 21
443.9628331387
 31
0.0
  0
LINE
  5
171
330
1F
100
AcDbEntity
  8
0
  6
Continuous
 62
     7
370
    25
100
AcDbLine
 10
170.9216007503
 20
203.9628385031
 30
0.0
 11
171.9216027769
 21
203.9628385031
 31
0.0
  0
LINE
  5
172
330
1F
100
AcDbEntity
  8
0
  6
Continuous
 62
     7
370
    25
100
AcDbLine
 10
597.5640484603
 20
203.9628385031
 30
0.0
 11
596.0697600158
 21
203.9628385031
 31
0.0
  0
LINE
  5
173
330
1F
100
AcDbEntity
  8
0
  6
Continuous
 62
     7
370
    25
100
AcDbLine
 10
596.0697600158
 20
203.9628385031
 30
0.0
 11
596.0697600158
 21
443.9628331387
 31
0.0
  0
LINE
  5
174
330
1F
100
AcDbEntity
  8
0
  6
Continuous
 62
     7
370
    25
100
AcDbLine
 10
611.4575037273
 20
443.9628331387
 30
0.0
 11
611.4575037273
 21
203.9628385031
 31
0.0
  0
LINE
  5
175
330
1F
100
AcDbEntity
  8
0
  6
Continuous
 62
     7
370
    25
100
AcDbLine
 10
610.4575017007
 20
203.9628385031
 30
0.0
 11
611.4575037273
 21
203.9628385031
 31
0.0
  0
ARC
  5
176
330
1F
100
AcDbEntity
  8
0
  6
Continuous
 62
     7
370
    25
100
AcDbCircle
 10
241.1895522388
 20
203.9628358209
 30
0.0
 40
70.26794919243108
100
AcDbArc
 50
180.0
 51
270.0
  0
LINE
  5
177
330
1F
100
AcDbEntity
  8
0
  6
Continuous
 62
     7
370
    25
100
AcDbLine
 10
241.1895462783
 20
133.6948855245
 30
0.0
 11
241.1895462783
 21
134.6948875511
 31
0.0
  0
ARC
  5
178
330
1F
100
AcDbEntity
  8
0
  6
Continuous
 62
     7
370
    25
100
AcDbCircle
 10
241.1895522388
 20
203.9628358209
 30
0.0
 40
54.8802047138885
100
AcDbArc
 50
180.0
 51
270.0
  0
LINE
  5
179
330
1F
100
AcDbEntity
  8
0
  6
Continuous
 62
     7
370
    25
100
AcDbLine
 10
241.1895462783
 20
149.082629236
 30
0.0
 11
241.1895462783
 21
147.5883407914
 31
0.0
  0
LINE
  5
17A
330
1F
100
AcDbEntity
  8
0
  6
Continuous
 62
     7
370
    25
100
AcDbLine
 10
541.1895581993
 20
147.5883407914
 30
0.0
 11
541.1895581993
 21
149.082629236
 31
0.0
  0
ARC
  5
17B
330
1F
100
AcDbEntity
  8
0
  6
Continuous
 62
     7
370
    25
100
AcDbCircle
 10
541.1895522388
 20
203.9628358209
 30
0.0
 40
54.88020471388853
100
AcDbArc
 50
270.0
 51
0.0
  0
ARC
  5
17C
330
1F
100
AcDbEntity
  8
0
  6
Continuous
 62
     7
370
    25
100
AcDbCircle
 10
541.1895522388
 20
203.9628358209
 30
0.0
 40
70.26794919243108
100
AcDbArc
 50
270.0
 51
0.0
  0
LINE
  5
17D
330
1F
100
AcDbEntity
  8
0
  6
Continuous
 62
     7
370
    25
100
AcDbLine
 10
541.1895581993
 20
134.6948875511
 30
0.0
 11
541.1895581993
 21
133.6948855245
 31
0.0
  0
LINE
  5
17E
330
1F
100
AcDbEntity
  8
0
  6
Continuous
 62
     7
370
    25
100
AcDbLine
 10
241.1895462783
 20
149.082629236
 30
0.0
 11
541.1895581993
 21
149.082629236
 31
0.0
  0
LINE
  5
17F
330
1F
100
AcDbEntity
  8
0
  6
Continuous
 62
     7
370
    25
100
AcDbLine
 10
541.1895581993
 20
133.6948855245
 30
0.0
 11
241.1895462783
 21
133.6948855245
 31
0.0
  0
ARC
  5
180
330
1F
100
AcDbEntity
  8
0
  6
Continuous
 62
     7
370
    25
100
AcDbCircle
 10
541.1895522388
 20
443.9628358209
 30
0.0
 40
74.99999999999994
100
AcDbArc
 50
0.0
 51
90.0
  0
LINE
  5
181
330
1F
100
AcDbEntity
  8
0
  6
Continuous
 62
     7
370
    25
100
AcDbLine
 10
611.4575037273
 20
443.9628331387
 30
0.0
 11
616.1895462783
 21
443.9628331387
 31
0.0
  0
LINE
  5
182
330
1F
100
AcDbEntity
  8
0
  6
Continuous
 62
     7
370
    25
100
AcDbLine
 10
541.1895581993
 20
514.2307861173
 30
0.0
 11
541.1895581993
 21
518.9628286683
 31
0.0
  0
LINE
  5
183
330
1F
100
AcDbEntity
  8
0
  6
Continuous
 62
     7
370
    25
100
AcDbLine
 10
241.1895462783
 20
518.9628286683
 30
0.0
 11
541.1895581993
 21
518.9628286683
 31
0.0
  0
LINE
  5
184
330
1F
100
AcDbEntity
  8
0
  6
Continuous
 62
     7
370
    25
100
AcDbLine
 10
241.1895462783
 20
518.9628286683
 30
0.0
 11
241.1895462783
 21
514.2307861173
 31
0.0
  0
ARC
  5
185
330
1F
100
AcDbEntity
  8
0
  6
Continuous
 62
     7
370
    25
100
AcDbCircle
 10
241.1895522388
 20
443.9628358209
 30
0.0
 40
75.0
100
AcDbArc
 50
90.0
 51
180.0
  0
LINE
  5
186
330
1F
100
AcDbEntity
  8
0
  6
Continuous
 62
     7
370
    25
100
AcDbLine
 10
166.1895581993
 20
443.9628331387
 30
0.0
 11
170.9216007503
 21
443.9628331387
 31
0.0
  0
LINE
  5
187
330
1F
100
AcDbEntity
  8
0
  6
Continuous
 62
     7
370
    25
100
AcDbLine
 10
616.1895462783
 20
443.9628331387
 30
0.0
 11
616.1895462783
 21
203.9628385031
 31
0.0
  0
LINE
  5
188
330
1F
100
AcDbEntity
  8
0
  6
Continuous
 62
     7
370
    25
100
AcDbLine
 10
611.4575037273
 20
203.9628385031
 30
0.0
 11
616.1895462783
 21
203.9628385031
 31
0.0
  0
LINE
  5
189
330
1F
100
AcDbEntity
  8
0
  6
Continuous
 62
     7
370
    25
100
AcDbLine
 10
166.1895581993
 20
203.9628385031
 30
0.0
 11
166.1895581993
 21
443.9628331387
 31
0.0
  0
LINE
  5
18A
330
1F
100
AcDbEntity
  8
0
  6
Continuous
 62
     7
370
    25
100
AcDbLine
 10
166.1895581993
 20
203.9628385031
 30
0.0
 11
170.9216007503
 21
203.9628385031
 31
0.0
  0
ARC
  5
18B
330
1F
100
AcDbEntity
  8
0
  6
Continuous
 62
     7
370
    25
100
AcDbCircle
 10
541.1895522388
 20
203.9628358209
 30
0.0
 40
75.0
100
AcDbArc
 50
270.0
 51
0.0
  0
LINE
  5
18C
330
1F
100
AcDbEntity
  8
0
  6
Continuous
 62
     7
370
    25
100
AcDbLine
 10
541.1895581993
 20
133.6948855245
 30
0.0
 11
541.1895581993
 21
128.9628429735
 31
0.0
  0
ARC
  5
18D
330
1F
100
AcDbEntity
  8
0
  6
Continuous
 62
     7
370
    25
100
AcDbCircle
 10
241.1895522388
 20
203.9628358209
 30
0.0
 40
75.0
100
AcDbArc
 50
180.0
 51
270.0
  0
LINE
  5
18E
330
1F
100
AcDbEntity
  8
0
  6
Continuous
 62
     7
370
    25
100
AcDbLine
 10
241.1895462783
 20
128.9628429735
 30
0.0
 11
241.1895462783
 21
133.6948855245
 31
0.0
  0
LINE
  5
18F
330
1F
100
AcDbEntity
  8
0
  6
Continuous
 62
     7
370
    25
100
AcDbLine
 10
541.1895581993
 20
128.9628429735
 30
0.0
 11
241.1895462783
 21
128.9628429735
 31
0.0
  0
ARC
  5
190
330
1F
100
AcDbEntity
  8
0
  6
Continuous
 62
     7
370
    25
100
AcDbCircle
 10
541.1895522388
 20
443.9628358209
 30
0.0
 40
54.67129158923166
100
AcDbArc
 50
0.0
 51
90.0
  0
LINE
  5
191
330
1F
100
AcDbEntity
  8
0
  6
Continuous
 62
     7
370
    25
100
AcDbLine
 10
541.1895581993
 20
498.8430424058
 30
0.0
 11
541.1895581993
 21
498.6341281259
 31
0.0
  0
LINE
  5
192
330
1F
100
AcDbEntity
  8
0
  6
Continuous
 62
     7
370
    25
100
AcDbLine
 10
596.0697600158
 20
443.9628331387
 30
0.0
 11
595.8608457359
 21
443.9628331387
 31
0.0
  0
ARC
  5
193
330
1F
100
AcDbEntity
  8
0
  6
Continuous
 62
     7
370
    25
100
AcDbCircle
 10
241.1895522388
 20
443.9628358209
 30
0.0
 40
54.67129158923169
100
AcDbArc
 50
90.0
 51
180.0
  0
LINE
  5
194
330
1F
100
AcDbEntity
  8
0
  6
Continuous
 62
     7
370
    25
100
AcDbLine
 10
186.3093444618
 20
443.9628331387
 30
0.0
 11
186.5182587417
 21
443.9628331387
 31
0.0
  0
LINE
  5
195
330
1F
100
AcDbEntity
  8
0
  6
Continuous
 62
     7
370
    25
100
AcDbLine
 10
241.1895462783
 20
498.8430424058
 30
0.0
 11
241.1895462783
 21
498.6341281259
 31
0.0
  0
LINE
  5
196
330
1F
100
AcDbEntity
  8
0
  6
Continuous
 62
     7
370
    25
100
AcDbLine
 10
241.1895462783
 20
498.6341281259
 30
0.0
 11
541.1895581993
 21
498.6341281259
 31
0.0
  0
LINE
  5
197
330
1F
100
AcDbEntity
  8
0
  6
Continuous
 62
     7
370
    25
100
AcDbLine
 10
595.8608457359
 20
443.9628331387
 30
0.0
 11
595.8608457359
 21
203.9628385031
 31
0.0
  0
LINE
  5
198
330
1F
100
AcDbEntity
  8
0
  6
Continuous
 62
     7
370
    25
100
AcDbLine
 10
596.0697600158
 20
203.9628385031
 30
0.0
 11
595.8608457359
 21
203.9628385031
 31
0.0
  0
LINE
  5
199
330
1F
100
AcDbEntity
  8
0
  6
Continuous
 62
     7
370
    25
100
AcDbLine
 10
186.5182587417
 20
203.9628385031
 30
0.0
 11
186.5182587417
 21
443.9628331387
 31
0.0
  0
LINE
  5
19A
330
1F
100
AcDbEntity
  8
0
  6
Continuous
 62
     7
370
    25
100
AcDbLine
 10
186.3093444618
 20
203.9628385031
 30
0.0
 11
186.5182587417
 21
203.9628385031
 31
0.0
  0
ARC
  5
19B
330
1F
100
AcDbEntity
  8
0
  6
Continuous
 62
     7
370
    25
100
AcDbCircle
 10
541.1895522388
 20
203.9628358209
 30
0.0
 40
54.67129158923171
100
AcDbArc
 50
270.0
 51
0.0
  0
LINE
  5
19C
330
1F
100
AcDbEntity
  8
0
  6
Continuous
 62
     7
370
    25
100
AcDbLine
 10
541.1895581993
 20
149.082629236
 30
0.0
 11
541.1895581993
 21
149.2915435159
 31
0.0
  0
ARC
  5
19D
330
1F
100
AcDbEntity
  8
0
  6
Continuous
 62
     7
370
    25
100
AcDbCircle
 10
241.1895522388
 20
203.9628358209
 30
0.0
 40
54.67129158923169
100
AcDbArc
 50
180.0
 51
270.0
  0
LINE
  5
19E
330
1F
100
AcDbEntity
  8
0
  6
Continuous
 62
     7
370
    25
100
AcDbLine
 10
241.1895462783
 20
149.082629236
 30
0.0
 11
241.1895462783
 21
149.2915435159
 31
0.0
  0
LINE
  5
19F
330
1F
100
AcDbEntity
  8
0
  6
Continuous
 62
     7
370
    25
100
AcDbLine
 10
541.1895581993
 20
149.2915435159
 30
0.0
 11
241.1895462783
 21
149.2915435159
 31
0.0
  0
ARC
  5
1A0
330
1F
100
AcDbEntity
  8
0
  6
Continuous
 62
     7
370
    25
100
AcDbCircle
 10
241.1895522388
 20
443.9628358209
 30
0.0
 40
53.40145421243207
100
AcDbArc
 50
90.0
 51
180.0
  0
LINE
  5
1A1
330
1F
100
AcDbEntity
  8
0
  6
Continuous
 62
     7
370
    25
100
AcDbLine
 10
187.7880909952
 20
443.9628331387
 30
0.0
 11
186.5182587417
 21
443.9628331387
 31
0.0
  0
LINE
  5
1A2
330
1F
100
AcDbEntity
  8
0
  6
Continuous
 62
     7
370
    25
100
AcDbLine
 10
241.1895462783
 20
497.3642958724
 30
0.0
 11
241.1895462783
 21
498.6341281259
 31
0.0
  0
LINE
  5
1A3
330
1F
100
AcDbEntity
  8
0
  6
Continuous
 62
     7
370
    25
100
AcDbLine
 10
541.1895581993
 20
497.3642958724
 30
0.0
 11
241.1895462783
 21
497.3642958724
 31
0.0
  0
LINE
  5
1A4
330
1F
100
AcDbEntity
  8
0
  6
Continuous
 62
     7
370
    25
100
AcDbLine
 10
541.1895581993
 20
498.6341281259
 30
0.0
 11
541.1895581993
 21
497.3642958724
 31
0.0
  0
LINE
  5
1A5
330
1F
100
AcDbEntity
  8
0
  6
Continuous
 62
     7
370
    25
100
AcDbLine
 10
595.8608457359
 20
443.9628331387
 30
0.0
 11
594.5910134824
 21
443.9628331387
 31
0.0
  0
ARC
  5
1A6
330
1F
100
AcDbEntity
  8
0
  6
Continuous
 62
     7
370
    25
100
AcDbCircle
 10
541.1895522388
 20
443.9628358209
 30
0.0
 40
53.40145421243204
100
AcDbArc
 50
0.0
 51
90.0
  0
LINE
  5
1A7
330
1F
100
AcDbEntity
  8
0
  6
Continuous
 62
     7
370
    25
100
AcDbLine
 10
187.7880909952
 20
443.9628331387
 30
0.0
 11
187.7880909952
 21
203.9628385031
 31
0.0
  0
LINE
  5
1A8
330
1F
100
AcDbEntity
  8
0
  6
Continuous
 62
     7
370
    25
100
AcDbLine
 10
187.7880909952
 20
203.9628385031
 30
0.0
 11
186.5182587417
 21
203.9628385031
 31
0.0
  0
LINE
  5
1A9
330
1F
100
AcDbEntity
  8
0
  6
Continuous
 62
     7
370
    25
100
AcDbLine
 10
595.8608457359
 20
203.9628385031
 30
0.0
 11
594.5910134824
 21
203.9628385031
 31
0.0
  0
LINE
  5
1AA
330
1F
100
AcDbEntity
  8
0
  6
Continuous
 62
     7
370
    25
100
AcDbLine
 10
594.5910134824
 20
203.9628385031
 30
0.0
 11
594.5910134824
 21
443.9628331387
 31
0.0
  0
ARC
  5
1AB
330
1F
100
AcDbEntity
  8
0
  6
Continuous
 62
     7
370
    25
100
AcDbCircle
 10
241.1895522388
 20
203.9628358209
 30
0.0
 40
53.40145421243207
100
AcDbArc
 50
180.0
 51
270.0
  0
LINE
  5
1AC
330
1F
100
AcDbEntity
  8
0
  6
Continuous
 62
     7
370
    25
100
AcDbLine
 10
241.1895462783
 20
150.5613757694
 30
0.0
 11
241.1895462783
 21
149.2915435159
 31
0.0
  0
LINE
  5
1AD
330
1F
100
AcDbEntity
  8
0
  6
Continuous
 62
     7
370
    25
100
AcDbLine
 10
541.1895581993
 20
149.2915435159
 30
0.0
 11
541.1895581993
 21
150.5613757694
 31
0.0
  0
ARC
  5
1AE
330
1F
100
AcDbEntity
  8
0
  6
Continuous
 62
     7
370
    25
100
AcDbCircle
 10
541.1895522388
 20
203.9628358209
 30
0.0
 40
53.40145421243199
100
AcDbArc
 50
270.0
 51
0.0
  0
LINE
  5
1AF
330
1F
100
AcDbEntity
  8
0
  6
Continuous
 62
     7
370
    25
100
AcDbLine
 10
241.1895462783
 20
150.5613757694
 30
0.0
 11
541.1895581993
 21
150.5613757694
 31
0.0
  0
ARC
  5
1B0
330
1F
100
AcDbEntity
  8
0
  6
Continuous
 62
     7
370
    25
100
AcDbCircle
 10
241.1895522388
 20
443.9628358209
 30
0.0
 40
50.00000000000006
100
AcDbArc
 50
90.0
 51
180.0
  0
LINE
  5
1B1
330
1F
100
AcDbEntity
  8
0
  6
Continuous
 62
     7
370
    25
100
AcDbLine
 10
191.1895492586
 20
443.9628331387
 30
0.0
 11
187.7880909952
 21
443.9628331387
 31
0.0
  0
LINE
  5
1B2
330
1F
100
AcDbEntity
  8
0
  6
Continuous
 62
     7
370
    25
100
AcDbLine
 10
241.1895462783
 20
493.962837609
 30
0.0
 11
241.1895462783
 21
497.3642958724
 31
0.0
  0
LINE
  5
1B3
330
1F
100
AcDbEntity
  8
0
  6
Continuous
 62
     7
370
    25
100
AcDbLine
 10
541.1895581993
 20
493.962837609
 30
0.0
 11
241.1895462783
 21
493.962837609
 31
0.0
  0
LINE
  5
1B4
330
1F
100
AcDbEntity
  8
0
  6
Continuous
 62
     7
370
    25
100
AcDbLine
 10
541.1895581993
 20
497.3642958724
 30
0.0
 11
541.1895581993
 21
493.962837609
 31
0.0
  0
ARC
  5
1B5
330
1F
100
AcDbEntity
  8
0
  6
Continuous
 62
     7
370
    25
100
AcDbCircle
 10
541.1895522388
 20
443.9628358209
 30
0.0
 40
50.00000000000006
100
AcDbArc
 50
0.0
 51
90.0
  0
LINE
  5
1B6
330
1F
100
AcDbEntity
  8
0
  6
Continuous
 62
     7
370
    25
100
AcDbLine
 10
594.5910134824
 20
443.9628331387
 30
0.0
 11
591.189555219
 21
443.9628331387
 31
0.0
  0
LINE
  5
1B7
330
1F
100
AcDbEntity
  8
0
  6
Continuous
 62
     7
370
    25
100
AcDbLine
 10
191.1895492586
 20
443.9628331387
 30
0.0
 11
191.1895492586
 21
203.9628385031
 31
0.0
  0
LINE
  5
1B8
330
1F
100
AcDbEntity
  8
0
  6
Continuous
 62
     7
370
    25
100
AcDbLine
 10
191.1895492586
 20
203.9628385031
 30
0.0
 11
187.7880909952
 21
203.9628385031
 31
0.0
  0
LINE
  5
1B9
330
1F
100
AcDbEntity
  8
0
  6
Continuous
 62
     7
370
    25
100
AcDbLine
 10
591.189555219
 20
203.9628385031
 30
0.0
 11
591.189555219
 21
443.9628331387
 31
0.0
  0
LINE
  5
1BA
330
1F
100
AcDbEntity
  8
0
  6
Continuous
 62
     7
370
    25
100
AcDbLine
 10
594.5910134824
 20
203.9628385031
 30
0.0
 11
591.189555219
 21
203.9628385031
 31
0.0
  0
ARC
  5
1BB
330
1F
100
AcDbEntity
  8
0
  6
Continuous
 62
     7
370
    25
100
AcDbCircle
 10
241.1895522388
 20
203.9628358209
 30
0.0
 40
50.00000000000003
100
AcDbArc
 50
180.0
 51
270.0
  0
LINE
  5
1BC
330
1F
100
AcDbEntity
  8
0
  6
Continuous
 62
     7
370
    25
100
AcDbLine
 10
241.1895462783
 20
153.9628340328
 30
0.0
 11
241.1895462783
 21
150.5613757694
 31
0.0
  0
ARC
  5
1BD
330
1F
100
AcDbEntity
  8
0
  6
Continuous
 62
     7
370
    25
100
AcDbCircle
 10
541.1895522388
 20
203.9628358209
 30
0.0
 40
50.00000000000003
100
AcDbArc
 50
270.0
 51
0.0
  0
LINE
  5
1BE
330
1F
100
AcDbEntity
  8
0
  6
Continuous
 62
     7
370
    25
100
AcDbLine
 10
541.1895581993
 20
150.5613757694
 30
0.0
 11
541.1895581993
 21
153.9628340328
 31
0.0
  0
LINE
  5
1BF
330
1F
100
AcDbEntity
  8
0
  6
Continuous
 62
     7
370
    25
100
AcDbLine
 10
241.1895462783
 20
153.9628340328
 30
0.0
 11
541.1895581993
 21
153.9628340328
 31
0.0
  0
LINE
  5
1C0
330
1F
100
AcDbEntity
  8
0
  6
Continuous
 62
     7
370
    25
100
AcDbLine
 10
591.189555219
 20
443.9628331387
 30
0.0
 11
581.8754354032
 21
443.9628331387
 31
0.0
  0
SPLINE
  5
1C1
330
1F
100
AcDbEntity
  8
0
  6
Continuous
 62
     7
370
    25
100
AcDbSpline
210
0.0
220
0.0
230
1.0
 70
     8
 71
     3
 72
    38
 73
    34
 74
     0
 42
0.000000001
 43
0.00000001
 40
0.0
 40
0.0
 40
0.0
 40
0.0
 40
0.1249999999999957
 40
0.1249999999999957
 40
0.1874999999999929
 40
0.1874999999999929
 40
0.2187499999999921
 40
0.2187499999999921
 40
0.2499999999999913
 40
0.2499999999999913
 40
0.3749999999999882
 40
0.3749999999999882
 40
0.4062499999999872
 40
0.4062499999999872
 40
0.4374999999999863
 40
0.4374999999999863
 40
0.4999999999999862
 40
0.4999999999999862
 40
0.6249999999999879
 40
0.6249999999999879
 40
0.6562499999999883
 40
0.6562499999999883
 40
0.6874999999999888
 40
0.6874999999999888
 40
0.749999999999991
 40
0.749999999999991
 40
0.8124999999999931
 40
0.8124999999999931
 40
0.8437499999999941
 40
0.8437499999999941
 40
0.874999999999995
 40
0.874999999999995
 40
1.0
 40
1.0
 40
1.0
 40
1.0
 10
541.189552238806
 20
484.5961862625002
 30
0.0
 10
543.8748065782067
 20
484.6019452124539
 30
0.0
 10
546.5159620155955
 20
484.3438281213494
 30
0.0
 10
550.4142147444729
 20
483.5768007507028
 30
0.0
 10
551.7029734959357
 20
483.2573450927316
 30
0.0
 10
553.6197519241762
 20
482.6802687890141
 30
0.0
 10
554.2572851780944
 20
482.4710802840693
 30
0.0
 10
555.5204965890371
 20
482.0215278128147
 30
0.0
 10
556.1440299862168
 20
481.7820102129274
 30
0.0
 10
559.2221357537874
 20
480.5121768828272
 30
0.0
 10
561.5591535642723
 20
479.2671870742299
 30
0.0
 10
564.3246730564614
 20
477.4265189929283
 30
0.0
 10
564.869919062569
 20
477.0440355406105
 30
0.0
 10
565.9444347294611
 20
476.2498931244857
 30
0.0
 10
566.4751315006736
 20
475.8370231037285
 30
0.0
 10
568.0293507088821
 20
474.5647587080839
 30
0.0
 10
569.0159398715621
 20
473.6717551911875
 30
0.0
 10
571.8313907391506
 20
470.8622015714485
 30
0.0
 10
573.5173171452482
 20
468.8163578860523
 30
0.0
 10
575.379197498575
 20
466.0369586312594
 30
0.0
 10
575.7396322932613
 20
465.4689602504284
 30
0.0
 10
576.427884847278
 20
464.3226418586354
 30
0.0
 10
576.7566791084112
 20
463.7429596581479
 30
0.0
 10
577.697836485003
 20
461.9846719118794
 30
0.0
 10
578.2650810574703
 20
460.7868706864812
 30
0.0
 10
579.2805996182835
 20
458.3406522123176
 30
0.0
 10
579.7288750999494
 20
457.092235598885
 30
0.0
 10
580.3105297026215
 20
455.1809974329148
 30
0.0
 10
580.4892611508255
 20
454.5374710234968
 30
0.0
 10
580.815817645938
 20
453.2372690793454
 30
0.0
 10
580.9632022089393
 20
452.5820338960622
 30
0.0
 10
581.6161902192887
 20
449.3026385732591
 30
0.0
 10
581.8777600006939
 20
446.6483198440984
 30
0.0
 10
581.8754373139184
 20
443.9628358208946
 30
0.0
  0
LINE
  5
1C2
330
1F
100
AcDbEntity
  8
0
  6
Continuous
 62
     7
370
    25
100
AcDbLine
 10
541.1895581993
 20
493.962837609
 30
0.0
 11
541.1895581993
 21
484.5961912
 31
0.0
  0
LINE
  5
1C3
330
1F
100
AcDbEntity
  8
0
  6
Continuous
 62
     7
370
    25
100
AcDbLine
 10
241.1895462783
 20
493.962837609
 30
0.0
 11
241.1895462783
 21
484.5961912
 31
0.0
  0
SPLINE
  5
1C4
330
1F
100
AcDbEntity
  8
0
  6
Continuous
 62
     7
370
    25
100
AcDbSpline
210
0.0
220
0.0
230
1.0
 70
     8
 71
     3
 72
    36
 73
    32
 74
     0
 42
0.000000001
 43
0.00000001
 40
0.0
 40
0.0
 40
0.0
 40
0.0
 40
0.1250000000000023
 40
0.1250000000000023
 40
0.1875000000000034
 40
0.1875000000000034
 40
0.2187500000000041
 40
0.2187500000000041
 40
0.2500000000000048
 40
0.2500000000000048
 40
0.3750000000000042
 40
0.3750000000000042
 40
0.4062500000000039
 40
0.4062500000000039
 40
0.4375000000000036
 40
0.4375000000000036
 40
0.5000000000000038
 40
0.5000000000000038
 40
0.6250000000000041
 40
0.6250000000000041
 40
0.6562500000000038
 40
0.6562500000000038
 40
0.6875000000000034
 40
0.6875000000000034
 40
0.7500000000000028
 40
0.7500000000000028
 40
0.812500000000002
 40
0.812500000000002
 40
0.8750000000000013
 40
0.8750000000000013
 40
1.0
 40
1.0
 40
1.0
 40
1.0
 10
200.5036671636935
 20
443.962835820895
 30
0.0
 10
200.5013446406322
 20
446.6481305582201
 30
0.0
 10
200.7628598024517
 20
449.2894808068295
 30
0.0
 10
201.5353417771761
 20
453.1881790380338
 30
0.0
 10
201.8566747349047
 20
454.4771121817685
 30
0.0
 10
202.4367135908549
 20
456.3941825854068
 30
0.0
 10
202.6470295492202
 20
457.0321086890201
 30
0.0
 10
203.0980718914685
 20
458.2939386925363
 30
0.0
 10
203.3383367294187
 20
458.9168560077709
 30
0.0
 10
204.6119762546656
 20
461.992215206376
 30
0.0
 10
205.8602320514651
 20
464.3280950570183
 30
0.0
 10
207.7061550075872
 20
467.0930197193196
 30
0.0
 10
208.0897485017216
 20
467.6381885581255
 30
0.0
 10
208.8862551303822
 20
468.7126218293934
 30
0.0
 10
209.3001261405742
 20
469.2429474689662
 30
0.0
 10
210.5732773188681
 20
470.793609311671
 30
0.0
 10
211.4670426329997
 20
471.7782813650691
 30
0.0
 10
214.2796893963958
 20
474.5889651007349
 30
0.0
 10
216.3286520481966
 20
476.2730297855555
 30
0.0
 10
219.1143593450473
 20
478.1331279842381
 30
0.0
 10
219.6821106244503
 20
478.4921793457009
 30
0.0
 10
220.8279047824749
 20
479.1778355579925
 30
0.0
 10
221.4074081547384
 20
479.5054368917368
 30
0.0
 10
223.1654302907037
 20
480.4432678797304
 30
0.0
 10
224.3634150316988
 20
481.0086306420634
 30
0.0
 10
226.8108416674721
 20
482.0207533363102
 30
0.0
 10
228.0602822936745
 20
482.4675161919369
 30
0.0
 10
230.6116335853934
 20
483.2401046199546
 30
0.0
 10
231.9187526732403
 20
483.5665207103144
 30
0.0
 10
235.8513203915998
 20
484.3438589448369
 30
0.0
 10
238.5044855579599
 20
484.6019448099908
 30
0.0
 10
241.1895522388064
 20
484.5961862625003
 30
0.0
  0
LINE
  5
1C5
330
1F
100
AcDbEntity
  8
0
  6
Continuous
 62
     7
370
    25
100
AcDbLine
 10
191.1895492586
 20
443.9628331387
 30
0.0
 11
200.5036690744
 21
443.9628331387
 31
0.0
  0
SPLINE
  5
1C6
330
1F
100
AcDbEntity
  8
0
  6
Continuous
 62
     7
370
    25
100
AcDbSpline
210
0.0
220
0.0
230
1.0
 70
     8
 71
     3
 72
    17
 73
    13
 74
     0
 42
0.000000001
 43
0.00000001
 40
0.0
 40
0.0
 40
0.0
 40
0.0
 40
0.1074258907292084
 40
0.2148526761693433
 40
0.3222640849750051
 40
0.4296538713159995
 40
0.5370275667711635
 40
0.644394491387106
 40
0.7517643884965635
 40
0.8591472045307654
 40
0.966550643188419
 40
1.0
 40
1.0
 40
1.0
 40
1.0
 10
394.2895523278403
 20
493.7603159272488
 30
0.0
 10
394.2552684989409
 20
493.7680206536058
 30
0.0
 10
394.1867005556045
 20
493.7834301704899
 30
0.0
 10
393.6521595665415
 20
493.8024159430526
 30
0.0
 10
392.8649584443992
 20
493.8161843575492
 30
0.0
 10
391.8823384610341
 20
493.8237537826809
 30
0.0
 10
390.8230530535488
 20
493.824772795099
 30
0.0
 10
389.8064718654385
 20
493.8192092569069
 30
0.0
 10
388.9392328850012
 20
493.8073626668097
 30
0.0
 10
388.3505162126334
 20
493.7897660203503
 30
0.0
 10
388.0717022750882
 20
493.7730763393845
 30
0.0
 10
388.1165993579436
 20
493.7626924576124
 30
0.0
 10
388.1272614008176
 20
493.7602265202816
 30
0.0
  0
LINE
  5
1C7
330
1F
100
AcDbEntity
  8
0
  6
Continuous
 62
     7
370
    25
100
AcDbLine
 10
399.6895527007
 20
493.5238046968
 30
0.0
 11
399.6895527007
 21
493.9064218128
 31
0.0
  0
SPLINE
  5
1C8
330
1F
100
AcDbEntity
  8
0
  6
Continuous
 62
     7
370
    25
100
AcDbSpline
210
0.0
220
0.0
230
1.0
 70
     8
 71
     3
 72
    34
 73
    30
 74
     0
 42
0.000000001
 43
0.00000001
 40
0.0
 40
0.0
 40
0.0
 40
0.0
 40
0.0625000000000001
 40
0.0625000000000001
 40
0.1250000000000002
 40
0.1250000000000002
 40
0.1875000000000003
 40
0.1875000000000003
 40
0.2500000000000004
 40
0.2500000000000004
 40
0.3750000000000007
 40
0.3750000000000007
 40
0.5000000000000009
 40
0.5000000000000009
 40
0.5625000000000008
 40
0.5625000000000008
 40
0.6250000000000007
 40
0.6250000000000007
 40
0.6875000000000006
 40
0.6875000000000006
 40
0.7500000000000004
 40
0.7500000000000004
 40
0.8125000000000003
 40
0.8125000000000003
 40
0.8750000000000002
 40
0.8750000000000002
 40
0.9375000000000001
 40
0.9375000000000001
 40
1.0
 40
1.0
 40
1.0
 40
1.0
 10
399.6895522388057
 20
493.9064275822143
 30
0.0
 10
399.6895522388057
 20
493.9079968443036
 30
0.0
 10
399.6765854094089
 20
493.9095071658604
 30
0.0
 10
399.6257780303864
 20
493.9124183526643
 30
0.0
 10
399.5873211073575
 20
493.9138334791669
 30
0.0
 10
399.4869177129039
 20
493.9164781633183
 30
0.0
 10
399.4254762752461
 20
493.917705075719
 30
0.0
 10
399.2803142985605
 20
493.9199852614796
 30
0.0
 10
399.1958214165342
 20
493.9210421651828
 30
0.0
 10
398.9189697751732
 20
493.9238395300797
 30
0.0
 10
398.6957976839831
 20
493.9252822997728
 30
0.0
 10
398.2143924773453
 20
493.9271902837875
 30
0.0
 10
397.9511641953447
 20
493.9276779285285
 30
0.0
 10
397.5598116560505
 20
493.9276792315397
 30
0.0
 10
397.4273145968479
 20
493.9275576129513
 30
0.0
 10
397.1707853291051
 20
493.9270763476136
 30
0.0
 10
397.0461042895622
 20
493.9267194213981
 30
0.0
 10
396.8039500256104
 20
493.92576122317
 30
0.0
 10
396.6868099650383
 20
493.9251572533469
 30
0.0
 10
396.4700565735899
 20
493.9237384258161
 30
0.0
 10
396.3690371354559
 20
493.9229189225713
 30
0.0
 10
396.1822887041694
 20
493.9210322571501
 30
0.0
 10
396.0993667180408
 20
493.9199925324083
 30
0.0
 10
395.954521089816
 20
493.9177208683238
 30
0.0
 10
395.8919339960202
 20
493.9164727954015
 30
0.0
 10
395.7915436422427
 20
493.9138258680902
 30
0.0
 10
395.7537434585869
 20
493.9124368421146
 30
0.0
 10
395.7026305445081
 20
493.9095189022738
 30
0.0
 10
395.6895522388057
 20
493.9079776870159
 30
0.0
 10
395.6895522388057
 20
493.9064275822142
 30
0.0
  0
LINE
  5
1C9
330
1F
100
AcDbEntity
  8
0
  6
Continuous
 62
     7
370
    25
100
AcDbLine
 10
395.6895520451
 20
493.9064218128
 30
0.0
 11
395.6895520451
 21
493.6703278148
 31
0.0
  0
SPLINE
  5
1CA
330
1F
100
AcDbEntity
  8
0
  6
Continuous
 62
     7
370
    25
100
AcDbSpline
210
0.0
220
0.0
230
1.0
 70
     8
 71
     3
 72
    15
 73
    11
 74
     0
 42
0.000000001
 43
0.00000001
 40
0.0
 40
0.0
 40
0.0
 40
0.0
 40
0.0822044436077169
 40
0.2207759455140158
 40
0.3592651156883357
 40
0.4976984627031792
 40
0.6361321872427095
 40
0.7746218026407333
 40
0.9131943544956511
 40
1.0
 40
1.0
 40
1.0
 40
1.0
 10
396.1895521270472
 20
493.480293306094
 30
0.0
 10
396.2741119635439
 20
493.4766907556814
 30
0.0
 10
396.5012137725915
 20
493.4670154092074
 30
0.0
 10
397.0412340632066
 20
493.4576179506264
 30
0.0
 10
397.7111691121929
 20
493.4536159890479
 30
0.0
 10
398.3856438108907
 20
493.4580443089433
 30
0.0
 10
398.9805258311295
 20
493.4699932598152
 30
0.0
 10
399.4272948242889
 20
493.4879702310117
 30
0.0
 10
399.6578540722704
 20
493.5070071452106
 30
0.0
 10
399.6807385997915
 20
493.5191339800206
 30
0.0
 10
399.6895527007419
 20
493.52380469678
 30
0.0
  0
LINE
  5
1CB
330
1F
100
AcDbEntity
  8
0
  6
Continuous
 62
     7
370
    25
100
AcDbLine
 10
415.6895515981
 20
493.5238046968
 30
0.0
 11
415.6895515981
 21
493.9064218128
 31
0.0
  0
SPLINE
  5
1CC
330
1F
100
AcDbEntity
  8
0
  6
Continuous
 62
     7
370
    25
100
AcDbSpline
210
0.0
220
0.0
230
1.0
 70
     8
 71
     3
 72
    34
 73
    30
 74
     0
 42
0.000000001
 43
0.00000001
 40
0.0
 40
0.0
 40
0.0
 40
0.0
 40
0.0625000000000009
 40
0.0625000000000009
 40
0.1250000000000017
 40
0.1250000000000017
 40
0.1875000000000026
 40
0.1875000000000026
 40
0.2500000000000035
 40
0.2500000000000035
 40
0.3750000000000041
 40
0.3750000000000041
 40
0.5000000000000047
 40
0.5000000000000047
 40
0.5625000000000041
 40
0.5625000000000041
 40
0.6250000000000036
 40
0.6250000000000036
 40
0.687500000000003
 40
0.687500000000003
 40
0.7500000000000023
 40
0.7500000000000023
 40
0.8125000000000018
 40
0.8125000000000018
 40
0.8750000000000012
 40
0.8750000000000012
 40
0.9375000000000007
 40
0.9375000000000007
 40
1.0
 40
1.0
 40
1.0
 40
1.0
 10
415.6895522388059
 20
493.9064275822143
 30
0.0
 10
415.6895522388059
 20
493.9079968443036
 30
0.0
 10
415.676585409409
 20
493.9095071658604
 30
0.0
 10
415.6257780303865
 20
493.9124183526642
 30
0.0
 10
415.5873211073576
 20
493.9138334791669
 30
0.0
 10
415.486917712904
 20
493.9164781633182
 30
0.0
 10
415.4254762752462
 20
493.9177050757191
 30
0.0
 10
415.2803142985605
 20
493.9199852614796
 30
0.0
 10
415.1958214165343
 20
493.9210421651828
 30
0.0
 10
414.9189697751734
 20
493.9238395300797
 30
0.0
 10
414.6957976839831
 20
493.9252822997728
 30
0.0
 10
414.2143924773454
 20
493.9271902837875
 30
0.0
 10
413.9511641953448
 20
493.9276779285285
 30
0.0
 10
413.5598116560505
 20
493.9276792315398
 30
0.0
 10
413.4273145968479
 20
493.9275576129513
 30
0.0
 10
413.1707853291052
 20
493.9270763476137
 30
0.0
 10
413.0461042895622
 20
493.9267194213981
 30
0.0
 10
412.8039500256105
 20
493.92576122317
 30
0.0
 10
412.6868099650384
 20
493.925157253347
 30
0.0
 10
412.4700565735901
 20
493.9237384258161
 30
0.0
 10
412.369037135456
 20
493.9229189225713
 30
0.0
 10
412.1822887041695
 20
493.9210322571502
 30
0.0
 10
412.0993667180409
 20
493.9199925324083
 30
0.0
 10
411.954521089816
 20
493.9177208683238
 30
0.0
 10
411.8919339960203
 20
493.9164727954016
 30
0.0
 10
411.7915436422428
 20
493.9138258680902
 30
0.0
 10
411.7537434585871
 20
493.9124368421146
 30
0.0
 10
411.7026305445082
 20
493.9095189022738
 30
0.0
 10
411.6895522388059
 20
493.9079776870161
 30
0.0
 10
411.6895522388059
 20
493.9064275822142
 30
0.0
  0
LINE
  5
1CD
330
1F
100
AcDbEntity
  8
0
  6
Continuous
 62
     7
370
    25
100
AcDbLine
 10
411.6895528051
 20
493.9064218128
 30
0.0
 11
411.6895528051
 21
493.5238046968
 31
0.0
  0
SPLINE
  5
1CE
330
1F
100
AcDbEntity
  8
0
  6
Continuous
 62
     7
370
    25
100
AcDbSpline
210
0.0
220
0.0
230
1.0
 70
     8
 71
     3
 72
    34
 73
    30
 74
     0
 42
0.000000001
 43
0.00000001
 40
0.0
 40
0.0
 40
0.0
 40
0.0
 40
0.0624999999999983
 40
0.0624999999999983
 40
0.1249999999999967
 40
0.1249999999999967
 40
0.249999999999996
 40
0.249999999999996
 40
0.3124999999999961
 40
0.3124999999999961
 40
0.3749999999999962
 40
0.3749999999999962
 40
0.4374999999999963
 40
0.4374999999999963
 40
0.4999999999999964
 40
0.4999999999999964
 40
0.5624999999999966
 40
0.5624999999999966
 40
0.6249999999999967
 40
0.6249999999999967
 40
0.6874999999999968
 40
0.6874999999999968
 40
0.7499999999999969
 40
0.7499999999999969
 40
0.812499999999997
 40
0.812499999999997
 40
0.8749999999999971
 40
0.8749999999999971
 40
1.0
 40
1.0
 40
1.0
 40
1.0
 10
411.6895522388058
 20
493.5238091056098
 30
0.0
 10
411.6895522388058
 20
493.5194849907104
 30
0.0
 10
411.7021959784777
 20
493.5151555081335
 30
0.0
 10
411.7532899743901
 20
493.5064892700164
 30
0.0
 10
411.7916796420699
 20
493.5022064079565
 30
0.0
 10
411.9410169760828
 20
493.4898968579859
 30
0.0
 10
412.0899145948601
 20
493.4821700506487
 30
0.0
 10
412.366244268472
 20
493.4725062341399
 30
0.0
 10
412.4689987990935
 20
493.4695400680981
 30
0.0
 10
412.6865154696751
 20
493.4644161080113
 30
0.0
 10
412.8013446242883
 20
493.4622402775395
 30
0.0
 10
413.0431713770797
 20
493.4586782423498
 30
0.0
 10
413.1703948421119
 20
493.4573034060241
 30
0.0
 10
413.4261074248479
 20
493.4554872667697
 30
0.0
 10
413.555946582721
 20
493.4550224514235
 30
0.0
 10
413.8197306280779
 20
493.4550143945372
 30
0.0
 10
413.9502936733203
 20
493.455474751999
 30
0.0
 10
414.2059122276822
 20
493.4572769950827
 30
0.0
 10
414.3326724838552
 20
493.4586380151835
 30
0.0
 10
414.5753141174117
 20
493.4621966332285
 30
0.0
 10
414.6902505794761
 20
493.4643690890614
 30
0.0
 10
414.9075597469582
 20
493.4694722073546
 30
0.0
 10
415.0105873354481
 20
493.4724358031514
 30
0.0
 10
415.1953238574395
 20
493.4788785022976
 30
0.0
 10
415.2781177716656
 20
493.4823748964475
 30
0.0
 10
415.4242387345384
 20
493.4899083553314
 30
0.0
 10
415.4866399165879
 20
493.4939147355913
 30
0.0
 10
415.6364877205971
 20
493.5062194350968
 30
0.0
 10
415.6895522388058
 20
493.515054007856
 30
0.0
 10
415.6895522388058
 20
493.52380910561
 30
0.0
  0
LINE
  5
1CF
330
1F
100
AcDbEntity
  8
0
  6
Continuous
 62
     7
370
    25
100
AcDbLine
 10
378.6895520525
 20
493.5238046968
 30
0.0
 11
378.6895520525
 21
493.9064218128
 31
0.0
  0
SPLINE
  5
1D0
330
1F
100
AcDbEntity
  8
0
  6
Continuous
 62
     7
370
    25
100
AcDbSpline
210
0.0
220
0.0
230
1.0
 70
     8
 71
     3
 72
    34
 73
    30
 74
     0
 42
0.000000001
 43
0.00000001
 40
0.0
 40
0.0
 40
0.0
 40
0.0
 40
0.0625000000000002
 40
0.0625000000000002
 40
0.1250000000000004
 40
0.1250000000000004
 40
0.1875000000000006
 40
0.1875000000000006
 40
0.2500000000000008
 40
0.2500000000000008
 40
0.3750000000000012
 40
0.3750000000000012
 40
0.5000000000000017
 40
0.5000000000000017
 40
0.5625000000000019
 40
0.5625000000000019
 40
0.6250000000000021
 40
0.6250000000000021
 40
0.6875000000000023
 40
0.6875000000000023
 40
0.7500000000000018
 40
0.7500000000000018
 40
0.8125000000000013
 40
0.8125000000000013
 40
0.8750000000000009
 40
0.8750000000000009
 40
0.9375000000000004
 40
0.9375000000000004
 40
1.0
 40
1.0
 40
1.0
 40
1.0
 10
378.6895522388058
 20
493.9064275822143
 30
0.0
 10
378.6895522388058
 20
493.9079968443036
 30
0.0
 10
378.676585409409
 20
493.9095071658605
 30
0.0
 10
378.6257780303864
 20
493.9124183526643
 30
0.0
 10
378.5873211073576
 20
493.9138334791669
 30
0.0
 10
378.486917712904
 20
493.9164781633183
 30
0.0
 10
378.4254762752461
 20
493.917705075719
 30
0.0
 10
378.2803142985606
 20
493.9199852614796
 30
0.0
 10
378.1958214165343
 20
493.9210421651828
 30
0.0
 10
377.9189697751733
 20
493.9238395300797
 30
0.0
 10
377.6957976839831
 20
493.9252822997729
 30
0.0
 10
377.2143924773454
 20
493.9271902837875
 30
0.0
 10
376.9511641953449
 20
493.9276779285285
 30
0.0
 10
376.5598116560506
 20
493.9276792315397
 30
0.0
 10
376.4273145968479
 20
493.9275576129513
 30
0.0
 10
376.1707853291052
 20
493.9270763476137
 30
0.0
 10
376.0461042895623
 20
493.9267194213981
 30
0.0
 10
375.8039500256104
 20
493.92576122317
 30
0.0
 10
375.6868099650384
 20
493.9251572533469
 30
0.0
 10
375.4700565735901
 20
493.9237384258161
 30
0.0
 10
375.369037135456
 20
493.9229189225714
 30
0.0
 10
375.1822887041695
 20
493.9210322571501
 30
0.0
 10
375.0993667180408
 20
493.9199925324083
 30
0.0
 10
374.954521089816
 20
493.9177208683238
 30
0.0
 10
374.8919339960202
 20
493.9164727954015
 30
0.0
 10
374.7915436422427
 20
493.9138258680901
 30
0.0
 10
374.7537434585871
 20
493.9124368421145
 30
0.0
 10
374.7026305445082
 20
493.9095189022738
 30
0.0
 10
374.6895522388058
 20
493.9079776870159
 30
0.0
 10
374.6895522388058
 20
493.9064275822142
 30
0.0
  0
LINE
  5
1D1
330
1F
100
AcDbEntity
  8
0
  6
Continuous
 62
     7
370
    25
100
AcDbLine
 10
374.6895523282
 20
493.9064218128
 30
0.0
 11
374.6895523282
 21
493.5238046968
 31
0.0
  0
SPLINE
  5
1D2
330
1F
100
AcDbEntity
  8
0
  6
Continuous
 62
     7
370
    25
100
AcDbSpline
210
0.0
220
0.0
230
1.0
 70
     8
 71
     3
 72
    34
 73
    30
 74
     0
 42
0.000000001
 43
0.00000001
 40
0.0
 40
0.0
 40
0.0
 40
0.0
 40
0.0624999999999996
 40
0.0624999999999996
 40
0.1249999999999991
 40
0.1249999999999991
 40
0.2499999999999984
 40
0.2499999999999984
 40
0.3124999999999979
 40
0.3124999999999979
 40
0.3749999999999981
 40
0.3749999999999981
 40
0.4374999999999983
 40
0.4374999999999983
 40
0.4999999999999984
 40
0.4999999999999984
 40
0.5624999999999987
 40
0.5624999999999987
 40
0.6249999999999989
 40
0.6249999999999989
 40
0.6874999999999991
 40
0.6874999999999991
 40
0.7499999999999993
 40
0.7499999999999993
 40
0.8124999999999996
 40
0.8124999999999996
 40
0.8749999999999998
 40
0.8749999999999998
 40
1.0
 40
1.0
 40
1.0
 40
1.0
 10
374.6895522388058
 20
493.5238091056098
 30
0.0
 10
374.6895522388058
 20
493.5194849907105
 30
0.0
 10
374.7021959784777
 20
493.5151555081335
 30
0.0
 10
374.7532899743902
 20
493.5064892700165
 30
0.0
 10
374.79167964207
 20
493.5022064079565
 30
0.0
 10
374.9410169760828
 20
493.489896857986
 30
0.0
 10
375.0899145948601
 20
493.4821700506487
 30
0.0
 10
375.366244268472
 20
493.4725062341399
 30
0.0
 10
375.4689987990936
 20
493.4695400680982
 30
0.0
 10
375.6865154696752
 20
493.4644161080112
 30
0.0
 10
375.8013446242884
 20
493.4622402775395
 30
0.0
 10
376.0431713770798
 20
493.4586782423497
 30
0.0
 10
376.1703948421119
 20
493.4573034060241
 30
0.0
 10
376.4261074248479
 20
493.4554872667697
 30
0.0
 10
376.5559465827209
 20
493.4550224514234
 30
0.0
 10
376.8197306280778
 20
493.4550143945372
 30
0.0
 10
376.9502936733203
 20
493.4554747519991
 30
0.0
 10
377.2059122276822
 20
493.4572769950827
 30
0.0
 10
377.3326724838552
 20
493.4586380151835
 30
0.0
 10
377.5753141174117
 20
493.4621966332285
 30
0.0
 10
377.690250579476
 20
493.4643690890614
 30
0.0
 10
377.9075597469581
 20
493.4694722073546
 30
0.0
 10
378.0105873354481
 20
493.4724358031514
 30
0.0
 10
378.1953238574395
 20
493.4788785022976
 30
0.0
 10
378.2781177716656
 20
493.4823748964475
 30
0.0
 10
378.4242387345384
 20
493.4899083553312
 30
0.0
 10
378.4866399165879
 20
493.4939147355913
 30
0.0
 10
378.6364877205972
 20
493.5062194350969
 30
0.0
 10
378.6895522388058
 20
493.515054007856
 30
0.0
 10
378.6895522388058
 20
493.52380910561
 30
0.0
  0
SPLINE
  5
1D3
330
1F
100
AcDbEntity
  8
0
  6
Continuous
 62
     7
370
    25
100
AcDbSpline
210
0.0
220
0.0
230
1.0
 70
     8
 71
     3
 72
    12
 73
     8
 74
     0
 42
0.000000001
 43
0.00000001
 40
0.0
 40
0.0
 40
0.0
 40
0.0
 40
0.25
 40
0.25
 40
0.5
 40
0.5
 40
1.0
 40
1.0
 40
1.0
 40
1.0
 10
412.0282965426584
 20
483.4059478148309
 30
0.0
 10
422.8169257782404
 20
483.4358511858048
 30
0.0
 10
433.597773195521
 20
483.4880251800084
 30
0.0
 10
455.1467446314573
 20
483.6279259842222
 30
0.0
 10
465.9148909586723
 20
483.7155835023664
 30
0.0
 10
498.2027827626384
 20
484.0227893114004
 30
0.0
 10
519.70609937223
 20
484.2863859573429
 30
0.0
 10
541.189552238806
 20
484.5961862625002
 30
0.0
  0
SPLINE
  5
1D4
330
1F
100
AcDbEntity
  8
0
  6
Continuous
 62
     7
370
    25
100
AcDbSpline
210
0.0
220
0.0
230
1.0
 70
     8
 71
     3
 72
     9
 73
     5
 74
     0
 42
0.000000001
 43
0.00000001
 40
0.0
 40
0.0
 40
0.0
 40
0.0
 40
0.5
 40
1.0
 40
1.0
 40
1.0
 40
1.0
 10
370.350807934964
 20
483.4059478148308
 30
0.0
 10
377.2970560362464
 20
483.386694559453
 30
0.0
 10
391.1895522388112
 20
483.3659576266022
 30
0.0
 10
405.0820484413759
 20
483.3866945594531
 30
0.0
 10
412.0282965426584
 20
483.4059478148309
 30
0.0
  0
SPLINE
  5
1D5
330
1F
100
AcDbEntity
  8
0
  6
Continuous
 62
     7
370
    25
100
AcDbSpline
210
0.0
220
0.0
230
1.0
 70
     8
 71
     3
 72
    12
 73
     8
 74
     0
 42
0.000000001
 43
0.00000001
 40
0.0
 40
0.0
 40
0.0
 40
0.0
 40
0.5000000000000001
 40
0.5000000000000001
 40
0.75
 40
0.75
 40
1.0
 40
1.0
 40
1.0
 40
1.0
 10
241.1895522388064
 20
484.5961862625003
 30
0.0
 10
262.6805241022562
 20
484.286277530288
 30
0.0
 10
284.1879320471643
 20
484.0226568478221
 30
0.0
 10
316.4762541025965
 20
483.7154799484185
 30
0.0
 10
327.2435876142944
 20
483.6278427856703
 30
0.0
 10
348.7887295158324
 20
483.4879874632495
 30
0.0
 10
359.5665564710225
 20
483.4358390517212
 30
0.0
 10
370.3508079349641
 20
483.405947814831
 30
0.0
  0
LINE
  5
1D6
330
1F
100
AcDbEntity
  8
0
  6
Continuous
 62
     7
370
    25
100
AcDbLine
 10
370.6895516726
 20
493.5238046968
 30
0.0
 11
370.6895516726
 21
493.9064218128
 31
0.0
  0
SPLINE
  5
1D7
330
1F
100
AcDbEntity
  8
0
  6
Continuous
 62
     7
370
    25
100
AcDbSpline
210
0.0
220
0.0
230
1.0
 70
     8
 71
     3
 72
    34
 73
    30
 74
     0
 42
0.000000001
 43
0.00000001
 40
0.0
 40
0.0
 40
0.0
 40
0.0
 40
0.0625000000000009
 40
0.0625000000000009
 40
0.1250000000000017
 40
0.1250000000000017
 40
0.1875000000000026
 40
0.1875000000000026
 40
0.2500000000000035
 40
0.2500000000000035
 40
0.3750000000000041
 40
0.3750000000000041
 40
0.5000000000000047
 40
0.5000000000000047
 40
0.5625000000000041
 40
0.5625000000000041
 40
0.6250000000000036
 40
0.6250000000000036
 40
0.687500000000003
 40
0.687500000000003
 40
0.7500000000000023
 40
0.7500000000000023
 40
0.8125000000000018
 40
0.8125000000000018
 40
0.8750000000000012
 40
0.8750000000000012
 40
0.9375000000000007
 40
0.9375000000000007
 40
1.0
 40
1.0
 40
1.0
 40
1.0
 10
370.6895522388058
 20
493.9064275822143
 30
0.0
 10
370.6895522388058
 20
493.9079968443036
 30
0.0
 10
370.676585409409
 20
493.9095071658604
 30
0.0
 10
370.6257780303864
 20
493.9124183526642
 30
0.0
 10
370.5873211073576
 20
493.9138334791669
 30
0.0
 10
370.486917712904
 20
493.9164781633182
 30
0.0
 10
370.4254762752461
 20
493.9177050757191
 30
0.0
 10
370.2803142985605
 20
493.9199852614796
 30
0.0
 10
370.1958214165343
 20
493.9210421651828
 30
0.0
 10
369.9189697751733
 20
493.9238395300797
 30
0.0
 10
369.6957976839831
 20
493.9252822997728
 30
0.0
 10
369.2143924773454
 20
493.9271902837875
 30
0.0
 10
368.9511641953449
 20
493.9276779285285
 30
0.0
 10
368.5598116560506
 20
493.9276792315398
 30
0.0
 10
368.4273145968479
 20
493.9275576129513
 30
0.0
 10
368.1707853291052
 20
493.9270763476137
 30
0.0
 10
368.0461042895623
 20
493.9267194213981
 30
0.0
 10
367.8039500256104
 20
493.92576122317
 30
0.0
 10
367.6868099650383
 20
493.925157253347
 30
0.0
 10
367.4700565735901
 20
493.9237384258161
 30
0.0
 10
367.369037135456
 20
493.9229189225713
 30
0.0
 10
367.1822887041695
 20
493.9210322571502
 30
0.0
 10
367.0993667180408
 20
493.9199925324083
 30
0.0
 10
366.954521089816
 20
493.9177208683238
 30
0.0
 10
366.8919339960202
 20
493.9164727954016
 30
0.0
 10
366.7915436422427
 20
493.9138258680902
 30
0.0
 10
366.753743458587
 20
493.9124368421146
 30
0.0
 10
366.7026305445081
 20
493.9095189022738
 30
0.0
 10
366.6895522388058
 20
493.9079776870161
 30
0.0
 10
366.6895522388058
 20
493.9064275822142
 30
0.0
  0
LINE
  5
1D8
330
1F
100
AcDbEntity
  8
0
  6
Continuous
 62
     7
370
    25
100
AcDbLine
 10
366.6895528796
 20
493.9064218128
 30
0.0
 11
366.6895528796
 21
493.5238046968
 31
0.0
  0
SPLINE
  5
1D9
330
1F
100
AcDbEntity
  8
0
  6
Continuous
 62
     7
370
    25
100
AcDbSpline
210
0.0
220
0.0
230
1.0
 70
     8
 71
     3
 72
    34
 73
    30
 74
     0
 42
0.000000001
 43
0.00000001
 40
0.0
 40
0.0
 40
0.0
 40
0.0
 40
0.0625000000000007
 40
0.0625000000000007
 40
0.1250000000000015
 40
0.1250000000000015
 40
0.2500000000000026
 40
0.2500000000000026
 40
0.3125000000000023
 40
0.3125000000000023
 40
0.3750000000000022
 40
0.3750000000000022
 40
0.4375000000000019
 40
0.4375000000000019
 40
0.5000000000000018
 40
0.5000000000000018
 40
0.5625000000000016
 40
0.5625000000000016
 40
0.6250000000000012
 40
0.6250000000000012
 40
0.687500000000001
 40
0.687500000000001
 40
0.7500000000000008
 40
0.7500000000000008
 40
0.8125000000000006
 40
0.8125000000000006
 40
0.8750000000000002
 40
0.8750000000000002
 40
1.0
 40
1.0
 40
1.0
 40
1.0
 10
366.6895522388058
 20
493.5238091056098
 30
0.0
 10
366.6895522388058
 20
493.5194849907104
 30
0.0
 10
366.7021959784777
 20
493.5151555081335
 30
0.0
 10
366.7532899743902
 20
493.5064892700165
 30
0.0
 10
366.7916796420699
 20
493.5022064079564
 30
0.0
 10
366.9410169760828
 20
493.4898968579859
 30
0.0
 10
367.0899145948601
 20
493.4821700506487
 30
0.0
 10
367.3662442684721
 20
493.4725062341399
 30
0.0
 10
367.4689987990936
 20
493.4695400680982
 30
0.0
 10
367.6865154696752
 20
493.4644161080112
 30
0.0
 10
367.8013446242884
 20
493.4622402775395
 30
0.0
 10
368.0431713770798
 20
493.4586782423498
 30
0.0
 10
368.1703948421119
 20
493.4573034060241
 30
0.0
 10
368.4261074248479
 20
493.4554872667697
 30
0.0
 10
368.5559465827209
 20
493.4550224514235
 30
0.0
 10
368.8197306280778
 20
493.4550143945372
 30
0.0
 10
368.9502936733203
 20
493.4554747519992
 30
0.0
 10
369.2059122276822
 20
493.4572769950828
 30
0.0
 10
369.3326724838552
 20
493.4586380151836
 30
0.0
 10
369.5753141174117
 20
493.4621966332285
 30
0.0
 10
369.6902505794761
 20
493.4643690890615
 30
0.0
 10
369.9075597469581
 20
493.4694722073546
 30
0.0
 10
370.0105873354481
 20
493.4724358031514
 30
0.0
 10
370.1953238574395
 20
493.4788785022977
 30
0.0
 10
370.2781177716656
 20
493.4823748964475
 30
0.0
 10
370.4242387345384
 20
493.4899083553314
 30
0.0
 10
370.4866399165879
 20
493.4939147355913
 30
0.0
 10
370.6364877205972
 20
493.5062194350968
 30
0.0
 10
370.6895522388058
 20
493.5150540078559
 30
0.0
 10
370.6895522388058
 20
493.52380910561
 30
0.0
  0
LINE
  5
1DA
330
1F
100
AcDbEntity
  8
0
  6
Continuous
 62
     7
370
    25
100
AcDbLine
 10
386.6895524325
 20
493.6703278148
 30
0.0
 11
386.6895524325
 21
493.9064218128
 31
0.0
  0
SPLINE
  5
1DB
330
1F
100
AcDbEntity
  8
0
  6
Continuous
 62
     7
370
    25
100
AcDbSpline
210
0.0
220
0.0
230
1.0
 70
     8
 71
     3
 72
    34
 73
    30
 74
     0
 42
0.000000001
 43
0.00000001
 40
0.0
 40
0.0
 40
0.0
 40
0.0
 40
0.0624999999999998
 40
0.0624999999999998
 40
0.1249999999999996
 40
0.1249999999999996
 40
0.1874999999999994
 40
0.1874999999999994
 40
0.2499999999999992
 40
0.2499999999999992
 40
0.3749999999999991
 40
0.3749999999999991
 40
0.499999999999999
 40
0.499999999999999
 40
0.5624999999999991
 40
0.5624999999999991
 40
0.6249999999999992
 40
0.6249999999999992
 40
0.6874999999999993
 40
0.6874999999999993
 40
0.7499999999999994
 40
0.7499999999999994
 40
0.8124999999999997
 40
0.8124999999999997
 40
0.8749999999999998
 40
0.8749999999999998
 40
0.9374999999999999
 40
0.9374999999999999
 40
1.0
 40
1.0
 40
1.0
 40
1.0
 10
386.6895522388058
 20
493.9064275822143
 30
0.0
 10
386.6895522388058
 20
493.9079968443036
 30
0.0
 10
386.676585409409
 20
493.9095071658604
 30
0.0
 10
386.6257780303865
 20
493.9124183526643
 30
0.0
 10
386.5873211073576
 20
493.9138334791668
 30
0.0
 10
386.486917712904
 20
493.9164781633182
 30
0.0
 10
386.4254762752461
 20
493.917705075719
 30
0.0
 10
386.2803142985605
 20
493.9199852614796
 30
0.0
 10
386.1958214165343
 20
493.9210421651828
 30
0.0
 10
385.9189697751733
 20
493.9238395300798
 30
0.0
 10
385.6957976839831
 20
493.9252822997729
 30
0.0
 10
385.2143924773454
 20
493.9271902837875
 30
0.0
 10
384.9511641953449
 20
493.9276779285285
 30
0.0
 10
384.5598116560506
 20
493.9276792315398
 30
0.0
 10
384.4273145968479
 20
493.9275576129513
 30
0.0
 10
384.1707853291052
 20
493.9270763476136
 30
0.0
 10
384.0461042895623
 20
493.9267194213981
 30
0.0
 10
383.8039500256104
 20
493.92576122317
 30
0.0
 10
383.6868099650384
 20
493.9251572533469
 30
0.0
 10
383.4700565735901
 20
493.9237384258161
 30
0.0
 10
383.369037135456
 20
493.9229189225713
 30
0.0
 10
383.1822887041695
 20
493.92103225715
 30
0.0
 10
383.0993667180409
 20
493.9199925324083
 30
0.0
 10
382.954521089816
 20
493.9177208683238
 30
0.0
 10
382.8919339960202
 20
493.9164727954016
 30
0.0
 10
382.7915436422427
 20
493.9138258680901
 30
0.0
 10
382.7537434585871
 20
493.9124368421146
 30
0.0
 10
382.7026305445082
 20
493.9095189022737
 30
0.0
 10
382.6895522388058
 20
493.907977687016
 30
0.0
 10
382.6895522388058
 20
493.9064275822142
 30
0.0
  0
LINE
  5
1DC
330
1F
100
AcDbEntity
  8
0
  6
Continuous
 62
     7
370
    25
100
AcDbLine
 10
382.6895517769
 20
493.9064218128
 30
0.0
 11
382.6895517769
 21
493.5238046968
 31
0.0
  0
SPLINE
  5
1DD
330
1F
100
AcDbEntity
  8
0
  6
Continuous
 62
     7
370
    25
100
AcDbSpline
210
0.0
220
0.0
230
1.0
 70
     8
 71
     3
 72
    15
 73
    11
 74
     0
 42
0.000000001
 43
0.00000001
 40
0.0
 40
0.0
 40
0.0
 40
0.0
 40
0.0955680351179972
 40
0.2341939535967539
 40
0.3727967893033095
 40
0.5113315876522427
 40
0.6497839916334044
 40
0.7881804928043021
 40
0.9265774658704166
 40
1.0
 40
1.0
 40
1.0
 40
1.0
 10
382.6895517768699
 20
493.52380469678
 30
0.0
 10
382.7001959927357
 20
493.5186526787869
 30
0.0
 10
382.7262801430844
 20
493.5060274169895
 30
0.0
 10
382.9753203003437
 20
493.4866763068048
 30
0.0
 10
383.4335386639385
 20
493.4690027552367
 30
0.0
 10
384.036297072262
 20
493.4574910903104
 30
0.0
 10
384.7137759691338
 20
493.4536127389749
 30
0.0
 10
385.3801522630087
 20
493.4581840210861
 30
0.0
 10
385.9028340649409
 20
493.4676751801226
 30
0.0
 10
386.1157498247729
 20
493.4770674770147
 30
0.0
 10
386.1895523505646
 20
493.4803231084164
 30
0.0
  0
LINE
  5
1DE
330
1F
100
AcDbEntity
  8
0
  6
Continuous
 62
     7
370
    25
100
AcDbLine
 10
403.6895524251
 20
493.9064218128
 30
0.0
 11
403.6895524251
 21
493.5238046968
 31
0.0
  0
SPLINE
  5
1DF
330
1F
100
AcDbEntity
  8
0
  6
Continuous
 62
     7
370
    25
100
AcDbSpline
210
0.0
220
0.0
230
1.0
 70
     8
 71
     3
 72
    34
 73
    30
 74
     0
 42
0.000000001
 43
0.00000001
 40
0.0
 40
0.0
 40
0.0
 40
0.0
 40
0.0625000000000003
 40
0.0625000000000003
 40
0.1250000000000006
 40
0.1250000000000006
 40
0.2500000000000008
 40
0.2500000000000008
 40
0.3125000000000008
 40
0.3125000000000008
 40
0.3750000000000007
 40
0.3750000000000007
 40
0.4375000000000007
 40
0.4375000000000007
 40
0.5000000000000006
 40
0.5000000000000006
 40
0.5625000000000006
 40
0.5625000000000006
 40
0.6250000000000006
 40
0.6250000000000006
 40
0.6875000000000006
 40
0.6875000000000006
 40
0.7500000000000004
 40
0.7500000000000004
 40
0.8125000000000004
 40
0.8125000000000004
 40
0.8750000000000004
 40
0.8750000000000004
 40
1.0
 40
1.0
 40
1.0
 40
1.0
 10
403.6895522388057
 20
493.5238091056098
 30
0.0
 10
403.6895522388057
 20
493.5194849907104
 30
0.0
 10
403.7021959784777
 20
493.5151555081335
 30
0.0
 10
403.7532899743901
 20
493.5064892700165
 30
0.0
 10
403.7916796420699
 20
493.5022064079565
 30
0.0
 10
403.9410169760828
 20
493.4898968579859
 30
0.0
 10
404.0899145948601
 20
493.4821700506487
 30
0.0
 10
404.366244268472
 20
493.4725062341399
 30
0.0
 10
404.4689987990935
 20
493.4695400680982
 30
0.0
 10
404.6865154696751
 20
493.4644161080112
 30
0.0
 10
404.8013446242883
 20
493.4622402775395
 30
0.0
 10
405.0431713770797
 20
493.4586782423498
 30
0.0
 10
405.1703948421119
 20
493.4573034060242
 30
0.0
 10
405.4261074248479
 20
493.4554872667697
 30
0.0
 10
405.5559465827209
 20
493.4550224514235
 30
0.0
 10
405.8197306280779
 20
493.4550143945372
 30
0.0
 10
405.9502936733203
 20
493.4554747519991
 30
0.0
 10
406.2059122276822
 20
493.4572769950827
 30
0.0
 10
406.3326724838552
 20
493.4586380151835
 30
0.0
 10
406.5753141174117
 20
493.4621966332285
 30
0.0
 10
406.6902505794761
 20
493.4643690890614
 30
0.0
 10
406.9075597469582
 20
493.4694722073546
 30
0.0
 10
407.0105873354481
 20
493.4724358031513
 30
0.0
 10
407.1953238574395
 20
493.4788785022976
 30
0.0
 10
407.2781177716656
 20
493.4823748964475
 30
0.0
 10
407.4242387345383
 20
493.4899083553313
 30
0.0
 10
407.4866399165878
 20
493.4939147355913
 30
0.0
 10
407.6364877205971
 20
493.5062194350969
 30
0.0
 10
407.6895522388058
 20
493.515054007856
 30
0.0
 10
407.6895522388058
 20
493.52380910561
 30
0.0
  0
LINE
  5
1E0
330
1F
100
AcDbEntity
  8
0
  6
Continuous
 62
     7
370
    25
100
AcDbLine
 10
407.6895521494
 20
493.5238046968
 30
0.0
 11
407.6895521494
 21
493.9064218128
 31
0.0
  0
SPLINE
  5
1E1
330
1F
100
AcDbEntity
  8
0
  6
Continuous
 62
     7
370
    25
100
AcDbSpline
210
0.0
220
0.0
230
1.0
 70
     8
 71
     3
 72
    34
 73
    30
 74
     0
 42
0.000000001
 43
0.00000001
 40
0.0
 40
0.0
 40
0.0
 40
0.0
 40
0.0624999999999998
 40
0.0624999999999998
 40
0.1249999999999996
 40
0.1249999999999996
 40
0.1874999999999993
 40
0.1874999999999993
 40
0.2499999999999991
 40
0.2499999999999991
 40
0.3749999999999987
 40
0.3749999999999987
 40
0.4999999999999982
 40
0.4999999999999982
 40
0.5624999999999984
 40
0.5624999999999984
 40
0.6249999999999987
 40
0.6249999999999987
 40
0.6874999999999989
 40
0.6874999999999989
 40
0.7499999999999991
 40
0.7499999999999991
 40
0.8124999999999993
 40
0.8124999999999993
 40
0.8749999999999996
 40
0.8749999999999996
 40
0.9374999999999998
 40
0.9374999999999998
 40
1.0
 40
1.0
 40
1.0
 40
1.0
 10
407.6895522388059
 20
493.9064275822143
 30
0.0
 10
407.6895522388059
 20
493.9079968443037
 30
0.0
 10
407.676585409409
 20
493.9095071658605
 30
0.0
 10
407.6257780303865
 20
493.9124183526643
 30
0.0
 10
407.5873211073576
 20
493.9138334791669
 30
0.0
 10
407.486917712904
 20
493.9164781633182
 30
0.0
 10
407.4254762752461
 20
493.917705075719
 30
0.0
 10
407.2803142985605
 20
493.9199852614796
 30
0.0
 10
407.1958214165343
 20
493.9210421651828
 30
0.0
 10
406.9189697751733
 20
493.9238395300797
 30
0.0
 10
406.6957976839831
 20
493.9252822997728
 30
0.0
 10
406.2143924773453
 20
493.9271902837875
 30
0.0
 10
405.9511641953447
 20
493.9276779285285
 30
0.0
 10
405.5598116560505
 20
493.9276792315397
 30
0.0
 10
405.4273145968479
 20
493.9275576129513
 30
0.0
 10
405.1707853291052
 20
493.9270763476137
 30
0.0
 10
405.0461042895622
 20
493.9267194213981
 30
0.0
 10
404.8039500256105
 20
493.92576122317
 30
0.0
 10
404.6868099650384
 20
493.9251572533469
 30
0.0
 10
404.4700565735901
 20
493.9237384258161
 30
0.0
 10
404.369037135456
 20
493.9229189225713
 30
0.0
 10
404.1822887041694
 20
493.9210322571501
 30
0.0
 10
404.0993667180409
 20
493.9199925324083
 30
0.0
 10
403.9545210898161
 20
493.9177208683238
 30
0.0
 10
403.8919339960203
 20
493.9164727954015
 30
0.0
 10
403.7915436422428
 20
493.9138258680902
 30
0.0
 10
403.7537434585871
 20
493.9124368421146
 30
0.0
 10
403.7026305445082
 20
493.9095189022738
 30
0.0
 10
403.6895522388058
 20
493.907977687016
 30
0.0
 10
403.6895522388058
 20
493.9064275822142
 30
0.0
  0
LINE
  5
1E2
330
1F
100
AcDbEntity
  8
0
  6
Continuous
 62
     7
370
    25
100
AcDbLine
 10
591.189555219
 20
203.9628385031
 30
0.0
 11
583.1620165618
 21
203.9628385031
 31
0.0
  0
SPLINE
  5
1E3
330
1F
100
AcDbEntity
  8
0
  6
Continuous
 62
     7
370
    25
100
AcDbSpline
210
0.0
220
0.0
230
1.0
 70
     8
 71
     3
 72
    16
 73
    12
 74
     0
 42
0.000000001
 43
0.00000001
 40
0.0
 40
0.0
 40
0.0
 40
0.0
 40
0.25
 40
0.25
 40
0.5
 40
0.5
 40
0.625
 40
0.625
 40
0.75
 40
0.75
 40
1.0
 40
1.0
 40
1.0
 40
1.0
 10
581.8754373139184
 20
443.9628358208946
 30
0.0
 10
581.759757927758
 20
423.9318545416343
 30
0.0
 10
581.6999318478786
 20
403.9064313454068
 30
0.0
 10
581.7002321345401
 20
363.8671900606265
 30
0.0
 10
581.7603534164365
 20
343.8533716057959
 30
0.0
 10
581.9340001841022
 20
313.8409509690725
 30
0.0
 10
582.0056662407275
 20
303.8381877614852
 30
0.0
 10
582.1745171394253
 20
283.8353068235522
 30
0.0
 10
582.271717863532
 20
273.8332595638473
 30
0.0
 10
582.5979633673601
 20
243.8518160261354
 30
0.0
 10
582.8616636555375
 20
223.8935404338936
 30
0.0
 10
583.1620222437517
 20
203.9628358208953
 30
0.0
  0
SPLINE
  5
1E4
330
1F
100
AcDbEntity
  8
0
  6
Continuous
 62
     7
370
    25
100
AcDbSpline
210
0.0
220
0.0
230
1.0
 70
     8
 71
     3
 72
    14
 73
    10
 74
     0
 42
0.000000001
 43
0.00000001
 40
0.0
 40
0.0
 40
0.0
 40
0.0
 40
0.25
 40
0.25
 40
0.5
 40
0.5
 40
0.75
 40
0.75
 40
1.0
 40
1.0
 40
1.0
 40
1.0
 10
199.21708223386
 20
203.9628358208956
 30
0.0
 10
199.5177160764234
 20
223.911805312411
 30
0.0
 10
199.7813751961955
 20
243.8724645493411
 30
0.0
 10
200.2160329845445
 20
283.8185522825665
 30
0.0
 10
200.3869546288815
 20
303.8039941124947
 30
0.0
 10
200.6185299167397
 20
343.801776904031
 30
0.0
 10
200.6787810197339
 20
363.8142011589934
 30
0.0
 10
200.679263055033
 20
403.867477283202
 30
0.0
 10
200.6194823979041
 20
423.9083311651542
 30
0.0
 10
200.5036671636934
 20
443.962835820895
 30
0.0
  0
LINE
  5
1E5
330
1F
100
AcDbEntity
  8
0
  6
Continuous
 62
     7
370
    25
100
AcDbLine
 10
191.1895492586
 20
203.9628385031
 30
0.0
 11
199.2170879158
 21
203.9628385031
 31
0.0
  0
SPLINE
  5
1E6
330
1F
100
AcDbEntity
  8
0
  6
Continuous
 62
     7
370
    25
100
AcDbSpline
210
0.0
220
0.0
230
1.0
 70
     8
 71
     3
 72
    36
 73
    32
 74
     0
 42
0.000000001
 43
0.00000001
 40
0.0
 40
0.0
 40
0.0
 40
0.0
 40
0.1250000000000017
 40
0.1250000000000017
 40
0.1875000000000024
 40
0.1875000000000024
 40
0.2187500000000028
 40
0.2187500000000028
 40
0.2500000000000032
 40
0.2500000000000032
 40
0.3750000000000034
 40
0.3750000000000034
 40
0.4062500000000032
 40
0.4062500000000032
 40
0.4375000000000031
 40
0.4375000000000031
 40
0.5000000000000034
 40
0.5000000000000034
 40
0.6250000000000024
 40
0.6250000000000024
 40
0.6562500000000024
 40
0.6562500000000024
 40
0.6875000000000024
 40
0.6875000000000024
 40
0.7500000000000019
 40
0.7500000000000019
 40
0.8125000000000014
 40
0.8125000000000014
 40
0.875000000000001
 40
0.875000000000001
 40
1.0
 40
1.0
 40
1.0
 40
1.0
 10
241.1895522388058
 20
161.9719428549307
 30
0.0
 10
238.4165940540875
 20
161.9658505541901
 30
0.0
 10
235.6885564025698
 20
162.2325380643483
 30
0.0
 10
231.6612542391769
 20
163.0257948093231
 30
0.0
 10
230.3296928528158
 20
163.3562388091505
 30
0.0
 10
228.3490525424901
 20
163.9533280979938
 30
0.0
 10
227.6898979609545
 20
164.1699303748041
 30
0.0
 10
226.3865291201935
 20
164.6344204682556
 30
0.0
 10
225.7430738565264
 20
164.8819196173234
 30
0.0
 10
222.5661679525779
 20
166.1942486234354
 30
0.0
 10
220.1526731050382
 20
167.4814364570075
 30
0.0
 10
217.2953840162075
 20
169.386228537873
 30
0.0
 10
216.7319772539766
 20
169.7821109336435
 30
0.0
 10
215.621550744618
 20
170.6042518043298
 30
0.0
 10
215.0736193130526
 20
171.0313611870248
 30
0.0
 10
213.4717978549808
 20
172.3450356310357
 30
0.0
 10
212.4544851451672
 20
173.2674759053574
 30
0.0
 10
209.5502812175075
 20
176.1711051700184
 30
0.0
 10
207.8096869068113
 20
178.2872764623575
 30
0.0
 10
205.886914243706
 20
181.1658961841004
 30
0.0
 10
205.5164561513375
 20
181.7515509889064
 30
0.0
 10
204.8085393981236
 20
182.9342483382166
 30
0.0
 10
204.4702579981274
 20
183.5325086618186
 30
0.0
 10
203.5017559920707
 20
185.3477209482877
 30
0.0
 10
202.9177679487519
 20
186.5850558921207
 30
0.0
 10
201.8722151732799
 20
189.1136997964017
 30
0.0
 10
201.4106463608891
 20
190.4050069577521
 30
0.0
 10
200.6125670955846
 20
193.0427571654926
 30
0.0
 10
200.2759675036012
 20
194.3928541516111
 30
0.0
 10
199.4752657548759
 20
198.4511339727929
 30
0.0
 10
199.2097909774729
 20
201.1900235637796
 30
0.0
 10
199.21708223386
 20
203.9628358208957
 30
0.0
  0
LINE
  5
1E7
330
1F
100
AcDbEntity
  8
0
  6
Continuous
 62
     7
370
    25
100
AcDbLine
 10
241.1895462783
 20
153.9628340328
 30
0.0
 11
241.1895462783
 21
161.9719399535
 31
0.0
  0
LINE
  5
1E8
330
1F
100
AcDbEntity
  8
0
  6
Continuous
 62
     7
370
    25
100
AcDbLine
 10
541.1895581993
 20
153.9628340328
 30
0.0
 11
541.1895581993
 21
161.9719399535
 31
0.0
  0
SPLINE
  5
1E9
330
1F
100
AcDbEntity
  8
0
  6
Continuous
 62
     7
370
    25
100
AcDbSpline
210
0.0
220
0.0
230
1.0
 70
     8
 71
     3
 72
    36
 73
    32
 74
     0
 42
0.000000001
 43
0.00000001
 40
0.0
 40
0.0
 40
0.0
 40
0.0
 40
0.1250000000000019
 40
0.1250000000000019
 40
0.187500000000002
 40
0.187500000000002
 40
0.2187500000000019
 40
0.2187500000000019
 40
0.2500000000000018
 40
0.2500000000000018
 40
0.3749999999999989
 40
0.3749999999999989
 40
0.4062499999999989
 40
0.4062499999999989
 40
0.4374999999999989
 40
0.4374999999999989
 40
0.4999999999999998
 40
0.4999999999999998
 40
0.6250000000000018
 40
0.6250000000000018
 40
0.6562500000000018
 40
0.6562500000000018
 40
0.6875000000000018
 40
0.6875000000000018
 40
0.7500000000000013
 40
0.7500000000000013
 40
0.812500000000001
 40
0.812500000000001
 40
0.8750000000000006
 40
0.8750000000000006
 40
1.0
 40
1.0
 40
1.0
 40
1.0
 10
583.1620222437517
 20
203.9628358208953
 30
0.0
 10
583.1693136873413
 20
201.1899523720413
 30
0.0
 10
582.9038253889119
 20
198.4620547478874
 30
0.0
 10
582.1125233307158
 20
194.4350307426125
 30
0.0
 10
581.7827567371869
 20
193.1035735661283
 30
0.0
 10
581.1867445535892
 20
191.1231036586102
 30
0.0
 10
580.9705412892982
 20
190.4640769261146
 30
0.0
 10
580.5065868910901
 20
189.160224389743
 30
0.0
 10
580.2593577037436
 20
188.5165565533503
 30
0.0
 10
578.9484117660187
 20
185.338718988795
 30
0.0
 10
577.6624352335482
 20
182.9248952473475
 30
0.0
 10
575.7596400679588
 20
180.0675231393012
 30
0.0
 10
575.3641813963992
 20
179.5041163354713
 30
0.0
 10
574.5429469722366
 20
178.3937183275808
 30
0.0
 10
574.116119571684
 20
177.8455439368451
 30
0.0
 10
572.8027413581906
 20
176.2424003729425
 30
0.0
 10
571.8805741080035
 20
175.224391603623
 30
0.0
 10
568.9781120160131
 20
172.3185021441905
 30
0.0
 10
566.8631741683232
 20
170.5773229854483
 30
0.0
 10
563.9871193815037
 20
168.6540435150265
 30
0.0
 10
563.4010438046257
 20
168.2828671460231
 30
0.0
 10
562.2180985811929
 20
167.5739729664958
 30
0.0
 10
561.6197520348613
 20
167.2352474183428
 30
0.0
 10
559.8044034874607
 20
166.2655197542774
 30
0.0
 10
558.567140633065
 20
165.6808567119575
 30
0.0
 10
556.039020280416
 20
164.634108095533
 30
0.0
 10
554.748164295567
 20
164.1720190602983
 30
0.0
 10
552.1117610715005
 20
163.3729264041731
 30
0.0
 10
550.7616906851891
 20
163.0355752352676
 30
0.0
 10
546.7020588560741
 20
162.2325564346165
 30
0.0
 10
543.9625869972841
 20
161.9658503859544
 30
0.0
 10
541.1895522388055
 20
161.9719428549305
 30
0.0
  0
SPLINE
  5
1EA
330
1F
100
AcDbEntity
  8
0
  6
Continuous
 62
     7
370
    25
100
AcDbSpline
210
0.0
220
0.0
230
1.0
 70
     8
 71
     3
 72
    16
 73
    12
 74
     0
 42
0.000000001
 43
0.00000001
 40
0.0
 40
0.0
 40
0.0
 40
0.0
 40
0.25
 40
0.25
 40
0.5
 40
0.5
 40
0.75
 40
0.75
 40
0.875
 40
0.875
 40
1.0
 40
1.0
 40
1.0
 40
1.0
 10
541.1895522388055
 20
161.9719428549307
 30
0.0
 10
516.2211823535001
 20
162.2857124447092
 30
0.0
 10
491.2437125292358
 20
162.5349532382533
 30
0.0
 10
441.2692415188303
 20
162.8731608351678
 30
0.0
 10
416.2721823656064
 20
162.9615285619062
 30
0.0
 10
366.2575269857716
 20
162.9618780497242
 30
0.0
 10
341.239929984232
 20
162.8738491263334
 30
0.0
 10
303.6987253662433
 20
162.6200724056295
 30
0.0
 10
291.1803508251078
 20
162.5153785122438
 30
0.0
 10
266.17053875273
 20
162.2697698235696
 30
0.0
 10
253.6753588278437
 20
162.1288480285359
 30
0.0
 10
241.1895522388056
 20
161.9719428549305
 30
0.0
  0
SPLINE
  5
1EB
330
1F
100
AcDbEntity
  8
0
  6
Continuous
 62
     7
370
    25
100
AcDbSpline
210
0.0
220
0.0
230
1.0
 70
     8
 71
     3
 72
    16
 73
    12
 74
     0
 42
0.000000001
 43
0.00000001
 40
0.0
 40
0.0
 40
0.0
 40
0.0
 40
0.25
 40
0.25
 40
0.5
 40
0.5
 40
0.625
 40
0.625
 40
0.75
 40
0.75
 40
1.0
 40
1.0
 40
1.0
 40
1.0
 10
231.8915809573045
 20
445.194634527913
 30
0.0
 10
231.9747300611765
 20
424.7751727303701
 30
0.0
 10
232.0134025412244
 20
404.3608186332468
 30
0.0
 10
232.0133739863096
 20
363.5427086666441
 30
0.0
 10
231.974669515336
 20
343.1389525926186
 30
0.0
 10
231.8500931817648
 20
312.5409564275374
 30
0.0
 10
231.7973434759918
 20
302.3428913679759
 30
0.0
 10
231.6682733551019
 20
281.9492066855744
 30
0.0
 10
231.5919315555906
 20
271.7517757676849
 30
0.0
 10
231.3279821406633
 20
241.1823114357723
 30
0.0
 10
231.1051422373254
 20
220.8300018873931
 30
0.0
 10
230.8423123257597
 20
200.5034595593342
 30
0.0
  0
LWPOLYLINE
  5
1EC
330
1F
100
AcDbEntity
  8
0
  6
Continuous
 62
     7
370
    25
100
AcDbPolyline
 90
       14
 70
   128
 43
0.0
 10
230.8423140558
 20
200.5034594261
 10
227.2623398813
 20
200.6045340025
 10
223.7528183969
 20
200.741438421
 10
220.3511664184
 20
200.9126974666
 10
217.0936682733
 20
201.1164931977
 10
214.0150734695
 20
201.3506500447
 10
211.1482092651
 20
201.6126720631
 10
208.5236826452
 20
201.8997578347
 10
206.1694630893
 20
202.2088526213
 10
204.1106739553
 20
202.5366558158
 10
202.3692795547
 20
202.8796730959
 10
200.9638467344
 20
203.2342462265
 10
199.9093660625
 20
203.5965903127
 10
199.2170879158
 20
203.9628385031
  0
LWPOLYLINE
  5
1ED
330
1F
100
AcDbEntity
  8
0
  6
Continuous
 62
     7
370
    25
100
AcDbPolyline
 90
       14
 70
   128
 43
0.0
 10
231.8915793212
 20
445.1946376288
 10
228.3582308801
 20
445.1569451415
 10
224.8949626001
 20
445.106839987
 10
221.5378203901
 20
445.0448288047
 10
218.3217027696
 20
444.9715597951
 10
215.2800777467
 20
444.8878078186
 10
212.4445953878
 20
444.7944222414
 10
209.8447301897
 20
444.6923939907
 10
207.5075426611
 20
444.5827735984
 10
205.4573365959
 20
444.4667084539
 10
203.7154355558
 20
444.3453981006
 10
202.299974254
 20
444.2201091373
 10
201.2256601366
 20
444.0921454155
 10
200.5036690744
 20
443.9628331387
  0
SPLINE
  5
1EE
330
1F
100
AcDbEntity
  8
0
  6
Continuous
 62
     7
370
    25
100
AcDbSpline
210
0.0
220
0.0
230
1.0
 70
     8
 71
     3
 72
    16
 73
    12
 74
     0
 42
0.000000001
 43
0.00000001
 40
0.0
 40
0.0
 40
0.0
 40
0.0
 40
0.1250000000000001
 40
0.1250000000000001
 40
0.2500000000000001
 40
0.2500000000000001
 40
0.5000000000000001
 40
0.5000000000000001
 40
0.7500000000000001
 40
0.7500000000000001
 40
1.0
 40
1.0
 40
1.0
 40
1.0
 10
238.3085149773298
 20
193.0232961479738
 30
0.0
 10
251.0353535474973
 20
193.1575894044215
 30
0.0
 10
263.7709118608681
 20
193.2757417524306
 30
0.0
 10
289.2600696695033
 20
193.47770151034
 30
0.0
 10
302.0171173314684
 20
193.5615179681877
 30
0.0
 10
340.2753339826317
 20
193.760978034476
 30
0.0
 10
365.7717092493152
 20
193.8250771818065
 30
0.0
 10
416.745624495501
 20
193.8248430054535
 30
0.0
 10
442.2231650251085
 20
193.7605034450133
 30
0.0
 10
493.1601224477419
 20
193.4946462484222
 30
0.0
 10
518.6195846406434
 20
193.2918544630355
 30
0.0
 10
544.0705895002817
 20
193.0232961479736
 30
0.0
  0
LWPOLYLINE
  5
1EF
330
1F
100
AcDbEntity
  8
0
  6
Continuous
 62
     7
370
    25
100
AcDbPolyline
 90
       14
 70
   128
 43
0.0
 10
544.070593408
 20
193.0232925737
 10
543.982497743
 20
189.4955171668
 10
543.8653299125
 20
186.0419048393
 10
543.7203267129
 20
182.6983673894
 10
543.5489931615
 20
179.4997139299
 10
543.3531024965
 20
176.4792336547
 10
543.134711078
 20
173.6683382118
 10
542.8960689815
 20
171.0962934816
 10
542.6396647008
 20
168.7898470485
 10
542.3681804451
 20
166.7730195844
 10
542.0844176324
 20
165.0667770231
 10
541.7913564952
 20
163.6888815486
 10
541.4920219692
 20
162.6536829793
 10
541.1895581993
 20
161.9719399535
  0
LWPOLYLINE
  5
1F0
330
1F
100
AcDbEntity
  8
0
  6
Continuous
 62
     7
370
    25
100
AcDbPolyline
 90
       14
 70
   128
 43
0.0
 10
238.3085110696
 20
193.0232925737
 10
238.3966067346
 20
189.4955171668
 10
238.5137745651
 20
186.0419048393
 10
238.6587777647
 20
182.6983673894
 10
238.8301113161
 20
179.4997139299
 10
239.0260019811
 20
176.4792336547
 10
239.2443933996
 20
173.6683382118
 10
239.4830354961
 20
171.0962934816
 10
239.7394397768
 20
168.7898470485
 10
240.0109240326
 20
166.7730195844
 10
240.2946868452
 20
165.0667770231
 10
240.5877479824
 20
163.6888815486
 10
240.8870825084
 20
162.6536829793
 10
241.1895462783
 20
161.9719399535
  0
LWPOLYLINE
  5
1F1
330
1F
100
AcDbEntity
  8
0
  6
Continuous
 62
     7
370
    25
100
AcDbPolyline
 90
       14
 70
   128
 43
0.0
 10
551.5367904218
 20
200.5034594261
 10
555.1167645963
 20
200.6045340025
 10
558.6262860807
 20
200.741438421
 10
562.0279380592
 20
200.9126974666
 10
565.2854362043
 20
201.1164931977
 10
568.3640310081
 20
201.3506500447
 10
571.2308952125
 20
201.6126720631
 10
573.8554218324
 20
201.8997578347
 10
576.2096413883
 20
202.2088526213
 10
578.2684305223
 20
202.5366558158
 10
580.0098249229
 20
202.8796730959
 10
581.4152577432
 20
203.2342462265
 10
582.4697384151
 20
203.5965903127
 10
583.1620165618
 20
203.9628385031
  0
SPLINE
  5
1F2
330
1F
100
AcDbEntity
  8
0
  6
Continuous
 62
     7
370
    25
100
AcDbSpline
210
0.0
220
0.0
230
1.0
 70
     8
 71
     3
 72
    16
 73
    12
 74
     0
 42
0.000000001
 43
0.00000001
 40
0.0
 40
0.0
 40
0.0
 40
0.0
 40
0.25
 40
0.25
 40
0.375
 40
0.375
 40
0.5
 40
0.5
 40
0.75
 40
0.75
 40
1.0
 40
1.0
 40
1.0
 40
1.0
 10
551.5367921518517
 20
200.5034595593344
 30
0.0
 10
551.2739623446603
 20
220.829993815373
 30
0.0
 10
551.0511225712556
 20
241.1822909347452
 30
0.0
 10
550.7871732917173
 20
271.7517296333356
 30
0.0
 10
550.710831400758
 20
281.949166511575
 30
0.0
 10
550.5817611189258
 20
302.3428690425214
 30
0.0
 10
550.529011361898
 20
312.5409417202317
 30
0.0
 10
550.4044349333027
 20
343.1389566768479
 30
0.0
 10
550.3657304750694
 20
363.5427198358431
 30
0.0
 10
550.3657019526019
 20
404.360832628452
 30
0.0
 10
550.4043744560798
 20
424.7751824661743
 30
0.0
 10
550.4875235203073
 20
445.1946345279125
 30
0.0
  0
LWPOLYLINE
  5
1F3
330
1F
100
AcDbEntity
  8
0
  6
Continuous
 62
     7
370
    25
100
AcDbPolyline
 90
       14
 70
   128
 43
0.0
 10
581.8754354032
 20
443.9628331387
 10
581.153444341
 20
444.0921454155
 10
580.0791302236
 20
444.2201091373
 10
578.6636689218
 20
444.3453981006
 10
576.9217678817
 20
444.4667084539
 10
574.8715618166
 20
444.5827735984
 10
572.5343742879
 20
444.6923939907
 10
569.9345090898
 20
444.7944222414
 10
567.0990267309
 20
444.8878078186
 10
564.057401708
 20
444.9715597951
 10
560.8412840875
 20
445.0448288047
 10
557.4841418775
 20
445.106839987
 10
554.0208735975
 20
445.1569451415
 10
550.4875251564
 20
445.1946376288
  0
SPLINE
  5
1F4
330
1F
100
AcDbEntity
  8
0
  6
Continuous
 62
     7
370
    25
100
AcDbSpline
210
0.0
220
0.0
230
1.0
 70
     8
 71
     3
 72
    28
 73
    24
 74
     0
 42
0.000000001
 43
0.00000001
 40
0.0
 40
0.0
 40
0.0
 40
0.0
 40
0.1250000000000029
 40
0.1250000000000029
 40
0.1875000000000051
 40
0.1875000000000051
 40
0.2500000000000072
 40
0.2500000000000072
 40
0.3750000000000115
 40
0.3750000000000115
 40
0.5000000000000158
 40
0.5000000000000158
 40
0.5625000000000153
 40
0.5625000000000153
 40
0.625000000000015
 40
0.625000000000015
 40
0.7500000000000083
 40
0.7500000000000083
 40
0.8125000000000066
 40
0.8125000000000066
 40
0.8750000000000048
 40
0.8750000000000048
 40
1.0
 40
1.0
 40
1.0
 40
1.0
 10
544.0705895002817
 20
193.0232961479737
 30
0.0
 10
544.5646221754931
 20
193.0180831285439
 30
0.0
 10
545.0533117344876
 20
193.062097174675
 30
0.0
 10
545.7784325559336
 20
193.2010192891029
 30
0.0
 10
546.0197677802613
 20
193.2599382636372
 30
0.0
 10
546.4910618874052
 20
193.4003185926688
 30
0.0
 10
546.7218600807759
 20
193.4818389899626
 30
0.0
 10
547.3999960330982
 20
193.7597178458993
 30
0.0
 10
547.8348107596722
 20
193.9901233935948
 30
0.0
 10
548.6581025618078
 20
194.5390907051341
 30
0.0
 10
549.0360616453305
 20
194.8501776858479
 30
0.0
 10
549.5541505770888
 20
195.3698871174397
 30
0.0
 10
549.7186438822357
 20
195.5520367924194
 30
0.0
 10
550.0307575977932
 20
195.9346698379621
 30
0.0
 10
550.1776794080567
 20
196.1345409712464
 30
0.0
 10
550.5834513366026
 20
196.7482765897168
 30
0.0
 10
550.8110220177141
 20
197.1801223187982
 30
0.0
 10
551.0878462746548
 20
197.8619846334348
 30
0.0
 10
551.1696237216494
 20
198.096352097716
 30
0.0
 10
551.3081181636743
 20
198.5681384256646
 30
0.0
 10
551.3651256684781
 20
198.8058443152358
 30
0.0
 10
551.5003641471752
 20
199.5242614185669
 30
0.0
 10
551.5431699404999
 20
200.0102189302899
 30
0.0
 10
551.536792151852
 20
200.5034595593344
 30
0.0
  0
SPLINE
  5
1F5
330
1F
100
AcDbEntity
  8
0
  6
Continuous
 62
     7
370
    25
100
AcDbSpline
210
0.0
220
0.0
230
1.0
 70
     8
 71
     3
 72
    28
 73
    24
 74
     0
 42
0.000000001
 43
0.00000001
 40
0.0
 40
0.0
 40
0.0
 40
0.0
 40
0.1249999999999933
 40
0.1249999999999933
 40
0.1874999999999904
 40
0.1874999999999904
 40
0.2499999999999874
 40
0.2499999999999874
 40
0.374999999999988
 40
0.374999999999988
 40
0.4999999999999887
 40
0.4999999999999887
 40
0.5624999999999916
 40
0.5624999999999916
 40
0.6249999999999944
 40
0.6249999999999944
 40
0.7500000000000002
 40
0.7500000000000002
 40
0.8125000000000016
 40
0.8125000000000016
 40
0.8750000000000029
 40
0.8750000000000029
 40
1.0
 40
1.0
 40
1.0
 40
1.0
 10
230.8423123257598
 20
200.5034595593341
 30
0.0
 10
230.8359345662281
 20
200.0102211820664
 30
0.0
 10
230.878718381881
 20
199.5222509301884
 30
0.0
 10
231.0156419494261
 20
198.7980922913924
 30
0.0
 10
231.0738815263747
 20
198.5569650286006
 30
0.0
 10
231.2129973037706
 20
198.0857456037406
 30
0.0
 10
231.2938869223197
 20
197.8549696186941
 30
0.0
 10
231.5698588711776
 20
197.1768477891082
 30
0.0
 10
231.7986910840011
 20
196.7423823770779
 30
0.0
 10
232.3455988340419
 20
195.9178041990506
 30
0.0
 10
232.6557536072896
 20
195.5391260706576
 30
0.0
 10
233.1741765084974
 20
195.0198214640604
 30
0.0
 10
233.3559161926201
 20
194.8548999838801
 30
0.0
 10
233.7377628329889
 20
194.5418779471874
 30
0.0
 10
233.9374743513489
 20
194.3943146446503
 30
0.0
 10
234.5507464354888
 20
193.9867172579294
 30
0.0
 10
234.982438011104
 20
193.7579054540222
 30
0.0
 10
235.6642986763714
 20
193.4791767125388
 30
0.0
 10
235.8987169109866
 20
193.396746188222
 30
0.0
 10
236.3708502982923
 20
193.2569206572216
 30
0.0
 10
236.6087657080518
 20
193.199262180742
 30
0.0
 10
237.3279163596441
 20
193.0621112340043
 30
0.0
 10
237.8145017381505
 20
193.0180833336324
 30
0.0
 10
238.3085149773298
 20
193.0232961479736
 30
0.0
  0
LWPOLYLINE
  5
1F6
330
1F
100
AcDbEntity
  8
0
  6
Continuous
 62
     7
370
    25
100
AcDbPolyline
 90
       14
 70
   128
 43
0.0
 10
370.3508073004
 20
483.4059460485
 10
370.2910629573
 20
482.6265855157
 10
370.2319686773
 20
481.4790023887
 10
370.1741707983
 20
479.9757136428
 10
370.1182988944
 20
478.1331105554
 10
370.0649639132
 20
475.9712947929
 10
370.014747
 20
473.5138399923
 10
369.9681957724
 20
470.7875533426
 10
369.9258187326
 20
467.8221775615
 10
369.8880759539
 20
464.65006307
 10
369.8553809436
 20
461.3057954633
 10
369.8280894669
 20
457.8258676851
 10
369.806499547
 20
454.2482180917
 10
369.7908477398
 20
450.6118877256
  0
SPLINE
  5
1F7
330
1F
100
AcDbEntity
  8
0
  6
Continuous
 62
     7
370
    25
100
AcDbSpline
210
0.0
220
0.0
230
1.0
 70
     8
 71
     3
 72
    12
 73
     8
 74
     0
 42
0.000000001
 43
0.00000001
 40
0.0
 40
0.0
 40
0.0
 40
0.0
 40
0.2500000000000001
 40
0.2500000000000001
 40
0.5000000000000001
 40
0.5000000000000001
 40
1.0
 40
1.0
 40
1.0
 40
1.0
 10
369.7908470867179
 20
450.6118824593482
 30
0.0
 10
358.7972125453276
 20
450.6073837670281
 30
0.0
 10
347.8093369825552
 20
450.6073450716259
 30
0.0
 10
325.8433199624565
 20
450.651610026641
 30
0.0
 10
314.8651537130767
 20
450.6949500129368
 30
0.0
 10
281.9433982659115
 20
450.8886870713891
 30
0.0
 10
260.0124425427283
 20
451.0999833628605
 30
0.0
 10
238.0967466198508
 20
451.3677011719536
 30
0.0
  0
LWPOLYLINE
  5
1F8
330
1F
100
AcDbEntity
  8
0
  6
Continuous
 62
     7
370
    25
100
AcDbPolyline
 90
       14
 70
   128
 43
0.0
 10
241.1895462783
 20
484.5961912
 10
240.8559241804
 20
483.838437351
 10
240.5260422739
 20
482.7001674497
 10
240.2036258491
 20
481.1941964948
 10
239.8922958883
 20
479.3374522054
 10
239.5955541643
 20
477.1508111083
 10
239.3167385372
 20
474.6588899219
 10
239.058993152
 20
471.8897028291
 10
238.825208834
 20
468.8743783557
 10
238.6180081876
 20
465.6468464458
 10
238.4397455963
 20
462.2434063279
 10
238.2924029144
 20
458.7023390853
 10
238.1776341709
 20
455.0634606206
 10
238.0967506679
 20
451.3677044236
  0
LWPOLYLINE
  5
1F9
330
1F
100
AcDbEntity
  8
0
  6
Continuous
 62
     7
370
    25
100
AcDbPolyline
 90
       14
 70
   128
 43
0.0
 10
541.1895581993
 20
484.5961912
 10
541.5231802972
 20
483.838437351
 10
541.8530622037
 20
482.7001674497
 10
542.1754786285
 20
481.1941964948
 10
542.4868085893
 20
479.3374522054
 10
542.7835503133
 20
477.1508111083
 10
543.0623659404
 20
474.6588899219
 10
543.3201113256
 20
471.8897028291
 10
543.5538956436
 20
468.8743783557
 10
543.76109629
 20
465.6468464458
 10
543.9393588813
 20
462.2434063279
 10
544.0867015632
 20
458.7023390853
 10
544.2014703067
 20
455.0634606206
 10
544.2823538097
 20
451.3677044236
  0
SPLINE
  5
1FA
330
1F
100
AcDbEntity
  8
0
  6
Continuous
 62
     7
370
    25
100
AcDbSpline
210
0.0
220
0.0
230
1.0
 70
     8
 71
     3
 72
    12
 73
     8
 74
     0
 42
0.000000001
 43
0.00000001
 40
0.0
 40
0.0
 40
0.0
 40
0.0
 40
0.4999999999999998
 40
0.4999999999999998
 40
0.7499999999999999
 40
0.7499999999999999
 40
1.0
 40
1.0
 40
1.0
 40
1.0
 10
544.2823578577613
 20
451.3677011719535
 30
0.0
 10
522.3736930226357
 20
451.1000692532385
 30
0.0
 10
500.4465606505776
 20
450.8887788194916
 30
0.0
 10
467.5251897857852
 20
450.695002226509
 30
0.0
 10
456.5462542001347
 20
450.6516418232081
 30
0.0
 10
434.5766461628441
 20
450.6073482431437
 30
0.0
 10
423.5859437530353
 20
450.6073821089871
 30
0.0
 10
412.5882573909038
 20
450.6118824593481
 30
0.0
  0
LWPOLYLINE
  5
1FB
330
1F
100
AcDbEntity
  8
0
  6
Continuous
 62
     7
370
    25
100
AcDbPolyline
 90
       14
 70
   128
 43
0.0
 10
412.0282971772
 20
483.4059460485
 10
412.0880415203
 20
482.6265855157
 10
412.1471358003
 20
481.4790023887
 10
412.2049336793
 20
479.9757136428
 10
412.2608055832
 20
478.1331105554
 10
412.3141405644
 20
475.9712947929
 10
412.3643574776
 20
473.5138399923
 10
412.4109087052
 20
470.7875533426
 10
412.453285745
 20
467.8221775615
 10
412.4910285237
 20
464.65006307
 10
412.523723534
 20
461.3057954633
 10
412.5510150107
 20
457.8258676851
 10
412.5726049306
 20
454.2482180917
 10
412.5882567378
 20
450.6118877256
  0
SPLINE
  5
1FC
330
1F
100
AcDbEntity
  8
0
  6
Continuous
 62
     7
370
    25
100
AcDbSpline
210
0.0
220
0.0
230
1.0
 70
     8
 71
     3
 72
    26
 73
    22
 74
     0
 42
0.000000001
 43
0.00000001
 40
0.0
 40
0.0
 40
0.0
 40
0.0
 40
0.1249999999999954
 40
0.1249999999999954
 40
0.1874999999999952
 40
0.1874999999999952
 40
0.2499999999999951
 40
0.2499999999999951
 40
0.3749999999999979
 40
0.3749999999999979
 40
0.5000000000000009
 40
0.5000000000000009
 40
0.6250000000000038
 40
0.6250000000000038
 40
0.7500000000000067
 40
0.7500000000000067
 40
0.812500000000003
 40
0.812500000000003
 40
0.8749999999999992
 40
0.8749999999999992
 40
1.0
 40
1.0
 40
1.0
 40
1.0
 10
550.4875235203073
 20
445.1946345279125
 30
0.0
 10
550.4891922602158
 20
445.6044377515462
 30
0.0
 10
550.4502825329878
 20
446.0096303749074
 30
0.0
 10
550.331768918251
 20
446.6105848971469
 30
0.0
 10
550.2819554039778
 20
446.8100860642754
 30
0.0
 10
550.1640187933479
 20
447.1992696487861
 30
0.0
 10
550.0957546331816
 20
447.38990244256
 30
0.0
 10
549.8635610026745
 20
447.950130987349
 30
0.0
 10
549.6711093674172
 20
448.3102170594916
 30
0.0
 10
549.2158257725323
 20
448.9888778138338
 30
0.0
 10
548.9581310107133
 20
449.3007038737798
 30
0.0
 10
548.384373260532
 20
449.8709372691256
 30
0.0
 10
548.064307500707
 20
450.131486093824
 30
0.0
 10
547.3880608717401
 20
450.5780630466544
 30
0.0
 10
547.031121226678
 20
450.7661497975113
 30
0.0
 10
546.4673183143213
 20
450.9951596314572
 30
0.0
 10
546.2735281245767
 20
451.0628418306081
 30
0.0
 10
545.8835751736852
 20
451.1774892368351
 30
0.0
 10
545.6870438736543
 20
451.2247356017911
 30
0.0
 10
545.0928948894145
 20
451.3369500059769
 30
0.0
 10
544.6907679255097
 20
451.3726902286064
 30
0.0
 10
544.2823578577613
 20
451.3677011719535
 30
0.0
  0
SPLINE
  5
1FD
330
1F
100
AcDbEntity
  8
0
  6
Continuous
 62
     7
370
    25
100
AcDbSpline
210
0.0
220
0.0
230
1.0
 70
     8
 71
     3
 72
    26
 73
    22
 74
     0
 42
0.000000001
 43
0.00000001
 40
0.0
 40
0.0
 40
0.0
 40
0.0
 40
0.1250000000000082
 40
0.1250000000000082
 40
0.1875000000000085
 40
0.1875000000000085
 40
0.2500000000000088
 40
0.2500000000000088
 40
0.3750000000000093
 40
0.3750000000000093
 40
0.5000000000000099
 40
0.5000000000000099
 40
0.6250000000000104
 40
0.6250000000000104
 40
0.7500000000000074
 40
0.7500000000000074
 40
0.812500000000006
 40
0.812500000000006
 40
0.8750000000000046
 40
0.8750000000000046
 40
1.0
 40
1.0
 40
1.0
 40
1.0
 10
238.0967466198508
 20
451.3677011719533
 30
0.0
 10
237.6883601793291
 20
451.3726899399809
 30
0.0
 10
237.2843692051854
 20
451.3369722896252
 30
0.0
 10
236.6848845247249
 20
451.2231915800056
 30
0.0
 10
236.4855329783269
 20
451.1748881368334
 30
0.0
 10
236.0963626617293
 20
451.0597780299386
 30
0.0
 10
235.9057102262408
 20
450.9928786807798
 30
0.0
 10
235.3453239225581
 20
450.7646880574363
 30
0.0
 10
234.9855563099618
 20
450.5751845168972
 30
0.0
 10
234.3045210927073
 20
450.1239375597507
 30
0.0
 10
233.9913775593582
 20
449.8680084573925
 30
0.0
 10
233.4181120441506
 20
449.2974513767255
 30
0.0
 10
233.1557367257039
 20
448.9787882865684
 30
0.0
 10
232.7045637020705
 20
448.3039209441028
 30
0.0
 10
232.5140234307162
 20
447.9473864794037
 30
0.0
 10
232.2810178981221
 20
447.383805267313
 30
0.0
 10
232.2119315378468
 20
447.1900061187278
 30
0.0
 10
232.0943500781831
 20
446.7996452850888
 30
0.0
 10
232.0456091811685
 20
446.602828403171
 30
0.0
 10
231.9288208370589
 20
446.0075848310436
 30
0.0
 10
231.8899123169046
 20
445.6044133145725
 30
0.0
 10
231.8915809573043
 20
445.194634527913
 30
0.0
  0
ARC
  5
1FE
330
1F
100
AcDbEntity
  8
0
  6
Continuous
 62
     7
370
    25
100
AcDbCircle
 10
391.1895522388
 20
383.9628358209
 30
0.0
 40
69.99999999999997
100
AcDbArc
 50
107.8000290607
 51
72.1999709393
  0
SPLINE
  5
1FF
330
1F
100
AcDbEntity
  8
0
  6
Continuous
 62
     7
370
    25
100
AcDbSpline
210
0.0
220
0.0
230
1.0
 70
     8
 71
     3
 72
     8
 73
     4
 74
     0
 42
0.000000001
 43
0.00000001
 40
0.0
 40
0.0
 40
0.0
 40
0.0
 40
1.0
 40
1.0
 40
1.0
 40
1.0
 10
412.5882573909064
 20
450.611882459348
 30
0.0
 10
406.4300879777675
 20
450.6429277782688
 30
0.0
 10
400.2719185646259
 20
450.6649148284758
 30
0.0
 10
394.1137491514869
 20
450.6700281210532
 30
0.0
  0
SPLINE
  5
200
330
1F
100
AcDbEntity
  8
0
  6
Continuous
 62
     7
370
    25
100
AcDbSpline
210
0.0
220
0.0
230
1.0
 70
     8
 71
     3
 72
     8
 73
     4
 74
     0
 42
0.000000001
 43
0.00000001
 40
0.0
 40
0.0
 40
0.0
 40
0.0
 40
1.0
 40
1.0
 40
1.0
 40
1.0
 10
388.2653553261433
 20
450.6700281210532
 30
0.0
 10
390.2148199345912
 20
450.748866740606
 30
0.0
 10
392.1642845430391
 20
450.7488667406055
 30
0.0
 10
394.1137491514869
 20
450.6700281210522
 30
0.0
  0
SPLINE
  5
201
330
1F
100
AcDbEntity
  8
0
  6
Continuous
 62
     7
370
    25
100
AcDbSpline
210
0.0
220
0.0
230
1.0
 70
     8
 71
     3
 72
     8
 73
     4
 74
     0
 42
0.000000001
 43
0.00000001
 40
0.0
 40
0.0
 40
0.0
 40
0.0
 40
1.0
 40
1.0
 40
1.0
 40
1.0
 10
388.2653553261433
 20
450.6700281210532
 30
0.0
 10
382.1071859130014
 20
450.6649148284758
 30
0.0
 10
375.9490164998581
 20
450.6429277782688
 30
0.0
 10
369.7908470867163
 20
450.611882459348
 30
0.0
  0
ARC
  5
202
330
1F
100
AcDbEntity
  8
0
  6
Continuous
 62
     7
370
    25
100
AcDbCircle
 10
391.1895522388
 20
383.9628358209
 30
0.0
 40
66.77125453482503
100
AcDbArc
 50
92.5100283872
 51
87.4899716128
  0
SPLINE
  5
203
330
1F
100
AcDbEntity
  8
0
  6
Continuous
 62
     7
370
    25
100
AcDbSpline
210
0.0
220
0.0
230
1.0
 70
     8
 71
     3
 72
     8
 73
     4
 74
     0
 42
0.000000001
 43
0.00000001
 40
0.0
 40
0.0
 40
0.0
 40
0.0
 40
1.0
 40
1.0
 40
1.0
 40
1.0
 10
394.0866208363831
 20
450.0511731716622
 30
0.0
 10
392.1552417713369
 20
450.1358376958984
 30
0.0
 10
390.223862706289
 20
450.1358376958416
 30
0.0
 10
388.2924836412444
 20
450.051173171607
 30
0.0
  0
LWPOLYLINE
  5
204
330
1F
100
AcDbEntity
  8
0
  6
Continuous
 62
     7
370
    25
100
AcDbPolyline
 90
        9
 70
   128
 43
0.0
 10
388.265355351
 20
450.6700320566
 10
388.2687875076
 20
450.5917264545
 10
388.2722124463
 20
450.5135996663
 10
388.2756280719
 20
450.4356814945
 10
388.2790320559
 20
450.3580315435
 10
388.2824218372
 20
450.280709418
 10
388.2857953204
 20
450.2037449205
 10
388.2891499443
 20
450.1272274577
 10
388.2924836135
 20
450.051171931
  0
LWPOLYLINE
  5
205
330
1F
100
AcDbEntity
  8
0
  6
Continuous
 62
     7
370
    25
100
AcDbPolyline
 90
        9
 70
   128
 43
0.0
 10
394.0866208641
 20
450.051171931
 10
394.0899545333
 20
450.1272274577
 10
394.0933091572
 20
450.2037449205
 10
394.0966826404
 20
450.280709418
 10
394.1000724217
 20
450.3580315435
 10
394.1034764057
 20
450.4356814945
 10
394.1068920313
 20
450.5135996663
 10
394.11031697
 20
450.5917264545
 10
394.1137491266
 20
450.6700320566
  0
CIRCLE
  5
206
330
1F
100
AcDbEntity
  8
0
  6
Continuous
 62
     7
370
    25
100
AcDbCircle
 10
391.1895522388
 20
383.9628358209
 30
0.0
 40
58.61177143234619
  0
ARC
  5
207
330
1F
100
AcDbEntity
  8
0
  6
Continuous
 62
     7
370
    25
100
AcDbCircle
 10
391.1895522388
 20
383.9628358209
 30
0.0
 40
66.15180526824551
100
AcDbArc
 50
92.5100283872
 51
87.4899716128
  0
CIRCLE
  5
208
330
1F
100
AcDbEntity
  8
0
  6
Continuous
 62
     7
370
    25
100
AcDbCircle
 10
391.1895522388
 20
383.9628358209
 30
0.0
 40
57.5
  0
LINE
  5
209
330
1F
100
AcDbEntity
  8
0
  6
Continuous
 62
     8
370
    25
100
AcDbLine
 10
396.189552127
 20
493.3774454915
 30
0.0
 11
396.1324159528
 21
493.3774454915
 31
0.0
  0
LINE
  5
20A
330
1F
100
AcDbEntity
  8
0
  6
Continuous
 62
     8
370
    25
100
AcDbLine
 10
396.1324159528
 20
493.3774454915
 30
0.0
 11
386.1895523506
 21
493.3774454915
 31
0.0
  0
LINE
  5
20B
330
1F
100
AcDbEntity
  8
0
  6
Continuous
 62
     8
370
    25
100
AcDbLine
 10
386.3359986345
 20
493.0238856399
 30
0.0
 11
395.9876427899
 21
493.0238856399
 31
0.0
  0
LINE
  5
20C
330
1F
100
AcDbEntity
  8
0
  6
Continuous
 62
     8
370
    25
100
AcDbLine
 10
395.9876427899
 20
493.0238856399
 30
0.0
 11
396.0431058431
 21
493.0238856399
 31
0.0
  0
ARC
  5
20D
330
1F
100
AcDbEntity
  8
0
  6
Continuous
 62
     8
370
    25
100
AcDbCircle
 10
394.9574476826
 20
490.6942688468
 30
0.0
 40
0.3104695296017052
100
AcDbArc
 50
209.198052733
 51
286.2088952815
  0
LINE
  5
20E
330
1F
100
AcDbEntity
  8
0
  6
Continuous
 62
     8
370
    25
100
AcDbLine
 10
395.4049407976
 20
490.8175005042
 30
0.0
 11
395.4049407976
 21
492.3857285106
 31
0.0
  0
LINE
  5
20F
330
1F
100
AcDbEntity
  8
0
  6
Continuous
 62
     8
370
    25
100
AcDbLine
 10
395.4085771466
 20
490.836886915
 30
0.0
 11
395.4049407976
 21
490.8175005042
 31
0.0
  0
LINE
  5
210
330
1F
100
AcDbEntity
  8
0
  6
Continuous
 62
     8
370
    25
100
AcDbLine
 10
407.2163396987
 20
396.0081322515
 30
0.0
 11
407.7318006667
 21
395.2898441279
 31
0.0
  0
LWPOLYLINE
  5
211
330
1F
100
AcDbEntity
  8
0
  6
Continuous
 62
     8
370
    25
100
AcDbPolyline
 90
        3
 70
   128
 43
0.0
 10
410.6520408305
 20
388.7751756632
 10
410.6883624109
 20
388.6258287751
 10
411.0065301421
 20
387.0016692602
  0
LINE
  5
212
330
1F
100
AcDbEntity
  8
0
  6
Continuous
 62
     8
370
    25
100
AcDbLine
 10
410.8459068003
 20
380.016343894
 30
0.0
 11
410.4147435638
 21
378.2760894322
 31
0.0
  0
LWPOLYLINE
  5
213
330
1F
100
AcDbEntity
  8
0
  6
Continuous
 62
     8
370
    25
100
AcDbPolyline
 90
        3
 70
   128
 43
0.0
 10
407.193488768
 20
371.8871942186
 10
406.2436561572
 20
370.7219532156
 10
405.913515343
 20
370.355779531
  0
LWPOLYLINE
  5
214
330
1F
100
AcDbEntity
  8
0
  6
Continuous
 62
     8
370
    25
100
AcDbPolyline
 90
        3
 70
   128
 43
0.0
 10
400.2016758087
 20
366.0539372289
 10
399.722163892
 20
365.8205738687
 10
398.5592982272
 20
365.3178943717
  0
LINE
  5
215
330
1F
100
AcDbEntity
  8
0
  6
Continuous
 62
     8
370
    25
100
AcDbLine
 10
391.7163684737
 20
363.9211414778
 30
0.0
 11
389.9318573304
 21
363.9537079656
 31
0.0
  0
LINE
  5
216
330
1F
100
AcDbEntity
  8
0
  6
Continuous
 62
     8
370
    25
100
AcDbLine
 10
382.9746808397
 20
365.6745089614
 30
0.0
 11
381.3661871018
 21
366.4857505286
 31
0.0
  0
LINE
  5
217
330
1F
100
AcDbEntity
  8
0
  6
Continuous
 62
     8
370
    25
100
AcDbLine
 10
375.8548967081
 20
371.0479049408
 30
0.0
 11
375.162764779
 21
371.9175404334
 31
0.0
  0
LINE
  5
218
330
1F
100
AcDbEntity
  8
0
  6
Continuous
 62
     8
370
    25
100
AcDbLine
 10
375.162764779
 20
371.9175404334
 30
0.0
 11
374.6473038109
 21
372.635828557
 31
0.0
  0
LWPOLYLINE
  5
219
330
1F
100
AcDbEntity
  8
0
  6
Continuous
 62
     8
370
    25
100
AcDbPolyline
 90
        3
 70
   128
 43
0.0
 10
371.7688688549
 20
378.9844682836
 10
371.6907420667
 20
379.2998439097
 10
371.3725743356
 20
380.9240071499
  0
LINE
  5
21A
330
1F
100
AcDbEntity
  8
0
  6
Continuous
 62
     8
370
    25
100
AcDbLine
 10
371.5331976774
 20
387.9093287909
 30
0.0
 11
371.9667953911
 21
389.6578086936
 31
0.0
  0
LWPOLYLINE
  5
21B
330
1F
100
AcDbEntity
  8
0
  6
Continuous
 62
     8
370
    25
100
AcDbPolyline
 90
        3
 70
   128
 43
0.0
 10
375.1856157096
 20
396.0384784663
 10
376.1354483204
 20
397.2037194693
 10
376.4655891346
 20
397.5698931539
  0
LWPOLYLINE
  5
21C
330
1F
100
AcDbEntity
  8
0
  6
Continuous
 62
     8
370
    25
100
AcDbPolyline
 90
        3
 70
   128
 43
0.0
 10
382.0120425435
 20
401.7875476205
 10
382.6569405856
 20
402.1050988161
 10
383.8198062504
 20
402.6077820384
  0
LINE
  5
21D
330
1F
100
AcDbEntity
  8
0
  6
Continuous
 62
     8
370
    25
100
AcDbLine
 10
390.6627360039
 20
404.0045274818
 30
0.0
 11
392.4472471472
 21
403.9719684446
 31
0.0
  0
LINE
  5
21E
330
1F
100
AcDbEntity
  8
0
  6
Continuous
 62
     8
370
    25
100
AcDbLine
 10
399.4044236379
 20
402.2511674487
 30
0.0
 11
401.0129173758
 21
401.4399258816
 31
0.0
  0
LINE
  5
21F
330
1F
100
AcDbEntity
  8
0
  6
Continuous
 62
     8
370
    25
100
AcDbLine
 10
406.5242077696
 20
396.8777640188
 30
0.0
 11
407.2163396987
 21
396.0081322515
 31
0.0
  0
LINE
  5
220
330
1F
100
AcDbEntity
  8
0
  6
Continuous
 62
     8
370
    25
100
AcDbLine
 10
407.7029464307
 20
396.3738514507
 30
0.0
 11
406.9892627659
 21
397.2705288255
 31
0.0
  0
LINE
  5
221
330
1F
100
AcDbEntity
  8
0
  6
Continuous
 62
     8
370
    25
100
AcDbLine
 10
401.4778894844
 20
401.8758370006
 30
0.0
 11
399.6590388479
 21
402.8040973866
 31
0.0
  0
LWPOLYLINE
  5
222
330
1F
100
AcDbEntity
  8
0
  6
Continuous
 62
     8
370
    25
100
AcDbPolyline
 90
        3
 70
   128
 43
0.0
 10
392.6797413506
 20
404.5663534128
 10
391.3959480333
 20
404.6191407764
 10
390.6462740043
 20
404.6130238497
  0
LWPOLYLINE
  5
223
330
1F
100
AcDbEntity
  8
0
  6
Continuous
 62
     8
370
    25
100
AcDbPolyline
 90
        3
 70
   128
 43
0.0
 10
383.5974934982
 20
403.1744508469
 10
383.4754120099
 20
403.1257538521
 10
381.7333777907
 20
402.3287354433
  0
LWPOLYLINE
  5
224
330
1F
100
AcDbEntity
  8
0
  6
Continuous
 62
     8
370
    25
100
AcDbPolyline
 90
        3
 70
   128
 43
0.0
 10
376.017584792
 20
397.9819996679
 10
374.9274512293
 20
396.7013417208
 10
374.7006332042
 20
396.4063508832
  0
LWPOLYLINE
  5
225
330
1F
100
AcDbEntity
  8
0
  6
Continuous
 62
     8
370
    25
100
AcDbPolyline
 90
        3
 70
   128
 43
0.0
 10
371.4353361639
 20
390.0040669763
 10
371.2905136409
 20
389.5084469044
 10
370.936508617
 20
388.0297450745
  0
LINE
  5
226
330
1F
100
AcDbEntity
  8
0
  6
Continuous
 62
     8
370
    25
100
AcDbLine
 10
370.771057299
 20
380.8306588256
 30
0.0
 11
371.1787139537
 21
378.8352815831
 31
0.0
  0
LINE
  5
227
330
1F
100
AcDbEntity
  8
0
  6
Continuous
 62
     8
370
    25
100
AcDbLine
 10
374.1463155957
 20
372.2900657379
 30
0.0
 11
374.6761580469
 21
371.5518212342
 31
0.0
  0
LINE
  5
228
330
1F
100
AcDbEntity
  8
0
  6
Continuous
 62
     8
370
    25
100
AcDbLine
 10
374.6761580469
 20
371.5518212342
 30
0.0
 11
375.3898417117
 21
370.6551438594
 31
0.0
  0
LINE
  5
229
330
1F
100
AcDbEntity
  8
0
  6
Continuous
 62
     8
370
    25
100
AcDbLine
 10
380.9012149932
 20
366.0498356843
 30
0.0
 11
382.7200656297
 21
365.121571573
 31
0.0
  0
LWPOLYLINE
  5
22A
330
1F
100
AcDbEntity
  8
0
  6
Continuous
 62
     8
370
    25
100
AcDbPolyline
 90
        3
 70
   128
 43
0.0
 10
389.699363127
 20
363.3593229973
 10
390.9831564443
 20
363.3065319085
 10
391.7328304734
 20
363.3126451099
  0
LWPOLYLINE
  5
22B
330
1F
100
AcDbEntity
  8
0
  6
Continuous
 62
     8
370
    25
100
AcDbPolyline
 90
        3
 70
   128
 43
0.0
 10
398.7816109794
 20
364.751221838
 10
398.9036924677
 20
364.7999151075
 10
400.6457266869
 20
365.5969372415
  0
LWPOLYLINE
  5
22C
330
1F
100
AcDbEntity
  8
0
  6
Continuous
 62
     8
370
    25
100
AcDbPolyline
 90
        3
 70
   128
 43
0.0
 10
406.3615196856
 20
369.943673017
 10
407.4516532483
 20
371.2243309641
 10
407.6784712734
 20
371.5193218016
  0
LWPOLYLINE
  5
22D
330
1F
100
AcDbEntity
  8
0
  6
Continuous
 62
     8
370
    25
100
AcDbPolyline
 90
        3
 70
   128
 43
0.0
 10
410.9437683137
 20
377.9216057086
 10
411.0885908367
 20
378.4172295058
 10
411.4425958606
 20
379.8959313357
  0
LINE
  5
22E
330
1F
100
AcDbEntity
  8
0
  6
Continuous
 62
     8
370
    25
100
AcDbLine
 10
411.6080471786
 20
387.095010134
 30
0.0
 11
411.2003905239
 21
389.0903873765
 31
0.0
  0
LINE
  5
22F
330
1F
100
AcDbEntity
  8
0
  6
Continuous
 62
     8
370
    25
100
AcDbLine
 10
408.2327888819
 20
395.6356032216
 30
0.0
 11
407.7029464307
 21
396.3738514507
 31
0.0
  0
LINE
  5
230
330
1F
100
AcDbEntity
  8
0
  6
Continuous
 62
     8
370
    25
100
AcDbLine
 10
408.8123285683
 20
397.2076310241
 30
0.0
 11
408.0524159136
 21
398.1625123346
 31
0.0
  0
LINE
  5
231
330
1F
100
AcDbEntity
  8
0
  6
Continuous
 62
     8
370
    25
100
AcDbLine
 10
402.1683264064
 20
403.0796720111
 30
0.0
 11
400.2268876421
 21
404.0703831637
 31
0.0
  0
LWPOLYLINE
  5
232
330
1F
100
AcDbEntity
  8
0
  6
Continuous
 62
     8
370
    25
100
AcDbPolyline
 90
        3
 70
   128
 43
0.0
 10
392.7804345504
 20
405.9504701221
 10
391.4098138694
 20
406.0068486655
 10
390.6129742164
 20
406.0004039132
  0
LWPOLYLINE
  5
233
330
1F
100
AcDbEntity
  8
0
  6
Continuous
 62
     8
370
    25
100
AcDbPolyline
 90
        3
 70
   128
 43
0.0
 10
383.0805936369
 20
404.4623880112
 10
382.9571701127
 20
404.4131396735
 10
381.1047136324
 20
403.5659714067
  0
LWPOLYLINE
  5
234
330
1F
100
AcDbEntity
  8
0
  6
Continuous
 62
     8
370
    25
100
AcDbPolyline
 90
        3
 70
   128
 43
0.0
 10
374.9947020324
 20
398.9199011051
 10
373.8349502446
 20
397.5571228587
 10
373.5943616839
 20
397.2442580783
  0
LWPOLYLINE
  5
235
330
1F
100
AcDbEntity
  8
0
  6
Continuous
 62
     8
370
    25
100
AcDbPolyline
 90
        3
 70
   128
 43
0.0
 10
370.1096711221
 20
390.4146163189
 10
369.9536820414
 20
389.880998286
 10
369.574184856
 20
388.2944418514
  0
LINE
  5
236
330
1F
100
AcDbEntity
  8
0
  6
Continuous
 62
     8
370
    25
100
AcDbLine
 10
369.3986827048
 20
380.62443048
 30
0.0
 11
369.8331223341
 21
378.4956803942
 31
0.0
  0
LINE
  5
237
330
1F
100
AcDbEntity
  8
0
  6
Continuous
 62
     8
370
    25
100
AcDbLine
 10
373.0051511439
 20
371.5003153705
 30
0.0
 11
373.5667759093
 21
370.7180379355
 31
0.0
  0
LINE
  5
238
330
1F
100
AcDbEntity
  8
0
  6
Continuous
 62
     8
370
    25
100
AcDbLine
 10
373.5667759093
 20
370.7180379355
 30
0.0
 11
374.326688564
 21
369.7631603503
 31
0.0
  0
LINE
  5
239
330
1F
100
AcDbEntity
  8
0
  6
Continuous
 62
     8
370
    25
100
AcDbLine
 10
380.2107780712
 20
364.8460006738
 30
0.0
 11
382.1522168355
 21
363.8552895212
 31
0.0
  0
LWPOLYLINE
  5
23A
330
1F
100
AcDbEntity
  8
0
  6
Continuous
 62
     8
370
    25
100
AcDbPolyline
 90
        3
 70
   128
 43
0.0
 10
389.5986699272
 20
361.9752025628
 10
390.9692906082
 20
361.9188240194
 10
391.7661302613
 20
361.9252650463
  0
LWPOLYLINE
  5
23B
330
1F
100
AcDbEntity
  8
0
  6
Continuous
 62
     8
370
    25
100
AcDbPolyline
 90
        3
 70
   128
 43
0.0
 10
399.2985108408
 20
363.4632809484
 10
399.421934365
 20
363.5125367367
 10
401.2743908452
 20
364.3597012782
  0
LWPOLYLINE
  5
23C
330
1F
100
AcDbEntity
  8
0
  6
Continuous
 62
     8
370
    25
100
AcDbPolyline
 90
        3
 70
   128
 43
0.0
 10
407.3844024452
 20
369.005775305
 10
408.544154233
 20
370.3685461008
 10
408.7847427937
 20
370.6814146066
  0
LWPOLYLINE
  5
23D
330
1F
100
AcDbEntity
  8
0
  6
Continuous
 62
     8
370
    25
100
AcDbPolyline
 90
        3
 70
   128
 43
0.0
 10
412.2694333556
 20
377.5110526407
 10
412.4254224362
 20
378.0446706736
 10
412.8049196216
 20
379.6312345588
  0
LINE
  5
23E
330
1F
100
AcDbEntity
  8
0
  6
Continuous
 62
     8
370
    25
100
AcDbLine
 10
412.9804217728
 20
387.3012422049
 30
0.0
 11
412.5459821435
 21
389.4299922907
 31
0.0
  0
LINE
  5
23F
330
1F
100
AcDbEntity
  8
0
  6
Continuous
 62
     8
370
    25
100
AcDbLine
 10
409.3739533337
 20
396.4253573143
 30
0.0
 11
408.8123285683
 21
397.2076310241
 31
0.0
  0
LINE
  5
240
330
1F
100
AcDbEntity
  8
0
  6
Continuous
 62
     8
370
    25
100
AcDbLine
 10
412.5090142252
 20
399.9859599793
 30
0.0
 11
413.1875330123
 21
399.0409283364
 31
0.0
  0
LWPOLYLINE
  5
241
330
1F
100
AcDbEntity
  8
0
  6
Continuous
 62
     8
370
    25
100
AcDbPolyline
 90
        3
 70
   128
 43
0.0
 10
417.0249675872
 20
390.5803395831
 10
417.4324864062
 20
388.7134699547
 10
417.5511294516
 20
388.0035413825
  0
LWPOLYLINE
  5
242
330
1F
100
AcDbEntity
  8
0
  6
Continuous
 62
     8
370
    25
100
AcDbPolyline
 90
        3
 70
   128
 43
0.0
 10
417.3375697347
 20
378.7148578489
 10
416.7731733533
 20
376.4303496504
 10
416.6939420166
 20
376.1662861728
  0
LINE
  5
243
330
1F
100
AcDbEntity
  8
0
  6
Continuous
 62
     8
370
    25
100
AcDbLine
 10
412.4706102075
 20
367.8887395584
 30
0.0
 11
410.7862686279
 21
365.8733686828
 31
0.0
  0
LWPOLYLINE
  5
244
330
1F
100
AcDbEntity
  8
0
  6
Continuous
 62
     8
370
    25
100
AcDbPolyline
 90
        3
 70
   128
 43
0.0
 10
403.3879883128
 20
360.2466343367
 10
403.2671659725
 20
360.1848764741
 10
400.998496777
 20
359.1627424979
  0
LWPOLYLINE
  5
245
330
1F
100
AcDbEntity
  8
0
  6
Continuous
 62
     8
370
    25
100
AcDbPolyline
 90
        3
 70
   128
 43
0.0
 10
391.888831894
 20
357.3025448644
 10
391.3109735795
 20
357.2936525965
 10
389.2688747501
 20
357.3626263463
  0
LWPOLYLINE
  5
246
330
1F
100
AcDbEntity
  8
0
  6
Continuous
 62
     8
370
    25
100
AcDbPolyline
 90
        3
 70
   128
 43
0.0
 10
380.2510959568
 20
359.6397957229
 10
379.3289506348
 20
360.0758893812
 10
377.9191433924
 20
360.8293889487
  0
LINE
  5
247
330
1F
100
AcDbEntity
  8
0
  6
Continuous
 62
     8
370
    25
100
AcDbLine
 10
370.7816427114
 20
366.7937575304
 30
0.0
 11
369.8700902524
 21
367.9397089803
 31
0.0
  0
LINE
  5
248
330
1F
100
AcDbEntity
  8
0
  6
Continuous
 62
     8
370
    25
100
AcDbLine
 10
369.8700902524
 20
367.9397089803
 30
0.0
 11
369.1915714654
 21
368.8847406232
 31
0.0
  0
LWPOLYLINE
  5
249
330
1F
100
AcDbEntity
  8
0
  6
Continuous
 62
     8
370
    25
100
AcDbPolyline
 90
        3
 70
   128
 43
0.0
 10
365.3541368904
 20
377.3453293764
 10
364.9466180714
 20
379.2122027302
 10
364.827975026
 20
379.922127577
  0
LWPOLYLINE
  5
24A
330
1F
100
AcDbEntity
  8
0
  6
Continuous
 62
     8
370
    25
100
AcDbPolyline
 90
        3
 70
   128
 43
0.0
 10
365.0415347429
 20
389.2108111107
 10
365.6059311243
 20
391.4953230345
 10
365.685162461
 20
391.759386512
  0
LINE
  5
24B
330
1F
100
AcDbEntity
  8
0
  6
Continuous
 62
     8
370
    25
100
AcDbLine
 10
369.9084942701
 20
400.0369368517
 30
0.0
 11
371.5928358497
 21
402.052304002
 31
0.0
  0
LWPOLYLINE
  5
24C
330
1F
100
AcDbEntity
  8
0
  6
Continuous
 62
     8
370
    25
100
AcDbPolyline
 90
        3
 70
   128
 43
0.0
 10
378.9911161648
 20
407.6790346229
 10
379.1119385051
 20
407.7407924855
 10
381.3806077006
 20
408.762930187
  0
LWPOLYLINE
  5
24D
330
1F
100
AcDbEntity
  8
0
  6
Continuous
 62
     8
370
    25
100
AcDbPolyline
 90
        3
 70
   128
 43
0.0
 10
390.4902725836
 20
410.6231240952
 10
391.0681308981
 20
410.6320200884
 10
393.1102297275
 20
410.5630426132
  0
LWPOLYLINE
  5
24E
330
1F
100
AcDbEntity
  8
0
  6
Continuous
 62
     8
370
    25
100
AcDbPolyline
 90
        3
 70
   128
 43
0.0
 10
402.1280085208
 20
408.2858769619
 10
403.0501538428
 20
407.8497795784
 10
404.4599610852
 20
407.0962800109
  0
LINE
  5
24F
330
1F
100
AcDbEntity
  8
0
  6
Continuous
 62
     8
370
    25
100
AcDbLine
 10
411.5974617662
 20
401.1319114291
 30
0.0
 11
412.5090142252
 21
399.9859599793
 31
0.0
  0
SPLINE
  5
250
330
1F
100
AcDbEntity
  8
0
  6
Continuous
 62
     8
370
    25
100
AcDbSpline
210
0.0
220
0.0
230
1.0
 70
     8
 71
     3
 72
     9
 73
     5
 74
     0
 42
0.000000001
 43
0.00000001
 40
0.0
 40
0.0
 40
0.0
 40
0.0
 40
0.6626739085719271
 40
1.0
 40
1.0
 40
1.0
 40
1.0
 10
401.1311916174728
 20
370.891256483775
 30
0.0
 10
400.1220447547306
 20
372.2181147261272
 30
0.0
 10
398.5992039582415
 20
374.2203940149129
 30
0.0
 10
397.1036877593407
 20
376.1867435706587
 30
0.0
 10
396.5992111252982
 20
376.8500445806797
 30
0.0
  0
SPLINE
  5
251
330
1F
100
AcDbEntity
  8
0
  6
Continuous
 62
     8
370
    25
100
AcDbSpline
210
0.0
220
0.0
230
1.0
 70
     8
 71
     3
 72
     9
 73
     5
 74
     0
 42
0.000000001
 43
0.00000001
 40
0.0
 40
0.0
 40
0.0
 40
0.0
 40
0.4794749458322236
 40
0.9999999999999999
 40
0.9999999999999999
 40
0.9999999999999999
 40
0.9999999999999999
 10
385.7798933523136
 20
391.0756243789013
 30
0.0
 10
385.0614745215844
 20
392.0202242060462
 30
0.0
 10
383.5631296404304
 20
393.9902955003977
 30
0.0
 10
382.0404866731571
 20
395.9923173793828
 30
0.0
 10
381.247912860139
 20
397.0344199263866
 30
0.0
  0
SPLINE
  5
252
330
1F
100
AcDbEntity
  8
0
  6
Continuous
 62
     8
370
    25
100
AcDbSpline
210
0.0
220
0.0
230
1.0
 70
     8
 71
     3
 72
    12
 73
     8
 74
     0
 42
0.000000001
 43
0.00000001
 40
0.0
 40
0.0
 40
0.0
 40
0.0
 40
0.3049352297878863
 40
0.5250458894216766
 40
0.7557909345474181
 40
0.9865321153347777
 40
1.0
 40
1.0
 40
1.0
 40
1.0
 10
398.6519936943787
 20
380.5640174472149
 30
0.0
 10
398.7522710089311
 20
380.5183457943047
 30
0.0
 10
398.9249312549924
 20
380.4397070826009
 30
0.0
 10
399.1382977287842
 20
380.3425285822968
 30
0.0
 10
399.2790663452869
 20
380.2784104623155
 30
0.0
 10
399.3543628399455
 20
380.244115768305
 30
0.0
 10
399.3606970332754
 20
380.2412346474526
 30
0.0
 10
399.3610463576752
 20
380.2410757565315
 30
0.0
  0
LWPOLYLINE
  5
253
330
1F
100
AcDbEntity
  8
0
  6
Continuous
 62
     8
370
    25
100
AcDbPolyline
 90
        3
 70
   128
 43
0.0
 10
388.9877473476
 20
353.3609679365
 10
391.2864005024
 20
353.2820122713
 10
391.9851463061
 20
353.2921767258
  0
LWPOLYLINE
  5
254
330
1F
100
AcDbEntity
  8
0
  6
Continuous
 62
     8
370
    25
100
AcDbPolyline
 90
        3
 70
   128
 43
0.0
 10
402.4835250812
 20
355.4362079525
 10
404.1599923285
 20
356.1583405757
 10
405.2123514476
 20
356.67394683
  0
LWPOLYLINE
  5
255
330
1F
100
AcDbEntity
  8
0
  6
Continuous
 62
     8
370
    25
100
AcDbPolyline
 90
        3
 70
   128
 43
0.0
 10
413.7413830968
 20
363.1605005288
 10
414.6360096993
 20
364.1743047559
 10
415.6636049511
 20
365.4603196704
  0
LWPOLYLINE
  5
256
330
1F
100
AcDbEntity
  8
0
  6
Continuous
 62
     8
370
    25
100
AcDbPolyline
 90
        3
 70
   128
 43
0.0
 10
420.5331982585
 20
375.0033287728
 10
420.7779684576
 20
375.8481650078
 10
421.2681365671
 20
377.9129518592
  0
LWPOLYLINE
  5
257
330
1F
100
AcDbEntity
  8
0
  6
Continuous
 62
     8
370
    25
100
AcDbPolyline
 90
        3
 70
   128
 43
0.0
 10
421.515022731
 20
388.6198906624
 10
421.4505342307
 20
389.0220133984
 10
420.913403249
 20
391.5664537275
  0
LINE
  5
258
330
1F
100
AcDbEntity
  8
0
  6
Continuous
 62
     8
370
    25
100
AcDbLine
 10
416.4924410643
 20
401.3146667206
 30
0.0
 11
414.6686078521
 21
403.7126733386
 31
0.0
  0
LWPOLYLINE
  5
259
330
1F
100
AcDbEntity
  8
0
  6
Continuous
 62
     8
370
    25
100
AcDbPolyline
 90
        3
 70
   128
 43
0.0
 10
406.459017052
 20
410.5742184841
 10
403.9841986733
 20
411.848662647
 10
403.773441306
 20
411.9444026077
  0
LWPOLYLINE
  5
25A
330
1F
100
AcDbEntity
  8
0
  6
Continuous
 62
     8
370
    25
100
AcDbPolyline
 90
        3
 70
   128
 43
0.0
 10
393.4002608067
 20
414.5640639984
 10
391.0927039752
 20
414.643658551
 10
390.3872695292
 20
414.6333171451
  0
LWPOLYLINE
  5
25B
330
1F
100
AcDbEntity
  8
0
  6
Continuous
 62
     8
370
    25
100
AcDbPolyline
 90
        3
 70
   128
 43
0.0
 10
379.9016246112
 20
412.4918563688
 10
378.2191121491
 20
411.7673321092
 10
377.160984418
 20
411.2487567985
  0
LWPOLYLINE
  5
25C
330
1F
100
AcDbEntity
  8
0
  6
Continuous
 62
     8
370
    25
100
AcDbPolyline
 90
        3
 70
   128
 43
0.0
 10
368.6383062514
 20
404.7658054554
 10
367.7430947783
 20
403.7513642037
 10
366.7127949657
 20
402.4617730105
  0
LWPOLYLINE
  5
25D
330
1F
100
AcDbEntity
  8
0
  6
Continuous
 62
     8
370
    25
100
AcDbPolyline
 90
        3
 70
   128
 43
0.0
 10
361.8448854896
 20
392.9189948761
 10
361.60113602
 20
392.0775039518
 10
361.1108338001
 20
390.0120465481
  0
LWPOLYLINE
  5
25E
330
1F
100
AcDbEntity
  8
0
  6
Continuous
 62
     8
370
    25
100
AcDbPolyline
 90
        3
 70
   128
 43
0.0
 10
360.8650018933
 20
379.2997954809
 10
360.9285702469
 20
378.9036592865
 10
361.4644886466
 20
376.3639649772
  0
LINE
  5
25F
330
1F
100
AcDbEntity
  8
0
  6
Continuous
 62
     8
370
    25
100
AcDbLine
 10
365.8905209514
 20
366.6053807759
 30
0.0
 11
367.7049440803
 21
364.2195968354
 31
0.0
  0
LWPOLYLINE
  5
260
330
1F
100
AcDbEntity
  8
0
  6
Continuous
 62
     8
370
    25
100
AcDbPolyline
 90
        3
 70
   128
 43
0.0
 10
375.9251072543
 20
357.348570826
 10
378.3949058043
 20
356.0770100379
 10
378.5982330801
 20
355.9846116626
  0
ENDSEC
  0
SECTION
  2
OBJECTS
  0
DICTIONARY
  5
C
330
0
100
AcDbDictionary
281
     1
  3
ACAD_GROUP
350
D
  3
ACAD_LAYOUT
350
1A
  3
ACAD_MLINESTYLE
350
17
  3
ACAD_PLOTSETTINGS
350
19
  3
ACAD_PLOTSTYLENAME
350
E
  3
ACAD_SCALELIST
350
47
  0
DICTIONARY
  5
D
102
{ACAD_REACTORS
330
C
102
}
330
C
100
AcDbDictionary
281
     1
  0
DICTIONARY
  5
1A
102
{ACAD_REACTORS
330
C
102
}
330
C
100
AcDbDictionary
281
     1
  3
Layout1
350
1E
  3
Layout2
350
26
  3
Model
350
22
  0
DICTIONARY
  5
17
102
{ACAD_REACTORS
330
C
102
}
330
C
100
AcDbDictionary
281
     1
  3
Standard
350
18
  0
DICTIONARY
  5
19
102
{ACAD_REACTORS
330
C
102
}
330
C
100
AcDbDictionary
281
     1
  0
ACDBDICTIONARYWDFLT
  5
E
102
{ACAD_REACTORS
330
C
102
}
330
C
100
AcDbDictionary
281
     1
  3
Normal
350
F
100
AcDbDictionaryWithDefault
340
F
  0
DICTIONARY
  5
47
102
{ACAD_REACTORS
330
C
102
}
330
C
100
AcDbDictionary
281
     1
  3
A0
350
48
  3
A1
350
49
  3
A2
350
4A
  3
A3
350
4B
  3
A4
350
4C
  3
A5
350
4D
  3
A6
350
4E
  3
A7
350
4F
  3
A8
350
50
  3
A9
350
51
  3
B0
350
52
  3
B1
350
53
  3
B2
350
54
  3
B3
350
55
  3
B4
350
56
  3
B5
350
57
  3
B6
350
58
  3
B7
350
59
  3
B8
350
5A
  3
B9
350
5B
  3
C0
350
5C
  3
C1
350
5D
  3
C2
350
5E
  3
C3
350
5F
  3
C4
350
60
  3
C5
350
61
  3
C6
350
62
  3
C7
350
63
  3
C8
350
64
  3
C9
350
65
  3
D0
350
66
  3
D1
350
67
  3
D2
350
68
  0
LAYOUT
  5
1E
102
{ACAD_REACTORS
330
1A
102
}
330
1A
100
AcDbPlotSettings
  1

  2
none_device
  4

  6

 40
0.0
 41
0.0
 42
0.0
 43
0.0
 44
0.0
 45
0.0
 46
0.0
 47
0.0
 48
0.0
 49
0.0
140
0.0
141
0.0
142
1.0
143
1.0
 70
   688
 72
     1
 73
     0
 74
     5
  7

 75
    16
147
1.0
148
0.0
149
0.0
100
AcDbLayout
  1
Layout1
 70
     1
 71
     1
 10
0.0
 20
0.0
 11
420.0
 21
297.0
 12
0.0
 22
0.0
 32
0.0
 14
1.0000000000E+20
 24
1.0000000000E+20
 34
1.0000000000E+20
 15
-1.0000000000E+20
 25
-1.0000000000E+20
 35
-1.0000000000E+20
146
0.0
 13
0.0
 23
0.0
 33
0.0
 16
1.0
 26
0.0
 36
0.0
 17
0.0
 27
1.0
 37
0.0
 76
     0
330
1B
  0
LAYOUT
  5
26
102
{ACAD_REACTORS
330
1A
102
}
330
1A
100
AcDbPlotSettings
  1

  2
none_device
  4

  6

 40
0.0
 41
0.0
 42
0.0
 43
0.0
 44
0.0
 45
0.0
 46
0.0
 47
0.0
 48
0.0
 49
0.0
140
0.0
141
0.0
142
1.0
143
1.0
 70
   688
 72
     1
 73
     0
 74
     5
  7

 75
    16
147
1.0
148
0.0
149
0.0
100
AcDbLayout
  1
Layout2
 70
     1
 71
     2
 10
0.0
 20
0.0
 11
0.0
 21
0.0
 12
0.0
 22
0.0
 32
0.0
 14
0.0
 24
0.0
 34
0.0
 15
0.0
 25
0.0
 35
0.0
146
0.0
 13
0.0
 23
0.0
 33
0.0
 16
1.0
 26
0.0
 36
0.0
 17
0.0
 27
1.0
 37
0.0
 76
     0
330
23
  0
LAYOUT
  5
22
102
{ACAD_REACTORS
330
1A
102
}
330
1A
100
AcDbPlotSettings
  1

  2
none_device
  4
Letter_(8.50_x_11.00_Inches)
  6

 40
6.35
 41
6.35
 42
6.35000508
 43
6.35000508
 44
215.9
 45
279.4
 46
0.0
 47
0.0
 48
0.0
 49
0.0
140
0.0
141
0.0
142
1.0
143
1.0
 70
  1712
 72
     1
 73
     0
 74
     0
  7

 75
     0
147
1.0
148
0.0
149
0.0
100
AcDbLayout
  1
Model
 70
     1
 71
     0
 10
0.0
 20
0.0
 11
800.0
 21
650.0
 12
0.0
 22
0.0
 32
0.0
 14
0.0
 24
0.0
 34
0.0
 15
800.0
 25
650.0
 35
0.0
146
0.0
 13
0.0
 23
0.0
 33
0.0
 16
1.0
 26
0.0
 36
0.0
 17
0.0
 27
1.0
 37
0.0
 76
     0
330
1F
331
29
  0
MLINESTYLE
  5
18
102
{ACAD_REACTORS
330
17
102
}
330
17
100
AcDbMlineStyle
  2
Standard
 70
     0
  3

 62
   256
 51
90.0
 52
90.0
 71
     2
 49
0.5
 62
   256
  6
BYLAYER
 49
-0.5
 62
   256
  6
BYLAYER
  0
ACDBPLACEHOLDER
  5
F
102
{ACAD_REACTORS
330
E
102
}
330
E
  0
SCALE
  5
48
102
{ACAD_REACTORS
330
47
102
}
330
47
100
AcDbScale
 70
     0
300
1:1
140
1.0
141
1.0
290
     1
  0
SCALE
  5
49
102
{ACAD_REACTORS
330
47
102
}
330
47
100
AcDbScale
 70
     0
300
1:2
140
1.0
141
2.0
290
     0
  0
SCALE
  5
4A
102
{ACAD_REACTORS
330
47
102
}
330
47
100
AcDbScale
 70
     0
300
1:4
140
1.0
141
4.0
290
     0
  0
SCALE
  5
4B
102
{ACAD_REACTORS
330
47
102
}
330
47
100
AcDbScale
 70
     0
300
1:5
140
1.0
141
5.0
290
     0
  0
SCALE
  5
4C
102
{ACAD_REACTORS
330
47
102
}
330
47
100
AcDbScale
 70
     0
300
1:8
140
1.0
141
8.0
290
     0
  0
SCALE
  5
4D
102
{ACAD_REACTORS
330
47
102
}
330
47
100
AcDbScale
 70
     0
300
1:10
140
1.0
141
10.0
290
     0
  0
SCALE
  5
4E
102
{ACAD_REACTORS
330
47
102
}
330
47
100
AcDbScale
 70
     0
300
1:16
140
1.0
141
16.0
290
     0
  0
SCALE
  5
4F
102
{ACAD_REACTORS
330
47
102
}
330
47
100
AcDbScale
 70
     0
300
1:20
140
1.0
141
20.0
290
     0
  0
SCALE
  5
50
102
{ACAD_REACTORS
330
47
102
}
330
47
100
AcDbScale
 70
     0
300
1:30
140
1.0
141
30.0
290
     0
  0
SCALE
  5
51
102
{ACAD_REACTORS
330
47
102
}
330
47
100
AcDbScale
 70
     0
300
1:40
140
1.0
141
40.0
290
     0
  0
SCALE
  5
52
102
{ACAD_REACTORS
330
47
102
}
330
47
100
AcDbScale
 70
     0
300
1:50
140
1.0
141
50.0
290
     0
  0
SCALE
  5
53
102
{ACAD_REACTORS
330
47
102
}
330
47
100
AcDbScale
 70
     0
300
1:100
140
1.0
141
100.0
290
     0
  0
SCALE
  5
54
102
{ACAD_REACTORS
330
47
102
}
330
47
100
AcDbScale
 70
     0
300
2:1
140
2.0
141
1.0
290
     0
  0
SCALE
  5
55
102
{ACAD_REACTORS
330
47
102
}
330
47
100
AcDbScale
 70
     0
300
4:1
140
4.0
141
1.0
290
     0
  0
SCALE
  5
56
102
{ACAD_REACTORS
330
47
102
}
330
47
100
AcDbScale
 70
     0
300
8:1
140
8.0
141
1.0
290
     0
  0
SCALE
  5
57
102
{ACAD_REACTORS
330
47
102
}
330
47
100
AcDbScale
 70
     0
300
10:1
140
10.0
141
1.0
290
     0
  0
SCALE
  5
58
102
{ACAD_REACTORS
330
47
102
}
330
47
100
AcDbScale
 70
     0
300
100:1
140
100.0
141
1.0
290
     0
  0
SCALE
  5
59
102
{ACAD_REACTORS
330
47
102
}
330
47
100
AcDbScale
 70
     0
300
1/128" = 1'-0"
140
0.0078125
141
12.0
290
     0
  0
SCALE
  5
5A
102
{ACAD_REACTORS
330
47
102
}
330
47
100
AcDbScale
 70
     0
300
1/64" = 1'-0"
140
0.015625
141
12.0
290
     0
  0
SCALE
  5
5B
102
{ACAD_REACTORS
330
47
102
}
330
47
100
AcDbScale
 70
     0
300
1/32" = 1'-0"
140
0.03125
141
12.0
290
     0
  0
SCALE
  5
5C
102
{ACAD_REACTORS
330
47
102
}
330
47
100
AcDbScale
 70
     0
300
1/16" = 1'-0"
140
0.0625
141
12.0
290
     0
  0
SCALE
  5
5D
102
{ACAD_REACTORS
330
47
102
}
330
47
100
AcDbScale
 70
     0
300
3/32" = 1'-0"
140
0.09375
141
12.0
290
     0
  0
SCALE
  5
5E
102
{ACAD_REACTORS
330
47
102
}
330
47
100
AcDbScale
 70
     0
300
1/8" = 1'-0"
140
0.125
141
12.0
290
     0
  0
SCALE
  5
5F
102
{ACAD_REACTORS
330
47
102
}
330
47
100
AcDbScale
 70
     0
300
3/16" = 1'-0"
140
0.1875
141
12.0
290
     0
  0
SCALE
  5
60
102
{ACAD_REACTORS
330
47
102
}
330
47
100
AcDbScale
 70
     0
300
1/4" = 1'-0"
140
0.25
141
12.0
290
     0
  0
SCALE
  5
61
102
{ACAD_REACTORS
330
47
102
}
330
47
100
AcDbScale
 70
     0
300
3/8" = 1'-0"
140
0.375
141
12.0
290
     0
  0
SCALE
  5
62
102
{ACAD_REACTORS
330
47
102
}
330
47
100
AcDbScale
 70
     0
300
1/2" = 1'-0"
140
0.5
141
12.0
290
     0
  0
SCALE
  5
63
102
{ACAD_REACTORS
330
47
102
}
330
47
100
AcDbScale
 70
     0
300
3/4" = 1'-0"
140
0.75
141
12.0
290
     0
  0
SCALE
  5
64
102
{ACAD_REACTORS
330
47
102
}
330
47
100
AcDbScale
 70
     0
300
1" = 1'-0"
140
1.0
141
12.0
290
     0
  0
SCALE
  5
65
102
{ACAD_REACTORS
330
47
102
}
330
47
100
AcDbScale
 70
     0
300
1-1/2" = 1'-0"
140
1.5
141
12.0
290
     0
  0
SCALE
  5
66
102
{ACAD_REACTORS
330
47
102
}
330
47
100
AcDbScale
 70
     0
300
3" = 1'-0"
140
3.0
141
12.0
290
     0
  0
SCALE
  5
67
102
{ACAD_REACTORS
330
47
102
}
330
47
100
AcDbScale
 70
     0
300
6" = 1'-0"
140
6.0
141
12.0
290
     0
  0
SCALE
  5
68
102
{ACAD_REACTORS
330
47
102
}
330
47
100
AcDbScale
 70
     0
300
1'-0" = 1'-0"
140
12.0
141
12.0
290
     0
  0
ENDSEC
  0
EOF
