  0
SECTION
  2
HEADER
  9
$ACADVER
  1
AC1015
  9
$ACADMAINTVER
 70
     6
  9
$DWGCODEPAGE
  3
ANSI_1252
  9
$INSBASE
 10
0.0
 20
0.0
 30
0.0
  9
$EXTMIN
 10
0.0
 20
0.0
 30
0.0
  9
$EXTMAX
 10
700.0
 20
700.0
 30
0.0
  9
$LIMMIN
 10
0.0
 20
0.0
  9
$LIMMAX
 10
700.0
 20
700.0
  9
$ORTHOMODE
 70
     0
  9
$REGENMODE
 70
     1
  9
$FILLMODE
 70
     1
  9
$QTEXTMODE
 70
     0
  9
$MIRRTEXT
 70
     1
  9
$LTSCALE
 40
1.0
  9
$ATTMODE
 70
     1
  9
$TEXTSIZE
 40
5.0
  9
$TRACEWID
 40
1.0
  9
$TEXTSTYLE
  7
Standard
  9
$CLAYER
  8
0
  9
$CELTYPE
  6
ByLayer
  9
$CECOLOR
 62
   256
  9
$CELTSCALE
 40
1.0
  9
$DISPSILH
 70
     0
  9
$DIMSCALE
 40
1.0
  9
$DIMASZ
 40
6.0
  9
$DIMEXO
 40
1.0
  9
$DIMDLI
 40
3.75
  9
$DIMRND
 40
0.0
  9
$DIMDLE
 40
0.0
  9
$DIMEXE
 40
1.0
  9
$DIMTP
 40
0.0
  9
$DIMTM
 40
0.0
  9
$DIMTXT
 40
5.0
  9
$DIMCEN
 40
2.5
  9
$DIMTSZ
 40
0.0
  9
$DIMTOL
 70
     0
  9
$DIMLIM
 70
     0
  9
$DIMTIH
 70
     1
  9
$DIMTOH
 70
     1
  9
$DIMSE1
 70
     0
  9
$DIMSE2
 70
     0
  9
$DIMTAD
 70
     1
  9
$DIMZIN
 70
     0
  9
$DIMBLK
  1

  9
$DIMASO
 70
     1
  9
$DIMSHO
 70
     1
  9
$DIMPOST
  1

  9
$DIMAPOST
  1

  9
$DIMALT
 70
     0
  9
$DIMALTD
 70
     3
  9
$DIMALTF
 40
0.0393700787
  9
$DIMLFAC
 40
1.0
  9
$DIMTOFL
 70
     1
  9
$DIMTVP
 40
0.0
  9
$DIMTIX
 70
     0
  9
$DIMSOXD
 70
     0
  9
$DIMSAH
 70
     0
  9
$DIMBLK1
  1

  9
$DIMBLK2
  1

  9
$DIMSTYLE
  2
ISO-25
  9
$DIMCLRD
 70
     0
  9
$DIMCLRE
 70
     0
  9
$DIMCLRT
 70
     0
  9
$DIMTFAC
 40
1.0
  9
$DIMGAP
 40
1.524
  9
$DIMJUST
 70
     0
  9
$DIMSD1
 70
     0
  9
$DIMSD2
 70
     0
  9
$DIMTOLJ
 70
     0
  9
$DIMTZIN
 70
     0
  9
$DIMALTZ
 70
     0
  9
$DIMALTTZ
 70
     0
  9
$DIMUPT
 70
     0
  9
$DIMDEC
 70
     2
  9
$DIMTDEC
 70
     2
  9
$DIMALTU
 70
     2
  9
$DIMALTTD
 70
     3
  9
$DIMTXSTY
  7
Standard
  9
$DIMAUNIT
 70
     0
  9
$DIMADEC
 70
     2
  9
$DIMALTRND
 40
0.0
  9
$DIMAZIN
 70
     0
  9
$DIMDSEP
 70
    44
  9
$DIMATFIT
 70
     3
  9
$DIMFRAC
 70
     0
  9
$DIMLDRBLK
  1

  9
$DIMLUNIT
 70
     2
  9
$DIMLWD
 70
    -2
  9
$DIMLWE
 70
    -2
  9
$DIMTMOVE
 70
     0
  9
$LUNITS
 70
     2
  9
$LUPREC
 70
     2
  9
$SKETCHINC
 40
1.0
  9
$FILLETRAD
 40
10.0
  9
$AUNITS
 70
     0
  9
$AUPREC
 70
     2
  9
$MENU
  1
.
  9
$ELEVATION
 40
0.0
  9
$PELEVATION
 40
0.0
  9
$THICKNESS
 40
0.0
  9
$LIMCHECK
 70
     0
  9
$CHAMFERA
 40
0.0
  9
$CHAMFERB
 40
0.0
  9
$CHAMFERC
 40
0.0
  9
$CHAMFERD
 40
0.0
  9
$SKPOLY
 70
     0
  9
$TDCREATE
 40
2458564.400944931
  9
$TDUCREATE
 40
2458564.317611597
  9
$TDUPDATE
 40
2458564.40094588
  9
$TDUUPDATE
 40
2458564.317612546
  9
$TDINDWG
 40
0.0000000116
  9
$TDUSRTIMER
 40
0.0000000116
  9
$USRTIMER
 70
     1
  9
$ANGBASE
 50
0.0
  9
$ANGDIR
 70
     0
  9
$PDMODE
 70
     0
  9
$PDSIZE
 40
-1.0
  9
$PLINEWID
 40
0.0
  9
$SPLFRAME
 70
     0
  9
$SPLINETYPE
 70
     6
  9
$SPLINESEGS
 70
     8
  9
$HANDSEED
  5
20C
  9
$SURFTAB1
 70
     6
  9
$SURFTAB2
 70
     6
  9
$SURFTYPE
 70
     6
  9
$SURFU
 70
     6
  9
$SURFV
 70
     6
  9
$UCSBASE
  2

  9
$UCSNAME
  2

  9
$UCSORG
 10
0.0
 20
0.0
 30
0.0
  9
$UCSXDIR
 10
1.0
 20
0.0
 30
0.0
  9
$UCSYDIR
 10
0.0
 20
1.0
 30
0.0
  9
$UCSORTHOREF
  2

  9
$UCSORTHOVIEW
 70
     0
  9
$UCSORGTOP
 10
0.0
 20
0.0
 30
0.0
  9
$UCSORGBOTTOM
 10
0.0
 20
0.0
 30
0.0
  9
$UCSORGLEFT
 10
0.0
 20
0.0
 30
0.0
  9
$UCSORGRIGHT
 10
0.0
 20
0.0
 30
0.0
  9
$UCSORGFRONT
 10
0.0
 20
0.0
 30
0.0
  9
$UCSORGBACK
 10
0.0
 20
0.0
 30
0.0
  9
$PUCSBASE
  2

  9
$PUCSNAME
  2

  9
$PUCSORG
 10
0.0
 20
0.0
 30
0.0
  9
$PUCSXDIR
 10
1.0
 20
0.0
 30
0.0
  9
$PUCSYDIR
 10
0.0
 20
1.0
 30
0.0
  9
$PUCSORTHOREF
  2

  9
$PUCSORTHOVIEW
 70
     0
  9
$PUCSORGTOP
 10
0.0
 20
0.0
 30
0.0
  9
$PUCSORGBOTTOM
 10
0.0
 20
0.0
 30
0.0
  9
$PUCSORGLEFT
 10
0.0
 20
0.0
 30
0.0
  9
$PUCSORGRIGHT
 10
0.0
 20
0.0
 30
0.0
  9
$PUCSORGFRONT
 10
0.0
 20
0.0
 30
0.0
  9
$PUCSORGBACK
 10
0.0
 20
0.0
 30
0.0
  9
$USERI1
 70
     0
  9
$USERI2
 70
     0
  9
$USERI3
 70
     0
  9
$USERI4
 70
     0
  9
$USERI5
 70
     0
  9
$USERR1
 40
0.0
  9
$USERR2
 40
0.0
  9
$USERR3
 40
0.0
  9
$USERR4
 40
0.0
  9
$USERR5
 40
0.0
  9
$WORLDVIEW
 70
     1
  9
$SHADEDGE
 70
     3
  9
$SHADEDIF
 70
    70
  9
$TILEMODE
 70
     1
  9
$MAXACTVP
 70
    64
  9
$PINSBASE
 10
0.0
 20
0.0
 30
0.0
  9
$PLIMCHECK
 70
     0
  9
$PEXTMIN
 10
1.0000000000E+20
 20
1.0000000000E+20
 30
1.0000000000E+20
  9
$PEXTMAX
 10
-1.0000000000E+20
 20
-1.0000000000E+20
 30
-1.0000000000E+20
  9
$PLIMMIN
 10
0.0
 20
0.0
  9
$PLIMMAX
 10
420.0
 20
297.0
  9
$UNITMODE
 70
     0
  9
$VISRETAIN
 70
     1
  9
$PLINEGEN
 70
     0
  9
$PSLTSCALE
 70
     1
  9
$TREEDEPTH
 70
  3020
  9
$CMLSTYLE
  2
Standard
  9
$CMLJUST
 70
     0
  9
$CMLSCALE
 40
20.0
  9
$PROXYGRAPHICS
 70
     1
  9
$MEASUREMENT
 70
     1
  9
$CELWEIGHT
370
    -1
  9
$ENDCAPS
280
     0
  9
$JOINSTYLE
280
     0
  9
$LWDISPLAY
290
     1
  9
$INSUNITS
 70
     4
  9
$HYPERLINKBASE
  1

  9
$STYLESHEET
  1

  9
$XEDIT
290
     1
  9
$CEPSNTYPE
380
     0
  9
$PSTYLEMODE
290
     1
  9
$FINGERPRINTGUID
  2
{C568FE66-0A75-4C82-8F20-A594C74A827A}
  9
$VERSIONGUID
  2
{FAEB1C32-E019-11D5-929B-00C0DF256EC4}
  9
$EXTNAMES
290
     1
  9
$PSVPSCALE
 40
0.0
  9
$OLESTARTUP
290
     0
  0
ENDSEC
  0
SECTION
  2
CLASSES
  0
CLASS
  1
ACDBDICTIONARYWDFLT
  2
AcDbDictionaryWithDefault
  3
ObjectDBX Classes
 90
        0
280
     0
281
     0
  0
CLASS
  1
VISUALSTYLE
  2
AcDbVisualStyle
  3
ObjectDBX Classes
 90
     4095
280
     0
281
     0
  0
CLASS
  1
MATERIAL
  2
AcDbMaterial
  3
ObjectDBX Classes
 90
     1153
280
     0
281
     0
  0
CLASS
  1
SCALE
  2
AcDbScale
  3
ObjectDBX Classes
 90
     1153
280
     0
281
     0
  0
CLASS
  1
TABLESTYLE
  2
AcDbTableStyle
  3
ObjectDBX Classes
 90
     4095
280
     0
281
     0
  0
CLASS
  1
MLEADERSTYLE
  2
AcDbMLeaderStyle
  3
ACDB_MLEADERSTYLE_CLASS
 90
     4095
280
     0
281
     0
  0
CLASS
  1
SUN
  2
AcDbSun
  3
SCENEOE
 90
     1153
280
     0
281
     0
  0
CLASS
  1
ACDBPLACEHOLDER
  2
AcDbPlaceHolder
  3
ObjectDBX Classes
 90
        0
280
     0
281
     0
  0
CLASS
  1
LAYOUT
  2
AcDbLayout
  3
ObjectDBX Classes
 90
        0
280
     0
281
     0
  0
ENDSEC
  0
SECTION
  2
TABLES
  0
TABLE
  2
VPORT
  5
8
330
0
100
AcDbSymbolTable
 70
     1
  0
VPORT
  5
29
330
8
100
AcDbSymbolTableRecord
100
AcDbViewportTableRecord
  2
*Active
 70
     0
 10
0.0
 20
0.0
 11
1.0
 21
1.0
 12
350.0
 22
350.0
 13
0.0
 23
0.0
 14
10.0
 24
10.0
 15
10.0
 25
10.0
 16
0.0
 26
0.0
 36
1.0
 17
0.0
 27
0.0
 37
0.0
 40
700.0
 41
1.0
 42
50.0
 43
0.0
 44
0.0
 50
0.0
 51
0.0
 71
     0
 72
  2000
 73
     1
 74
     3
 75
     0
 76
     0
 77
     0
 78
     0
281
     0
 65
     1
110
0.0
120
0.0
130
0.0
111
1.0
121
0.0
131
0.0
112
0.0
122
1.0
132
0.0
 79
     0
146
0.0
  0
ENDTAB
  0
TABLE
  2
LTYPE
  5
5
330
0
100
AcDbSymbolTable
 70
     6
  0
LTYPE
  5
14
330
5
100
AcDbSymbolTableRecord
100
AcDbLinetypeTableRecord
  2
ByBlock
 70
     0
  3

 72
    65
 73
     0
 40
0.0
  0
LTYPE
  5
15
330
5
100
AcDbSymbolTableRecord
100
AcDbLinetypeTableRecord
  2
ByLayer
 70
     0
  3

 72
    65
 73
     0
 40
0.0
  0
LTYPE
  5
16
330
5
100
AcDbSymbolTableRecord
100
AcDbLinetypeTableRecord
  2
Continuous
 70
     0
  3
Solid line
 72
    65
 73
     0
 40
0.0
  0
LTYPE
  5
6E
330
5
100
AcDbSymbolTableRecord
100
AcDbLinetypeTableRecord
  2
HIDDEN
 70
     0
  3
Hidden __ __ __ __ __ __ __ __ __ __ __ __ __ __
 72
    65
 73
     2
 40
1.905
 49
1.27
 74
     0
 49
-0.635
 74
     0
  0
LTYPE
  5
6F
330
5
100
AcDbSymbolTableRecord
100
AcDbLinetypeTableRecord
  2
PHANTOM
 70
     0
  3
Phantom ______  __  __  ______  __  __  ______
 72
    65
 73
     6
 40
12.7
 49
6.35
 74
     0
 49
-1.27
 74
     0
 49
1.27
 74
     0
 49
-1.27
 74
     0
 49
1.27
 74
     0
 49
-1.27
 74
     0
  0
LTYPE
  5
70
330
5
100
AcDbSymbolTableRecord
100
AcDbLinetypeTableRecord
  2
CENTER
 70
     0
  3
Center ____ _ ____ _ ____ _ ____ _ ____ _ ____
 72
    65
 73
     4
 40
10.16
 49
6.35
 74
     0
 49
-1.27
 74
     0
 49
1.27
 74
     0
 49
-1.27
 74
     0
  0
LTYPE
  5
71
330
5
100
AcDbSymbolTableRecord
100
AcDbLinetypeTableRecord
  2
CENTERX2
 70
     0
  3
Center (2x) ________  __  ________  __  _____
 72
    65
 73
     4
 40
20.32
 49
12.7
 74
     0
 49
-2.54
 74
     0
 49
2.54
 74
     0
 49
-2.54
 74
     0
  0
LTYPE
  5
72
330
5
100
AcDbSymbolTableRecord
100
AcDbLinetypeTableRecord
  2
DOT2
 70
     0
  3
Dot (.5x) ........................................
 72
    65
 73
     2
 40
0.635
 49
0.0
 74
     0
 49
-0.635
 74
     0
  0
ENDTAB
  0
TABLE
  2
LAYER
  5
2
330
0
100
AcDbSymbolTable
 70
     2
  0
LAYER
  5
10
330
2
100
AcDbSymbolTableRecord
100
AcDbLayerTableRecord
  2
0
 70
     0
 62
     7
  6
Continuous
370
    -3
390
F
  0
LAYER
  5
73
330
2
100
AcDbSymbolTableRecord
100
AcDbLayerTableRecord
  2
TABLE_BL1
 70
     0
 62
   179
  6
Continuous
370
    -3
390
F
  0
ENDTAB
  0
TABLE
  2
STYLE
  5
3
330
0
100
AcDbSymbolTable
 70
     1
  0
STYLE
  5
11
330
3
100
AcDbSymbolTableRecord
100
AcDbTextStyleTableRecord
  2
Standard
 70
     0
 40
0.0
 41
1.0
 50
0.0
 71
     0
 42
5.0
  3
txt
  4

  0
ENDTAB
  0
TABLE
  2
VIEW
  5
6
330
0
100
AcDbSymbolTable
 70
     0
  0
ENDTAB
  0
TABLE
  2
UCS
  5
7
330
0
100
AcDbSymbolTable
 70
     0
  0
ENDTAB
  0
TABLE
  2
APPID
  5
9
330
0
100
AcDbSymbolTable
 70
     1
  0
APPID
  5
12
330
9
100
AcDbSymbolTableRecord
100
AcDbRegAppTableRecord
  2
ACAD
 70
     0
  0
ENDTAB
  0
TABLE
  2
DIMSTYLE
  5
A
330
0
100
AcDbSymbolTable
 70
     1
100
AcDbDimStyleTable
  0
DIMSTYLE
105
27
330
A
100
AcDbSymbolTableRecord
100
AcDbDimStyleTableRecord
  2
ISO-25
 70
     0
 41
2.5
 42
0.625
 43
3.75
 44
1.25
 73
     0
 74
     0
 77
     1
 78
     8
140
2.5
141
2.5
143
0.0393700787
147
0.625
171
     3
172
     1
178
     0
271
     2
272
     2
274
     3
278
    44
283
     0
284
     8
340
11
  0
ENDTAB
  0
TABLE
  2
BLOCK_RECORD
  5
1
330
0
100
AcDbSymbolTable
 70
     1
  0
BLOCK_RECORD
  5
1F
330
1
100
AcDbSymbolTableRecord
100
AcDbBlockTableRecord
  2
*Model_Space
340
22
  0
BLOCK_RECORD
  5
1B
330
1
100
AcDbSymbolTableRecord
100
AcDbBlockTableRecord
  2
*Paper_Space
340
1E
  0
BLOCK_RECORD
  5
23
330
1
100
AcDbSymbolTableRecord
100
AcDbBlockTableRecord
  2
*Paper_Space0
340
26
  0
ENDTAB
  0
ENDSEC
  0
SECTION
  2
BLOCKS
  0
BLOCK
  5
20
330
1F
100
AcDbEntity
  8
0
100
AcDbBlockBegin
  2
*Model_Space
 70
     0
 10
0.0
 20
0.0
 30
0.0
  3
*Model_Space
  1

  0
ENDBLK
  5
21
330
1F
100
AcDbEntity
  8
0
100
AcDbBlockEnd
  0
BLOCK
  5
1C
330
1B
100
AcDbEntity
 67
     1
  8
0
100
AcDbBlockBegin
  2
*Paper_Space
 70
     0
 10
0.0
 20
0.0
 30
0.0
  3
*Paper_Space
  1

  0
ENDBLK
  5
1D
330
1B
100
AcDbEntity
 67
     1
  8
0
100
AcDbBlockEnd
  0
BLOCK
  5
24
330
23
100
AcDbEntity
  8
0
100
AcDbBlockBegin
  2
*Paper_Space0
 70
     0
 10
0.0
 20
0.0
 30
0.0
  3
*Paper_Space0
  1

  0
ENDBLK
  5
25
330
23
100
AcDbEntity
  8
0
100
AcDbBlockEnd
  0
ENDSEC
  0
SECTION
  2
ENTITIES
  0
SPLINE
  5
74
330
1F
100
AcDbEntity
  8
0
  6
Continuous
 62
     7
370
    25
100
AcDbSpline
210
0.0
220
0.0
230
1.0
 70
     8
 71
     3
 72
    18
 73
    14
 74
     0
 42
0.000000001
 43
0.00000001
 40
0.0
 40
0.0
 40
0.0
 40
0.0
 40
0.1181634741431477
 40
0.241730171355351
 40
0.3519953742603288
 40
0.439343418409758
 40
0.5540330687406406
 40
0.6249959640856927
 40
0.7018579133833931
 40
0.7811806445850034
 40
0.8592623405960824
 40
0.9329153026131797
 40
1.0
 40
1.0
 40
1.0
 40
1.0
 10
362.8465494100269
 20
413.4055609038849
 30
0.0
 10
363.1977717259898
 20
414.4687211326972
 30
0.0
 10
363.9162765874725
 20
416.6436563751872
 30
0.0
 10
363.3806319022578
 20
420.0248188908428
 30
0.0
 10
361.9024012512041
 20
422.7010953739174
 30
0.0
 10
359.7416811243265
 20
424.7273012607392
 30
0.0
 10
357.3673977292191
 20
425.8325297032826
 30
0.0
 10
354.9156216800069
 20
426.1867557490564
 30
0.0
 10
352.7750076010373
 20
425.9988387736997
 30
0.0
 10
350.6773794464081
 20
425.2752580918947
 30
0.0
 10
348.8549037325348
 20
424.0745673011577
 30
0.0
 10
347.4170964178845
 20
422.5761310521703
 30
0.0
 10
346.795946178951
 20
421.4077107921411
 30
0.0
 10
346.4998656843122
 20
420.850765906908
 30
0.0
  0
SPLINE
  5
75
330
1F
100
AcDbEntity
  8
0
  6
Continuous
 62
     7
370
    25
100
AcDbSpline
210
0.0
220
0.0
230
1.0
 70
     8
 71
     3
 72
    18
 73
    14
 74
     0
 42
0.000000001
 43
0.00000001
 40
0.0
 40
0.0
 40
0.0
 40
0.0
 40
0.1181634607256906
 40
0.2417302751773918
 40
0.3519954655617609
 40
0.4393434997928236
 40
0.5540330811525086
 40
0.6249959874694653
 40
0.7018579280394948
 40
0.7811806935287934
 40
0.8592624532749145
 40
0.9329153102306439
 40
1.0
 40
1.0
 40
1.0
 40
1.0
 10
346.4998656843122
 20
420.850765906908
 30
0.0
 10
346.1486434790051
 20
419.787605694946
 30
0.0
 10
345.430138453713
 20
417.612669305838
 30
0.0
 10
345.9657825043549
 20
414.2315051550933
 30
0.0
 10
347.4440140066726
 20
411.5552281452593
 30
0.0
 10
349.6047330671292
 20
409.5290207661444
 30
0.0
 10
351.9790187117123
 20
408.4237997696961
 30
0.0
 10
354.4307929201991
 20
408.0695660217812
 30
0.0
 10
356.5714081699347
 20
408.2574839154018
 30
0.0
 10
358.6690363089401
 20
408.9810687309318
 30
0.0
 10
360.4915089511486
 20
410.1817635104644
 30
0.0
 10
361.9293198291228
 20
411.6801958504952
 30
0.0
 10
362.5504691497038
 20
412.848615789166
 30
0.0
 10
362.8465494100269
 20
413.4055609038849
 30
0.0
  0
LWPOLYLINE
  5
76
330
1F
100
AcDbEntity
  8
0
  6
Continuous
 62
     7
370
    25
100
AcDbPolyline
 90
        3
 70
   128
 43
0.0
 10
364.1265265603
 20
434.0117992989
 10
363.0456559319
 20
434.5730664364
 10
362.823122922
 20
434.678134524
  0
LWPOLYLINE
  5
77
330
1F
100
AcDbEntity
  8
0
  6
Continuous
 62
     7
370
    25
100
AcDbPolyline
 90
        3
 70
   128
 43
0.0
 10
355.958492654
 20
436.4354284636
 10
355.4024434841
 20
436.4644186727
 10
354.3451872672
 20
436.4753859273
  0
LINE
  5
78
330
1F
100
AcDbEntity
  8
0
  6
Continuous
 62
     7
370
    25
100
AcDbLine
 10
347.3596827086
 20
435.0428180924
 30
0.0
 11
345.9333021153
 21
434.3918981186
 31
0.0
  0
LINE
  5
79
330
1F
100
AcDbEntity
  8
0
  6
Continuous
 62
     7
370
    25
100
AcDbLine
 10
340.3161529411
 20
430.1011162034
 30
0.0
 11
339.3766878132
 21
428.9788575998
 31
0.0
  0
LWPOLYLINE
  5
7A
330
1F
100
AcDbEntity
  8
0
  6
Continuous
 62
     7
370
    25
100
AcDbPolyline
 90
        3
 70
   128
 43
0.0
 10
336.1277271021
 20
422.6497234932
 10
335.8897555579
 20
421.7762248746
 10
335.7382107485
 20
421.1141886345
  0
LWPOLYLINE
  5
7B
330
1F
100
AcDbEntity
  8
0
  6
Continuous
 62
     7
370
    25
100
AcDbPolyline
 90
        3
 70
   128
 43
0.0
 10
335.5809997726
 20
413.9801310531
 10
335.5930212844
 20
413.9080690375
 10
335.8976680745
 20
412.4482432536
  0
LINE
  5
7C
330
1F
100
AcDbEntity
  8
0
  6
Continuous
 62
     7
370
    25
100
AcDbLine
 10
338.8310100843
 20
406.0174795023
 30
0.0
 11
339.7159388248
 21
404.8520634106
 31
0.0
  0
LWPOLYLINE
  5
7D
330
1F
100
AcDbEntity
  8
0
  6
Continuous
 62
     7
370
    25
100
AcDbPolyline
 90
        3
 70
   128
 43
0.0
 10
345.1368033845
 20
400.2913134328
 10
346.3007591624
 20
399.6832603744
 10
346.5730788145
 20
399.5551588169
  0
LWPOLYLINE
  5
7E
330
1F
100
AcDbEntity
  8
0
  6
Continuous
 62
     7
370
    25
100
AcDbPolyline
 90
        3
 70
   128
 43
0.0
 10
353.4890012076
 20
397.8144349686
 10
353.9439716103
 20
397.7919081381
 10
355.0641902391
 20
397.7821143499
  0
LINE
  5
7F
330
1F
100
AcDbEntity
  8
0
  6
Continuous
 62
     7
370
    25
100
AcDbLine
 10
361.9804869365
 20
399.2109606198
 30
0.0
 11
363.3230159018
 21
399.8191105357
 31
0.0
  0
LINE
  5
80
330
1F
100
AcDbEntity
  8
0
  6
Continuous
 62
     7
370
    25
100
AcDbLine
 10
368.9653694589
 20
404.0837558142
 30
0.0
 11
370.0027631555
 21
405.3202318183
 31
0.0
  0
LWPOLYLINE
  5
81
330
1F
100
AcDbEntity
  8
0
  6
Continuous
 62
     7
370
    25
100
AcDbPolyline
 90
        3
 70
   128
 43
0.0
 10
373.2186879922
 20
411.6065995923
 10
373.4566595365
 20
412.4801019362
 10
373.6202128191
 20
413.199611955
  0
LWPOLYLINE
  5
82
330
1F
100
AcDbEntity
  8
0
  6
Continuous
 62
     7
370
    25
100
AcDbPolyline
 90
        3
 70
   128
 43
0.0
 10
373.767145719
 20
420.2656867138
 10
373.7533938099
 20
420.348254048
 10
373.4755635221
 20
421.6991486183
  0
LINE
  5
83
330
1F
100
AcDbEntity
  8
0
  6
Continuous
 62
     7
370
    25
100
AcDbLine
 10
370.5712974031
 20
428.1587200395
 30
0.0
 11
369.5446521003
 21
429.5080946914
 31
0.0
  0
SPLINE
  5
84
330
1F
100
AcDbEntity
  8
0
  6
Continuous
 62
     7
370
    25
100
AcDbSpline
210
0.0
220
0.0
230
1.0
 70
     8
 71
     3
 72
     9
 73
     5
 74
     0
 42
0.000000001
 43
0.00000001
 40
0.0
 40
0.0
 40
0.0
 40
0.0
 40
0.5600062956444763
 40
1.0
 40
1.0
 40
1.0
 40
1.0
 10
371.1866017390307
 20
429.5391785136242
 30
0.0
 10
371.1152378959852
 20
429.4855424447874
 30
0.0
 10
370.9878038946166
 20
429.3897648271893
 30
0.0
 10
370.7879357377447
 20
429.2395520088336
 30
0.0
 10
370.6999950070199
 20
429.1734593144436
 30
0.0
  0
SPLINE
  5
85
330
1F
100
AcDbEntity
  8
0
  6
Continuous
 62
     7
370
    25
100
AcDbSpline
210
0.0
220
0.0
230
1.0
 70
     8
 71
     3
 72
     9
 73
     5
 74
     0
 42
0.000000001
 43
0.00000001
 40
0.0
 40
0.0
 40
0.0
 40
0.0
 40
0.5600006404659171
 40
0.9999999999999999
 40
0.9999999999999999
 40
0.9999999999999999
 40
0.9999999999999999
 10
338.6464200873193
 20
405.0828674963493
 30
0.0
 10
338.5348670143993
 20
404.9990275285804
 30
0.0
 10
338.3356653262954
 20
404.849313471648
 30
0.0
 10
338.2135458476841
 20
404.7575320596604
 30
0.0
 10
338.1598133553084
 20
404.7171482971687
 30
0.0
  0
SPLINE
  5
86
330
1F
100
AcDbEntity
  8
0
  6
Continuous
 62
     7
370
    25
100
AcDbSpline
210
0.0
220
0.0
230
1.0
 70
     8
 71
     3
 72
     9
 73
     5
 74
     0
 42
0.000000001
 43
0.00000001
 40
0.0
 40
0.0
 40
0.0
 40
0.0
 40
0.5600013979963514
 40
1.0
 40
1.0
 40
1.0
 40
1.0
 10
337.0504312176522
 20
403.8833649984379
 30
0.0
 10
337.305859227363
 20
404.0753370960862
 30
0.0
 10
337.7619795346063
 20
404.4181435575259
 30
0.0
 10
338.0382532894201
 20
404.625785939419
 30
0.0
 10
338.1598133553084
 20
404.7171482971687
 30
0.0
  0
SPLINE
  5
87
330
1F
100
AcDbEntity
  8
0
  6
Continuous
 62
     7
370
    25
100
AcDbSpline
210
0.0
220
0.0
230
1.0
 70
     8
 71
     3
 72
     9
 73
     5
 74
     0
 42
0.000000001
 43
0.00000001
 40
0.0
 40
0.0
 40
0.0
 40
0.0
 40
0.5600017644456654
 40
1.0
 40
1.0
 40
1.0
 40
1.0
 10
371.1866017390307
 20
429.5391785136242
 30
0.0
 10
371.3488826111108
 20
429.6611451597569
 30
0.0
 10
371.6386689696246
 20
429.8789420559034
 30
0.0
 10
372.0951382144007
 20
430.2220091645733
 30
0.0
 10
372.2959838766869
 20
430.3729580870647
 30
0.0
  0
SPLINE
  5
88
330
1F
100
AcDbEntity
  8
0
  6
Continuous
 62
     7
370
    25
100
AcDbSpline
210
0.0
220
0.0
230
1.0
 70
     8
 71
     3
 72
    11
 73
     7
 74
     0
 42
0.000000001
 43
0.00000001
 40
0.0
 40
0.0
 40
0.0
 40
0.0
 40
0.2723420744630538
 40
0.5618927665648356
 40
0.7876485978181754
 40
1.0
 40
1.0
 40
1.0
 40
1.0
 10
376.2569025118169
 20
433.3498822680492
 30
0.0
 10
376.2523999095621
 20
433.346495353053
 30
0.0
 10
376.2431101968264
 20
433.3395075123345
 30
0.0
 10
376.1742042391561
 20
433.2877330650924
 30
0.0
 10
376.0864758157288
 20
433.2217865773623
 30
0.0
 10
376.0232939183792
 20
433.1743026105112
 30
0.0
 10
375.9926695335921
 20
433.1512870422382
 30
0.0
  0
SPLINE
  5
89
330
1F
100
AcDbEntity
  8
0
  6
Continuous
 62
     7
370
    25
100
AcDbSpline
210
0.0
220
0.0
230
1.0
 70
     8
 71
     3
 72
    11
 73
     7
 74
     0
 42
0.000000001
 43
0.00000001
 40
0.0
 40
0.0
 40
0.0
 40
0.0
 40
0.2723528878647046
 40
0.5618962734813925
 40
0.7876528160299847
 40
1.0
 40
1.0
 40
1.0
 40
1.0
 10
333.353745560747
 20
401.1050360432644
 30
0.0
 10
333.3145588257254
 20
401.0755847673493
 30
0.0
 10
333.2337119488987
 20
401.0148232960255
 30
0.0
 10
333.1476629197634
 20
400.9501495720467
 30
0.0
 10
333.0978683374256
 20
400.9127284660945
 30
0.0
 10
333.0922404148537
 20
400.9084960018259
 30
0.0
 10
333.0895125825223
 20
400.9064445427437
 30
0.0
  0
LINE
  5
8A
330
1F
100
AcDbEntity
  8
0
  6
Continuous
 62
     7
370
    25
100
AcDbLine
 10
376.2569025118
 20
433.349882268
 30
0.0
 11
375.3318831284
 21
434.5126124254
 31
0.0
  0
LWPOLYLINE
  5
8B
330
1F
100
AcDbEntity
  8
0
  6
Continuous
 62
     7
370
    25
100
AcDbPolyline
 90
        3
 70
   128
 43
0.0
 10
368.1147525046
 20
440.5444981686
 10
366.6808091063
 20
441.311162912
 10
365.7431404997
 20
441.7545022598
  0
LWPOLYLINE
  5
8C
330
1F
100
AcDbEntity
  8
0
  6
Continuous
 62
     7
370
    25
100
AcDbPolyline
 90
        3
 70
   128
 43
0.0
 10
356.6235342721
 20
444.0576331845
 10
354.5502813056
 20
444.127884709
 10
353.9620084182
 20
444.1187950007
  0
LWPOLYLINE
  5
8D
330
1F
100
AcDbEntity
  8
0
  6
Continuous
 62
     7
370
    25
100
AcDbPolyline
 90
        3
 70
   128
 43
0.0
 10
344.7458872531
 20
442.2368901006
 10
342.4459041987
 20
441.2008272639
 10
342.3219023232
 20
441.1374377242
  0
LINE
  5
8E
330
1F
100
AcDbEntity
  8
0
  6
Continuous
 62
     7
370
    25
100
AcDbLine
 10
334.8344646354
 20
435.4427578083
 30
0.0
 11
333.1281308044
 21
433.401134812
 31
0.0
  0
LWPOLYLINE
  5
8F
330
1F
100
AcDbEntity
  8
0
  6
Continuous
 62
     7
370
    25
100
AcDbPolyline
 90
        3
 70
   128
 43
0.0
 10
328.8525667001
 20
425.0208484164
 10
328.772502761
 20
424.7540058723
 10
328.2013282139
 20
422.4422546259
  0
LWPOLYLINE
  5
90
330
1F
100
AcDbEntity
  8
0
  6
Continuous
 62
     7
370
    25
100
AcDbPolyline
 90
        3
 70
   128
 43
0.0
 10
327.985196184
 20
413.0354831151
 10
328.1050201465
 20
412.31865158
 10
328.5169310827
 20
410.4312071732
  0
LINE
  5
91
330
1F
100
AcDbEntity
  8
0
  6
Continuous
 62
     7
370
    25
100
AcDbLine
 10
332.4043478776
 20
401.860618048
 30
0.0
 11
333.0895125825
 21
400.9064445427
 31
0.0
  0
LINE
  5
92
330
1F
100
AcDbEntity
  8
0
  6
Continuous
 62
     7
370
    25
100
AcDbLine
 10
333.0895125825
 20
400.9064445427
 30
0.0
 11
334.014531966
 21
399.7437106601
 31
0.0
  0
LWPOLYLINE
  5
93
330
1F
100
AcDbEntity
  8
0
  6
Continuous
 62
     7
370
    25
100
AcDbPolyline
 90
        3
 70
   128
 43
0.0
 10
341.2316625897
 20
393.7118249169
 10
342.665605988
 20
392.9451638988
 10
343.6032745946
 20
392.501824551
  0
LWPOLYLINE
  5
94
330
1F
100
AcDbEntity
  8
0
  6
Continuous
 62
     7
370
    25
100
AcDbPolyline
 90
        3
 70
   128
 43
0.0
 10
352.7228808223
 20
390.1986936263
 10
354.7961337888
 20
390.1284421018
 10
355.3844066762
 20
390.1375318101
  0
LWPOLYLINE
  5
95
330
1F
100
AcDbEntity
  8
0
  6
Continuous
 62
     7
370
    25
100
AcDbPolyline
 90
        3
 70
   128
 43
0.0
 10
364.6005278413
 20
392.0194329849
 10
366.9005108957
 20
393.0554995469
 10
367.0245127712
 20
393.1188890866
  0
LINE
  5
96
330
1F
100
AcDbEntity
  8
0
  6
Continuous
 62
     7
370
    25
100
AcDbLine
 10
374.511950459
 20
398.8135727278
 30
0.0
 11
376.2182842899
 21
400.8551882735
 31
0.0
  0
LWPOLYLINE
  5
97
330
1F
100
AcDbEntity
  8
0
  6
Continuous
 62
     7
370
    25
100
AcDbPolyline
 90
        3
 70
   128
 43
0.0
 10
380.4938483943
 20
409.2354746691
 10
380.5739123334
 20
409.5023172132
 10
381.1450868804
 20
411.8140721849
  0
LWPOLYLINE
  5
98
330
1F
100
AcDbEntity
  8
0
  6
Continuous
 62
     7
370
    25
100
AcDbPolyline
 90
        3
 70
   128
 43
0.0
 10
381.3612189103
 20
421.2208436957
 10
381.2413949479
 20
421.9376715055
 10
380.8294840116
 20
423.8251196376
  0
LINE
  5
99
330
1F
100
AcDbEntity
  8
0
  6
Continuous
 62
     7
370
    25
100
AcDbLine
 10
376.9420672167
 20
432.3957087627
 30
0.0
 11
376.2569025118
 21
433.349882268
 31
0.0
  0
SPLINE
  5
9A
330
1F
100
AcDbEntity
  8
0
  6
Continuous
 62
     7
370
    25
100
AcDbSpline
210
0.0
220
0.0
230
1.0
 70
     8
 71
     3
 72
     9
 73
     5
 74
     0
 42
0.000000001
 43
0.00000001
 40
0.0
 40
0.0
 40
0.0
 40
0.0
 40
0.5600001251115571
 40
1.0
 40
1.0
 40
1.0
 40
1.0
 10
324.1891253698882
 20
393.9433815113086
 30
0.0
 10
324.0342642242612
 20
393.8256024128904
 30
0.0
 10
323.7577265259952
 20
393.6152826412746
 30
0.0
 10
323.3934635871459
 20
393.3382409779789
 30
0.0
 10
323.2331879396256
 20
393.2163426807899
 30
0.0
  0
SPLINE
  5
9B
330
1F
100
AcDbEntity
  8
0
  6
Continuous
 62
     7
370
    25
100
AcDbSpline
210
0.0
220
0.0
230
1.0
 70
     8
 71
     3
 72
     9
 73
     5
 74
     0
 42
0.000000001
 43
0.00000001
 40
0.0
 40
0.0
 40
0.0
 40
0.0
 40
0.5600008092822362
 40
1.0
 40
1.0
 40
1.0
 40
1.0
 10
386.1132271547135
 20
441.0399841300029
 30
0.0
 10
385.9083429112608
 20
440.8841608538877
 30
0.0
 10
385.542478719537
 20
440.6059054058022
 30
0.0
 10
385.2749862115072
 20
440.402458186181
 30
0.0
 10
385.157289724451
 20
440.3129415741939
 30
0.0
  0
ARC
  5
9C
330
1F
100
AcDbEntity
  8
0
  6
Continuous
 62
     7
370
    25
100
AcDbCircle
 10
354.6732075472
 20
417.1281628839
 30
0.0
 40
38.29899805700001
100
AcDbArc
 50
37.2549368278
 51
217.2549368278
  0
ARC
  5
9D
330
1F
100
AcDbEntity
  8
0
  6
Continuous
 62
     7
370
    25
100
AcDbCircle
 10
354.6732075472
 20
417.1281628839
 30
0.0
 40
39.50000000000038
100
AcDbArc
 50
37.2549368278
 51
217.2549368513
  0
ARC
  5
9E
330
1F
100
AcDbEntity
  8
0
  6
Continuous
 62
     7
370
    25
100
AcDbCircle
 10
354.6732075472
 20
417.1281628839
 30
0.0
 40
38.29899805700001
100
AcDbArc
 50
217.2549368278
 51
37.2549368278
  0
ARC
  5
9F
330
1F
100
AcDbEntity
  8
0
  6
Continuous
 62
     7
370
    25
100
AcDbCircle
 10
354.6732075472
 20
417.1281628839
 30
0.0
 40
39.50000000000035
100
AcDbArc
 50
217.2549368513
 51
37.2549368176
  0
SPLINE
  5
A0
330
1F
100
AcDbEntity
  8
0
  6
Continuous
 62
     7
370
    25
100
AcDbSpline
210
0.0
220
0.0
230
1.0
 70
     8
 71
     3
 72
    12
 73
     8
 74
     0
 42
0.000000001
 43
0.00000001
 40
0.0
 40
0.0
 40
0.0
 40
0.0
 40
0.3203754995990751
 40
0.5620064884785603
 40
0.762512049407527
 40
0.8964626787621234
 40
1.0
 40
1.0
 40
1.0
 40
1.0
 10
372.7341636974629
 20
448.6273201337833
 30
0.0
 10
372.774959572826
 20
448.7255845267106
 30
0.0
 10
372.846524179626
 20
448.8979610863433
 30
0.0
 10
372.8130847488202
 20
449.1728827069794
 30
0.0
 10
372.7107051452298
 20
449.3792793387847
 30
0.0
 10
372.5778387381413
 20
449.5202738793713
 30
0.0
 10
372.4851484926195
 20
449.574773142254
 30
0.0
 10
372.4447384435949
 20
449.5985331169147
 30
0.0
  0
LINE
  5
A1
330
1F
100
AcDbEntity
  8
0
  6
Continuous
 62
     7
370
    25
100
AcDbLine
 10
370.5323867459
 20
450.5742164484
 30
0.0
 11
372.4447384436
 21
449.5985331169
 31
0.0
  0
SPLINE
  5
A2
330
1F
100
AcDbEntity
  8
0
  6
Continuous
 62
     7
370
    25
100
AcDbSpline
210
0.0
220
0.0
230
1.0
 70
     8
 71
     3
 72
    12
 73
     8
 74
     0
 42
0.000000001
 43
0.00000001
 40
0.0
 40
0.0
 40
0.0
 40
0.0
 40
0.1369206870470634
 40
0.2732922192817945
 40
0.4609276282794518
 40
0.7173054987664071
 40
1.0
 40
1.0
 40
1.0
 40
1.0
 10
370.5323867459115
 20
450.5742164484043
 30
0.0
 10
370.4748750373087
 20
450.5980527017168
 30
0.0
 10
370.3600822852584
 20
450.6456296070598
 30
0.0
 10
370.1600939520063
 20
450.6576994044455
 30
0.0
 10
369.9380021893311
 20
450.6094839346795
 30
0.0
 10
369.7153179864952
 20
450.4723612681215
 30
0.0
 10
369.624044097516
 20
450.3189702158067
 30
0.0
 10
369.5761792321023
 20
450.2385305396099
 30
0.0
  0
SPLINE
  5
A3
330
1F
100
AcDbEntity
  8
0
  6
Continuous
 62
     7
370
    25
100
AcDbSpline
210
0.0
220
0.0
230
1.0
 70
     8
 71
     3
 72
    11
 73
     7
 74
     0
 42
0.000000001
 43
0.00000001
 40
0.0
 40
0.0
 40
0.0
 40
0.0
 40
0.2603295496727688
 40
0.5282091365375859
 40
0.7614183953819049
 40
1.0
 40
1.0
 40
1.0
 40
1.0
 10
362.7422468696054
 20
435.0895034304638
 30
0.0
 10
363.3988626615126
 20
436.5450466500307
 30
0.0
 10
364.7311373146057
 20
439.4983465276932
 30
0.0
 10
366.5480962376882
 20
443.526073550549
 30
0.0
 10
368.1971204831402
 20
447.1815209041939
 30
0.0
 10
369.1130165055413
 20
449.211820895131
 30
0.0
 10
369.5761792321023
 20
450.2385305396099
 30
0.0
  0
SPLINE
  5
A4
330
1F
100
AcDbEntity
  8
0
  6
Continuous
 62
     7
370
    25
100
AcDbSpline
210
0.0
220
0.0
230
1.0
 70
     8
 71
     3
 72
    12
 73
     8
 74
     0
 42
0.000000001
 43
0.00000001
 40
0.0
 40
0.0
 40
0.0
 40
0.0
 40
0.2229052515408547
 40
0.4458350960256393
 40
0.6679336586748091
 40
0.8889145358946153
 40
1.0
 40
1.0
 40
1.0
 40
1.0
 10
362.7422468696054
 20
435.0895034304638
 30
0.0
 10
362.7168750660738
 20
435.0143422751902
 30
0.0
 10
362.6661286597615
 20
434.8640116721779
 30
0.0
 10
362.6904072356791
 20
434.6221753312774
 30
0.0
 10
362.7882381743968
 20
434.4042800574014
 30
0.0
 10
362.9257613996451
 20
434.256732932019
 30
0.0
 10
363.0279966170463
 20
434.1978249683681
 30
0.0
 10
363.0621971521791
 20
434.1781186095257
 30
0.0
  0
LINE
  5
A5
330
1F
100
AcDbEntity
  8
0
  6
Continuous
 62
     7
370
    25
100
AcDbLine
 10
363.5540416423
 20
433.927183055
 30
0.0
 11
363.0621971522
 21
434.1781186095
 31
0.0
  0
SPLINE
  5
A6
330
1F
100
AcDbEntity
  8
0
  6
Continuous
 62
     7
370
    25
100
AcDbSpline
210
0.0
220
0.0
230
1.0
 70
     8
 71
     3
 72
    12
 73
     8
 74
     0
 42
0.000000001
 43
0.00000001
 40
0.0
 40
0.0
 40
0.0
 40
0.0
 40
0.220134686879274
 40
0.4402567019337178
 40
0.6607468836364947
 40
0.8821606742213027
 40
1.0
 40
1.0
 40
1.0
 40
1.0
 10
363.5540416423496
 20
433.9271830550213
 30
0.0
 10
363.6274083056537
 20
433.898384539629
 30
0.0
 10
363.774137408986
 20
433.8407891666013
 30
0.0
 10
364.014877458221
 20
433.8525127070272
 30
0.0
 10
364.2361593678153
 20
433.9377269602837
 30
0.0
 10
364.3921412291521
 20
434.067387049045
 30
0.0
 10
364.4571437024842
 20
434.1680634690268
 30
0.0
 10
364.4797222648081
 20
434.2030333510418
 30
0.0
  0
SPLINE
  5
A7
330
1F
100
AcDbEntity
  8
0
  6
Continuous
 62
     7
370
    25
100
AcDbSpline
210
0.0
220
0.0
230
1.0
 70
     8
 71
     3
 72
    11
 73
     7
 74
     0
 42
0.000000001
 43
0.00000001
 40
0.0
 40
0.0
 40
0.0
 40
0.0
 40
0.283226957056512
 40
0.5762691526469469
 40
0.7861907145586761
 40
1.0
 40
1.0
 40
1.0
 40
1.0
 10
372.7341636974629
 20
448.6273201337833
 30
0.0
 10
372.0649241939291
 20
447.4578525230422
 30
0.0
 10
370.7032526721665
 20
445.0783893670848
 30
0.0
 10
368.5208744889371
 20
441.2647739700425
 30
0.0
 10
366.4232072361361
 20
437.5991969647218
 30
0.0
 10
365.1315010495637
 20
435.3419911642543
 30
0.0
 10
364.4797222648081
 20
434.2030333510418
 30
0.0
  0
SPLINE
  5
A8
330
1F
100
AcDbEntity
  8
0
  6
Continuous
 62
     7
370
    25
100
AcDbSpline
210
0.0
220
0.0
230
1.0
 70
     8
 71
     3
 72
    13
 73
     9
 74
     0
 42
0.000000001
 43
0.00000001
 40
0.0
 40
0.0
 40
0.0
 40
0.0
 40
0.3201787716707656
 40
0.4946644419200706
 40
0.6890197844706267
 40
0.8387711736686659
 40
0.9672347939978265
 40
1.0
 40
1.0
 40
1.0
 40
1.0
 10
357.2785936255273
 20
453.3442752591152
 30
0.0
 10
357.2729578162906
 20
453.4506604853729
 30
0.0
 10
357.2642506980255
 20
453.6150217523635
 30
0.0
 10
357.1418556334327
 20
453.8268107627511
 30
0.0
 10
357.0003252568006
 20
453.9671586868716
 30
0.0
 10
356.8219004483723
 20
454.0593151116755
 30
0.0
 10
356.6837545052913
 20
454.0900014195266
 30
0.0
 10
356.6111858940573
 20
454.0931057453749
 30
0.0
 10
356.596438373093
 20
454.0937366119404
 30
0.0
  0
LINE
  5
A9
330
1F
100
AcDbEntity
  8
0
  6
Continuous
 62
     7
370
    25
100
AcDbLine
 10
354.450133628
 20
454.1430594555
 30
0.0
 11
356.5964383731
 21
454.0937366119
 31
0.0
  0
SPLINE
  5
AA
330
1F
100
AcDbEntity
  8
0
  6
Continuous
 62
     7
370
    25
100
AcDbSpline
210
0.0
220
0.0
230
1.0
 70
     8
 71
     3
 72
    12
 73
     8
 74
     0
 42
0.000000001
 43
0.00000001
 40
0.0
 40
0.0
 40
0.0
 40
0.0
 40
0.1369198719823039
 40
0.2732919300191893
 40
0.4609274765495773
 40
0.7173055757398704
 40
1.0
 40
1.0
 40
1.0
 40
1.0
 10
354.4501336279823
 20
454.143059455492
 30
0.0
 10
354.3879759214907
 20
454.1395802229677
 30
0.0
 10
354.2639092003735
 20
454.1326356782659
 30
0.0
 10
354.0784899276114
 20
454.0567386580152
 30
0.0
 10
353.8993127925298
 20
453.9169357533597
 30
0.0
 10
353.758176599754
 20
453.6967748760137
 30
0.0
 10
353.7424941473916
 20
453.5189732239702
 30
0.0
 10
353.7342701299381
 20
453.4257324567814
 30
0.0
  0
SPLINE
  5
AB
330
1F
100
AcDbEntity
  8
0
  6
Continuous
 62
     7
370
    25
100
AcDbSpline
210
0.0
220
0.0
230
1.0
 70
     8
 71
     3
 72
    11
 73
     7
 74
     0
 42
0.000000001
 43
0.00000001
 40
0.0
 40
0.0
 40
0.0
 40
0.0
 40
0.2603295742420702
 40
0.5282088593707273
 40
0.7614182563757466
 40
1.0
 40
1.0
 40
1.0
 40
1.0
 10
354.1500283015225
 20
436.8117945424099
 30
0.0
 10
354.1100815619465
 20
438.4080890965128
 30
0.0
 10
354.0290296038333
 20
441.6469716863883
 30
0.0
 10
353.9184904168958
 20
446.0641757939177
 30
0.0
 10
353.8181683975849
 20
450.0731065919906
 30
0.0
 10
353.7624477186748
 20
452.2997388521943
 30
0.0
 10
353.7342701299381
 20
453.4257324567814
 30
0.0
  0
SPLINE
  5
AC
330
1F
100
AcDbEntity
  8
0
  6
Continuous
 62
     7
370
    25
100
AcDbSpline
210
0.0
220
0.0
230
1.0
 70
     8
 71
     3
 72
    12
 73
     8
 74
     0
 42
0.000000001
 43
0.00000001
 40
0.0
 40
0.0
 40
0.0
 40
0.0
 40
0.22289877759877
 40
0.4458334893522448
 40
0.6679300880700738
 40
0.8889149030804887
 40
1.0
 40
1.0
 40
1.0
 40
1.0
 10
354.1500283015225
 20
436.8117945424099
 30
0.0
 10
354.1597798351864
 20
436.7330711528742
 30
0.0
 10
354.179284474587
 20
436.5756116825783
 30
0.0
 10
354.306083236991
 20
436.3682572080277
 30
0.0
 10
354.4887730364503
 20
436.2143947093966
 30
0.0
 10
354.6766913935509
 20
436.1411175846984
 30
0.0
 10
354.7943628157411
 20
436.132406712216
 30
0.0
 10
354.8337266390477
 20
436.1294927230854
 30
0.0
  0
LINE
  5
AD
330
1F
100
AcDbEntity
  8
0
  6
Continuous
 62
     7
370
    25
100
AcDbLine
 10
355.3857420181
 20
436.1168043843
 30
0.0
 11
354.833726639
 21
436.1294927231
 31
0.0
  0
SPLINE
  5
AE
330
1F
100
AcDbEntity
  8
0
  6
Continuous
 62
     7
370
    25
100
AcDbSpline
210
0.0
220
0.0
230
1.0
 70
     8
 71
     3
 72
    12
 73
     8
 74
     0
 42
0.000000001
 43
0.00000001
 40
0.0
 40
0.0
 40
0.0
 40
0.0
 40
0.2201344540067019
 40
0.4402563602647468
 40
0.6607447638142426
 40
0.8821616863352011
 40
1.0
 40
1.0
 40
1.0
 40
1.0
 10
355.3857420181189
 20
436.1168043843288
 30
0.0
 10
355.4643382373732
 20
436.1226915519835
 30
0.0
 10
355.621526195867
 20
436.1344655517219
 30
0.0
 10
355.8333373839419
 20
436.2494814315741
 30
0.0
 10
355.9957366613364
 20
436.4222650849504
 30
0.0
 10
356.0800099018598
 20
436.606765696603
 30
0.0
 10
356.0948928095382
 20
436.7256763745569
 30
0.0
 10
356.100062300105
 20
436.7669793001194
 30
0.0
  0
SPLINE
  5
AF
330
1F
100
AcDbEntity
  8
0
  6
Continuous
 62
     7
370
    25
100
AcDbSpline
210
0.0
220
0.0
230
1.0
 70
     8
 71
     3
 72
    11
 73
     7
 74
     0
 42
0.000000001
 43
0.00000001
 40
0.0
 40
0.0
 40
0.0
 40
0.0
 40
0.2832266936652512
 40
0.5762691446878905
 40
0.7861908076116996
 40
1.0
 40
1.0
 40
1.0
 40
1.0
 10
357.2785936255273
 20
453.3442752591152
 30
0.0
 10
357.1830425913377
 20
452.0002520494334
 30
0.0
 10
356.9886290209431
 20
449.2656259608364
 30
0.0
 10
356.6770396465829
 20
444.8827769178375
 30
0.0
 10
356.3775441080293
 20
440.6700618748741
 30
0.0
 10
356.1931202365731
 20
438.0759401036692
 30
0.0
 10
356.1000623001051
 20
436.7669793001194
 30
0.0
  0
SPLINE
  5
B0
330
1F
100
AcDbEntity
  8
0
  6
Continuous
 62
     7
370
    25
100
AcDbSpline
210
0.0
220
0.0
230
1.0
 70
     8
 71
     3
 72
    13
 73
     9
 74
     0
 42
0.000000001
 43
0.00000001
 40
0.0
 40
0.0
 40
0.0
 40
0.0
 40
0.1923235129897835
 40
0.4540916207480188
 40
0.6566887768747575
 40
0.8131117725890166
 40
0.9441959218661089
 40
1.0
 40
1.0
 40
1.0
 40
1.0
 10
341.3069954101261
 20
450.8881913653393
 30
0.0
 10
341.2789617695437
 20
450.9451252056245
 30
0.0
 10
341.2127720401152
 20
451.0795506817852
 30
0.0
 10
341.0415683406497
 20
451.2313890575887
 30
0.0
 10
340.8251732627917
 20
451.3207791167458
 30
0.0
 10
340.6210227982828
 20
451.3371709893057
 30
0.0
 10
340.4683951145589
 20
451.3094075154521
 30
0.0
 10
340.3904826421877
 20
451.2770962763771
 30
0.0
 10
340.3672182891783
 20
451.2674482694645
 30
0.0
  0
LINE
  5
B1
330
1F
100
AcDbEntity
  8
0
  6
Continuous
 62
     7
370
    25
100
AcDbLine
 10
338.4120639373
 20
450.3806429139
 30
0.0
 11
340.3672182892
 21
451.2674482695
 31
0.0
  0
SPLINE
  5
B2
330
1F
100
AcDbEntity
  8
0
  6
Continuous
 62
     7
370
    25
100
AcDbSpline
210
0.0
220
0.0
230
1.0
 70
     8
 71
     3
 72
    12
 73
     8
 74
     0
 42
0.000000001
 43
0.00000001
 40
0.0
 40
0.0
 40
0.0
 40
0.0
 40
0.1369194906043587
 40
0.2732896500344842
 40
0.4609254929285139
 40
0.7173071848171819
 40
0.9999999999999999
 40
0.9999999999999999
 40
0.9999999999999999
 40
0.9999999999999999
 10
338.4120639372882
 20
450.3806429139156
 30
0.0
 10
338.357571733615
 20
450.3505387027598
 30
0.0
 10
338.2488059530403
 20
450.2904510607812
 30
0.0
 10
338.1146731432748
 20
450.1416267483348
 30
0.0
 10
338.0139025944165
 20
449.9379219746817
 30
0.0
 10
337.9822678257713
 20
449.6783221128563
 30
0.0
 10
338.0452840972548
 20
449.5113242762753
 30
0.0
 10
338.0783300806102
 20
449.4237499466915
 30
0.0
  0
SPLINE
  5
B3
330
1F
100
AcDbEntity
  8
0
  6
Continuous
 62
     7
370
    25
100
AcDbSpline
210
0.0
220
0.0
230
1.0
 70
     8
 71
     3
 72
    11
 73
     7
 74
     0
 42
0.000000001
 43
0.00000001
 40
0.0
 40
0.0
 40
0.0
 40
0.0
 40
0.2603295971342782
 40
0.5282091762957949
 40
0.7614184837973069
 40
1.0
 40
1.0
 40
1.0
 40
1.0
 10
345.6614322919663
 20
434.6355023017902
 30
0.0
 10
344.9328348471224
 20
436.0563814810203
 30
0.0
 10
343.4545094456745
 20
438.9393476482896
 30
0.0
 10
341.4383643887126
 20
442.8711525803219
 30
0.0
 10
339.6085685990076
 20
446.4395460117946
 30
0.0
 10
338.5922670758469
 20
448.421492595935
 30
0.0
 10
338.0783300806102
 20
449.4237499466915
 30
0.0
  0
SPLINE
  5
B4
330
1F
100
AcDbEntity
  8
0
  6
Continuous
 62
     7
370
    25
100
AcDbSpline
210
0.0
220
0.0
230
1.0
 70
     8
 71
     3
 72
    12
 73
     8
 74
     0
 42
0.000000001
 43
0.00000001
 40
0.0
 40
0.0
 40
0.0
 40
0.0
 40
0.2229024620714878
 40
0.4458313843265186
 40
0.6679310824824674
 40
0.8889144962352037
 40
1.0
 40
1.0
 40
1.0
 40
1.0
 10
345.6614322919663
 20
434.6355023017902
 30
0.0
 10
345.7043746136458
 20
434.5688035990561
 30
0.0
 10
345.7902643545785
 20
434.4353982759548
 30
0.0
 10
345.9944805444044
 20
434.303607389838
 30
0.0
 10
346.2258316585727
 20
434.2442309147615
 30
0.0
 10
346.4269335502775
 20
434.2597616148303
 30
0.0
 10
346.5367328055802
 20
434.3029627763925
 30
0.0
 10
346.5734634507712
 20
434.3174146643657
 30
0.0
  0
LINE
  5
B5
330
1F
100
AcDbEntity
  8
0
  6
Continuous
 62
     7
370
    25
100
AcDbLine
 10
347.0763161738
 20
434.5454918376
 30
0.0
 11
346.5734634508
 21
434.3174146644
 31
0.0
  0
SPLINE
  5
B6
330
1F
100
AcDbEntity
  8
0
  6
Continuous
 62
     7
370
    25
100
AcDbSpline
210
0.0
220
0.0
230
1.0
 70
     8
 71
     3
 72
    12
 73
     8
 74
     0
 42
0.000000001
 43
0.00000001
 40
0.0
 40
0.0
 40
0.0
 40
0.0
 40
0.2201341045863815
 40
0.4402543360854184
 40
0.6607458834218695
 40
0.8821607779692272
 40
1.0
 40
1.0
 40
1.0
 40
1.0
 10
347.0763161737736
 20
434.5454918375988
 30
0.0
 10
347.1445749427457
 20
434.5848974734054
 30
0.0
 10
347.2810881789491
 20
434.6637062616333
 30
0.0
 10
347.4220228233736
 20
434.8592340507527
 30
0.0
 10
347.4933668205431
 20
435.0853716270462
 30
0.0
 10
347.4892459016548
 20
435.2881673881063
 30
0.0
 10
347.4510598421087
 20
435.4017595377656
 30
0.0
 10
347.4377959925946
 20
435.4412155381222
 30
0.0
  0
SPLINE
  5
B7
330
1F
100
AcDbEntity
  8
0
  6
Continuous
 62
     7
370
    25
100
AcDbSpline
210
0.0
220
0.0
230
1.0
 70
     8
 71
     3
 72
    11
 73
     7
 74
     0
 42
0.000000001
 43
0.00000001
 40
0.0
 40
0.0
 40
0.0
 40
0.0
 40
0.2832268669922378
 40
0.5762690436075987
 40
0.7861909501347845
 40
1.0
 40
1.0
 40
1.0
 40
1.0
 10
341.3069954101261
 20
450.8881913653393
 30
0.0
 10
341.8040576730947
 20
449.6358086087204
 30
0.0
 10
342.8154080366257
 20
447.0876414060404
 30
0.0
 10
344.4363219772709
 20
443.0036384735224
 30
0.0
 10
345.9943149089835
 20
439.0781663254343
 30
0.0
 10
346.9537019499368
 20
436.660924081287
 30
0.0
 10
347.4377959925946
 20
435.4412155381222
 30
0.0
  0
SPLINE
  5
B8
330
1F
100
AcDbEntity
  8
0
  6
Continuous
 62
     7
370
    25
100
AcDbSpline
210
0.0
220
0.0
230
1.0
 70
     8
 71
     3
 72
    12
 73
     8
 74
     0
 42
0.000000001
 43
0.00000001
 40
0.0
 40
0.0
 40
0.0
 40
0.0
 40
0.320328016571131
 40
0.5619268913929607
 40
0.7389305545542386
 40
0.8801325515669064
 40
0.9999999999999999
 40
0.9999999999999999
 40
0.9999999999999999
 40
0.9999999999999999
 10
327.982739355069
 20
441.7455168596287
 30
0.0
 10
327.8960578979131
 20
441.8071670638815
 30
0.0
 10
327.7439992603874
 20
441.9153152926889
 30
0.0
 10
327.4766075460316
 20
441.9428806006464
 30
0.0
 10
327.260721326172
 20
441.8947538094724
 30
0.0
 10
327.0911995673664
 20
441.8040814041615
 30
0.0
 10
327.0091486441377
 20
441.7186739830103
 30
0.0
 10
326.9714757759389
 20
441.6794600120563
 30
0.0
  0
LINE
  5
B9
330
1F
100
AcDbEntity
  8
0
  6
Continuous
 62
     7
370
    25
100
AcDbLine
 10
325.5947127898
 20
440.0321664444
 30
0.0
 11
326.9714757759
 21
441.6794600121
 31
0.0
  0
SPLINE
  5
BA
330
1F
100
AcDbEntity
  8
0
  6
Continuous
 62
     7
370
    25
100
AcDbSpline
210
0.0
220
0.0
230
1.0
 70
     8
 71
     3
 72
    12
 73
     8
 74
     0
 42
0.000000001
 43
0.00000001
 40
0.0
 40
0.0
 40
0.0
 40
0.0
 40
0.1369179339774682
 40
0.2732896290670955
 40
0.4609274640190613
 40
0.7173075987944502
 40
1.0
 40
1.0
 40
1.0
 40
1.0
 10
325.5947127897557
 20
440.0321664443989
 30
0.0
 10
325.558678663187
 20
439.9814011670784
 30
0.0
 10
325.486754169458
 20
439.8800731422874
 30
0.0
 10
325.4304804329952
 20
439.6877870476151
 30
0.0
 10
325.4280729738955
 20
439.4605314076106
 30
0.0
 10
325.51220421327
 20
439.2129156936315
 30
0.0
 10
325.6414372549277
 20
439.0897986084598
 30
0.0
 10
325.7092077244338
 20
439.0252353778858
 30
0.0
  0
SPLINE
  5
BB
330
1F
100
AcDbEntity
  8
0
  6
Continuous
 62
     7
370
    25
100
AcDbSpline
210
0.0
220
0.0
230
1.0
 70
     8
 71
     3
 72
    11
 73
     7
 74
     0
 42
0.000000001
 43
0.00000001
 40
0.0
 40
0.0
 40
0.0
 40
0.0
 40
0.2603296021453179
 40
0.5282092178600486
 40
0.7614184666869798
 40
1.0
 40
1.0
 40
1.0
 40
1.0
 10
338.9577276964005
 20
428.9916651478786
 30
0.0
 10
337.6847875654908
 20
429.9557067044615
 30
0.0
 10
335.101989814526
 20
431.9117487081018
 30
0.0
 10
331.5795626478946
 20
434.5794156175392
 30
0.0
 10
328.3827032108726
 20
437.0005052517344
 30
0.0
 10
326.6071124408546
 20
438.3452212394769
 30
0.0
 10
325.7092077244338
 20
439.0252353778858
 30
0.0
  0
SPLINE
  5
BC
330
1F
100
AcDbEntity
  8
0
  6
Continuous
 62
     7
370
    25
100
AcDbSpline
210
0.0
220
0.0
230
1.0
 70
     8
 71
     3
 72
    12
 73
     8
 74
     0
 42
0.000000001
 43
0.00000001
 40
0.0
 40
0.0
 40
0.0
 40
0.0
 40
0.2229019581118925
 40
0.4458331604551618
 40
0.6679315789583058
 40
0.8889147058629934
 40
1.0
 40
1.0
 40
1.0
 40
1.0
 10
338.9577276964005
 20
428.9916651478786
 30
0.0
 10
339.02535677486
 20
428.95020392212
 30
0.0
 10
339.1606238045604
 20
428.8672760309839
 30
0.0
 10
339.401799068494
 20
428.8371458108466
 30
0.0
 10
339.6360002362491
 20
428.8840304751481
 30
0.0
 10
339.8104514291746
 20
428.985271760969
 30
0.0
 10
339.8906314874179
 20
429.0718359043069
 30
0.0
 10
339.9174537468966
 20
429.1007938018818
 30
0.0
  0
LINE
  5
BD
330
1F
100
AcDbEntity
  8
0
  6
Continuous
 62
     7
370
    25
100
AcDbLine
 10
340.2715472464
 20
429.5244710675
 30
0.0
 11
339.9174537469
 21
429.1007938019
 31
0.0
  0
SPLINE
  5
BE
330
1F
100
AcDbEntity
  8
0
  6
Continuous
 62
     7
370
    25
100
AcDbSpline
210
0.0
220
0.0
230
1.0
 70
     8
 71
     3
 72
    12
 73
     8
 74
     0
 42
0.000000001
 43
0.00000001
 40
0.0
 40
0.0
 40
0.0
 40
0.0
 40
0.2201362649342282
 40
0.4402611324457272
 40
0.6607553379299984
 40
0.8834183349402331
 40
1.0
 40
1.0
 40
1.0
 40
1.0
 10
340.2715472463783
 20
429.5244710675258
 30
0.0
 10
340.3159495989854
 20
429.5895895813921
 30
0.0
 10
340.4047520052945
 20
429.7198232376528
 30
0.0
 10
340.4468890571979
 20
429.9571367094581
 30
0.0
 10
340.4129974639605
 20
430.1922751255482
 30
0.0
 10
340.3210944220614
 20
430.3731463334485
 30
0.0
 10
340.2373652808395
 20
430.4588654446084
 30
0.0
 10
340.2085917029794
 20
430.4883228770275
 30
0.0
  0
SPLINE
  5
BF
330
1F
100
AcDbEntity
  8
0
  6
Continuous
 62
     7
370
    25
100
AcDbSpline
210
0.0
220
0.0
230
1.0
 70
     8
 71
     3
 72
    11
 73
     7
 74
     0
 42
0.000000001
 43
0.00000001
 40
0.0
 40
0.0
 40
0.0
 40
0.0
 40
0.2832269394207236
 40
0.5762691603346928
 40
0.7861910049394228
 40
1.0
 40
1.0
 40
1.0
 40
1.0
 10
327.982739355069
 20
441.7455168596287
 30
0.0
 10
328.9739651240322
 20
440.832824509898
 30
0.0
 10
330.9907677726462
 20
438.9758102897857
 30
0.0
 10
334.2231470328157
 20
435.9995414091079
 30
0.0
 10
337.3300452413923
 20
433.1387973252689
 30
0.0
 10
339.2432259443806
 20
431.3772011044654
 30
0.0
 10
340.2085917029794
 20
430.4883228770275
 30
0.0
  0
SPLINE
  5
C0
330
1F
100
AcDbEntity
  8
0
  6
Continuous
 62
     7
370
    25
100
AcDbSpline
210
0.0
220
0.0
230
1.0
 70
     8
 71
     3
 72
    12
 73
     8
 74
     0
 42
0.000000001
 43
0.00000001
 40
0.0
 40
0.0
 40
0.0
 40
0.0
 40
0.3203308234543393
 40
0.5619301218319309
 40
0.7389344545477525
 40
0.8801321760500066
 40
0.9999999999999999
 40
0.9999999999999999
 40
0.9999999999999999
 40
0.9999999999999999
 10
319.9448592920121
 20
427.7270706525821
 30
0.0
 10
319.8400112173778
 20
427.7450100341431
 30
0.0
 10
319.6560848292837
 20
427.7764796216073
 30
0.0
 10
319.4032155577476
 20
427.6852838117891
 30
0.0
 10
319.2295957347186
 20
427.5482527619524
 30
0.0
 10
319.1161911098186
 20
427.3930182015593
 30
0.0
 10
319.0793273061939
 20
427.2804679772887
 30
0.0
 10
319.0624013502415
 20
427.2287907234211
 30
0.0
  0
LINE
  5
C1
330
1F
100
AcDbEntity
  8
0
  6
Continuous
 62
     7
370
    25
100
AcDbLine
 10
318.5367144604
 20
425.147269868
 30
0.0
 11
319.0624013502
 21
427.2287907234
 31
0.0
  0
SPLINE
  5
C2
330
1F
100
AcDbEntity
  8
0
  6
Continuous
 62
     7
370
    25
100
AcDbSpline
210
0.0
220
0.0
230
1.0
 70
     8
 71
     3
 72
    12
 73
     8
 74
     0
 42
0.000000001
 43
0.00000001
 40
0.0
 40
0.0
 40
0.0
 40
0.0
 40
0.1369172058320702
 40
0.2732909255389207
 40
0.4609262363053508
 40
0.7173073895992136
 40
1.0
 40
1.0
 40
1.0
 40
1.0
 10
318.5367144603547
 20
425.1472698679943
 30
0.0
 10
318.526275929493
 20
425.0858976937066
 30
0.0
 10
318.5054403030053
 20
424.9633969589635
 30
0.0
 10
318.5381673601382
 20
424.7657366286179
 30
0.0
 10
318.6345991335188
 20
424.5599434520489
 30
0.0
 10
318.8178349822244
 20
424.3733503909802
 30
0.0
 10
318.9876897633645
 20
424.3185010663748
 30
0.0
 10
319.0767623443421
 20
424.2897378436107
 30
0.0
  0
SPLINE
  5
C3
330
1F
100
AcDbEntity
  8
0
  6
Continuous
 62
     7
370
    25
100
AcDbSpline
210
0.0
220
0.0
230
1.0
 70
     8
 71
     3
 72
    11
 73
     7
 74
     0
 42
0.000000001
 43
0.00000001
 40
0.0
 40
0.0
 40
0.0
 40
0.0
 40
0.2603295872349791
 40
0.5282090171965729
 40
0.7614184649213145
 40
1.0
 40
1.0
 40
1.0
 40
1.0
 10
335.3666670579728
 20
420.998123489954
 30
0.0
 10
333.8015062520913
 20
421.3143885411075
 30
0.0
 10
330.6257932652955
 20
421.9560906757658
 30
0.0
 10
326.2947365513085
 20
422.8312300153548
 30
0.0
 10
322.3639962328327
 20
423.6255074924622
 30
0.0
 10
320.180793380927
 20
424.0666533452192
 30
0.0
 10
319.0767623443421
 20
424.2897378436107
 30
0.0
  0
SPLINE
  5
C4
330
1F
100
AcDbEntity
  8
0
  6
Continuous
 62
     7
370
    25
100
AcDbSpline
210
0.0
220
0.0
230
1.0
 70
     8
 71
     3
 72
    12
 73
     8
 74
     0
 42
0.000000001
 43
0.00000001
 40
0.0
 40
0.0
 40
0.0
 40
0.0
 40
0.2229013716755148
 40
0.4458311214477087
 40
0.667931490656979
 40
0.8889122089747292
 40
1.0
 40
1.0
 40
1.0
 40
1.0
 10
335.3666670579728
 20
420.998123489954
 30
0.0
 10
335.4455878246579
 20
420.9901128046941
 30
0.0
 10
335.6034394056159
 20
420.9740904143154
 30
0.0
 10
335.8338127812208
 20
421.0515651219408
 30
0.0
 10
336.0244706430121
 20
421.1954372076748
 30
0.0
 10
336.1377205842732
 20
421.3623432234357
 30
0.0
 10
336.1723999528984
 20
421.4751250774884
 30
0.0
 10
336.1840013373908
 20
421.512854301073
 30
0.0
  0
LINE
  5
C5
330
1F
100
AcDbEntity
  8
0
  6
Continuous
 62
     7
370
    25
100
AcDbLine
 10
336.3192051608
 20
422.0482008687
 30
0.0
 11
336.1840013374
 21
421.5128543011
 31
0.0
  0
SPLINE
  5
C6
330
1F
100
AcDbEntity
  8
0
  6
Continuous
 62
     7
370
    25
100
AcDbSpline
210
0.0
220
0.0
230
1.0
 70
     8
 71
     3
 72
    12
 73
     8
 74
     0
 42
0.000000001
 43
0.00000001
 40
0.0
 40
0.0
 40
0.0
 40
0.0
 40
0.2200853448335976
 40
0.4401592254748142
 40
0.588534886524649
 40
0.8110251182854923
 40
1.0
 40
1.0
 40
1.0
 40
1.0
 10
336.319205160838
 20
422.0482008687038
 30
0.0
 10
336.3309815467783
 20
422.1261141291263
 30
0.0
 10
336.3545337052297
 20
422.2819365914882
 30
0.0
 10
336.2962790049651
 20
422.4890101138755
 30
0.0
 10
336.1890139187221
 20
422.6690191664512
 30
0.0
 10
336.0422367782787
 20
422.810488133627
 30
0.0
 10
335.9065830536087
 20
422.8644885294391
 30
0.0
 10
335.8442809392031
 20
422.88928946171
 30
0.0
  0
SPLINE
  5
C7
330
1F
100
AcDbEntity
  8
0
  6
Continuous
 62
     7
370
    25
100
AcDbSpline
210
0.0
220
0.0
230
1.0
 70
     8
 71
     3
 72
    11
 73
     7
 74
     0
 42
0.000000001
 43
0.00000001
 40
0.0
 40
0.0
 40
0.0
 40
0.0
 40
0.2832268164197738
 40
0.5762691608890778
 40
0.7861909153741522
 40
1.0
 40
1.0
 40
1.0
 40
1.0
 10
319.9448592920121
 20
427.7270706525821
 30
0.0
 10
321.2339247025369
 20
427.3348435755385
 30
0.0
 10
323.8567294632036
 20
426.5367963728649
 30
0.0
 10
328.0603521911997
 20
425.257731553936
 30
0.0
 10
332.1008048199344
 20
424.028337657389
 30
0.0
 10
334.5888470870166
 20
423.2712872676441
 30
0.0
 10
335.8442809392031
 20
422.88928946171
 30
0.0
  0
SPLINE
  5
C8
330
1F
100
AcDbEntity
  8
0
  6
Continuous
 62
     7
370
    25
100
AcDbSpline
210
0.0
220
0.0
230
1.0
 70
     8
 71
     3
 72
    12
 73
     8
 74
     0
 42
0.000000001
 43
0.00000001
 40
0.0
 40
0.0
 40
0.0
 40
0.0
 40
0.320328900064685
 40
0.5619275293606388
 40
0.738932714521585
 40
0.8801332832050706
 40
1.0
 40
1.0
 40
1.0
 40
1.0
 10
318.7853515107449
 20
411.6093823841591
 30
0.0
 10
318.6831048371046
 20
411.5800519756236
 30
0.0
 10
318.5037416241928
 20
411.5285999711364
 30
0.0
 10
318.3154844716025
 20
411.3367234490201
 30
0.0
 10
318.2185007407338
 20
411.1379345004576
 30
0.0
 10
318.1836940547018
 20
410.9488645512368
 30
0.0
 10
318.1993116821436
 20
410.831465185579
 30
0.0
 10
318.2064823765572
 20
410.7775623134155
 30
0.0
  0
LINE
  5
C9
330
1F
100
AcDbEntity
  8
0
  6
Continuous
 62
     7
370
    25
100
AcDbLine
 10
318.6359897215
 20
408.6740920476
 30
0.0
 11
318.2064823766
 21
410.7775623134
 31
0.0
  0
SPLINE
  5
CA
330
1F
100
AcDbEntity
  8
0
  6
Continuous
 62
     7
370
    25
100
AcDbSpline
210
0.0
220
0.0
230
1.0
 70
     8
 71
     3
 72
    12
 73
     8
 74
     0
 42
0.000000001
 43
0.00000001
 40
0.0
 40
0.0
 40
0.0
 40
0.0
 40
0.1369198932665511
 40
0.2732923015254696
 40
0.4609288682224091
 40
0.7173062007704396
 40
1.0
 40
1.0
 40
1.0
 40
1.0
 10
318.6359897215184
 20
408.6740920475502
 30
0.0
 10
318.6532129168713
 20
408.6142668079532
 30
0.0
 10
318.6875904392699
 20
408.494855544705
 30
0.0
 10
318.8028443653053
 20
408.3309725909875
 30
0.0
 10
318.9790158158401
 20
408.1873980685962
 30
0.0
 10
319.2250620096996
 20
408.0987912149153
 30
0.0
 10
319.4018952167349
 20
408.1230678744618
 30
0.0
 10
319.4946281571206
 20
408.1357987752933
 30
0.0
  0
SPLINE
  5
CB
330
1F
100
AcDbEntity
  8
0
  6
Continuous
 62
     7
370
    25
100
AcDbSpline
210
0.0
220
0.0
230
1.0
 70
     8
 71
     3
 72
    11
 73
     7
 74
     0
 42
0.000000001
 43
0.00000001
 40
0.0
 40
0.0
 40
0.0
 40
0.0
 40
0.2603296405693379
 40
0.5282090670452053
 40
0.7614184435003829
 40
1.0
 40
1.0
 40
1.0
 40
1.0
 10
335.5995051522073
 20
412.238081001379
 30
0.0
 10
334.05212158595
 20
411.8439267613247
 30
0.0
 10
330.9124789847221
 20
411.0441874655779
 30
0.0
 10
326.6306191917902
 20
409.9534983489493
 30
0.0
 10
322.7445242192698
 20
408.9636207999279
 30
0.0
 10
320.5861192726691
 20
408.4138262469001
 30
0.0
 10
319.4946281571206
 20
408.1357987752933
 30
0.0
  0
SPLINE
  5
CC
330
1F
100
AcDbEntity
  8
0
  6
Continuous
 62
     7
370
    25
100
AcDbSpline
210
0.0
220
0.0
230
1.0
 70
     8
 71
     3
 72
    12
 73
     8
 74
     0
 42
0.000000001
 43
0.00000001
 40
0.0
 40
0.0
 40
0.0
 40
0.0
 40
0.2228995289717756
 40
0.4458333805015684
 40
0.667932588433942
 40
0.8889160846513942
 40
1.0
 40
1.0
 40
1.0
 40
1.0
 10
335.5995051522073
 20
412.238081001379
 30
0.0
 10
335.6740856915804
 20
412.2651048960174
 30
0.0
 10
335.8232582544015
 20
412.3191568464928
 30
0.0
 10
335.9971939688018
 20
412.4889220617918
 30
0.0
 10
336.1065541762658
 20
412.7012661705
 30
0.0
 10
336.1361675499459
 20
412.9007800452521
 30
0.0
 10
336.1184801392246
 20
413.0174389564132
 30
0.0
 10
336.1125633079823
 20
413.056463950016
 30
0.0
  0
LINE
  5
CD
330
1F
100
AcDbEntity
  8
0
  6
Continuous
 62
     7
370
    25
100
AcDbLine
 10
336.0020972748
 20
413.597461783
 30
0.0
 11
336.112563308
 21
413.05646395
 31
0.0
  0
SPLINE
  5
CE
330
1F
100
AcDbEntity
  8
0
  6
Continuous
 62
     7
370
    25
100
AcDbSpline
210
0.0
220
0.0
230
1.0
 70
     8
 71
     3
 72
    13
 73
     9
 74
     0
 42
0.000000001
 43
0.00000001
 40
0.0
 40
0.0
 40
0.0
 40
0.0
 40
0.2200607040527532
 40
0.2941795266557479
 40
0.5152194872316829
 40
0.7362286658820866
 40
0.9580126626727812
 40
1.0
 40
1.0
 40
1.0
 40
1.0
 10
336.002097274762
 20
413.5974617830295
 30
0.0
 10
335.9792677232564
 20
413.6729809588546
 30
0.0
 10
335.948748932159
 20
413.7739358089869
 30
0.0
 10
335.8449624190226
 20
413.9251407796128
 30
0.0
 10
335.7092632330505
 20
414.0530405872701
 30
0.0
 10
335.4904582254169
 20
414.1488734699288
 30
0.0
 10
335.3161082321478
 20
414.1635319609487
 30
0.0
 10
335.2239426700004
 20
414.1511645562998
 30
0.0
 10
335.2092716802176
 20
414.1491959026832
 30
0.0
  0
SPLINE
  5
CF
330
1F
100
AcDbEntity
  8
0
  6
Continuous
 62
     7
370
    25
100
AcDbSpline
210
0.0
220
0.0
230
1.0
 70
     8
 71
     3
 72
    11
 73
     7
 74
     0
 42
0.000000001
 43
0.00000001
 40
0.0
 40
0.0
 40
0.0
 40
0.0
 40
0.28322698851771
 40
0.5762691602936638
 40
0.7861909416599636
 40
1.0
 40
1.0
 40
1.0
 40
1.0
 10
318.7853515107449
 20
411.6093823841591
 30
0.0
 10
320.116942177261
 20
411.8153013344653
 30
0.0
 10
322.8262695590338
 20
412.2342753213815
 30
0.0
 10
327.1685651270203
 20
412.9057729334398
 30
0.0
 10
331.3423025575256
 20
413.5512038674642
 30
0.0
 10
333.9124226056949
 20
413.9486498437827
 30
0.0
 10
335.2092716802176
 20
414.1491959026832
 30
0.0
  0
ARC
  5
D0
330
1F
100
AcDbEntity
  8
0
  6
Continuous
 62
     7
370
    25
100
AcDbCircle
 10
354.6732075472
 20
417.1281628839
 30
0.0
 40
16.4226191290002
100
AcDbArc
 50
307.2549368278
 51
127.2549368278
  0
ARC
  5
D1
330
1F
100
AcDbEntity
  8
0
  6
Continuous
 62
     7
370
    25
100
AcDbCircle
 10
354.6732075472
 20
417.1281628839
 30
0.0
 40
16.4226191290002
100
AcDbArc
 50
127.2549368278
 51
307.2549368278
  0
SPLINE
  5
D2
330
1F
100
AcDbEntity
  8
0
  6
Continuous
 62
     7
370
    25
100
AcDbSpline
210
0.0
220
0.0
230
1.0
 70
     8
 71
     3
 72
    12
 73
     8
 74
     0
 42
0.000000001
 43
0.00000001
 40
0.0
 40
0.0
 40
0.0
 40
0.0
 40
0.3203288466047182
 40
0.5619268427422809
 40
0.738931116752745
 40
0.8801314270814364
 40
1.0
 40
1.0
 40
1.0
 40
1.0
 10
352.0678214688119
 20
380.9120459637422
 30
0.0
 10
352.0736643385262
 20
380.8058360556356
 30
0.0
 10
352.0839140096562
 20
380.6195206520653
 30
0.0
 10
352.2290869183448
 20
380.3932851512185
 30
0.0
 10
352.4013134660538
 20
380.2545035523157
 30
0.0
 10
352.5778962597595
 20
380.1784924154146
 30
0.0
 10
352.6958286215734
 20
380.1675953834396
 30
0.0
 10
352.7499767212462
 20
380.1625920614977
 30
0.0
  0
LINE
  5
D3
330
1F
100
AcDbEntity
  8
0
  6
Continuous
 62
     7
370
    25
100
AcDbLine
 10
354.8962814664
 20
380.1132673553
 30
0.0
 11
352.7499767212
 21
380.1625920615
 31
0.0
  0
SPLINE
  5
D4
330
1F
100
AcDbEntity
  8
0
  6
Continuous
 62
     7
370
    25
100
AcDbSpline
210
0.0
220
0.0
230
1.0
 70
     8
 71
     3
 72
    12
 73
     8
 74
     0
 42
0.000000001
 43
0.00000001
 40
0.0
 40
0.0
 40
0.0
 40
0.0
 40
0.1369198119756195
 40
0.2732913440731926
 40
0.4609268083701776
 40
0.717305699633903
 40
1.0
 40
1.0
 40
1.0
 40
1.0
 10
354.8962814663569
 20
380.1132673553009
 30
0.0
 10
354.9584391162964
 20
380.1167467585265
 30
0.0
 10
355.0825055129068
 20
380.1236916321015
 30
0.0
 10
355.267925588383
 20
380.1995855997673
 30
0.0
 10
355.447102558788
 20
380.3393895119897
 30
0.0
 10
355.5882382602936
 20
380.5595519533218
 30
0.0
 10
355.6039208754008
 20
380.7373536958219
 30
0.0
 10
355.6121449644011
 20
380.8305943540115
 30
0.0
  0
SPLINE
  5
D5
330
1F
100
AcDbEntity
  8
0
  6
Continuous
 62
     7
370
    25
100
AcDbSpline
210
0.0
220
0.0
230
1.0
 70
     8
 71
     3
 72
    11
 73
     7
 74
     0
 42
0.000000001
 43
0.00000001
 40
0.0
 40
0.0
 40
0.0
 40
0.0
 40
0.2603297602936712
 40
0.5282090346837476
 40
0.7614184223400114
 40
1.0
 40
1.0
 40
1.0
 40
1.0
 10
355.1963867928166
 20
397.444532268383
 30
0.0
 10
355.2363335244845
 20
395.8482364336
 30
0.0
 10
355.3173854355272
 20
392.6093524849911
 30
0.0
 10
355.4279246876326
 20
388.1921474222798
 30
0.0
 10
355.5282466600816
 20
384.1832169328174
 30
0.0
 10
355.5839673694117
 20
381.9565866126633
 30
0.0
 10
355.6121449644011
 20
380.8305943540115
 30
0.0
  0
SPLINE
  5
D6
330
1F
100
AcDbEntity
  8
0
  6
Continuous
 62
     7
370
    25
100
AcDbSpline
210
0.0
220
0.0
230
1.0
 70
     8
 71
     3
 72
    12
 73
     8
 74
     0
 42
0.000000001
 43
0.00000001
 40
0.0
 40
0.0
 40
0.0
 40
0.0
 40
0.222842162520471
 40
0.4114711902028321
 40
0.6322890762667002
 40
0.8531344923462297
 40
1.0
 40
1.0
 40
1.0
 40
1.0
 10
355.1963867928167
 20
397.444532268383
 30
0.0
 10
355.1866935464571
 20
397.5232853968944
 30
0.0
 10
355.1687952655782
 20
397.6687006233232
 30
0.0
 10
355.0550808619981
 20
397.866753813684
 30
0.0
 10
354.8902353534805
 20
398.0214169769969
 30
0.0
 10
354.6951897394203
 20
398.1104760366271
 30
0.0
 10
354.564776234883
 20
398.1221653284531
 30
0.0
 10
354.5126884552915
 20
398.1268340877075
 30
0.0
  0
LINE
  5
D7
330
1F
100
AcDbEntity
  8
0
  6
Continuous
 62
     7
370
    25
100
AcDbLine
 10
353.9606730762
 20
398.1395224265
 30
0.0
 11
354.5126884553
 21
398.1268340877
 31
0.0
  0
SPLINE
  5
D8
330
1F
100
AcDbEntity
  8
0
  6
Continuous
 62
     7
370
    25
100
AcDbSpline
210
0.0
220
0.0
230
1.0
 70
     8
 71
     3
 72
    12
 73
     8
 74
     0
 42
0.000000001
 43
0.00000001
 40
0.0
 40
0.0
 40
0.0
 40
0.0
 40
0.2201334438627996
 40
0.4402548461866108
 40
0.6607452899599981
 40
0.8821585212331563
 40
1.0
 40
1.0
 40
1.0
 40
1.0
 10
353.9606730762202
 20
398.1395224264641
 30
0.0
 10
353.88207687566
 20
398.1336367557294
 30
0.0
 10
353.7248887738371
 20
398.1218657362128
 30
0.0
 10
353.5130761923031
 20
398.0068490230885
 30
0.0
 10
353.3506808434017
 20
397.834062546478
 30
0.0
 10
353.2664039835546
 20
397.6495628390411
 30
0.0
 10
353.2515220821399
 20
397.5306517518338
 30
0.0
 10
353.2463527942341
 20
397.4893475106735
 30
0.0
  0
SPLINE
  5
D9
330
1F
100
AcDbEntity
  8
0
  6
Continuous
 62
     7
370
    25
100
AcDbSpline
210
0.0
220
0.0
230
1.0
 70
     8
 71
     3
 72
    11
 73
     7
 74
     0
 42
0.000000001
 43
0.00000001
 40
0.0
 40
0.0
 40
0.0
 40
0.0
 40
0.2832269415736984
 40
0.576269056073165
 40
0.7861908587623103
 40
1.0
 40
1.0
 40
1.0
 40
1.0
 10
352.0678214688119
 20
380.9120459637422
 30
0.0
 10
352.1633724219383
 20
382.2560719771948
 30
0.0
 10
352.3577856273313
 20
384.9907009563682
 30
0.0
 10
352.6693758500116
 20
389.3735481339173
 30
0.0
 10
352.9688708055047
 20
393.5862640192494
 30
0.0
 10
353.1532948248613
 20
396.1803867897722
 30
0.0
 10
353.2463527942341
 20
397.4893475106735
 30
0.0
  0
SPLINE
  5
DA
330
1F
100
AcDbEntity
  8
0
  6
Continuous
 62
     7
370
    25
100
AcDbSpline
210
0.0
220
0.0
230
1.0
 70
     8
 71
     3
 72
    12
 73
     8
 74
     0
 42
0.000000001
 43
0.00000001
 40
0.0
 40
0.0
 40
0.0
 40
0.0
 40
0.3203294821570674
 40
0.5619268440702099
 40
0.7389312386735238
 40
0.8801315904988527
 40
0.9999999999999999
 40
0.9999999999999999
 40
0.9999999999999999
 40
0.9999999999999999
 10
336.6122513968762
 20
385.6290048143644
 30
0.0
 10
336.571432481342
 20
385.5307771488644
 30
0.0
 10
336.4998273195878
 20
385.3584646857621
 30
0.0
 10
336.5324640830306
 20
385.0916455710966
 30
0.0
 10
336.6274206879385
 20
384.891881184183
 30
0.0
 10
336.7535371909099
 20
384.7467818023415
 30
0.0
 10
336.855062030816
 20
384.6857940507989
 30
0.0
 10
336.9016766507443
 20
384.657791831233
 30
0.0
  0
LINE
  5
DB
330
1F
100
AcDbEntity
  8
0
  6
Continuous
 62
     7
370
    25
100
AcDbLine
 10
338.8140283484
 20
383.6821066371
 30
0.0
 11
336.9016766507
 21
384.6577918312
 31
0.0
  0
SPLINE
  5
DC
330
1F
100
AcDbEntity
  8
0
  6
Continuous
 62
     7
370
    25
100
AcDbSpline
210
0.0
220
0.0
230
1.0
 70
     8
 71
     3
 72
    12
 73
     8
 74
     0
 42
0.000000001
 43
0.00000001
 40
0.0
 40
0.0
 40
0.0
 40
0.0
 40
0.1369199977292336
 40
0.2732918635054105
 40
0.4609278174158432
 40
0.7173066730167181
 40
1.0
 40
1.0
 40
1.0
 40
1.0
 10
338.8140283484277
 20
383.6821066370983
 30
0.0
 10
338.8715401749398
 20
383.658272181194
 30
0.0
 10
338.986333590816
 20
383.6106986858848
 30
0.0
 10
339.1863210569014
 20
383.5986239273643
 30
0.0
 10
339.4084131259551
 20
383.6468438871307
 30
0.0
 10
339.6310961367373
 20
383.7839676428804
 30
0.0
 10
339.7223707821635
 20
383.9373562962639
 30
0.0
 10
339.7702358622369
 20
384.0177944085378
 30
0.0
  0
SPLINE
  5
DD
330
1F
100
AcDbEntity
  8
0
  6
Continuous
 62
     7
370
    25
100
AcDbSpline
210
0.0
220
0.0
230
1.0
 70
     8
 71
     3
 72
    11
 73
     7
 74
     0
 42
0.000000001
 43
0.00000001
 40
0.0
 40
0.0
 40
0.0
 40
0.0
 40
0.2603295311099951
 40
0.5282090988736837
 40
0.7614183410890387
 40
1.0
 40
1.0
 40
1.0
 40
1.0
 10
346.6041682247337
 20
399.1668233803291
 30
0.0
 10
345.9475524300858
 20
397.7112801672955
 30
0.0
 10
344.6152777714314
 20
394.7579803028889
 30
0.0
 10
342.7983188891291
 20
390.7302531828274
 30
0.0
 10
341.1492943469836
 20
387.0748058050851
 30
0.0
 10
340.2333985455039
 20
385.0445047452374
 30
0.0
 10
339.7702358622369
 20
384.0177944085378
 30
0.0
  0
SPLINE
  5
DE
330
1F
100
AcDbEntity
  8
0
  6
Continuous
 62
     7
370
    25
100
AcDbSpline
210
0.0
220
0.0
230
1.0
 70
     8
 71
     3
 72
    13
 73
     9
 74
     0
 42
0.000000001
 43
0.00000001
 40
0.0
 40
0.0
 40
0.0
 40
0.0
 40
0.222880196091685
 40
0.4457883510065292
 40
0.6678653049638733
 40
0.7058058069908881
 40
0.9258788990860911
 40
1.0
 40
1.0
 40
1.0
 40
1.0
 10
346.6041682247337
 20
399.1668233803291
 30
0.0
 10
346.6295405776293
 20
399.2420068752669
 30
0.0
 10
346.6802884662114
 20
399.3923832964068
 30
0.0
 10
346.6560006563303
 20
399.6338651391035
 30
0.0
 10
346.5850806395574
 20
399.792845846951
 30
0.0
 10
346.485972205578
 20
399.9310565239772
 30
0.0
 10
346.3985287735536
 20
400.0148411368377
 30
0.0
 10
346.3072222670118
 20
400.0654530086008
 30
0.0
 10
346.28421794216
 20
400.0782044759769
 30
0.0
  0
LINE
  5
DF
330
1F
100
AcDbEntity
  8
0
  6
Continuous
 62
     7
370
    25
100
AcDbLine
 10
345.792373452
 20
400.3291437558
 30
0.0
 11
346.2842179422
 21
400.078204476
 31
0.0
  0
SPLINE
  5
E0
330
1F
100
AcDbEntity
  8
0
  6
Continuous
 62
     7
370
    25
100
AcDbSpline
210
0.0
220
0.0
230
1.0
 70
     8
 71
     3
 72
    12
 73
     8
 74
     0
 42
0.000000001
 43
0.00000001
 40
0.0
 40
0.0
 40
0.0
 40
0.0
 40
0.2201338385686327
 40
0.4402550053612674
 40
0.6607430809852117
 40
0.8821582743247655
 40
1.0
 40
1.0
 40
1.0
 40
1.0
 10
345.7923734519895
 20
400.3291437557716
 30
0.0
 10
345.7190067435549
 20
400.3579423789814
 30
0.0
 10
345.572277549964
 20
400.4155379676381
 30
0.0
 10
345.3315386357791
 20
400.4038128314598
 30
0.0
 10
345.1102537538462
 20
400.3186048260549
 30
0.0
 10
344.9542730577273
 20
400.1889398329246
 30
0.0
 10
344.8892713371367
 20
400.0882608328806
 30
0.0
 10
344.8666928295311
 20
400.0532897344608
 30
0.0
  0
SPLINE
  5
E1
330
1F
100
AcDbEntity
  8
0
  6
Continuous
 62
     7
370
    25
100
AcDbSpline
210
0.0
220
0.0
230
1.0
 70
     8
 71
     3
 72
    11
 73
     7
 74
     0
 42
0.000000001
 43
0.00000001
 40
0.0
 40
0.0
 40
0.0
 40
0.0
 40
0.2832269094734872
 40
0.5762691268786615
 40
0.7861908697284915
 40
1.0
 40
1.0
 40
1.0
 40
1.0
 10
336.6122513968762
 20
385.6290048143644
 30
0.0
 10
337.2814908700795
 20
386.7984717902597
 30
0.0
 10
338.6431624980067
 20
389.1779339478825
 30
0.0
 10
340.825541948363
 20
392.9915492826403
 30
0.0
 10
342.9232059755852
 20
396.6571287365547
 30
0.0
 10
344.21491375414
 20
398.9143333939018
 30
0.0
 10
344.8666928295311
 20
400.0532897344608
 30
0.0
  0
SPLINE
  5
E2
330
1F
100
AcDbEntity
  8
0
  6
Continuous
 62
     7
370
    25
100
AcDbSpline
210
0.0
220
0.0
230
1.0
 70
     8
 71
     3
 72
    12
 73
     8
 74
     0
 42
0.000000001
 43
0.00000001
 40
0.0
 40
0.0
 40
0.0
 40
0.0
 40
0.3203293432264566
 40
0.5619277340279497
 40
0.7389311640951158
 40
0.8801316732379226
 40
1.0
 40
1.0
 40
1.0
 40
1.0
 10
368.039419684213
 20
383.3681354454536
 30
0.0
 10
368.0907665072784
 20
383.2749782298467
 30
0.0
 10
368.1808400660853
 20
383.1115600972865
 30
0.0
 10
368.4097968173883
 20
382.9707151952082
 30
0.0
 10
368.6251829450187
 20
382.9204072427924
 30
0.0
 10
368.8172582115381
 20
382.9285392002949
 30
0.0
 10
368.9282400853705
 20
382.9698891931793
 30
0.0
 10
368.9791968051609
 20
382.9888748160381
 30
0.0
  0
LINE
  5
E3
330
1F
100
AcDbEntity
  8
0
  6
Continuous
 62
     7
370
    25
100
AcDbLine
 10
370.9343511571
 20
383.8756820342
 30
0.0
 11
368.9791968052
 21
382.988874816
 31
0.0
  0
SPLINE
  5
E4
330
1F
100
AcDbEntity
  8
0
  6
Continuous
 62
     7
370
    25
100
AcDbSpline
210
0.0
220
0.0
230
1.0
 70
     8
 71
     3
 72
    12
 73
     8
 74
     0
 42
0.000000001
 43
0.00000001
 40
0.0
 40
0.0
 40
0.0
 40
0.0
 40
0.1369196820758279
 40
0.2732919294265322
 40
0.4609280347149833
 40
0.7173058151922594
 40
1.0
 40
1.0
 40
1.0
 40
1.0
 10
370.934351157051
 20
383.8756820342321
 30
0.0
 10
370.988843521615
 20
383.905786057745
 30
0.0
 10
371.0976103783951
 20
383.965873742325
 30
0.0
 10
371.2317406963224
 20
384.1147021478105
 30
0.0
 10
371.3325121786078
 20
384.318405580976
 30
0.0
 10
371.3641470081919
 20
384.5779995443156
 30
0.0
 10
371.301131114755
 20
384.744997768663
 30
0.0
 10
371.268085013729
 20
384.8325731388111
 30
0.0
  0
SPLINE
  5
E5
330
1F
100
AcDbEntity
  8
0
  6
Continuous
 62
     7
370
    25
100
AcDbSpline
210
0.0
220
0.0
230
1.0
 70
     8
 71
     3
 72
    11
 73
     7
 74
     0
 42
0.000000001
 43
0.00000001
 40
0.0
 40
0.0
 40
0.0
 40
0.0
 40
0.2603297336286147
 40
0.5282091066764987
 40
0.7614183797771601
 40
1.0
 40
1.0
 40
1.0
 40
1.0
 10
363.6849828023728
 20
399.6208245090027
 30
0.0
 10
364.4135799873542
 20
398.1999438789877
 30
0.0
 10
365.8919038915881
 20
395.3169766596349
 30
0.0
 10
367.9080515577832
 20
391.3851736572597
 30
0.0
 10
369.7378469443224
 20
387.8167805562913
 30
0.0
 10
370.7541480708382
 20
385.8348318512
 30
0.0
 10
371.268085013729
 20
384.8325731388111
 30
0.0
  0
SPLINE
  5
E6
330
1F
100
AcDbEntity
  8
0
  6
Continuous
 62
     7
370
    25
100
AcDbSpline
210
0.0
220
0.0
230
1.0
 70
     8
 71
     3
 72
    12
 73
     8
 74
     0
 42
0.000000001
 43
0.00000001
 40
0.0
 40
0.0
 40
0.0
 40
0.0
 40
0.116585454382834
 40
0.3388937394394454
 40
0.5612376705973252
 40
0.7827183232767725
 40
1.0
 40
1.0
 40
1.0
 40
1.0
 10
363.6849828023728
 20
399.6208245090027
 30
0.0
 10
363.6642779537954
 20
399.6564209130437
 30
0.0
 10
363.6040925421927
 20
399.7598934992249
 30
0.0
 10
363.4539980019764
 20
399.8971600351699
 30
0.0
 10
363.2353597422133
 20
399.9928793707569
 30
0.0
 10
362.9951574268076
 20
400.0148461641732
 30
0.0
 10
362.846546165748
 20
399.9640614817494
 30
0.0
 10
362.7729516435679
 20
399.9389121464271
 30
0.0
  0
LINE
  5
E7
330
1F
100
AcDbEntity
  8
0
  6
Continuous
 62
     7
370
    25
100
AcDbLine
 10
362.2700989206
 20
399.7108312479
 30
0.0
 11
362.7729516436
 21
399.9389121464
 31
0.0
  0
SPLINE
  5
E8
330
1F
100
AcDbEntity
  8
0
  6
Continuous
 62
     7
370
    25
100
AcDbSpline
210
0.0
220
0.0
230
1.0
 70
     8
 71
     3
 72
    12
 73
     8
 74
     0
 42
0.000000001
 43
0.00000001
 40
0.0
 40
0.0
 40
0.0
 40
0.0
 40
0.2201326930177109
 40
0.4402562744450425
 40
0.660745040261023
 40
0.8821604850990353
 40
1.0
 40
1.0
 40
1.0
 40
1.0
 10
362.2700989205655
 20
399.7108312479038
 30
0.0
 10
362.2018398460212
 20
399.6714271572455
 30
0.0
 10
362.0653245222681
 20
399.5926206069176
 30
0.0
 10
361.9243944314595
 20
399.3970901522388
 30
0.0
 10
361.853047541091
 20
399.1709543400541
 30
0.0
 10
361.8571692833488
 20
398.9681593792726
 30
0.0
 10
361.8953552756038
 20
398.854567261835
 30
0.0
 10
361.9086191017445
 20
398.8151112726707
 30
0.0
  0
SPLINE
  5
E9
330
1F
100
AcDbEntity
  8
0
  6
Continuous
 62
     7
370
    25
100
AcDbSpline
210
0.0
220
0.0
230
1.0
 70
     8
 71
     3
 72
    11
 73
     7
 74
     0
 42
0.000000001
 43
0.00000001
 40
0.0
 40
0.0
 40
0.0
 40
0.0
 40
0.2832268669922378
 40
0.5762690436075987
 40
0.7861909501347845
 40
1.0
 40
1.0
 40
1.0
 40
1.0
 10
368.039419684213
 20
383.3681354454536
 30
0.0
 10
367.5423574212444
 20
384.6205182020725
 30
0.0
 10
366.5310070577135
 20
387.1686854047525
 30
0.0
 10
364.9100931170683
 20
391.2526883372705
 30
0.0
 10
363.3521001853558
 20
395.1781604853586
 30
0.0
 10
362.3927131444024
 20
397.595402729506
 30
0.0
 10
361.9086191017445
 20
398.8151112726707
 30
0.0
  0
SPLINE
  5
EA
330
1F
100
AcDbEntity
  8
0
  6
Continuous
 62
     7
370
    25
100
AcDbSpline
210
0.0
220
0.0
230
1.0
 70
     8
 71
     3
 72
    12
 73
     8
 74
     0
 42
0.000000001
 43
0.00000001
 40
0.0
 40
0.0
 40
0.0
 40
0.0
 40
0.3203294283353229
 40
0.5619281757072129
 40
0.7389315092989013
 40
0.8801323970002725
 40
1.0
 40
1.0
 40
1.0
 40
1.0
 10
381.3636757392701
 20
392.5108099511642
 30
0.0
 10
381.4503570076118
 20
392.449156636061
 30
0.0
 10
381.6024149912955
 20
392.3410031795951
 30
0.0
 10
381.8698075862243
 20
392.3134532285888
 30
0.0
 10
382.085692973279
 20
392.3615729511553
 30
0.0
 10
382.2552163194664
 20
392.4522415202297
 30
0.0
 10
382.3372665718597
 20
392.5376489188592
 30
0.0
 10
382.3749393184003
 20
392.5768630734462
 30
0.0
  0
LINE
  5
EB
330
1F
100
AcDbEntity
  8
0
  6
Continuous
 62
     7
370
    25
100
AcDbLine
 10
383.7517023046
 20
394.2241603664
 30
0.0
 11
382.3749393184
 21
392.5768630734
 31
0.0
  0
SPLINE
  5
EC
330
1F
100
AcDbEntity
  8
0
  6
Continuous
 62
     7
370
    25
100
AcDbSpline
210
0.0
220
0.0
230
1.0
 70
     8
 71
     3
 72
    13
 73
     9
 74
     0
 42
0.000000001
 43
0.00000001
 40
0.0
 40
0.0
 40
0.0
 40
0.0
 40
0.136823768610902
 40
0.2731016740099874
 40
0.4606104609622012
 40
0.7168122333914858
 40
0.8076503563245376
 40
1.0
 40
1.0
 40
1.0
 40
1.0
 10
383.7517023045834
 20
394.224160366394
 30
0.0
 10
383.7877441591496
 20
394.2749335125271
 30
0.0
 10
383.859684078042
 20
394.3762772435504
 30
0.0
 10
383.9158280462722
 20
394.5684312054252
 30
0.0
 10
383.9190042173932
 20
394.7964687750306
 30
0.0
 10
383.8539333864068
 20
394.9755326044548
 30
0.0
 10
383.755016703641
 20
395.1271770363306
 30
0.0
 10
383.6848599475484
 20
395.1890592042707
 30
0.0
 10
383.6372073699054
 20
395.2310914329071
 30
0.0
  0
SPLINE
  5
ED
330
1F
100
AcDbEntity
  8
0
  6
Continuous
 62
     7
370
    25
100
AcDbSpline
210
0.0
220
0.0
230
1.0
 70
     8
 71
     3
 72
    11
 73
     7
 74
     0
 42
0.000000001
 43
0.00000001
 40
0.0
 40
0.0
 40
0.0
 40
0.0
 40
0.2603296337344833
 40
0.5282090558860122
 40
0.7614184377367894
 40
1.0
 40
1.0
 40
1.0
 40
1.0
 10
370.3886873979386
 20
405.264657937624
 30
0.0
 10
371.6616271431793
 20
404.300615720344
 30
0.0
 10
374.2444230062086
 20
402.3445732133159
 30
0.0
 10
377.7668554355996
 20
399.6769164942019
 30
0.0
 10
380.9637107759286
 20
397.2558205687823
 30
0.0
 10
382.7393024138855
 20
395.9111051384775
 30
0.0
 10
383.6372073699054
 20
395.2310914329071
 30
0.0
  0
SPLINE
  5
EE
330
1F
100
AcDbEntity
  8
0
  6
Continuous
 62
     7
370
    25
100
AcDbSpline
210
0.0
220
0.0
230
1.0
 70
     8
 71
     3
 72
    12
 73
     8
 74
     0
 42
0.000000001
 43
0.00000001
 40
0.0
 40
0.0
 40
0.0
 40
0.0
 40
0.2229011884036078
 40
0.4458325942679246
 40
0.6679309361410826
 40
0.88891508945438
 40
1.0
 40
1.0
 40
1.0
 40
1.0
 10
370.3886873979386
 20
405.264657937624
 30
0.0
 10
370.3210582074512
 20
405.3061182375892
 30
0.0
 10
370.1857906583672
 20
405.3890444580596
 30
0.0
 10
369.9446163882437
 20
405.4191884197687
 30
0.0
 10
369.7104140010875
 20
405.3722953122596
 30
0.0
 10
369.5359643525773
 20
405.2710515662028
 30
0.0
 10
369.4557836709238
 20
405.1844871248405
 30
0.0
 10
369.4289613474425
 20
405.1555292836208
 30
0.0
  0
LINE
  5
EF
330
1F
100
AcDbEntity
  8
0
  6
Continuous
 62
     7
370
    25
100
AcDbLine
 10
369.074867848
 20
404.7318557433
 30
0.0
 11
369.4289613474
 21
405.1555292836
 31
0.0
  0
SPLINE
  5
F0
330
1F
100
AcDbEntity
  8
0
  6
Continuous
 62
     7
370
    25
100
AcDbSpline
210
0.0
220
0.0
230
1.0
 70
     8
 71
     3
 72
    12
 73
     8
 74
     0
 42
0.000000001
 43
0.00000001
 40
0.0
 40
0.0
 40
0.0
 40
0.0
 40
0.2201329787240127
 40
0.4402545601954378
 40
0.6607420195439955
 40
0.8821585411757041
 40
1.0
 40
1.0
 40
1.0
 40
1.0
 10
369.0748678479608
 20
404.731855743267
 30
0.0
 10
369.0304656646761
 20
404.6667372278501
 30
0.0
 10
368.9416635970027
 20
404.5365035684882
 30
0.0
 10
368.8995242243303
 20
404.2991913607024
 30
0.0
 10
368.9333612078589
 20
404.0644947694804
 30
0.0
 10
369.0250631269868
 20
403.8835704488538
 30
0.0
 10
369.1087534934136
 20
403.7977945257562
 30
0.0
 10
369.1378233913597
 20
403.7680002084751
 30
0.0
  0
SPLINE
  5
F1
330
1F
100
AcDbEntity
  8
0
  6
Continuous
 62
     7
370
    25
100
AcDbSpline
210
0.0
220
0.0
230
1.0
 70
     8
 71
     3
 72
    11
 73
     7
 74
     0
 42
0.000000001
 43
0.00000001
 40
0.0
 40
0.0
 40
0.0
 40
0.0
 40
0.2832268649768581
 40
0.5762692403727373
 40
0.7861909802266551
 40
0.9999999999999999
 40
0.9999999999999999
 40
0.9999999999999999
 40
0.9999999999999999
 10
381.3636757392701
 20
392.5108099511642
 30
0.0
 10
380.3724496031197
 20
393.4235004768457
 30
0.0
 10
378.3556453971922
 20
395.2805117316672
 30
0.0
 10
375.1232703980548
 20
398.2567862817211
 30
0.0
 10
372.0163686309585
 20
401.1175254036887
 30
0.0
 10
370.1031889354995
 20
402.8791216815883
 30
0.0
 10
369.1378233913597
 20
403.7680002084751
 30
0.0
  0
SPLINE
  5
F2
330
1F
100
AcDbEntity
  8
0
  6
Continuous
 62
     7
370
    25
100
AcDbSpline
210
0.0
220
0.0
230
1.0
 70
     8
 71
     3
 72
    12
 73
     8
 74
     0
 42
0.000000001
 43
0.00000001
 40
0.0
 40
0.0
 40
0.0
 40
0.0
 40
0.3203296932892237
 40
0.5619267570207508
 40
0.738930539425718
 40
0.8801299788891255
 40
1.0
 40
1.0
 40
1.0
 40
1.0
 10
389.401555802327
 20
406.5292561582107
 30
0.0
 10
389.50640366101
 20
406.5113195588991
 30
0.0
 10
389.6903292178489
 20
406.4798549295053
 30
0.0
 10
389.943200138121
 20
406.5710379686735
 30
0.0
 10
390.1168205319494
 20
406.7080706394312
 30
0.0
 10
390.2302241689078
 20
406.8633088690246
 30
0.0
 10
390.2670878075026
 20
406.9758613502623
 30
0.0
 10
390.2840137440976
 20
407.0275398126621
 30
0.0
  0
LINE
  5
F3
330
1F
100
AcDbEntity
  8
0
  6
Continuous
 62
     7
370
    25
100
AcDbLine
 10
390.809700634
 20
409.1090532175
 30
0.0
 11
390.2840137441
 21
407.0275398127
 31
0.0
  0
SPLINE
  5
F4
330
1F
100
AcDbEntity
  8
0
  6
Continuous
 62
     7
370
    25
100
AcDbSpline
210
0.0
220
0.0
230
1.0
 70
     8
 71
     3
 72
    13
 73
     9
 74
     0
 42
0.000000001
 43
0.00000001
 40
0.0
 40
0.0
 40
0.0
 40
0.0
 40
0.1368516810734683
 40
0.2731548403699727
 40
0.4606987944950606
 40
0.5051897535806287
 40
0.7678000400678685
 40
1.0
 40
1.0
 40
1.0
 40
1.0
 10
390.8097006339844
 20
409.1090532175083
 30
0.0
 10
390.8201419034468
 20
409.1704423902939
 30
0.0
 10
390.8409825922193
 20
409.2929746789818
 30
0.0
 10
390.8082113524052
 20
409.4903718415632
 30
0.0
 10
390.7471450067789
 20
409.6220315002593
 30
0.0
 10
390.6422665567899
 20
409.7697544402315
 30
0.0
 10
390.4994998640648
 20
409.8972357901735
 30
0.0
 10
390.343063673545
 20
409.9444382397482
 30
0.0
 10
390.269652749997
 20
409.9665889671821
 30
0.0
  0
SPLINE
  5
F5
330
1F
100
AcDbEntity
  8
0
  6
Continuous
 62
     7
370
    25
100
AcDbSpline
210
0.0
220
0.0
230
1.0
 70
     8
 71
     3
 72
    11
 73
     7
 74
     0
 42
0.000000001
 43
0.00000001
 40
0.0
 40
0.0
 40
0.0
 40
0.0
 40
0.2603295489546924
 40
0.5282090537474554
 40
0.7614184333403582
 40
1.0
 40
1.0
 40
1.0
 40
1.0
 10
373.9797480363663
 20
413.2582033208389
 30
0.0
 10
375.5449090776879
 20
412.9419409017695
 30
0.0
 10
378.7206232289182
 20
412.3002439688499
 30
0.0
 10
383.0516768437528
 20
411.4250874935768
 30
0.0
 10
386.9824199436555
 20
410.6308269538815
 30
0.0
 10
389.1656219229923
 20
410.1896760610956
 30
0.0
 10
390.269652749997
 20
409.9665889671821
 30
0.0
  0
SPLINE
  5
F6
330
1F
100
AcDbEntity
  8
0
  6
Continuous
 62
     7
370
    25
100
AcDbSpline
210
0.0
220
0.0
230
1.0
 70
     8
 71
     3
 72
    12
 73
     8
 74
     0
 42
0.000000001
 43
0.00000001
 40
0.0
 40
0.0
 40
0.0
 40
0.0
 40
0.2229023430655548
 40
0.4458341240181739
 40
0.6679333530382644
 40
0.8889150343759692
 40
1.0
 40
1.0
 40
1.0
 40
1.0
 10
373.9797480363663
 20
413.2582033208389
 30
0.0
 10
373.9008270950986
 20
413.2662144438144
 30
0.0
 10
373.7429747897667
 20
413.2822377477646
 30
0.0
 10
373.5126044062198
 20
413.2047563618921
 30
0.0
 10
373.3219430175924
 20
413.0608903066477
 30
0.0
 10
373.2086958096307
 20
412.8939842633014
 30
0.0
 10
373.1740152948537
 20
412.7812041337112
 30
0.0
 10
373.1624137569484
 20
412.7434762350101
 30
0.0
  0
LINE
  5
F7
330
1F
100
AcDbEntity
  8
0
  6
Continuous
 62
     7
370
    25
100
AcDbLine
 10
373.0272099335
 20
412.2081222168
 30
0.0
 11
373.1624137569
 21
412.743476235
 31
0.0
  0
SPLINE
  5
F8
330
1F
100
AcDbEntity
  8
0
  6
Continuous
 62
     7
370
    25
100
AcDbSpline
210
0.0
220
0.0
230
1.0
 70
     8
 71
     3
 72
    12
 73
     8
 74
     0
 42
0.000000001
 43
0.00000001
 40
0.0
 40
0.0
 40
0.0
 40
0.0
 40
0.2201336630538979
 40
0.44025247741492
 40
0.6607418355925261
 40
0.8821572761711033
 40
1.0
 40
1.0
 40
1.0
 40
1.0
 10
373.0272099335011
 20
412.2081222167988
 30
0.0
 10
373.0154595013237
 20
412.1301867638348
 30
0.0
 10
372.9919594295715
 20
411.974321114893
 30
0.0
 10
373.0569567389689
 20
411.7422259448932
 30
0.0
 10
373.1892757284237
 20
411.5454547652696
 30
0.0
 10
373.350395427866
 20
411.422233014294
 30
0.0
 10
373.4630152092052
 20
411.3812642820516
 30
0.0
 10
373.502134155136
 20
411.3670336237926
 30
0.0
  0
SPLINE
  5
F9
330
1F
100
AcDbEntity
  8
0
  6
Continuous
 62
     7
370
    25
100
AcDbSpline
210
0.0
220
0.0
230
1.0
 70
     8
 71
     3
 72
    11
 73
     7
 74
     0
 42
0.000000001
 43
0.00000001
 40
0.0
 40
0.0
 40
0.0
 40
0.0
 40
0.2832268793442865
 40
0.5762691375964765
 40
0.786190960024487
 40
1.0
 40
1.0
 40
1.0
 40
1.0
 10
389.401555802327
 20
406.5292561582107
 30
0.0
 10
388.1124907014323
 20
406.9214857547489
 30
0.0
 10
385.4896872594775
 20
407.7195378741669
 30
0.0
 10
381.2860610041171
 20
408.9985877759296
 30
0.0
 10
377.2456115886549
 20
410.2279914061228
 30
0.0
 10
374.7575682279587
 20
410.9850378896546
 30
0.0
 10
373.502134155136
 20
411.3670336237926
 30
0.0
  0
SPLINE
  5
FA
330
1F
100
AcDbEntity
  8
0
  6
Continuous
 62
     7
370
    25
100
AcDbSpline
210
0.0
220
0.0
230
1.0
 70
     8
 71
     3
 72
    12
 73
     8
 74
     0
 42
0.000000001
 43
0.00000001
 40
0.0
 40
0.0
 40
0.0
 40
0.0
 40
0.3203288541756648
 40
0.5619274488611781
 40
0.7389326086650787
 40
0.8801305617163468
 40
1.0
 40
1.0
 40
1.0
 40
1.0
 10
390.5610635835942
 20
422.6469444266338
 30
0.0
 10
390.6633102533273
 20
422.6762748431915
 30
0.0
 10
390.8426734593848
 20
422.7277268617515
 30
0.0
 10
391.030930650396
 20
422.9196033049843
 30
0.0
 10
391.1279138362028
 20
423.1183915278163
 30
0.0
 10
391.1627211227017
 20
423.3074607441429
 30
0.0
 10
391.1471035479163
 20
423.4248603246129
 30
0.0
 10
391.1399327177819
 20
423.4787644973774
 30
0.0
  0
LINE
  5
FB
330
1F
100
AcDbEntity
  8
0
  6
Continuous
 62
     7
370
    25
100
AcDbLine
 10
390.7104253728
 20
425.5822347632
 30
0.0
 11
391.1399327178
 21
423.4787644974
 31
0.0
  0
SPLINE
  5
FC
330
1F
100
AcDbEntity
  8
0
  6
Continuous
 62
     7
370
    25
100
AcDbSpline
210
0.0
220
0.0
230
1.0
 70
     8
 71
     3
 72
    12
 73
     8
 74
     0
 42
0.000000001
 43
0.00000001
 40
0.0
 40
0.0
 40
0.0
 40
0.0
 40
0.1335502124324347
 40
0.237449769308259
 40
0.4314226963072614
 40
0.6784610052383999
 40
1.0
 40
1.0
 40
1.0
 40
1.0
 10
390.7104253728207
 20
425.5822347632427
 30
0.0
 10
390.6938213522644
 20
425.6406038909579
 30
0.0
 10
390.6642997155789
 20
425.7443831037219
 30
0.0
 10
390.5627402628751
 20
425.9024487801078
 30
0.0
 10
390.4013091279909
 20
426.0494379636444
 30
0.0
 10
390.1451272628929
 20
426.1566637590999
 30
0.0
 10
389.9577510158499
 20
426.1335838152635
 30
0.0
 10
389.8517869372185
 20
426.1205317607898
 30
0.0
  0
SPLINE
  5
FD
330
1F
100
AcDbEntity
  8
0
  6
Continuous
 62
     7
370
    25
100
AcDbSpline
210
0.0
220
0.0
230
1.0
 70
     8
 71
     3
 72
    11
 73
     7
 74
     0
 42
0.000000001
 43
0.00000001
 40
0.0
 40
0.0
 40
0.0
 40
0.0
 40
0.2603296204624472
 40
0.5282090262483066
 40
0.7614183846912614
 40
1.0
 40
1.0
 40
1.0
 40
1.0
 10
373.7469099421319
 20
422.0182420841236
 30
0.0
 10
375.2942935153856
 20
422.4123962755239
 30
0.0
 10
378.4339361308093
 20
423.2121354725518
 30
0.0
 10
382.7157958196444
 20
424.3028253130825
 30
0.0
 10
386.6018915495148
 20
425.2927005206425
 30
0.0
 10
388.7602959321837
 20
425.8425011645662
 30
0.0
 10
389.8517869372185
 20
426.1205317607898
 30
0.0
  0
SPLINE
  5
FE
330
1F
100
AcDbEntity
  8
0
  6
Continuous
 62
     7
370
    25
100
AcDbSpline
210
0.0
220
0.0
230
1.0
 70
     8
 71
     3
 72
    12
 73
     8
 74
     0
 42
0.000000001
 43
0.00000001
 40
0.0
 40
0.0
 40
0.0
 40
0.0
 40
0.2228985081670031
 40
0.4458351503307429
 40
0.6679285345959106
 40
0.88891588814883
 40
1.0
 40
1.0
 40
1.0
 40
1.0
 10
373.7469099421319
 20
422.0182420841236
 30
0.0
 10
373.6723290374491
 20
421.9912198988126
 30
0.0
 10
373.5231544686084
 20
421.9371709051721
 30
0.0
 10
373.3492249108403
 20
421.7674018985633
 30
0.0
 10
373.2398583788415
 20
421.5550619669768
 30
0.0
 10
373.2102476748902
 20
421.3555478663545
 30
0.0
 10
373.227935034108
 20
421.2388878250575
 30
0.0
 10
373.2338517863568
 20
421.1998628607769
 30
0.0
  0
LINE
  5
FF
330
1F
100
AcDbEntity
  8
0
  6
Continuous
 62
     7
370
    25
100
AcDbLine
 10
373.3443178196
 20
420.6588613025
 30
0.0
 11
373.2338517864
 21
421.1998628608
 31
0.0
  0
SPLINE
  5
100
330
1F
100
AcDbEntity
  8
0
  6
Continuous
 62
     7
370
    25
100
AcDbSpline
210
0.0
220
0.0
230
1.0
 70
     8
 71
     3
 72
    12
 73
     8
 74
     0
 42
0.000000001
 43
0.00000001
 40
0.0
 40
0.0
 40
0.0
 40
0.0
 40
0.2201303240806063
 40
0.4402519091786898
 40
0.6607421817554124
 40
0.8821580620505511
 40
1.0
 40
1.0
 40
1.0
 40
1.0
 10
373.3443178195771
 20
420.658861302473
 30
0.0
 10
373.3675453935277
 20
420.5835467343192
 30
0.0
 10
373.4139996193143
 20
420.4329205879342
 30
0.0
 10
373.573265769702
 20
420.2520147313385
 30
0.0
 10
373.7778547970046
 20
420.1321378730694
 30
0.0
 10
373.9764825570464
 20
420.091022358922
 30
0.0
 10
374.0957244754899
 20
420.1029780670107
 30
0.0
 10
374.1371434141216
 20
420.1071309081096
 30
0.0
  0
SPLINE
  5
101
330
1F
100
AcDbEntity
  8
0
  6
Continuous
 62
     7
370
    25
100
AcDbSpline
210
0.0
220
0.0
230
1.0
 70
     8
 71
     3
 72
    11
 73
     7
 74
     0
 42
0.000000001
 43
0.00000001
 40
0.0
 40
0.0
 40
0.0
 40
0.0
 40
0.2832269882686047
 40
0.5762691325749724
 40
0.7861909719725926
 40
1.0
 40
1.0
 40
1.0
 40
1.0
 10
390.5610635835942
 20
422.6469444266338
 30
0.0
 10
389.2294730210206
 20
422.4410246984868
 30
0.0
 10
386.5201459786711
 20
422.0220491487174
 30
0.0
 10
382.1778487973179
 20
421.350562535153
 30
0.0
 10
378.0041135648506
 20
420.7051157364228
 30
0.0
 10
375.4339926548293
 20
420.3076745224446
 30
0.0
 10
374.1371434141215
 20
420.1071309081096
 30
0.0
  0
SPLINE
  5
102
330
1F
100
AcDbEntity
  8
0
  6
Continuous
 62
     7
370
    25
100
AcDbSpline
210
0.0
220
0.0
230
1.0
 70
     8
 71
     3
 72
    12
 73
     8
 74
     0
 42
0.000000001
 43
0.00000001
 40
0.0
 40
0.0
 40
0.0
 40
0.0
 40
0.1369195209948726
 40
0.2732916967983935
 40
0.4609274456797927
 40
0.7173055716762535
 40
1.0
 40
1.0
 40
1.0
 40
1.0
 10
325.8728802163419
 20
393.8753465345878
 30
0.0
 10
325.9143557681352
 20
393.8289199051007
 30
0.0
 10
325.9971410703541
 20
393.7362522397674
 30
0.0
 10
326.1720837626283
 20
393.6386016087569
 30
0.0
 10
326.3931032794956
 20
393.5856833155936
 30
0.0
 10
326.6532282308442
 20
393.6126096411269
 30
0.0
 10
326.8020176319826
 20
393.7112053556791
 30
0.0
 10
326.8800441134986
 20
393.7629098227997
 30
0.0
  0
SPLINE
  5
103
330
1F
100
AcDbEntity
  8
0
  6
Continuous
 62
     7
370
    25
100
AcDbSpline
210
0.0
220
0.0
230
1.0
 70
     8
 71
     3
 72
    11
 73
     7
 74
     0
 42
0.000000001
 43
0.00000001
 40
0.0
 40
0.0
 40
0.0
 40
0.0
 40
0.2603295836764269
 40
0.5282090530088662
 40
0.7614184113824917
 40
1.0
 40
1.0
 40
1.0
 40
1.0
 10
339.6101219538864
 20
404.4465804627914
 30
0.0
 10
338.3869947071564
 20
403.4200760464699
 30
0.0
 10
335.905267983744
 20
401.3372972934852
 30
0.0
 10
332.5206780574248
 20
398.4967916621128
 30
0.0
 10
329.4489193647045
 20
395.9188302784879
 30
0.0
 10
327.7428116160003
 20
394.4869847292294
 30
0.0
 10
326.8800441134986
 20
393.7629098227997
 30
0.0
  0
SPLINE
  5
104
330
1F
100
AcDbEntity
  8
0
  6
Continuous
 62
     7
370
    25
100
AcDbSpline
210
0.0
220
0.0
230
1.0
 70
     8
 71
     3
 72
    12
 73
     8
 74
     0
 42
0.000000001
 43
0.00000001
 40
0.0
 40
0.0
 40
0.0
 40
0.0
 40
0.2229009072201283
 40
0.4458327388624537
 40
0.6679323440003284
 40
0.8889144541595543
 40
1.0
 40
1.0
 40
1.0
 40
1.0
 10
339.6101219538864
 20
404.4465804627914
 30
0.0
 10
339.665591352237
 20
404.5032883937669
 30
0.0
 10
339.7765378445508
 20
404.61671212316
 30
0.0
 10
339.8595929560155
 20
404.8451323217286
 30
0.0
 10
339.865990209481
 20
405.0838972231915
 30
0.0
 10
339.8061054253056
 20
405.2765025192934
 30
0.0
 10
339.7395528617658
 20
405.373934541056
 30
0.0
 10
339.7172892425474
 20
405.4065281680603
 30
0.0
  0
SPLINE
  5
105
330
1F
100
AcDbEntity
  8
0
  6
Continuous
 62
     7
370
    25
100
AcDbSpline
210
0.0
220
0.0
230
1.0
 70
     8
 71
     3
 72
     9
 73
     5
 74
     0
 42
0.000000001
 43
0.00000001
 40
0.0
 40
0.0
 40
0.0
 40
0.0
 40
0.4999973149610002
 40
1.0
 40
1.0
 40
1.0
 40
1.0
 10
339.3830319825825
 20
405.8460192910213
 30
0.0
 10
339.4387416754906
 20
405.772771505174
 30
0.0
 10
339.550161659641
 20
405.6262751467826
 30
0.0
 10
339.6615798488039
 20
405.4797774232024
 30
0.0
 10
339.7172892425474
 20
405.4065281680603
 30
0.0
  0
SPLINE
  5
106
330
1F
100
AcDbEntity
  8
0
  6
Continuous
 62
     7
370
    25
100
AcDbSpline
210
0.0
220
0.0
230
1.0
 70
     8
 71
     3
 72
    12
 73
     8
 74
     0
 42
0.000000001
 43
0.00000001
 40
0.0
 40
0.0
 40
0.0
 40
0.0
 40
0.2201352912312935
 40
0.4402547167501791
 40
0.6607436775633282
 40
0.8821602130441398
 40
1.0
 40
1.0
 40
1.0
 40
1.0
 10
339.3830319825825
 20
405.8460192910213
 30
0.0
 10
339.3294262482598
 20
405.9037997528235
 30
0.0
 10
339.2222186431167
 20
406.0193565120424
 30
0.0
 10
339.000231655876
 20
406.1132442016667
 30
0.0
 10
338.7638893964806
 20
406.1324853631243
 30
0.0
 10
338.5670969937409
 20
406.0833349474007
 30
0.0
 10
338.4648483252332
 20
406.0208316328297
 30
0.0
 10
338.4293325204667
 20
405.9991212717075
 30
0.0
  0
SPLINE
  5
107
330
1F
100
AcDbEntity
  8
0
  6
Continuous
 62
     7
370
    25
100
AcDbSpline
210
0.0
220
0.0
230
1.0
 70
     8
 71
     3
 72
    11
 73
     7
 74
     0
 42
0.000000001
 43
0.00000001
 40
0.0
 40
0.0
 40
0.0
 40
0.0
 40
0.2832268725175713
 40
0.5762691125207862
 40
0.7861909783404124
 40
1.0
 40
1.0
 40
1.0
 40
1.0
 10
324.7338764328774
 20
396.5847576192398
 30
0.0
 10
325.8442530742715
 20
397.3480380585174
 30
0.0
 10
328.103487009287
 20
398.9010507985768
 30
0.0
 10
331.7244077712849
 20
401.3901026098472
 30
0.0
 10
335.2047731833674
 20
403.7825337421689
 30
0.0
 10
337.3479259022053
 20
405.255753830203
 30
0.0
 10
338.4293325204667
 20
405.9991212717075
 30
0.0
  0
SPLINE
  5
108
330
1F
100
AcDbEntity
  8
0
  6
Continuous
 62
     7
370
    25
100
AcDbSpline
210
0.0
220
0.0
230
1.0
 70
     8
 71
     3
 72
    12
 73
     8
 74
     0
 42
0.000000001
 43
0.00000001
 40
0.0
 40
0.0
 40
0.0
 40
0.0
 40
0.3203294378360103
 40
0.5619285544086448
 40
0.7389314311684413
 40
0.8801304760884341
 40
1.0
 40
1.0
 40
1.0
 40
1.0
 10
324.7338764328774
 20
396.5847576192398
 30
0.0
 10
324.6544807697574
 20
396.5139684365139
 30
0.0
 10
324.5152032481386
 20
396.3897885815946
 30
0.0
 10
324.4288397116736
 20
396.1352299255059
 30
0.0
 10
324.4277183855683
 20
395.9140504572386
 30
0.0
 10
324.4783871778527
 20
395.7286009013973
 30
0.0
 10
324.5433965942281
 20
395.6296031475376
 30
0.0
 10
324.573245640498
 20
395.5841483703632
 30
0.0
  0
LINE
  5
109
330
1F
100
AcDbEntity
  8
0
  6
Continuous
 62
     7
370
    25
100
AcDbLine
 10
324.5732456405
 20
395.5841483704
 30
0.0
 11
325.2230629284
 21
394.7297493151
 31
0.0
  0
LINE
  5
10A
330
1F
100
AcDbEntity
  8
0
  6
Continuous
 62
     7
370
    25
100
AcDbLine
 10
325.8728802163
 20
393.8753465346
 30
0.0
 11
325.2230629284
 21
394.7297493151
 31
0.0
  0
SPLINE
  5
10B
330
1F
100
AcDbEntity
  8
0
  6
Continuous
 62
     7
370
    25
100
AcDbSpline
210
0.0
220
0.0
230
1.0
 70
     8
 71
     3
 72
    12
 73
     8
 74
     0
 42
0.000000001
 43
0.00000001
 40
0.0
 40
0.0
 40
0.0
 40
0.0
 40
0.2201311932958143
 40
0.4402541338396634
 40
0.6607435009212035
 40
0.8821598457290597
 40
1.0
 40
1.0
 40
1.0
 40
1.0
 10
369.9633831117567
 20
428.4103037944813
 30
0.0
 10
370.0169896203853
 20
428.3525271930942
 30
0.0
 10
370.1242006279264
 20
428.2369761563737
 30
0.0
 10
370.3461811241547
 20
428.1430749102319
 30
0.0
 10
370.5825255736909
 20
428.1238448438476
 30
0.0
 10
370.7793184703706
 20
428.1729874625707
 30
0.0
 10
370.8815667959934
 20
428.2354912366832
 30
0.0
 10
370.9170825738725
 20
428.2572018137951
 30
0.0
  0
SPLINE
  5
10C
330
1F
100
AcDbEntity
  8
0
  6
Continuous
 62
     7
370
    25
100
AcDbSpline
210
0.0
220
0.0
230
1.0
 70
     8
 71
     3
 72
    11
 73
     7
 74
     0
 42
0.000000001
 43
0.00000001
 40
0.0
 40
0.0
 40
0.0
 40
0.0
 40
0.2832269337071994
 40
0.5762690434129806
 40
0.7861908881498507
 40
1.0
 40
1.0
 40
1.0
 40
1.0
 10
384.6125386614617
 20
437.6715691915531
 30
0.0
 10
383.502162275656
 20
436.9082869703656
 30
0.0
 10
381.2429296197034
 20
435.3552711264959
 30
0.0
 10
377.622006615243
 20
432.8662244686601
 30
0.0
 10
374.1416410112035
 20
430.4737931700796
 30
0.0
 10
371.9984890763449
 20
429.0005706664911
 30
0.0
 10
370.9170825738724
 20
428.2572018137951
 30
0.0
  0
SPLINE
  5
10D
330
1F
100
AcDbEntity
  8
0
  6
Continuous
 62
     7
370
    25
100
AcDbSpline
210
0.0
220
0.0
230
1.0
 70
     8
 71
     3
 72
    12
 73
     8
 74
     0
 42
0.000000001
 43
0.00000001
 40
0.0
 40
0.0
 40
0.0
 40
0.0
 40
0.3203283701441329
 40
0.5619278112511487
 40
0.7389309257747246
 40
0.8801326801341218
 40
0.9999999999999999
 40
0.9999999999999999
 40
0.9999999999999999
 40
0.9999999999999999
 10
384.6125386614617
 20
437.6715691915531
 30
0.0
 10
384.6919343306899
 20
437.7423568909595
 30
0.0
 10
384.8312121430553
 20
437.8665343934798
 30
0.0
 10
384.9175756536521
 20
438.1210934181843
 30
0.0
 10
384.9186959575662
 20
438.3422732052243
 30
0.0
 10
384.8680295924265
 20
438.5277244499489
 30
0.0
 10
384.8030186117339
 20
438.6267212840393
 30
0.0
 10
384.7731694538411
 20
438.6721747151394
 30
0.0
  0
LINE
  5
10E
330
1F
100
AcDbEntity
  8
0
  6
Continuous
 62
     7
370
    25
100
AcDbLine
 10
384.1233521659
 20
439.5265774957
 30
0.0
 11
384.7731694538
 21
438.6721747151
 31
0.0
  0
LINE
  5
10F
330
1F
100
AcDbEntity
  8
0
  6
Continuous
 62
     7
370
    25
100
AcDbLine
 10
384.1233521659
 20
439.5265774957
 30
0.0
 11
383.473534878
 21
440.3809802762
 31
0.0
  0
SPLINE
  5
110
330
1F
100
AcDbEntity
  8
0
  6
Continuous
 62
     7
370
    25
100
AcDbSpline
210
0.0
220
0.0
230
1.0
 70
     8
 71
     3
 72
    12
 73
     8
 74
     0
 42
0.000000001
 43
0.00000001
 40
0.0
 40
0.0
 40
0.0
 40
0.0
 40
0.1369213827573265
 40
0.2732921497907886
 40
0.4609277817097602
 40
0.7173057478933484
 40
0.9999999999999999
 40
0.9999999999999999
 40
0.9999999999999999
 40
0.9999999999999999
 10
383.4735348779973
 20
440.380980276205
 30
0.0
 10
383.4320596926054
 20
440.4274087021515
 30
0.0
 10
383.3492761101548
 20
440.5200788467469
 30
0.0
 10
383.1743299384603
 20
440.6177237875132
 30
0.0
 10
382.9533121919106
 20
440.670644146255
 30
0.0
 10
382.6931867447207
 20
440.6437169645865
 30
0.0
 10
382.5443974214973
 20
440.5451213845649
 30
0.0
 10
382.4663709808406
 20
440.4934169879932
 30
0.0
  0
SPLINE
  5
111
330
1F
100
AcDbEntity
  8
0
  6
Continuous
 62
     7
370
    25
100
AcDbSpline
210
0.0
220
0.0
230
1.0
 70
     8
 71
     3
 72
    11
 73
     7
 74
     0
 42
0.000000001
 43
0.00000001
 40
0.0
 40
0.0
 40
0.0
 40
0.0
 40
0.2603295859795406
 40
0.5282089373239014
 40
0.7614184092717808
 40
1.0
 40
1.0
 40
1.0
 40
1.0
 10
369.7362931404527
 20
429.8097463480015
 30
0.0
 10
370.9594201664481
 20
430.836251120553
 30
0.0
 10
373.4411458765021
 20
432.9190301217457
 30
0.0
 10
376.8257390916582
 20
435.7595304567902
 30
0.0
 10
379.8974947182733
 20
438.3374972349057
 30
0.0
 10
381.6036032741022
 20
439.7693424311968
 30
0.0
 10
382.4663709808406
 20
440.4934169879932
 30
0.0
  0
SPLINE
  5
112
330
1F
100
AcDbEntity
  8
0
  6
Continuous
 62
     7
370
    25
100
AcDbSpline
210
0.0
220
0.0
230
1.0
 70
     8
 71
     3
 72
    12
 73
     8
 74
     0
 42
0.000000001
 43
0.00000001
 40
0.0
 40
0.0
 40
0.0
 40
0.0
 40
0.2229037123934462
 40
0.4458356944372323
 40
0.6679354494151042
 40
0.8889143792154415
 40
1.0
 40
1.0
 40
1.0
 40
1.0
 10
369.7362931404528
 20
429.8097463480015
 30
0.0
 10
369.6808238115301
 20
429.7530370869843
 30
0.0
 10
369.5698781188153
 20
429.6396113728267
 30
0.0
 10
369.4868221308834
 20
429.4111909369893
 30
0.0
 10
369.4804244130524
 20
429.172426859799
 30
0.0
 10
369.5403104462828
 20
428.9798233472802
 30
0.0
 10
369.6068622601391
 20
428.8823922779271
 30
0.0
 10
369.6291258517917
 20
428.8497986427326
 30
0.0
  0
SPLINE
  5
113
330
1F
100
AcDbEntity
  8
0
  6
Continuous
 62
     7
370
    25
100
AcDbSpline
210
0.0
220
0.0
230
1.0
 70
    24
 71
     3
 72
     9
 73
     5
 74
     0
 42
0.000000001
 43
0.00000001
 40
0.0
 40
0.0
 40
0.0
 40
0.0
 40
0.4999999999999999
 40
0.9999999999999999
 40
0.9999999999999999
 40
0.9999999999999999
 40
0.9999999999999999
 10
369.9633831117567
 20
428.4103037944813
 30
0.0
 10
369.9076735684292
 20
428.4835529358565
 30
0.0
 10
369.7962544817742
 20
428.6300512186069
 30
0.0
 10
369.6848353951193
 20
428.7765495013574
 30
0.0
 10
369.6291258517917
 20
428.8497986427326
 30
0.0
  0
SPLINE
  5
114
330
1F
100
AcDbEntity
  8
0
  6
Continuous
 62
     7
370
    25
100
AcDbSpline
210
0.0
220
0.0
230
1.0
 70
     8
 71
     3
 72
    19
 73
    15
 74
     0
 42
0.000000001
 43
0.00000001
 40
0.0
 40
0.0
 40
0.0
 40
0.0
 40
0.0903185374914314
 40
0.2045632318995751
 40
0.2714199557082139
 40
0.3439361990411834
 40
0.4207855409090051
 40
0.4999999698189933
 40
0.5792144383613751
 40
0.6560637695671369
 40
0.7285800625086855
 40
0.7954368413959033
 40
0.9096815961607848
 40
1.0
 40
1.0
 40
1.0
 40
1.0
 10
347.2107660915967
 20
420.5269785753269
 30
0.0
 10
347.5907448723281
 20
421.2057522950948
 30
0.0
 10
348.4513620789234
 20
422.7431127274135
 30
0.0
 10
350.3435220068247
 20
424.2194488584497
 30
0.0
 10
352.3532180993101
 20
425.0622034403449
 30
0.0
 10
354.1931981980994
 20
425.3896183192248
 30
0.0
 10
356.1649774148615
 20
425.275142099884
 30
0.0
 10
358.1072628318954
 20
424.6679725487825
 30
0.0
 10
359.8402343957906
 20
423.601229848647
 30
0.0
 10
361.2208627165211
 20
422.188824655421
 30
0.0
 10
362.1816090438473
 20
420.5857980563878
 30
0.0
 10
362.8649829275881
 20
418.5164693900979
 30
0.0
 10
362.9932105380669
 20
416.1199312158973
 30
0.0
 10
362.3983089955295
 20
414.4615502598706
 30
0.0
 10
362.1356490027424
 20
413.7293445101757
 30
0.0
  0
SPLINE
  5
115
330
1F
100
AcDbEntity
  8
0
  6
Continuous
 62
     7
370
    25
100
AcDbSpline
210
0.0
220
0.0
230
1.0
 70
     8
 71
     3
 72
    19
 73
    15
 74
     0
 42
0.000000001
 43
0.00000001
 40
0.0
 40
0.0
 40
0.0
 40
0.0
 40
0.0903184369374616
 40
0.2045632499070928
 40
0.2714199339031644
 40
0.3439361946083812
 40
0.4207855464700884
 40
0.5000000376472548
 40
0.5792146012075976
 40
0.6560639508236564
 40
0.7285801366846756
 40
0.7954369315883394
 40
0.9096817137220978
 40
1.0
 40
1.0
 40
1.0
 40
1.0
 10
362.1356490027424
 20
413.7293445101757
 30
0.0
 10
361.7556697750982
 20
413.0505725192949
 30
0.0
 10
360.8950505223765
 20
411.5132141558342
 30
0.0
 10
359.0028955210985
 20
410.0368724255945
 30
0.0
 10
356.9931959126705
 20
409.1941241848735
 30
0.0
 10
355.1532172690585
 20
408.8667096362265
 30
0.0
 10
353.1814368760078
 20
408.9811787745941
 30
0.0
 10
351.2391518468313
 20
409.5883549730257
 30
0.0
 10
349.5061814991635
 20
410.6551006975888
 30
0.0
 10
348.1255535851456
 20
412.0675053059968
 30
0.0
 10
347.1648051277931
 20
413.6705294565779
 30
0.0
 10
346.4814325158979
 20
415.7398575484348
 30
0.0
 10
346.3532040581684
 20
418.1363944669421
 30
0.0
 10
346.9481061030811
 20
419.7947740583617
 30
0.0
 10
347.2107660915967
 20
420.5269785753269
 30
0.0
  0
ARC
  5
116
330
1F
100
AcDbEntity
  8
0
  6
Continuous
 62
     7
370
    25
100
AcDbCircle
 10
354.6732075472
 20
417.1281628839
 30
0.0
 40
8.911311196000034
100
AcDbArc
 50
337.3074712699
 51
33.6929108129
  0
SPLINE
  5
117
330
1F
100
AcDbEntity
  8
0
  6
Continuous
 62
     7
370
    25
100
AcDbSpline
210
0.0
220
0.0
230
1.0
 70
     8
 71
     3
 72
     9
 73
     5
 74
     0
 42
0.000000001
 43
0.00000001
 40
0.0
 40
0.0
 40
0.0
 40
0.0
 40
0.7733293869242798
 40
1.0
 40
1.0
 40
1.0
 40
1.0
 10
362.8447016660389
 20
413.4064028194923
 30
0.0
 10
362.859765249571
 20
413.3995422731415
 30
0.0
 10
362.8792441207825
 20
413.3906708317264
 30
0.0
 10
362.8525909097191
 20
413.4028094384556
 30
0.0
 10
362.8465494100269
 20
413.4055609038849
 30
0.0
  0
SPLINE
  5
118
330
1F
100
AcDbEntity
  8
0
  6
Continuous
 62
     7
370
    25
100
AcDbSpline
210
0.0
220
0.0
230
1.0
 70
     8
 71
     3
 72
    13
 73
     9
 74
     0
 42
0.000000001
 43
0.00000001
 40
0.0
 40
0.0
 40
0.0
 40
0.0
 40
0.2017367306476474
 40
0.3473525713521929
 40
0.5000012363050125
 40
0.652651482158658
 40
0.798266293678602
 40
1.0
 40
1.0
 40
1.0
 40
1.0
 10
346.5634349692878
 20
420.8218129507084
 30
0.0
 10
346.5281042361318
 20
420.837904131563
 30
0.0
 10
346.4672713824907
 20
420.8656101077032
 30
0.0
 10
346.493512748651
 20
420.8536603880935
 30
0.0
 10
346.5788057684813
 20
420.8148106058191
 30
0.0
 10
346.7256844952381
 20
420.7479140312967
 30
0.0
 10
346.9373928702685
 20
420.6514975457187
 30
0.0
 10
347.110328323407
 20
420.5727270485046
 30
0.0
 10
347.2107660915967
 20
420.5269785753269
 30
0.0
  0
ARC
  5
119
330
1F
100
AcDbEntity
  8
0
  6
Continuous
 62
     7
370
    25
100
AcDbCircle
 10
354.6732075472
 20
417.1281628839
 30
0.0
 40
8.91131119599998
100
AcDbArc
 50
157.3074712684
 51
213.6929108093
  0
CIRCLE
  5
11A
330
1F
100
AcDbEntity
  8
0
  6
Continuous
 62
     7
370
    25
100
AcDbCircle
 10
354.6732075472
 20
417.1281628839
 30
0.0
 40
57.00000000000007
  0
SPLINE
  5
11B
330
1F
100
AcDbEntity
  8
0
  6
Continuous
 62
     7
370
    25
100
AcDbSpline
210
0.0
220
0.0
230
1.0
 70
     8
 71
     3
 72
    35
 73
    31
 74
     0
 42
0.000000001
 43
0.00000001
 40
0.0
 40
0.0
 40
0.0
 40
0.0
 40
0.0282546045320069
 40
0.0583834345360691
 40
0.0903495200177339
 40
0.1258616740106122
 40
0.1640104980987543
 40
0.2048405395250376
 40
0.2374624693212385
 40
0.2716126903981788
 40
0.3071914228265689
 40
0.3440549913966255
 40
0.3820151163558663
 40
0.4208413653533347
 40
0.4602672693049566
 40
0.5000000025029342
 40
0.539732733341612
 40
0.5791586400228661
 40
0.6179848818364463
 40
0.6559450083492306
 40
0.6928085762377301
 40
0.7283873087095399
 40
0.7625375378333422
 40
0.7951594840727284
 40
0.8359928524625182
 40
0.8741416159322394
 40
0.9096504580346575
 40
0.9416198649435661
 40
0.9717470211580295
 40
1.0
 40
1.0
 40
1.0
 40
1.0
 10
398.6810676712807
 20
412.4825308254738
 30
0.0
 10
398.7849888896652
 20
413.7878892661033
 30
0.0
 10
398.9997247796539
 20
416.4851950796838
 30
0.0
 10
398.8489315139374
 20
420.6763758395047
 30
0.0
 10
398.2751753893578
 20
425.1666793394515
 30
0.0
 10
397.1346947805656
 20
429.9353105322257
 30
0.0
 10
395.3122274652215
 20
434.9281150249481
 30
0.0
 10
392.9449928348778
 20
439.5399089503138
 30
0.0
 10
390.1694594834477
 20
443.6890845868674
 30
0.0
 10
387.1298871982892
 20
447.3388463765642
 30
0.0
 10
383.5673501048233
 20
450.7714865314551
 30
0.0
 10
379.4969933430134
 20
453.8853718699414
 30
0.0
 10
374.9593139335597
 20
456.5777327739326
 30
0.0
 10
370.0212194523875
 20
458.7526982235822
 30
0.0
 10
364.7744633707288
 20
460.3295338043936
 30
0.0
 10
359.3309220356763
 20
461.2504847800957
 30
0.0
 10
353.8150707999293
 20
461.4864471442678
 30
0.0
 10
348.3547184400582
 20
461.0398960622065
 30
0.0
 10
343.0713338843988
 20
459.9439501250779
 30
0.0
 10
338.0715056467681
 20
458.2584062231164
 30
0.0
 10
333.4406871593115
 20
456.0630459988383
 30
0.0
 10
329.2399374580328
 20
453.4499258216587
 30
0.0
 10
325.5052941637568
 20
450.5152699830812
 30
0.0
 10
321.9244659002177
 20
447.0369840882201
 30
0.0
 10
318.6464117550836
 20
443.0209658440314
 30
0.0
 10
315.8216310432128
 20
438.518735504876
 30
0.0
 10
313.7106425546167
 20
434.0933300016423
 30
0.0
 10
312.2119674721728
 20
429.8218752538388
 30
0.0
 10
311.1894713928091
 20
425.7545382295177
 30
0.0
 10
310.8362758678711
 20
423.0720042724248
 30
0.0
 10
310.6653474230584
 20
421.7737959853191
 30
0.0
  0
SPLINE
  5
11C
330
1F
100
AcDbEntity
  8
0
  6
Continuous
 62
     7
370
    25
100
AcDbSpline
210
0.0
220
0.0
230
1.0
 70
     8
 71
     3
 72
    35
 73
    31
 74
     0
 42
0.000000001
 43
0.00000001
 40
0.0
 40
0.0
 40
0.0
 40
0.0
 40
0.0282546309286537
 40
0.058383460544051
 40
0.0903495456133501
 40
0.1258616469930045
 40
0.164010470589023
 40
0.2048405353411357
 40
0.2374624870011326
 40
0.2716127076375317
 40
0.3071914396069525
 40
0.3440550158465859
 40
0.3820151266353851
 40
0.4208413697285888
 40
0.4602672808882206
 40
0.5000000091013511
 40
0.5397327405734172
 40
0.579158650024031
 40
0.6179848913367488
 40
0.6559450173598438
 40
0.69280857903033
 40
0.7283873110431707
 40
0.7625375314439147
 40
0.7951594959433582
 40
0.8359928534210245
 40
0.8741415936894945
 40
0.9096504837391142
 40
0.9416198396621595
 40
0.9717470215224956
 40
1.0
 40
1.0
 40
1.0
 40
1.0
 10
310.6653474230584
 20
421.7737959853191
 30
0.0
 10
310.5614261793974
 20
420.4684363005158
 30
0.0
 10
310.3466903421361
 20
417.7711292344298
 30
0.0
 10
310.4974836937847
 20
413.5799472804708
 30
0.0
 10
311.0712388049286
 20
409.0896460071772
 30
0.0
 10
312.2117216445604
 20
404.3210178323744
 30
0.0
 10
314.0341881776052
 20
399.3282145715196
 30
0.0
 10
316.4014225722108
 20
394.7164182048871
 30
0.0
 10
319.1769544594829
 20
390.5672389738748
 30
0.0
 10
322.2165279300055
 20
386.9174766570067
 30
0.0
 10
325.7790656711286
 20
383.4848368731431
 30
0.0
 10
329.8494201025063
 20
380.3709487712721
 30
0.0
 10
334.3871018571624
 20
377.6785921668067
 30
0.0
 10
339.3251967061875
 20
375.5036303566279
 30
0.0
 10
344.5719505508908
 20
373.9267862456514
 30
0.0
 10
350.0154936595455
 20
373.0058456070622
 30
0.0
 10
355.5313444223151
 20
372.769872076235
 30
0.0
 10
360.9916963554728
 20
373.2164351029833
 30
0.0
 10
366.2750813293946
 20
374.3123777331651
 30
0.0
 10
371.2749088745602
 20
375.9979231488604
 30
0.0
 10
375.905728572229
 20
378.1932801881171
 30
0.0
 10
380.1064767109697
 20
380.8064015680123
 30
0.0
 10
383.8411229035839
 20
383.7410546138594
 30
0.0
 10
387.4219472686412
 20
387.2193447225018
 30
0.0
 10
390.7000024862464
 20
391.2353605777753
 30
0.0
 10
393.5247875300709
 20
395.7375895831948
 30
0.0
 10
395.6357687014043
 20
400.1629971595166
 30
0.0
 10
397.134450005562
 20
404.4344507505837
 30
0.0
 10
398.1569429842327
 20
408.501787555135
 30
0.0
 10
398.5101390439081
 20
411.1843225938515
 30
0.0
 10
398.6810676712808
 20
412.4825308254738
 30
0.0
  0
SPLINE
  5
11D
330
1F
100
AcDbEntity
  8
0
  6
Continuous
 62
     7
370
    25
100
AcDbSpline
210
0.0
220
0.0
230
1.0
 70
     8
 71
     3
 72
    11
 73
     7
 74
     0
 42
0.000000001
 43
0.00000001
 40
0.0
 40
0.0
 40
0.0
 40
0.0
 40
0.2706998649799739
 40
0.5623154333545825
 40
0.7892986429245511
 40
1.0
 40
1.0
 40
1.0
 40
1.0
 10
310.6653474230584
 20
421.7737959853191
 30
0.0
 10
311.203601312303
 20
421.7169771643182
 30
0.0
 10
312.3216974332883
 20
421.5989493996711
 30
0.0
 10
313.605327157927
 20
421.4634361264139
 30
0.0
 10
314.3749334239017
 20
421.3822012283115
 30
0.0
 10
314.4873273228429
 20
421.3703315924175
 30
0.0
 10
314.5414337475117
 20
421.3646175495167
 30
0.0
  0
SPLINE
  5
11E
330
1F
100
AcDbEntity
  8
0
  6
Continuous
 62
     7
370
    25
100
AcDbSpline
210
0.0
220
0.0
230
1.0
 70
     8
 71
     3
 72
    11
 73
     7
 74
     0
 42
0.000000001
 43
0.00000001
 40
0.0
 40
0.0
 40
0.0
 40
0.0
 40
0.2706996726986962
 40
0.5623163846554119
 40
0.7892984678934586
 40
1.0
 40
1.0
 40
1.0
 40
1.0
 10
394.8049813468274
 20
412.8917055359859
 30
0.0
 10
394.8892485535094
 20
412.8828106957939
 30
0.0
 10
395.0642943174514
 20
412.8643337086258
 30
0.0
 10
396.1131933698471
 20
412.7536063264845
 30
0.0
 10
397.395080588312
 20
412.6182874160275
 30
0.0
 10
398.2631687577787
 20
412.5266467675734
 30
0.0
 10
398.6810676712807
 20
412.4825308254738
 30
0.0
  0
ARC
  5
11F
330
1F
100
AcDbEntity
  8
0
  6
Continuous
 62
     7
370
    25
100
AcDbCircle
 10
354.6732075472
 20
417.1281628839
 30
0.0
 40
40.35476230894888
100
AcDbArc
 50
353.973964907
 51
173.973964907
  0
ARC
  5
120
330
1F
100
AcDbEntity
  8
0
  6
Continuous
 62
     7
370
    25
100
AcDbCircle
 10
354.6732075472
 20
417.1281628839
 30
0.0
 40
40.35476230894888
100
AcDbArc
 50
173.973964907
 51
353.973964907
  0
CIRCLE
  5
121
330
1F
100
AcDbEntity
  8
0
  6
Continuous
 62
     7
370
    25
100
AcDbCircle
 10
354.6732075472
 20
417.1281628839
 30
0.0
 40
39.93812333100008
  0
LINE
  5
122
330
1F
100
AcDbEntity
  8
0
  6
Continuous
 62
     7
370
    25
100
AcDbLine
 10
504.6732135076
 20
532.0083694688
 30
0.0
 11
204.6732015867
 21
532.0083694688
 31
0.0
  0
LINE
  5
123
330
1F
100
AcDbEntity
  8
0
  6
Continuous
 62
     7
370
    25
100
AcDbLine
 10
204.6732015867
 20
532.0083694688
 30
0.0
 11
204.6732015867
 21
533.5026579133
 31
0.0
  0
LINE
  5
124
330
1F
100
AcDbEntity
  8
0
  6
Continuous
 62
     7
370
    25
100
AcDbLine
 10
204.6732015867
 20
533.5026579133
 30
0.0
 11
504.6732135076
 21
533.5026579133
 31
0.0
  0
LINE
  5
125
330
1F
100
AcDbEntity
  8
0
  6
Continuous
 62
     7
370
    25
100
AcDbLine
 10
504.6732135076
 20
533.5026579133
 30
0.0
 11
504.6732135076
 21
532.0083694688
 31
0.0
  0
ARC
  5
126
330
1F
100
AcDbEntity
  8
0
  6
Continuous
 62
     7
370
    25
100
AcDbCircle
 10
504.6732075472
 20
477.1281628839
 30
0.0
 40
56.37449676102608
100
AcDbArc
 50
0.0
 51
90.0
  0
LINE
  5
127
330
1F
100
AcDbEntity
  8
0
  6
Continuous
 62
     7
370
    25
100
AcDbLine
 10
561.0477037687
 20
477.1281602016
 30
0.0
 11
559.5534153242
 21
477.1281602016
 31
0.0
  0
ARC
  5
128
330
1F
100
AcDbEntity
  8
0
  6
Continuous
 62
     7
370
    25
100
AcDbCircle
 10
504.6732075472
 20
477.1281628839
 30
0.0
 40
54.88020471388836
100
AcDbArc
 50
0.0
 51
90.0
  0
LINE
  5
129
330
1F
100
AcDbEntity
  8
0
  6
Continuous
 62
     7
370
    25
100
AcDbLine
 10
504.6732135076
 20
542.128165268
 30
0.0
 11
204.6732015867
 21
542.128165268
 31
0.0
  0
LINE
  5
12A
330
1F
100
AcDbEntity
  8
0
  6
Continuous
 62
     7
370
    25
100
AcDbLine
 10
569.6732111234
 20
237.1281655661
 30
0.0
 11
569.6732111234
 21
477.1281602016
 31
0.0
  0
ARC
  5
12B
330
1F
100
AcDbEntity
  8
0
  6
Continuous
 62
     7
370
    25
100
AcDbCircle
 10
504.6732075472
 20
237.1281628839
 30
0.0
 40
65.00000000000017
100
AcDbArc
 50
270.0
 51
0.0
  0
LINE
  5
12C
330
1F
100
AcDbEntity
  8
0
  6
Continuous
 62
     7
370
    25
100
AcDbLine
 10
204.6732015867
 20
172.1281604997
 30
0.0
 11
504.6732135076
 21
172.1281604997
 31
0.0
  0
ARC
  5
12D
330
1F
100
AcDbEntity
  8
0
  6
Continuous
 62
     7
370
    25
100
AcDbCircle
 10
204.6732075472
 20
237.1281628839
 30
0.0
 40
64.99999999999994
100
AcDbArc
 50
180.0
 51
270.0
  0
LINE
  5
12E
330
1F
100
AcDbEntity
  8
0
  6
Continuous
 62
     7
370
    25
100
AcDbLine
 10
139.6732039709
 20
477.1281602016
 30
0.0
 11
139.6732039709
 21
237.1281655661
 31
0.0
  0
LINE
  5
12F
330
1F
100
AcDbEntity
  8
0
  6
Continuous
 62
     7
370
    25
100
AcDbLine
 10
561.0477037687
 20
477.1281602016
 30
0.0
 11
561.0477037687
 21
237.1281655661
 31
0.0
  0
ARC
  5
130
330
1F
100
AcDbEntity
  8
0
  6
Continuous
 62
     7
370
    25
100
AcDbCircle
 10
204.6732075472
 20
477.1281628839
 30
0.0
 40
56.37449676102608
100
AcDbArc
 50
90.0
 51
180.0
  0
LINE
  5
131
330
1F
100
AcDbEntity
  8
0
  6
Continuous
 62
     7
370
    25
100
AcDbLine
 10
148.2987113256
 20
237.1281655661
 30
0.0
 11
148.2987113256
 21
477.1281602016
 31
0.0
  0
ARC
  5
132
330
1F
100
AcDbEntity
  8
0
  6
Continuous
 62
     7
370
    25
100
AcDbCircle
 10
204.6732075472
 20
237.1281628839
 30
0.0
 40
56.37449676102602
100
AcDbArc
 50
180.0
 51
270.0
  0
LINE
  5
133
330
1F
100
AcDbEntity
  8
0
  6
Continuous
 62
     7
370
    25
100
AcDbLine
 10
504.6732135076
 20
180.7536678544
 30
0.0
 11
204.6732015867
 21
180.7536678544
 31
0.0
  0
ARC
  5
134
330
1F
100
AcDbEntity
  8
0
  6
Continuous
 62
     7
370
    25
100
AcDbCircle
 10
504.6732075472
 20
237.1281628839
 30
0.0
 40
56.37449676102602
100
AcDbArc
 50
270.0
 51
0.0
  0
ARC
  5
135
330
1F
100
AcDbEntity
  8
0
  6
Continuous
 62
     7
370
    25
100
AcDbCircle
 10
204.6732075472
 20
477.1281628839
 30
0.0
 40
65.00000000000023
100
AcDbArc
 50
90.0
 51
180.0
  0
ARC
  5
136
330
1F
100
AcDbEntity
  8
0
  6
Continuous
 62
     7
370
    25
100
AcDbCircle
 10
504.6732075472
 20
477.1281628839
 30
0.0
 40
65.00000000000023
100
AcDbArc
 50
0.0
 51
90.0
  0
ARC
  5
137
330
1F
100
AcDbEntity
  8
0
  6
Continuous
 62
     7
370
    25
100
AcDbCircle
 10
204.6732075472
 20
477.1281628839
 30
0.0
 40
54.88020471388836
100
AcDbArc
 50
90.0
 51
180.0
  0
LINE
  5
138
330
1F
100
AcDbEntity
  8
0
  6
Continuous
 62
     7
370
    25
100
AcDbLine
 10
149.7929997701
 20
477.1281602016
 30
0.0
 11
148.2987113256
 21
477.1281602016
 31
0.0
  0
LINE
  5
139
330
1F
100
AcDbEntity
  8
0
  6
Continuous
 62
     7
370
    25
100
AcDbLine
 10
561.0477037687
 20
237.1281655661
 30
0.0
 11
559.5534153242
 21
237.1281655661
 31
0.0
  0
LINE
  5
13A
330
1F
100
AcDbEntity
  8
0
  6
Continuous
 62
     7
370
    25
100
AcDbLine
 10
559.5534153242
 20
237.1281655661
 30
0.0
 11
559.5534153242
 21
477.1281602016
 31
0.0
  0
LINE
  5
13B
330
1F
100
AcDbEntity
  8
0
  6
Continuous
 62
     7
370
    25
100
AcDbLine
 10
149.7929997701
 20
477.1281602016
 30
0.0
 11
149.7929997701
 21
237.1281655661
 31
0.0
  0
LINE
  5
13C
330
1F
100
AcDbEntity
  8
0
  6
Continuous
 62
     7
370
    25
100
AcDbLine
 10
149.7929997701
 20
237.1281655661
 30
0.0
 11
148.2987113256
 21
237.1281655661
 31
0.0
  0
LINE
  5
13D
330
1F
100
AcDbEntity
  8
0
  6
Continuous
 62
     7
370
    25
100
AcDbLine
 10
504.6732135076
 20
180.7536678544
 30
0.0
 11
504.6732135076
 21
182.2479562989
 31
0.0
  0
ARC
  5
13E
330
1F
100
AcDbEntity
  8
0
  6
Continuous
 62
     7
370
    25
100
AcDbCircle
 10
504.6732075472
 20
237.1281628839
 30
0.0
 40
54.88020471388833
100
AcDbArc
 50
270.0
 51
0.0
  0
ARC
  5
13F
330
1F
100
AcDbEntity
  8
0
  6
Continuous
 62
     7
370
    25
100
AcDbCircle
 10
204.6732075472
 20
237.1281628839
 30
0.0
 40
54.88020471388833
100
AcDbArc
 50
180.0
 51
270.0
  0
LINE
  5
140
330
1F
100
AcDbEntity
  8
0
  6
Continuous
 62
     7
370
    25
100
AcDbLine
 10
204.6732015867
 20
182.2479562989
 30
0.0
 11
204.6732015867
 21
180.7536678544
 31
0.0
  0
LINE
  5
141
330
1F
100
AcDbEntity
  8
0
  6
Continuous
 62
     7
370
    25
100
AcDbLine
 10
204.6732015867
 20
182.2479562989
 30
0.0
 11
504.6732135076
 21
182.2479562989
 31
0.0
  0
ARC
  5
142
330
1F
100
AcDbEntity
  8
0
  6
Continuous
 62
     7
370
    25
100
AcDbCircle
 10
204.6732075472
 20
477.1281628839
 30
0.0
 40
54.6712915892318
100
AcDbArc
 50
90.0
 51
180.0
  0
LINE
  5
143
330
1F
100
AcDbEntity
  8
0
  6
Continuous
 62
     7
370
    25
100
AcDbLine
 10
149.7929997701
 20
477.1281602016
 30
0.0
 11
150.0019140501
 21
477.1281602016
 31
0.0
  0
LINE
  5
144
330
1F
100
AcDbEntity
  8
0
  6
Continuous
 62
     7
370
    25
100
AcDbLine
 10
204.6732015867
 20
532.0083694688
 30
0.0
 11
204.6732015867
 21
531.7994551888
 31
0.0
  0
ARC
  5
145
330
1F
100
AcDbEntity
  8
0
  6
Continuous
 62
     7
370
    25
100
AcDbCircle
 10
504.6732075472
 20
477.1281628839
 30
0.0
 40
54.6712915892316
100
AcDbArc
 50
0.0
 51
90.0
  0
LINE
  5
146
330
1F
100
AcDbEntity
  8
0
  6
Continuous
 62
     7
370
    25
100
AcDbLine
 10
504.6732135076
 20
532.0083694688
 30
0.0
 11
504.6732135076
 21
531.7994551888
 31
0.0
  0
LINE
  5
147
330
1F
100
AcDbEntity
  8
0
  6
Continuous
 62
     7
370
    25
100
AcDbLine
 10
559.5534153242
 20
477.1281602016
 30
0.0
 11
559.3445010443
 21
477.1281602016
 31
0.0
  0
LINE
  5
148
330
1F
100
AcDbEntity
  8
0
  6
Continuous
 62
     7
370
    25
100
AcDbLine
 10
204.6732015867
 20
531.7994551888
 30
0.0
 11
504.6732135076
 21
531.7994551888
 31
0.0
  0
LINE
  5
149
330
1F
100
AcDbEntity
  8
0
  6
Continuous
 62
     7
370
    25
100
AcDbLine
 10
150.0019140501
 20
237.1281655661
 30
0.0
 11
150.0019140501
 21
477.1281602016
 31
0.0
  0
LINE
  5
14A
330
1F
100
AcDbEntity
  8
0
  6
Continuous
 62
     7
370
    25
100
AcDbLine
 10
149.7929997701
 20
237.1281655661
 30
0.0
 11
150.0019140501
 21
237.1281655661
 31
0.0
  0
LINE
  5
14B
330
1F
100
AcDbEntity
  8
0
  6
Continuous
 62
     7
370
    25
100
AcDbLine
 10
559.3445010443
 20
477.1281602016
 30
0.0
 11
559.3445010443
 21
237.1281655661
 31
0.0
  0
LINE
  5
14C
330
1F
100
AcDbEntity
  8
0
  6
Continuous
 62
     7
370
    25
100
AcDbLine
 10
559.5534153242
 20
237.1281655661
 30
0.0
 11
559.3445010443
 21
237.1281655661
 31
0.0
  0
ARC
  5
14D
330
1F
100
AcDbEntity
  8
0
  6
Continuous
 62
     7
370
    25
100
AcDbCircle
 10
204.6732075472
 20
237.1281628839
 30
0.0
 40
54.6712915892318
100
AcDbArc
 50
180.0
 51
270.0
  0
LINE
  5
14E
330
1F
100
AcDbEntity
  8
0
  6
Continuous
 62
     7
370
    25
100
AcDbLine
 10
204.6732015867
 20
182.2479562989
 30
0.0
 11
204.6732015867
 21
182.4568705789
 31
0.0
  0
ARC
  5
14F
330
1F
100
AcDbEntity
  8
0
  6
Continuous
 62
     7
370
    25
100
AcDbCircle
 10
504.6732075472
 20
237.1281628839
 30
0.0
 40
54.67129158923154
100
AcDbArc
 50
270.0
 51
0.0
  0
LINE
  5
150
330
1F
100
AcDbEntity
  8
0
  6
Continuous
 62
     7
370
    25
100
AcDbLine
 10
504.6732135076
 20
182.2479562989
 30
0.0
 11
504.6732135076
 21
182.4568705789
 31
0.0
  0
LINE
  5
151
330
1F
100
AcDbEntity
  8
0
  6
Continuous
 62
     7
370
    25
100
AcDbLine
 10
504.6732135076
 20
182.4568705789
 30
0.0
 11
204.6732015867
 21
182.4568705789
 31
0.0
  0
ARC
  5
152
330
1F
100
AcDbEntity
  8
0
  6
Continuous
 62
     7
370
    25
100
AcDbCircle
 10
204.6732075472
 20
477.1281628839
 30
0.0
 40
53.40145421243216
100
AcDbArc
 50
90.0
 51
180.0
  0
LINE
  5
153
330
1F
100
AcDbEntity
  8
0
  6
Continuous
 62
     7
370
    25
100
AcDbLine
 10
151.2717463035
 20
477.1281602016
 30
0.0
 11
150.0019140501
 21
477.1281602016
 31
0.0
  0
LINE
  5
154
330
1F
100
AcDbEntity
  8
0
  6
Continuous
 62
     7
370
    25
100
AcDbLine
 10
204.6732015867
 20
530.5296229354
 30
0.0
 11
204.6732015867
 21
531.7994551888
 31
0.0
  0
LINE
  5
155
330
1F
100
AcDbEntity
  8
0
  6
Continuous
 62
     7
370
    25
100
AcDbLine
 10
504.6732135076
 20
530.5296229354
 30
0.0
 11
204.6732015867
 21
530.5296229354
 31
0.0
  0
LINE
  5
156
330
1F
100
AcDbEntity
  8
0
  6
Continuous
 62
     7
370
    25
100
AcDbLine
 10
504.6732135076
 20
531.7994551888
 30
0.0
 11
504.6732135076
 21
530.5296229354
 31
0.0
  0
LINE
  5
157
330
1F
100
AcDbEntity
  8
0
  6
Continuous
 62
     7
370
    25
100
AcDbLine
 10
559.3445010443
 20
477.1281602016
 30
0.0
 11
558.0746687908
 21
477.1281602016
 31
0.0
  0
ARC
  5
158
330
1F
100
AcDbEntity
  8
0
  6
Continuous
 62
     7
370
    25
100
AcDbCircle
 10
504.6732075472
 20
477.1281628839
 30
0.0
 40
53.40145421243199
100
AcDbArc
 50
0.0
 51
90.0
  0
LINE
  5
159
330
1F
100
AcDbEntity
  8
0
  6
Continuous
 62
     7
370
    25
100
AcDbLine
 10
559.3445010443
 20
237.1281655661
 30
0.0
 11
558.0746687908
 21
237.1281655661
 31
0.0
  0
LINE
  5
15A
330
1F
100
AcDbEntity
  8
0
  6
Continuous
 62
     7
370
    25
100
AcDbLine
 10
558.0746687908
 20
237.1281655661
 30
0.0
 11
558.0746687908
 21
477.1281602016
 31
0.0
  0
LINE
  5
15B
330
1F
100
AcDbEntity
  8
0
  6
Continuous
 62
     7
370
    25
100
AcDbLine
 10
151.2717463035
 20
477.1281602016
 30
0.0
 11
151.2717463035
 21
237.1281655661
 31
0.0
  0
LINE
  5
15C
330
1F
100
AcDbEntity
  8
0
  6
Continuous
 62
     7
370
    25
100
AcDbLine
 10
151.2717463035
 20
237.1281655661
 30
0.0
 11
150.0019140501
 21
237.1281655661
 31
0.0
  0
LINE
  5
15D
330
1F
100
AcDbEntity
  8
0
  6
Continuous
 62
     7
370
    25
100
AcDbLine
 10
504.6732135076
 20
182.4568705789
 30
0.0
 11
504.6732135076
 21
183.7267028323
 31
0.0
  0
ARC
  5
15E
330
1F
100
AcDbEntity
  8
0
  6
Continuous
 62
     7
370
    25
100
AcDbCircle
 10
504.6732075472
 20
237.1281628839
 30
0.0
 40
53.40145421243193
100
AcDbArc
 50
270.0
 51
0.0
  0
ARC
  5
15F
330
1F
100
AcDbEntity
  8
0
  6
Continuous
 62
     7
370
    25
100
AcDbCircle
 10
204.6732075472
 20
237.1281628839
 30
0.0
 40
53.40145421243216
100
AcDbArc
 50
180.0
 51
270.0
  0
LINE
  5
160
330
1F
100
AcDbEntity
  8
0
  6
Continuous
 62
     7
370
    25
100
AcDbLine
 10
204.6732015867
 20
183.7267028323
 30
0.0
 11
204.6732015867
 21
182.4568705789
 31
0.0
  0
LINE
  5
161
330
1F
100
AcDbEntity
  8
0
  6
Continuous
 62
     7
370
    25
100
AcDbLine
 10
204.6732015867
 20
183.7267028323
 30
0.0
 11
504.6732135076
 21
183.7267028323
 31
0.0
  0
ARC
  5
162
330
1F
100
AcDbEntity
  8
0
  6
Continuous
 62
     7
370
    25
100
AcDbCircle
 10
204.6732075472
 20
477.1281628839
 30
0.0
 40
49.99999999999989
100
AcDbArc
 50
90.0
 51
180.0
  0
LINE
  5
163
330
1F
100
AcDbEntity
  8
0
  6
Continuous
 62
     7
370
    25
100
AcDbLine
 10
154.6732045669
 20
477.1281602016
 30
0.0
 11
151.2717463035
 21
477.1281602016
 31
0.0
  0
LINE
  5
164
330
1F
100
AcDbEntity
  8
0
  6
Continuous
 62
     7
370
    25
100
AcDbLine
 10
204.6732015867
 20
527.128164672
 30
0.0
 11
204.6732015867
 21
530.5296229354
 31
0.0
  0
LINE
  5
165
330
1F
100
AcDbEntity
  8
0
  6
Continuous
 62
     7
370
    25
100
AcDbLine
 10
504.6732135076
 20
527.128164672
 30
0.0
 11
204.6732015867
 21
527.128164672
 31
0.0
  0
LINE
  5
166
330
1F
100
AcDbEntity
  8
0
  6
Continuous
 62
     7
370
    25
100
AcDbLine
 10
504.6732135076
 20
530.5296229354
 30
0.0
 11
504.6732135076
 21
527.128164672
 31
0.0
  0
ARC
  5
167
330
1F
100
AcDbEntity
  8
0
  6
Continuous
 62
     7
370
    25
100
AcDbCircle
 10
504.6732075472
 20
477.1281628839
 30
0.0
 40
49.99999999999989
100
AcDbArc
 50
0.0
 51
90.0
  0
LINE
  5
168
330
1F
100
AcDbEntity
  8
0
  6
Continuous
 62
     7
370
    25
100
AcDbLine
 10
558.0746687908
 20
477.1281602016
 30
0.0
 11
554.6732105274
 21
477.1281602016
 31
0.0
  0
LINE
  5
169
330
1F
100
AcDbEntity
  8
0
  6
Continuous
 62
     7
370
    25
100
AcDbLine
 10
154.6732045669
 20
477.1281602016
 30
0.0
 11
154.6732045669
 21
237.1281655661
 31
0.0
  0
LINE
  5
16A
330
1F
100
AcDbEntity
  8
0
  6
Continuous
 62
     7
370
    25
100
AcDbLine
 10
154.6732045669
 20
237.1281655661
 30
0.0
 11
151.2717463035
 21
237.1281655661
 31
0.0
  0
LINE
  5
16B
330
1F
100
AcDbEntity
  8
0
  6
Continuous
 62
     7
370
    25
100
AcDbLine
 10
554.6732105274
 20
237.1281655661
 30
0.0
 11
554.6732105274
 21
477.1281602016
 31
0.0
  0
LINE
  5
16C
330
1F
100
AcDbEntity
  8
0
  6
Continuous
 62
     7
370
    25
100
AcDbLine
 10
558.0746687908
 20
237.1281655661
 30
0.0
 11
554.6732105274
 21
237.1281655661
 31
0.0
  0
ARC
  5
16D
330
1F
100
AcDbEntity
  8
0
  6
Continuous
 62
     7
370
    25
100
AcDbCircle
 10
504.6732075472
 20
237.1281628839
 30
0.0
 40
49.99999999999983
100
AcDbArc
 50
270.0
 51
0.0
  0
LINE
  5
16E
330
1F
100
AcDbEntity
  8
0
  6
Continuous
 62
     7
370
    25
100
AcDbLine
 10
504.6732135076
 20
183.7267028323
 30
0.0
 11
504.6732135076
 21
187.1281610957
 31
0.0
  0
ARC
  5
16F
330
1F
100
AcDbEntity
  8
0
  6
Continuous
 62
     7
370
    25
100
AcDbCircle
 10
204.6732075472
 20
237.1281628839
 30
0.0
 40
50.00000000000006
100
AcDbArc
 50
180.0
 51
270.0
  0
LINE
  5
170
330
1F
100
AcDbEntity
  8
0
  6
Continuous
 62
     7
370
    25
100
AcDbLine
 10
204.6732015867
 20
187.1281610957
 30
0.0
 11
204.6732015867
 21
183.7267028323
 31
0.0
  0
LINE
  5
171
330
1F
100
AcDbEntity
  8
0
  6
Continuous
 62
     7
370
    25
100
AcDbLine
 10
204.6732015867
 20
187.1281610957
 30
0.0
 11
504.6732135076
 21
187.1281610957
 31
0.0
  0
SPLINE
  5
172
330
1F
100
AcDbEntity
  8
0
  6
Continuous
 62
     7
370
    25
100
AcDbSpline
210
0.0
220
0.0
230
1.0
 70
     8
 71
     3
 72
    17
 73
    13
 74
     0
 42
0.000000001
 43
0.00000001
 40
0.0
 40
0.0
 40
0.0
 40
0.0
 40
0.1074258907292084
 40
0.2148526761693433
 40
0.3222640849750051
 40
0.4296538713159995
 40
0.5370275667711635
 40
0.644394491387106
 40
0.7517643884965635
 40
0.8591472045307654
 40
0.966550643188419
 40
1.0
 40
1.0
 40
1.0
 40
1.0
 10
357.773207636204
 20
526.9256429902096
 30
0.0
 10
357.7389238073046
 20
526.9333477165667
 30
0.0
 10
357.6703558639682
 20
526.9487572334506
 30
0.0
 10
357.1358148749052
 20
526.9677430060134
 30
0.0
 10
356.3486137527629
 20
526.9815114205098
 30
0.0
 10
355.3659937693977
 20
526.9890808456416
 30
0.0
 10
354.3067083619126
 20
526.9900998580597
 30
0.0
 10
353.2901271738022
 20
526.9845363198677
 30
0.0
 10
352.4228881933649
 20
526.9726897297705
 30
0.0
 10
351.834171520997
 20
526.9550930833111
 30
0.0
 10
351.555357583452
 20
526.9384034023453
 30
0.0
 10
351.6002546663073
 20
526.9280195205731
 30
0.0
 10
351.6109167091813
 20
526.9255535832424
 30
0.0
  0
LINE
  5
173
330
1F
100
AcDbEntity
  8
0
  6
Continuous
 62
     7
370
    25
100
AcDbLine
 10
363.1732080091
 20
526.6891317597
 30
0.0
 11
363.1732080091
 21
527.0717488757
 31
0.0
  0
SPLINE
  5
174
330
1F
100
AcDbEntity
  8
0
  6
Continuous
 62
     7
370
    25
100
AcDbSpline
210
0.0
220
0.0
230
1.0
 70
     8
 71
     3
 72
    34
 73
    30
 74
     0
 42
0.000000001
 43
0.00000001
 40
0.0
 40
0.0
 40
0.0
 40
0.0
 40
0.0624999999999997
 40
0.0624999999999997
 40
0.1249999999999994
 40
0.1249999999999994
 40
0.1874999999999992
 40
0.1874999999999992
 40
0.2499999999999989
 40
0.2499999999999989
 40
0.3749999999999988
 40
0.3749999999999988
 40
0.4999999999999987
 40
0.4999999999999987
 40
0.5624999999999988
 40
0.5624999999999988
 40
0.624999999999999
 40
0.624999999999999
 40
0.6874999999999991
 40
0.6874999999999991
 40
0.7499999999999993
 40
0.7499999999999993
 40
0.8124999999999994
 40
0.8124999999999994
 40
0.8749999999999997
 40
0.8749999999999997
 40
0.9374999999999998
 40
0.9374999999999998
 40
1.0
 40
1.0
 40
1.0
 40
1.0
 10
363.1732075471695
 20
527.0717546451751
 30
0.0
 10
363.1732075471695
 20
527.0733239072644
 30
0.0
 10
363.1602407177727
 20
527.0748342288211
 30
0.0
 10
363.1094333387502
 20
527.077745415625
 30
0.0
 10
363.0709764157214
 20
527.0791605421276
 30
0.0
 10
362.9705730212677
 20
527.081805226279
 30
0.0
 10
362.9091315836099
 20
527.0830321386798
 30
0.0
 10
362.7639696069243
 20
527.0853123244403
 30
0.0
 10
362.6794767248981
 20
527.0863692281437
 30
0.0
 10
362.402625083537
 20
527.0891665930405
 30
0.0
 10
362.1794529923469
 20
527.0906093627334
 30
0.0
 10
361.6980477857092
 20
527.0925173467481
 30
0.0
 10
361.4348195037086
 20
527.0930049914891
 30
0.0
 10
361.0434669644143
 20
527.0930062945005
 30
0.0
 10
360.9109699052116
 20
527.092884675912
 30
0.0
 10
360.654440637469
 20
527.0924034105744
 30
0.0
 10
360.529759597926
 20
527.0920464843589
 30
0.0
 10
360.2876053339743
 20
527.0910882861308
 30
0.0
 10
360.1704652734022
 20
527.0904843163078
 30
0.0
 10
359.9537118819538
 20
527.0890654887769
 30
0.0
 10
359.8526924438198
 20
527.0882459855321
 30
0.0
 10
359.6659440125333
 20
527.0863593201109
 30
0.0
 10
359.5830220264046
 20
527.0853195953691
 30
0.0
 10
359.4381763981798
 20
527.0830479312847
 30
0.0
 10
359.3755893043839
 20
527.0817998583624
 30
0.0
 10
359.2751989506065
 20
527.0791529310509
 30
0.0
 10
359.2373987669508
 20
527.0777639050754
 30
0.0
 10
359.1862858528718
 20
527.0748459652344
 30
0.0
 10
359.1732075471695
 20
527.0733047499768
 30
0.0
 10
359.1732075471695
 20
527.0717546451751
 30
0.0
  0
LINE
  5
175
330
1F
100
AcDbEntity
  8
0
  6
Continuous
 62
     7
370
    25
100
AcDbLine
 10
359.1732073535
 20
527.0717488757
 30
0.0
 11
359.1732073535
 21
526.6891317597
 31
0.0
  0
SPLINE
  5
176
330
1F
100
AcDbEntity
  8
0
  6
Continuous
 62
     7
370
    25
100
AcDbSpline
210
0.0
220
0.0
230
1.0
 70
     8
 71
     3
 72
    34
 73
    30
 74
     0
 42
0.000000001
 43
0.00000001
 40
0.0
 40
0.0
 40
0.0
 40
0.0
 40
0.0625000000000002
 40
0.0625000000000002
 40
0.1250000000000004
 40
0.1250000000000004
 40
0.2500000000000004
 40
0.2500000000000004
 40
0.3125000000000005
 40
0.3125000000000005
 40
0.3750000000000005
 40
0.3750000000000005
 40
0.4375000000000005
 40
0.4375000000000005
 40
0.5000000000000004
 40
0.5000000000000004
 40
0.5625000000000006
 40
0.5625000000000006
 40
0.6250000000000006
 40
0.6250000000000006
 40
0.6875000000000006
 40
0.6875000000000006
 40
0.7500000000000006
 40
0.7500000000000006
 40
0.8125000000000006
 40
0.8125000000000006
 40
0.8750000000000006
 40
0.8750000000000006
 40
1.0
 40
1.0
 40
1.0
 40
1.0
 10
359.1732075471695
 20
526.6891361685706
 30
0.0
 10
359.1732075471695
 20
526.6848120536712
 30
0.0
 10
359.1858512868415
 20
526.6804825710943
 30
0.0
 10
359.2369452827539
 20
526.6718163329773
 30
0.0
 10
359.2753349504337
 20
526.6675334709172
 30
0.0
 10
359.4246722844466
 20
526.6552239209468
 30
0.0
 10
359.5735699032239
 20
526.6474971136093
 30
0.0
 10
359.8498995768358
 20
526.6378332971007
 30
0.0
 10
359.9526541074574
 20
526.6348671310589
 30
0.0
 10
360.1701707780389
 20
526.629743170972
 30
0.0
 10
360.2849999326521
 20
526.6275673405003
 30
0.0
 10
360.5268266854435
 20
526.6240053053106
 30
0.0
 10
360.6540501504757
 20
526.6226304689849
 30
0.0
 10
360.9097627332116
 20
526.6208143297305
 30
0.0
 10
361.0396018910848
 20
526.6203495143842
 30
0.0
 10
361.3033859364416
 20
526.620341457498
 30
0.0
 10
361.4339489816842
 20
526.6208018149599
 30
0.0
 10
361.6895675360461
 20
526.6226040580435
 30
0.0
 10
361.8163277922191
 20
526.6239650781445
 30
0.0
 10
362.0589694257756
 20
526.6275236961893
 30
0.0
 10
362.1739058878399
 20
526.6296961520222
 30
0.0
 10
362.3912150553219
 20
526.6347992703153
 30
0.0
 10
362.4942426438118
 20
526.6377628661121
 30
0.0
 10
362.6789791658032
 20
526.6442055652584
 30
0.0
 10
362.7617730800293
 20
526.6477019594082
 30
0.0
 10
362.9078940429021
 20
526.655235418292
 30
0.0
 10
362.9702952249516
 20
526.6592417985522
 30
0.0
 10
363.1201430289609
 20
526.6715464980576
 30
0.0
 10
363.1732075471695
 20
526.6803810708165
 30
0.0
 10
363.1732075471695
 20
526.6891361685706
 30
0.0
  0
LINE
  5
177
330
1F
100
AcDbEntity
  8
0
  6
Continuous
 62
     7
370
    25
100
AcDbLine
 10
379.1732069064
 20
526.6891317597
 30
0.0
 11
379.1732069064
 21
527.0717488757
 31
0.0
  0
SPLINE
  5
178
330
1F
100
AcDbEntity
  8
0
  6
Continuous
 62
     7
370
    25
100
AcDbSpline
210
0.0
220
0.0
230
1.0
 70
     8
 71
     3
 72
    34
 73
    30
 74
     0
 42
0.000000001
 43
0.00000001
 40
0.0
 40
0.0
 40
0.0
 40
0.0
 40
0.0625000000000005
 40
0.0625000000000005
 40
0.125000000000001
 40
0.125000000000001
 40
0.1875000000000015
 40
0.1875000000000015
 40
0.250000000000002
 40
0.250000000000002
 40
0.3750000000000017
 40
0.3750000000000017
 40
0.5000000000000014
 40
0.5000000000000014
 40
0.5625000000000012
 40
0.5625000000000012
 40
0.6250000000000011
 40
0.6250000000000011
 40
0.6875000000000009
 40
0.6875000000000009
 40
0.7500000000000008
 40
0.7500000000000008
 40
0.8125000000000006
 40
0.8125000000000006
 40
0.8750000000000004
 40
0.8750000000000004
 40
0.9375000000000002
 40
0.9375000000000002
 40
1.0
 40
1.0
 40
1.0
 40
1.0
 10
379.1732075471696
 20
527.0717546451751
 30
0.0
 10
379.1732075471696
 20
527.0733239072642
 30
0.0
 10
379.1602407177727
 20
527.0748342288211
 30
0.0
 10
379.1094333387501
 20
527.0777454156251
 30
0.0
 10
379.0709764157213
 20
527.0791605421276
 30
0.0
 10
378.9705730212677
 20
527.081805226279
 30
0.0
 10
378.9091315836098
 20
527.0830321386798
 30
0.0
 10
378.7639696069243
 20
527.0853123244403
 30
0.0
 10
378.6794767248981
 20
527.0863692281437
 30
0.0
 10
378.402625083537
 20
527.0891665930405
 30
0.0
 10
378.1794529923469
 20
527.0906093627334
 30
0.0
 10
377.6980477857092
 20
527.0925173467481
 30
0.0
 10
377.4348195037086
 20
527.0930049914891
 30
0.0
 10
377.0434669644143
 20
527.0930062945005
 30
0.0
 10
376.9109699052117
 20
527.092884675912
 30
0.0
 10
376.654440637469
 20
527.0924034105744
 30
0.0
 10
376.529759597926
 20
527.0920464843589
 30
0.0
 10
376.2876053339743
 20
527.0910882861308
 30
0.0
 10
376.1704652734022
 20
527.0904843163078
 30
0.0
 10
375.9537118819539
 20
527.0890654887769
 30
0.0
 10
375.8526924438198
 20
527.0882459855321
 30
0.0
 10
375.6659440125333
 20
527.0863593201109
 30
0.0
 10
375.5830220264046
 20
527.0853195953692
 30
0.0
 10
375.4381763981798
 20
527.0830479312847
 30
0.0
 10
375.375589304384
 20
527.0817998583624
 30
0.0
 10
375.2751989506065
 20
527.0791529310509
 30
0.0
 10
375.2373987669508
 20
527.0777639050754
 30
0.0
 10
375.1862858528718
 20
527.0748459652345
 30
0.0
 10
375.1732075471696
 20
527.0733047499768
 30
0.0
 10
375.1732075471696
 20
527.0717546451751
 30
0.0
  0
LINE
  5
179
330
1F
100
AcDbEntity
  8
0
  6
Continuous
 62
     7
370
    25
100
AcDbLine
 10
375.1732081134
 20
527.0717488757
 30
0.0
 11
375.1732081134
 21
526.6891317597
 31
0.0
  0
SPLINE
  5
17A
330
1F
100
AcDbEntity
  8
0
  6
Continuous
 62
     7
370
    25
100
AcDbSpline
210
0.0
220
0.0
230
1.0
 70
     8
 71
     3
 72
    34
 73
    30
 74
     0
 42
0.000000001
 43
0.00000001
 40
0.0
 40
0.0
 40
0.0
 40
0.0
 40
0.0624999999999993
 40
0.0624999999999993
 40
0.1249999999999985
 40
0.1249999999999985
 40
0.2499999999999967
 40
0.2499999999999967
 40
0.3124999999999967
 40
0.3124999999999967
 40
0.3749999999999967
 40
0.3749999999999967
 40
0.4374999999999968
 40
0.4374999999999968
 40
0.4999999999999969
 40
0.4999999999999969
 40
0.5624999999999969
 40
0.5624999999999969
 40
0.624999999999997
 40
0.624999999999997
 40
0.687499999999997
 40
0.687499999999997
 40
0.749999999999997
 40
0.749999999999997
 40
0.8124999999999971
 40
0.8124999999999971
 40
0.8749999999999971
 40
0.8749999999999971
 40
1.0
 40
1.0
 40
1.0
 40
1.0
 10
375.1732075471696
 20
526.6891361685706
 30
0.0
 10
375.1732075471696
 20
526.6848120536712
 30
0.0
 10
375.1858512868415
 20
526.6804825710943
 30
0.0
 10
375.2369452827539
 20
526.6718163329772
 30
0.0
 10
375.2753349504337
 20
526.6675334709172
 30
0.0
 10
375.4246722844466
 20
526.6552239209468
 30
0.0
 10
375.5735699032239
 20
526.6474971136093
 30
0.0
 10
375.8498995768359
 20
526.6378332971007
 30
0.0
 10
375.9526541074574
 20
526.6348671310589
 30
0.0
 10
376.1701707780389
 20
526.629743170972
 30
0.0
 10
376.2849999326521
 20
526.6275673405003
 30
0.0
 10
376.5268266854435
 20
526.6240053053106
 30
0.0
 10
376.6540501504757
 20
526.622630468985
 30
0.0
 10
376.9097627332117
 20
526.6208143297304
 30
0.0
 10
377.0396018910848
 20
526.6203495143842
 30
0.0
 10
377.3033859364417
 20
526.620341457498
 30
0.0
 10
377.4339489816842
 20
526.6208018149599
 30
0.0
 10
377.6895675360461
 20
526.6226040580435
 30
0.0
 10
377.8163277922191
 20
526.6239650781445
 30
0.0
 10
378.0589694257756
 20
526.6275236961893
 30
0.0
 10
378.1739058878399
 20
526.6296961520222
 30
0.0
 10
378.3912150553219
 20
526.6347992703154
 30
0.0
 10
378.4942426438119
 20
526.6377628661122
 30
0.0
 10
378.6789791658032
 20
526.6442055652585
 30
0.0
 10
378.7617730800294
 20
526.6477019594082
 30
0.0
 10
378.9078940429022
 20
526.655235418292
 30
0.0
 10
378.9702952249517
 20
526.6592417985522
 30
0.0
 10
379.1201430289609
 20
526.6715464980576
 30
0.0
 10
379.1732075471696
 20
526.6803810708165
 30
0.0
 10
379.1732075471696
 20
526.6891361685706
 30
0.0
  0
LINE
  5
17B
330
1F
100
AcDbEntity
  8
0
  6
Continuous
 62
     7
370
    25
100
AcDbLine
 10
342.1732073609
 20
526.6891317597
 30
0.0
 11
342.1732073609
 21
527.0717488757
 31
0.0
  0
SPLINE
  5
17C
330
1F
100
AcDbEntity
  8
0
  6
Continuous
 62
     7
370
    25
100
AcDbSpline
210
0.0
220
0.0
230
1.0
 70
     8
 71
     3
 72
    34
 73
    30
 74
     0
 42
0.000000001
 43
0.00000001
 40
0.0
 40
0.0
 40
0.0
 40
0.0
 40
0.0624999999999998
 40
0.0624999999999998
 40
0.1249999999999996
 40
0.1249999999999996
 40
0.1874999999999994
 40
0.1874999999999994
 40
0.2499999999999993
 40
0.2499999999999993
 40
0.3749999999999993
 40
0.3749999999999993
 40
0.4999999999999994
 40
0.4999999999999994
 40
0.562499999999999
 40
0.562499999999999
 40
0.6249999999999987
 40
0.6249999999999987
 40
0.6874999999999982
 40
0.6874999999999982
 40
0.7499999999999986
 40
0.7499999999999986
 40
0.812499999999999
 40
0.812499999999999
 40
0.8749999999999993
 40
0.8749999999999993
 40
0.9374999999999998
 40
0.9374999999999998
 40
1.0
 40
1.0
 40
1.0
 40
1.0
 10
342.1732075471696
 20
527.0717546451751
 30
0.0
 10
342.1732075471696
 20
527.0733239072642
 30
0.0
 10
342.1602407177728
 20
527.0748342288211
 30
0.0
 10
342.1094333387502
 20
527.077745415625
 30
0.0
 10
342.0709764157214
 20
527.0791605421276
 30
0.0
 10
341.9705730212678
 20
527.081805226279
 30
0.0
 10
341.9091315836099
 20
527.0830321386798
 30
0.0
 10
341.7639696069243
 20
527.0853123244403
 30
0.0
 10
341.6794767248981
 20
527.0863692281437
 30
0.0
 10
341.4026250835371
 20
527.0891665930404
 30
0.0
 10
341.179452992347
 20
527.0906093627334
 30
0.0
 10
340.6980477857092
 20
527.0925173467481
 30
0.0
 10
340.4348195037087
 20
527.0930049914892
 30
0.0
 10
340.0434669644144
 20
527.0930062945005
 30
0.0
 10
339.9109699052117
 20
527.092884675912
 30
0.0
 10
339.654440637469
 20
527.0924034105744
 30
0.0
 10
339.529759597926
 20
527.0920464843589
 30
0.0
 10
339.2876053339742
 20
527.0910882861308
 30
0.0
 10
339.1704652734021
 20
527.0904843163077
 30
0.0
 10
338.9537118819538
 20
527.089065488777
 30
0.0
 10
338.8526924438197
 20
527.0882459855321
 30
0.0
 10
338.6659440125333
 20
527.0863593201109
 30
0.0
 10
338.5830220264046
 20
527.0853195953691
 30
0.0
 10
338.4381763981798
 20
527.0830479312847
 30
0.0
 10
338.3755893043841
 20
527.0817998583624
 30
0.0
 10
338.2751989506066
 20
527.0791529310509
 30
0.0
 10
338.2373987669508
 20
527.0777639050755
 30
0.0
 10
338.1862858528719
 20
527.0748459652344
 30
0.0
 10
338.1732075471697
 20
527.0733047499767
 30
0.0
 10
338.1732075471696
 20
527.0717546451751
 30
0.0
  0
LINE
  5
17D
330
1F
100
AcDbEntity
  8
0
  6
Continuous
 62
     7
370
    25
100
AcDbLine
 10
338.1732076366
 20
527.0717488757
 30
0.0
 11
338.1732076366
 21
526.6891317597
 31
0.0
  0
SPLINE
  5
17E
330
1F
100
AcDbEntity
  8
0
  6
Continuous
 62
     7
370
    25
100
AcDbSpline
210
0.0
220
0.0
230
1.0
 70
     8
 71
     3
 72
    34
 73
    30
 74
     0
 42
0.000000001
 43
0.00000001
 40
0.0
 40
0.0
 40
0.0
 40
0.0
 40
0.0625000000000001
 40
0.0625000000000001
 40
0.1250000000000003
 40
0.1250000000000003
 40
0.2500000000000002
 40
0.2500000000000002
 40
0.3124999999999999
 40
0.3124999999999999
 40
0.3749999999999998
 40
0.3749999999999998
 40
0.4374999999999996
 40
0.4374999999999996
 40
0.4999999999999994
 40
0.4999999999999994
 40
0.5624999999999991
 40
0.5624999999999991
 40
0.6249999999999989
 40
0.6249999999999989
 40
0.6874999999999988
 40
0.6874999999999988
 40
0.7499999999999986
 40
0.7499999999999986
 40
0.8124999999999983
 40
0.8124999999999983
 40
0.8749999999999981
 40
0.8749999999999981
 40
1.0
 40
1.0
 40
1.0
 40
1.0
 10
338.1732075471696
 20
526.6891361685706
 30
0.0
 10
338.1732075471696
 20
526.6848120536712
 30
0.0
 10
338.1858512868415
 20
526.6804825710943
 30
0.0
 10
338.236945282754
 20
526.6718163329773
 30
0.0
 10
338.2753349504338
 20
526.6675334709172
 30
0.0
 10
338.4246722844467
 20
526.6552239209468
 30
0.0
 10
338.573569903224
 20
526.6474971136095
 30
0.0
 10
338.8498995768359
 20
526.6378332971007
 30
0.0
 10
338.9526541074574
 20
526.6348671310589
 30
0.0
 10
339.1701707780389
 20
526.629743170972
 30
0.0
 10
339.2849999326522
 20
526.6275673405003
 30
0.0
 10
339.5268266854436
 20
526.6240053053106
 30
0.0
 10
339.6540501504757
 20
526.622630468985
 30
0.0
 10
339.9097627332117
 20
526.6208143297305
 30
0.0
 10
340.0396018910848
 20
526.6203495143843
 30
0.0
 10
340.3033859364417
 20
526.620341457498
 30
0.0
 10
340.4339489816842
 20
526.6208018149599
 30
0.0
 10
340.689567536046
 20
526.6226040580435
 30
0.0
 10
340.8163277922191
 20
526.6239650781444
 30
0.0
 10
341.0589694257756
 20
526.6275236961893
 30
0.0
 10
341.1739058878399
 20
526.6296961520222
 30
0.0
 10
341.391215055322
 20
526.6347992703154
 30
0.0
 10
341.494242643812
 20
526.6377628661122
 30
0.0
 10
341.6789791658033
 20
526.6442055652584
 30
0.0
 10
341.7617730800295
 20
526.6477019594083
 30
0.0
 10
341.9078940429022
 20
526.655235418292
 30
0.0
 10
341.9702952249517
 20
526.6592417985523
 30
0.0
 10
342.120143028961
 20
526.6715464980576
 30
0.0
 10
342.1732075471696
 20
526.6803810708165
 30
0.0
 10
342.1732075471696
 20
526.6891361685706
 30
0.0
  0
LINE
  5
17F
330
1F
100
AcDbEntity
  8
0
  6
Continuous
 62
     7
370
    25
100
AcDbLine
 10
504.6732135076
 20
527.128164672
 30
0.0
 11
504.6732135076
 21
517.761518263
 31
0.0
  0
SPLINE
  5
180
330
1F
100
AcDbEntity
  8
0
  6
Continuous
 62
     7
370
    25
100
AcDbSpline
210
0.0
220
0.0
230
1.0
 70
     8
 71
     3
 72
    12
 73
     8
 74
     0
 42
0.000000001
 43
0.00000001
 40
0.0
 40
0.0
 40
0.0
 40
0.0
 40
0.2499999999999999
 40
0.2499999999999999
 40
0.5
 40
0.5
 40
1.0
 40
1.0
 40
1.0
 40
1.0
 10
375.5119518510223
 20
516.5712748777916
 30
0.0
 10
386.3005810866043
 20
516.6011782487655
 30
0.0
 10
397.0814285038849
 20
516.6533522429692
 30
0.0
 10
418.6303999398211
 20
516.793253047183
 30
0.0
 10
429.3985462670361
 20
516.8809105653271
 30
0.0
 10
461.686438071002
 20
517.1881163743612
 30
0.0
 10
483.1897546805936
 20
517.4517130203036
 30
0.0
 10
504.6732075471695
 20
517.7615133254609
 30
0.0
  0
SPLINE
  5
181
330
1F
100
AcDbEntity
  8
0
  6
Continuous
 62
     7
370
    25
100
AcDbSpline
210
0.0
220
0.0
230
1.0
 70
     8
 71
     3
 72
     9
 73
     5
 74
     0
 42
0.000000001
 43
0.00000001
 40
0.0
 40
0.0
 40
0.0
 40
0.0
 40
0.5
 40
1.0
 40
1.0
 40
1.0
 40
1.0
 10
333.8344632433278
 20
516.5712748777916
 30
0.0
 10
340.7807113446103
 20
516.5520216224137
 30
0.0
 10
354.673207547175
 20
516.5312846895628
 30
0.0
 10
368.5657037497399
 20
516.5520216224139
 30
0.0
 10
375.5119518510223
 20
516.5712748777918
 30
0.0
  0
SPLINE
  5
182
330
1F
100
AcDbEntity
  8
0
  6
Continuous
 62
     7
370
    25
100
AcDbSpline
210
0.0
220
0.0
230
1.0
 70
     8
 71
     3
 72
    12
 73
     8
 74
     0
 42
0.000000001
 43
0.00000001
 40
0.0
 40
0.0
 40
0.0
 40
0.0
 40
0.5000000000000001
 40
0.5000000000000001
 40
0.7500000000000002
 40
0.7500000000000002
 40
1.0
 40
1.0
 40
1.0
 40
1.0
 10
204.6732075471701
 20
517.7615133254611
 30
0.0
 10
226.1641794106199
 20
517.4516045932487
 30
0.0
 10
247.671587355528
 20
517.1879839107827
 30
0.0
 10
279.9599094109603
 20
516.8808070113791
 30
0.0
 10
290.7272429226581
 20
516.793169848631
 30
0.0
 10
312.2723848241962
 20
516.6533145262102
 30
0.0
 10
323.0502117793863
 20
516.6011661146819
 30
0.0
 10
333.8344632433278
 20
516.5712748777917
 30
0.0
  0
LINE
  5
183
330
1F
100
AcDbEntity
  8
0
  6
Continuous
 62
     7
370
    25
100
AcDbLine
 10
204.6732015867
 20
527.128164672
 30
0.0
 11
204.6732015867
 21
517.761518263
 31
0.0
  0
LINE
  5
184
330
1F
100
AcDbEntity
  8
0
  6
Continuous
 62
     7
370
    25
100
AcDbLine
 10
334.1732069809
 20
526.6891317597
 30
0.0
 11
334.1732069809
 21
527.0717488757
 31
0.0
  0
SPLINE
  5
185
330
1F
100
AcDbEntity
  8
0
  6
Continuous
 62
     7
370
    25
100
AcDbSpline
210
0.0
220
0.0
230
1.0
 70
     8
 71
     3
 72
    34
 73
    30
 74
     0
 42
0.000000001
 43
0.00000001
 40
0.0
 40
0.0
 40
0.0
 40
0.0
 40
0.0625000000000005
 40
0.0625000000000005
 40
0.125000000000001
 40
0.125000000000001
 40
0.1875000000000015
 40
0.1875000000000015
 40
0.250000000000002
 40
0.250000000000002
 40
0.3750000000000017
 40
0.3750000000000017
 40
0.5000000000000014
 40
0.5000000000000014
 40
0.5625000000000012
 40
0.5625000000000012
 40
0.6250000000000011
 40
0.6250000000000011
 40
0.6875000000000009
 40
0.6875000000000009
 40
0.7500000000000008
 40
0.7500000000000008
 40
0.8125000000000006
 40
0.8125000000000006
 40
0.8750000000000004
 40
0.8750000000000004
 40
0.9375000000000002
 40
0.9375000000000002
 40
1.0
 40
1.0
 40
1.0
 40
1.0
 10
334.1732075471696
 20
527.0717546451751
 30
0.0
 10
334.1732075471696
 20
527.0733239072642
 30
0.0
 10
334.1602407177728
 20
527.0748342288211
 30
0.0
 10
334.1094333387503
 20
527.0777454156251
 30
0.0
 10
334.0709764157214
 20
527.0791605421276
 30
0.0
 10
333.9705730212678
 20
527.081805226279
 30
0.0
 10
333.9091315836099
 20
527.0830321386798
 30
0.0
 10
333.7639696069244
 20
527.0853123244403
 30
0.0
 10
333.6794767248981
 20
527.0863692281437
 30
0.0
 10
333.4026250835371
 20
527.0891665930405
 30
0.0
 10
333.179452992347
 20
527.0906093627334
 30
0.0
 10
332.6980477857092
 20
527.0925173467481
 30
0.0
 10
332.4348195037087
 20
527.0930049914891
 30
0.0
 10
332.0434669644144
 20
527.0930062945005
 30
0.0
 10
331.9109699052117
 20
527.092884675912
 30
0.0
 10
331.654440637469
 20
527.0924034105744
 30
0.0
 10
331.529759597926
 20
527.0920464843589
 30
0.0
 10
331.2876053339742
 20
527.0910882861308
 30
0.0
 10
331.1704652734021
 20
527.0904843163078
 30
0.0
 10
330.9537118819538
 20
527.0890654887769
 30
0.0
 10
330.8526924438197
 20
527.0882459855321
 30
0.0
 10
330.6659440125333
 20
527.0863593201109
 30
0.0
 10
330.5830220264046
 20
527.0853195953692
 30
0.0
 10
330.4381763981798
 20
527.0830479312847
 30
0.0
 10
330.3755893043841
 20
527.0817998583624
 30
0.0
 10
330.2751989506066
 20
527.0791529310509
 30
0.0
 10
330.2373987669508
 20
527.0777639050754
 30
0.0
 10
330.1862858528719
 20
527.0748459652345
 30
0.0
 10
330.1732075471696
 20
527.0733047499768
 30
0.0
 10
330.1732075471696
 20
527.0717546451751
 30
0.0
  0
LINE
  5
186
330
1F
100
AcDbEntity
  8
0
  6
Continuous
 62
     7
370
    25
100
AcDbLine
 10
330.1732081879
 20
527.0717488757
 30
0.0
 11
330.1732081879
 21
526.6891317597
 31
0.0
  0
SPLINE
  5
187
330
1F
100
AcDbEntity
  8
0
  6
Continuous
 62
     7
370
    25
100
AcDbSpline
210
0.0
220
0.0
230
1.0
 70
     8
 71
     3
 72
    34
 73
    30
 74
     0
 42
0.000000001
 43
0.00000001
 40
0.0
 40
0.0
 40
0.0
 40
0.0
 40
0.0624999999999993
 40
0.0624999999999993
 40
0.1249999999999985
 40
0.1249999999999985
 40
0.2499999999999967
 40
0.2499999999999967
 40
0.3124999999999968
 40
0.3124999999999968
 40
0.3749999999999968
 40
0.3749999999999968
 40
0.4374999999999968
 40
0.4374999999999968
 40
0.4999999999999969
 40
0.4999999999999969
 40
0.5624999999999969
 40
0.5624999999999969
 40
0.624999999999997
 40
0.624999999999997
 40
0.687499999999997
 40
0.687499999999997
 40
0.749999999999997
 40
0.749999999999997
 40
0.8124999999999971
 40
0.8124999999999971
 40
0.8749999999999971
 40
0.8749999999999971
 40
1.0
 40
1.0
 40
1.0
 40
1.0
 10
330.1732075471696
 20
526.6891361685706
 30
0.0
 10
330.1732075471696
 20
526.6848120536712
 30
0.0
 10
330.1858512868415
 20
526.6804825710943
 30
0.0
 10
330.236945282754
 20
526.6718163329772
 30
0.0
 10
330.2753349504338
 20
526.6675334709172
 30
0.0
 10
330.4246722844467
 20
526.6552239209468
 30
0.0
 10
330.5735699032239
 20
526.6474971136093
 30
0.0
 10
330.8498995768358
 20
526.6378332971007
 30
0.0
 10
330.9526541074573
 20
526.6348671310589
 30
0.0
 10
331.1701707780389
 20
526.629743170972
 30
0.0
 10
331.2849999326522
 20
526.6275673405003
 30
0.0
 10
331.5268266854436
 20
526.6240053053106
 30
0.0
 10
331.6540501504757
 20
526.622630468985
 30
0.0
 10
331.9097627332117
 20
526.6208143297305
 30
0.0
 10
332.0396018910848
 20
526.6203495143842
 30
0.0
 10
332.3033859364417
 20
526.620341457498
 30
0.0
 10
332.4339489816842
 20
526.6208018149599
 30
0.0
 10
332.689567536046
 20
526.6226040580435
 30
0.0
 10
332.816327792219
 20
526.6239650781445
 30
0.0
 10
333.0589694257756
 20
526.6275236961893
 30
0.0
 10
333.1739058878399
 20
526.6296961520222
 30
0.0
 10
333.391215055322
 20
526.6347992703154
 30
0.0
 10
333.494242643812
 20
526.6377628661121
 30
0.0
 10
333.6789791658033
 20
526.6442055652585
 30
0.0
 10
333.7617730800295
 20
526.6477019594082
 30
0.0
 10
333.9078940429022
 20
526.655235418292
 30
0.0
 10
333.9702952249518
 20
526.6592417985522
 30
0.0
 10
334.120143028961
 20
526.6715464980576
 30
0.0
 10
334.1732075471696
 20
526.6803810708166
 30
0.0
 10
334.1732075471696
 20
526.6891361685706
 30
0.0
  0
LINE
  5
188
330
1F
100
AcDbEntity
  8
0
  6
Continuous
 62
     7
370
    25
100
AcDbLine
 10
350.1732077409
 20
526.6891317597
 30
0.0
 11
350.1732077409
 21
527.0717488757
 31
0.0
  0
SPLINE
  5
189
330
1F
100
AcDbEntity
  8
0
  6
Continuous
 62
     7
370
    25
100
AcDbSpline
210
0.0
220
0.0
230
1.0
 70
     8
 71
     3
 72
    34
 73
    30
 74
     0
 42
0.000000001
 43
0.00000001
 40
0.0
 40
0.0
 40
0.0
 40
0.0
 40
0.0625
 40
0.0625
 40
0.1249999999999999
 40
0.1249999999999999
 40
0.1874999999999999
 40
0.1874999999999999
 40
0.2499999999999998
 40
0.2499999999999998
 40
0.3749999999999997
 40
0.3749999999999997
 40
0.4999999999999994
 40
0.4999999999999994
 40
0.5624999999999996
 40
0.5624999999999996
 40
0.6249999999999996
 40
0.6249999999999996
 40
0.6874999999999997
 40
0.6874999999999997
 40
0.7499999999999997
 40
0.7499999999999997
 40
0.8124999999999998
 40
0.8124999999999998
 40
0.8749999999999999
 40
0.8749999999999999
 40
0.9374999999999999
 40
0.9374999999999999
 40
1.0
 40
1.0
 40
1.0
 40
1.0
 10
350.1732075471696
 20
527.0717546451751
 30
0.0
 10
350.1732075471697
 20
527.0733239072642
 30
0.0
 10
350.1602407177728
 20
527.0748342288211
 30
0.0
 10
350.1094333387503
 20
527.077745415625
 30
0.0
 10
350.0709764157214
 20
527.0791605421276
 30
0.0
 10
349.9705730212679
 20
527.081805226279
 30
0.0
 10
349.90913158361
 20
527.0830321386798
 30
0.0
 10
349.7639696069244
 20
527.0853123244405
 30
0.0
 10
349.6794767248981
 20
527.0863692281437
 30
0.0
 10
349.4026250835371
 20
527.0891665930404
 30
0.0
 10
349.179452992347
 20
527.0906093627334
 30
0.0
 10
348.6980477857092
 20
527.0925173467481
 30
0.0
 10
348.4348195037087
 20
527.0930049914892
 30
0.0
 10
348.0434669644144
 20
527.0930062945005
 30
0.0
 10
347.9109699052117
 20
527.092884675912
 30
0.0
 10
347.654440637469
 20
527.0924034105744
 30
0.0
 10
347.529759597926
 20
527.0920464843589
 30
0.0
 10
347.2876053339742
 20
527.0910882861308
 30
0.0
 10
347.1704652734021
 20
527.0904843163078
 30
0.0
 10
346.9537118819538
 20
527.0890654887769
 30
0.0
 10
346.8526924438197
 20
527.0882459855321
 30
0.0
 10
346.6659440125333
 20
527.0863593201109
 30
0.0
 10
346.5830220264046
 20
527.0853195953691
 30
0.0
 10
346.4381763981798
 20
527.0830479312847
 30
0.0
 10
346.3755893043841
 20
527.0817998583624
 30
0.0
 10
346.2751989506066
 20
527.079152931051
 30
0.0
 10
346.2373987669509
 20
527.0777639050754
 30
0.0
 10
346.1862858528719
 20
527.0748459652344
 30
0.0
 10
346.1732075471696
 20
527.0733047499768
 30
0.0
 10
346.1732075471696
 20
527.0717546451751
 30
0.0
  0
LINE
  5
18A
330
1F
100
AcDbEntity
  8
0
  6
Continuous
 62
     7
370
    25
100
AcDbLine
 10
346.1732070852
 20
527.0717488757
 30
0.0
 11
346.1732070852
 21
526.6891317597
 31
0.0
  0
SPLINE
  5
18B
330
1F
100
AcDbEntity
  8
0
  6
Continuous
 62
     7
370
    25
100
AcDbSpline
210
0.0
220
0.0
230
1.0
 70
     8
 71
     3
 72
    34
 73
    30
 74
     0
 42
0.000000001
 43
0.00000001
 40
0.0
 40
0.0
 40
0.0
 40
0.0
 40
0.0624999999999993
 40
0.0624999999999993
 40
0.1249999999999986
 40
0.1249999999999986
 40
0.2499999999999971
 40
0.2499999999999971
 40
0.3124999999999973
 40
0.3124999999999973
 40
0.3749999999999976
 40
0.3749999999999976
 40
0.4374999999999979
 40
0.4374999999999979
 40
0.4999999999999982
 40
0.4999999999999982
 40
0.5624999999999986
 40
0.5624999999999986
 40
0.6249999999999988
 40
0.6249999999999988
 40
0.6874999999999991
 40
0.6874999999999991
 40
0.7499999999999993
 40
0.7499999999999993
 40
0.8124999999999997
 40
0.8124999999999997
 40
0.875
 40
0.875
 40
1.0
 40
1.0
 40
1.0
 40
1.0
 10
346.1732075471696
 20
526.6891361685706
 30
0.0
 10
346.1732075471697
 20
526.6848120536712
 30
0.0
 10
346.1858512868415
 20
526.6804825710943
 30
0.0
 10
346.236945282754
 20
526.6718163329772
 30
0.0
 10
346.2753349504338
 20
526.6675334709172
 30
0.0
 10
346.4246722844467
 20
526.6552239209466
 30
0.0
 10
346.573569903224
 20
526.6474971136093
 30
0.0
 10
346.8498995768359
 20
526.6378332971007
 30
0.0
 10
346.9526541074574
 20
526.6348671310589
 30
0.0
 10
347.1701707780389
 20
526.629743170972
 30
0.0
 10
347.2849999326522
 20
526.6275673405003
 30
0.0
 10
347.5268266854436
 20
526.6240053053106
 30
0.0
 10
347.6540501504757
 20
526.622630468985
 30
0.0
 10
347.9097627332117
 20
526.6208143297304
 30
0.0
 10
348.0396018910848
 20
526.6203495143842
 30
0.0
 10
348.3033859364417
 20
526.620341457498
 30
0.0
 10
348.4339489816842
 20
526.62080181496
 30
0.0
 10
348.689567536046
 20
526.6226040580435
 30
0.0
 10
348.816327792219
 20
526.6239650781444
 30
0.0
 10
349.0589694257756
 20
526.6275236961893
 30
0.0
 10
349.1739058878399
 20
526.6296961520222
 30
0.0
 10
349.391215055322
 20
526.6347992703154
 30
0.0
 10
349.494242643812
 20
526.6377628661121
 30
0.0
 10
349.6789791658033
 20
526.6442055652584
 30
0.0
 10
349.7617730800294
 20
526.6477019594082
 30
0.0
 10
349.9078940429022
 20
526.655235418292
 30
0.0
 10
349.9702952249517
 20
526.6592417985522
 30
0.0
 10
350.120143028961
 20
526.6715464980576
 30
0.0
 10
350.1732075471697
 20
526.6803810708165
 30
0.0
 10
350.1732075471696
 20
526.6891361685706
 30
0.0
  0
LINE
  5
18C
330
1F
100
AcDbEntity
  8
0
  6
Continuous
 62
     7
370
    25
100
AcDbLine
 10
367.1732077334
 20
527.0717488757
 30
0.0
 11
367.1732077334
 21
526.6891317597
 31
0.0
  0
SPLINE
  5
18D
330
1F
100
AcDbEntity
  8
0
  6
Continuous
 62
     7
370
    25
100
AcDbSpline
210
0.0
220
0.0
230
1.0
 70
     8
 71
     3
 72
    34
 73
    30
 74
     0
 42
0.000000001
 43
0.00000001
 40
0.0
 40
0.0
 40
0.0
 40
0.0
 40
0.0624999999999998
 40
0.0624999999999998
 40
0.1249999999999996
 40
0.1249999999999996
 40
0.2499999999999991
 40
0.2499999999999991
 40
0.3124999999999987
 40
0.3124999999999987
 40
0.3749999999999983
 40
0.3749999999999983
 40
0.4374999999999978
 40
0.4374999999999978
 40
0.4999999999999974
 40
0.4999999999999974
 40
0.562499999999997
 40
0.562499999999997
 40
0.6249999999999966
 40
0.6249999999999966
 40
0.6874999999999961
 40
0.6874999999999961
 40
0.7499999999999964
 40
0.7499999999999964
 40
0.8124999999999967
 40
0.8124999999999967
 40
0.8749999999999969
 40
0.8749999999999969
 40
1.0
 40
1.0
 40
1.0
 40
1.0
 10
367.1732075471695
 20
526.6891361685706
 30
0.0
 10
367.1732075471695
 20
526.6848120536712
 30
0.0
 10
367.1858512868415
 20
526.6804825710943
 30
0.0
 10
367.2369452827539
 20
526.6718163329772
 30
0.0
 10
367.2753349504337
 20
526.6675334709172
 30
0.0
 10
367.4246722844466
 20
526.6552239209467
 30
0.0
 10
367.5735699032239
 20
526.6474971136095
 30
0.0
 10
367.8498995768358
 20
526.6378332971005
 30
0.0
 10
367.9526541074574
 20
526.6348671310589
 30
0.0
 10
368.1701707780389
 20
526.629743170972
 30
0.0
 10
368.2849999326521
 20
526.6275673405003
 30
0.0
 10
368.5268266854435
 20
526.6240053053106
 30
0.0
 10
368.6540501504757
 20
526.622630468985
 30
0.0
 10
368.9097627332116
 20
526.6208143297304
 30
0.0
 10
369.0396018910848
 20
526.6203495143842
 30
0.0
 10
369.3033859364417
 20
526.620341457498
 30
0.0
 10
369.4339489816842
 20
526.6208018149599
 30
0.0
 10
369.6895675360461
 20
526.6226040580435
 30
0.0
 10
369.8163277922191
 20
526.6239650781445
 30
0.0
 10
370.0589694257756
 20
526.6275236961893
 30
0.0
 10
370.1739058878399
 20
526.6296961520222
 30
0.0
 10
370.3912150553219
 20
526.6347992703154
 30
0.0
 10
370.4942426438118
 20
526.6377628661121
 30
0.0
 10
370.6789791658032
 20
526.6442055652584
 30
0.0
 10
370.7617730800294
 20
526.6477019594082
 30
0.0
 10
370.9078940429021
 20
526.655235418292
 30
0.0
 10
370.9702952249517
 20
526.6592417985522
 30
0.0
 10
371.1201430289609
 20
526.6715464980576
 30
0.0
 10
371.1732075471695
 20
526.6803810708165
 30
0.0
 10
371.1732075471695
 20
526.6891361685706
 30
0.0
  0
LINE
  5
18E
330
1F
100
AcDbEntity
  8
0
  6
Continuous
 62
     7
370
    25
100
AcDbLine
 10
371.1732074578
 20
526.6891317597
 30
0.0
 11
371.1732074578
 21
527.0717488757
 31
0.0
  0
SPLINE
  5
18F
330
1F
100
AcDbEntity
  8
0
  6
Continuous
 62
     7
370
    25
100
AcDbSpline
210
0.0
220
0.0
230
1.0
 70
     8
 71
     3
 72
    34
 73
    30
 74
     0
 42
0.000000001
 43
0.00000001
 40
0.0
 40
0.0
 40
0.0
 40
0.0
 40
0.0625000000000007
 40
0.0625000000000007
 40
0.1250000000000014
 40
0.1250000000000014
 40
0.1875000000000021
 40
0.1875000000000021
 40
0.2500000000000028
 40
0.2500000000000028
 40
0.3750000000000029
 40
0.3750000000000029
 40
0.5000000000000031
 40
0.5000000000000031
 40
0.5625000000000028
 40
0.5625000000000028
 40
0.6250000000000024
 40
0.6250000000000024
 40
0.687500000000002
 40
0.687500000000002
 40
0.7500000000000016
 40
0.7500000000000016
 40
0.8125000000000012
 40
0.8125000000000012
 40
0.8750000000000008
 40
0.8750000000000008
 40
0.9375000000000004
 40
0.9375000000000004
 40
1.0
 40
1.0
 40
1.0
 40
1.0
 10
371.1732075471695
 20
527.0717546451751
 30
0.0
 10
371.1732075471695
 20
527.0733239072642
 30
0.0
 10
371.1602407177727
 20
527.0748342288211
 30
0.0
 10
371.1094333387502
 20
527.077745415625
 30
0.0
 10
371.0709764157213
 20
527.0791605421276
 30
0.0
 10
370.9705730212677
 20
527.0818052262791
 30
0.0
 10
370.9091315836098
 20
527.0830321386798
 30
0.0
 10
370.7639696069243
 20
527.0853123244403
 30
0.0
 10
370.6794767248981
 20
527.0863692281437
 30
0.0
 10
370.402625083537
 20
527.0891665930405
 30
0.0
 10
370.1794529923469
 20
527.0906093627334
 30
0.0
 10
369.6980477857092
 20
527.0925173467481
 30
0.0
 10
369.4348195037086
 20
527.0930049914892
 30
0.0
 10
369.0434669644143
 20
527.0930062945004
 30
0.0
 10
368.9109699052117
 20
527.092884675912
 30
0.0
 10
368.654440637469
 20
527.0924034105744
 30
0.0
 10
368.529759597926
 20
527.0920464843588
 30
0.0
 10
368.2876053339743
 20
527.0910882861308
 30
0.0
 10
368.1704652734022
 20
527.0904843163078
 30
0.0
 10
367.9537118819538
 20
527.0890654887769
 30
0.0
 10
367.8526924438198
 20
527.0882459855321
 30
0.0
 10
367.6659440125333
 20
527.0863593201109
 30
0.0
 10
367.5830220264046
 20
527.0853195953691
 30
0.0
 10
367.4381763981798
 20
527.0830479312847
 30
0.0
 10
367.375589304384
 20
527.0817998583624
 30
0.0
 10
367.2751989506065
 20
527.0791529310509
 30
0.0
 10
367.2373987669508
 20
527.0777639050754
 30
0.0
 10
367.1862858528718
 20
527.0748459652345
 30
0.0
 10
367.1732075471695
 20
527.0733047499768
 30
0.0
 10
367.1732075471695
 20
527.0717546451751
 30
0.0
  0
SPLINE
  5
190
330
1F
100
AcDbEntity
  8
0
  6
Continuous
 62
     7
370
    25
100
AcDbSpline
210
0.0
220
0.0
230
1.0
 70
     8
 71
     3
 72
    36
 73
    32
 74
     0
 42
0.000000001
 43
0.00000001
 40
0.0
 40
0.0
 40
0.0
 40
0.0
 40
0.1249999999999997
 40
0.1249999999999997
 40
0.1874999999999996
 40
0.1874999999999996
 40
0.2187500000000001
 40
0.2187500000000001
 40
0.2500000000000007
 40
0.2500000000000007
 40
0.3749999999999989
 40
0.3749999999999989
 40
0.4062499999999986
 40
0.4062499999999986
 40
0.4374999999999982
 40
0.4374999999999982
 40
0.4999999999999983
 40
0.4999999999999983
 40
0.6249999999999977
 40
0.6249999999999977
 40
0.6562499999999978
 40
0.6562499999999978
 40
0.6874999999999979
 40
0.6874999999999979
 40
0.7499999999999983
 40
0.7499999999999983
 40
0.8124999999999988
 40
0.8124999999999988
 40
0.8749999999999991
 40
0.8749999999999991
 40
1.0
 40
1.0
 40
1.0
 40
1.0
 10
163.9873224720573
 20
477.1281628838561
 30
0.0
 10
163.9849999489959
 20
479.8134576211813
 30
0.0
 10
164.2465151108154
 20
482.4548078697904
 30
0.0
 10
165.0189970855399
 20
486.3535061009947
 30
0.0
 10
165.3403300432684
 20
487.6424392447294
 30
0.0
 10
165.9203688992185
 20
489.5595096483677
 30
0.0
 10
166.1306848575838
 20
490.1974357519811
 30
0.0
 10
166.5817271998322
 20
491.4592657554973
 30
0.0
 10
166.8219920377822
 20
492.0821830707319
 30
0.0
 10
168.0956315630292
 20
495.1575422693371
 30
0.0
 10
169.3438873598285
 20
497.4934221199792
 30
0.0
 10
171.1898103159507
 20
500.2583467822805
 30
0.0
 10
171.5734038100851
 20
500.8035156210865
 30
0.0
 10
172.3699104387457
 20
501.8779488923544
 30
0.0
 10
172.7837814489379
 20
502.408274531927
 30
0.0
 10
174.0569326272318
 20
503.9589363746318
 30
0.0
 10
174.9506979413635
 20
504.94360842803
 30
0.0
 10
177.7633447047596
 20
507.7542921636957
 30
0.0
 10
179.8123073565603
 20
509.4383568485165
 30
0.0
 10
182.5980146534111
 20
511.2984550471991
 30
0.0
 10
183.1657659328141
 20
511.6575064086617
 30
0.0
 10
184.3115600908387
 20
512.3431626209533
 30
0.0
 10
184.891063463102
 20
512.670763954698
 30
0.0
 10
186.6490855990673
 20
513.6085949426915
 30
0.0
 10
187.8470703400624
 20
514.1739577050245
 30
0.0
 10
190.2944969758357
 20
515.1860803992712
 30
0.0
 10
191.5439376020382
 20
515.6328432548978
 30
0.0
 10
194.0952888937571
 20
516.4054316829155
 30
0.0
 10
195.402407981604
 20
516.7318477732754
 30
0.0
 10
199.3349756999633
 20
517.509186007798
 30
0.0
 10
201.9881408663235
 20
517.7672718729516
 30
0.0
 10
204.6732075471701
 20
517.7615133254611
 30
0.0
  0
LINE
  5
191
330
1F
100
AcDbEntity
  8
0
  6
Continuous
 62
     7
370
    25
100
AcDbLine
 10
154.6732045669
 20
477.1281602016
 30
0.0
 11
163.9873243828
 21
477.1281602016
 31
0.0
  0
LINE
  5
192
330
1F
100
AcDbEntity
  8
0
  6
Continuous
 62
     7
370
    25
100
AcDbLine
 10
554.6732105274
 20
477.1281602016
 30
0.0
 11
545.3590907116
 21
477.1281602016
 31
0.0
  0
SPLINE
  5
193
330
1F
100
AcDbEntity
  8
0
  6
Continuous
 62
     7
370
    25
100
AcDbSpline
210
0.0
220
0.0
230
1.0
 70
     8
 71
     3
 72
    38
 73
    34
 74
     0
 42
0.000000001
 43
0.00000001
 40
0.0
 40
0.0
 40
0.0
 40
0.0
 40
0.125000000000001
 40
0.125000000000001
 40
0.1875000000000016
 40
0.1875000000000016
 40
0.2187500000000012
 40
0.2187500000000012
 40
0.2500000000000009
 40
0.2500000000000009
 40
0.3749999999999991
 40
0.3749999999999991
 40
0.4062499999999987
 40
0.4062499999999987
 40
0.4374999999999982
 40
0.4374999999999982
 40
0.4999999999999991
 40
0.4999999999999991
 40
0.625
 40
0.625
 40
0.6562499999999998
 40
0.6562499999999998
 40
0.6874999999999996
 40
0.6874999999999996
 40
0.7499999999999998
 40
0.7499999999999998
 40
0.8125000000000001
 40
0.8125000000000001
 40
0.84375
 40
0.84375
 40
0.8749999999999999
 40
0.8749999999999999
 40
1.0
 40
1.0
 40
1.0
 40
1.0
 10
504.6732075471695
 20
517.7615133254611
 30
0.0
 10
507.3584618865704
 20
517.7672722754147
 30
0.0
 10
509.9996173239592
 20
517.5091551843102
 30
0.0
 10
513.8978700528365
 20
516.7421278136635
 30
0.0
 10
515.1866288042993
 20
516.4226721556923
 30
0.0
 10
517.1034072325398
 20
515.8455958519748
 30
0.0
 10
517.7409404864579
 20
515.6364073470297
 30
0.0
 10
519.0041518974004
 20
515.1868548757751
 30
0.0
 10
519.6276852945805
 20
514.9473372758881
 30
0.0
 10
522.7057910621509
 20
513.677503945788
 30
0.0
 10
525.0428088726358
 20
512.4325141371907
 30
0.0
 10
527.808328364825
 20
510.5918460558892
 30
0.0
 10
528.3535743709327
 20
510.2093626035714
 30
0.0
 10
529.4280900378247
 20
509.4152201874467
 30
0.0
 10
529.9587868090371
 20
509.0023501666893
 30
0.0
 10
531.5130060172457
 20
507.7300857710446
 30
0.0
 10
532.4995951799257
 20
506.8370822541481
 30
0.0
 10
535.3150460475142
 20
504.0275286344091
 30
0.0
 10
537.000972453612
 20
501.9816849490133
 30
0.0
 10
538.8628528069388
 20
499.2022856942202
 30
0.0
 10
539.2232876016251
 20
498.6342873133892
 30
0.0
 10
539.9115401556418
 20
497.487968921596
 30
0.0
 10
540.2403344167748
 20
496.9082867211086
 30
0.0
 10
541.1814917933665
 20
495.1499989748401
 30
0.0
 10
541.7487363658344
 20
493.952197749442
 30
0.0
 10
542.7642549266475
 20
491.5059792752784
 30
0.0
 10
543.2125304083132
 20
490.2575626618458
 30
0.0
 10
543.7941850109851
 20
488.3463244958755
 30
0.0
 10
543.9729164591894
 20
487.7027980864577
 30
0.0
 10
544.2994729543015
 20
486.4025961423062
 30
0.0
 10
544.4468575173029
 20
485.747360959023
 30
0.0
 10
545.0998455276524
 20
482.46796563622
 30
0.0
 10
545.3614153090574
 20
479.8136469070592
 30
0.0
 10
545.3590926222819
 20
477.1281628838555
 30
0.0
  0
LINE
  5
194
330
1F
100
AcDbEntity
  8
0
  6
Continuous
 62
     7
370
    25
100
AcDbLine
 10
554.6732105274
 20
237.1281655661
 30
0.0
 11
546.6456718702
 21
237.1281655661
 31
0.0
  0
SPLINE
  5
195
330
1F
100
AcDbEntity
  8
0
  6
Continuous
 62
     7
370
    25
100
AcDbSpline
210
0.0
220
0.0
230
1.0
 70
     8
 71
     3
 72
    16
 73
    12
 74
     0
 42
0.000000001
 43
0.00000001
 40
0.0
 40
0.0
 40
0.0
 40
0.0
 40
0.2499999999999999
 40
0.2499999999999999
 40
0.4999999999999999
 40
0.4999999999999999
 40
0.6249999999999998
 40
0.6249999999999998
 40
0.7499999999999999
 40
0.7499999999999999
 40
1.0
 40
1.0
 40
1.0
 40
1.0
 10
545.3590926222819
 20
477.1281628838555
 30
0.0
 10
545.2434132361215
 20
457.0971816045952
 30
0.0
 10
545.1835871562424
 20
437.0717584083677
 30
0.0
 10
545.183887442904
 20
397.0325171235873
 30
0.0
 10
545.2440087248004
 20
377.0186986687567
 30
0.0
 10
545.417655492466
 20
347.0062780320333
 30
0.0
 10
545.4893215490914
 20
337.0035148244459
 30
0.0
 10
545.6581724477894
 20
317.0006338865129
 30
0.0
 10
545.7553731718962
 20
306.9985866268079
 30
0.0
 10
546.081618675724
 20
277.017143089096
 30
0.0
 10
546.345318963901
 20
257.0588674968543
 30
0.0
 10
546.6456775521152
 20
237.1281628838561
 30
0.0
  0
SPLINE
  5
196
330
1F
100
AcDbEntity
  8
0
  6
Continuous
 62
     7
370
    25
100
AcDbSpline
210
0.0
220
0.0
230
1.0
 70
     8
 71
     3
 72
    14
 73
    10
 74
     0
 42
0.000000001
 43
0.00000001
 40
0.0
 40
0.0
 40
0.0
 40
0.0
 40
0.25
 40
0.25
 40
0.5
 40
0.5
 40
0.75
 40
0.75
 40
1.0
 40
1.0
 40
1.0
 40
1.0
 10
162.7007375422237
 20
237.1281628838566
 30
0.0
 10
163.0013713847871
 20
257.0771323753719
 30
0.0
 10
163.2650305045595
 20
277.037791612302
 30
0.0
 10
163.6996882929085
 20
316.9838793455274
 30
0.0
 10
163.8706099372455
 20
336.9693211754557
 30
0.0
 10
164.1021852251038
 20
376.9671039669921
 30
0.0
 10
164.1624363280977
 20
396.9795282219544
 30
0.0
 10
164.1629183633969
 20
437.0328043461631
 30
0.0
 10
164.1031377062677
 20
457.0736582281149
 30
0.0
 10
163.9873224720571
 20
477.1281628838559
 30
0.0
  0
LINE
  5
197
330
1F
100
AcDbEntity
  8
0
  6
Continuous
 62
     7
370
    25
100
AcDbLine
 10
154.6732045669
 20
237.1281655661
 30
0.0
 11
162.7007432241
 21
237.1281655661
 31
0.0
  0
LINE
  5
198
330
1F
100
AcDbEntity
  8
0
  6
Continuous
 62
     7
370
    25
100
AcDbLine
 10
504.6732135076
 20
187.1281610957
 30
0.0
 11
504.6732135076
 21
195.1372670165
 31
0.0
  0
SPLINE
  5
199
330
1F
100
AcDbEntity
  8
0
  6
Continuous
 62
     7
370
    25
100
AcDbSpline
210
0.0
220
0.0
230
1.0
 70
     8
 71
     3
 72
    36
 73
    32
 74
     0
 42
0.000000001
 43
0.00000001
 40
0.0
 40
0.0
 40
0.0
 40
0.0
 40
0.1249999999999993
 40
0.1249999999999993
 40
0.1874999999999997
 40
0.1874999999999997
 40
0.2187500000000005
 40
0.2187500000000005
 40
0.2500000000000013
 40
0.2500000000000013
 40
0.375000000000003
 40
0.375000000000003
 40
0.4062500000000028
 40
0.4062500000000028
 40
0.4375000000000027
 40
0.4375000000000027
 40
0.5000000000000013
 40
0.5000000000000013
 40
0.6249999999999988
 40
0.6249999999999988
 40
0.6562499999999986
 40
0.6562499999999986
 40
0.6874999999999984
 40
0.6874999999999984
 40
0.7499999999999987
 40
0.7499999999999987
 40
0.812499999999999
 40
0.812499999999999
 40
0.8749999999999993
 40
0.8749999999999993
 40
1.0
 40
1.0
 40
1.0
 40
1.0
 10
546.6456775521152
 20
237.1281628838561
 30
0.0
 10
546.6529689957048
 20
234.3552794350021
 30
0.0
 10
546.3874806972757
 20
231.6273818108481
 30
0.0
 10
545.5961786390798
 20
227.6003578055732
 30
0.0
 10
545.266412045551
 20
226.2689006290888
 30
0.0
 10
544.6703998619531
 20
224.2884307215708
 30
0.0
 10
544.4541965976621
 20
223.6294039890751
 30
0.0
 10
543.9902421994539
 20
222.3255514527035
 30
0.0
 10
543.7430130121073
 20
221.6818836163109
 30
0.0
 10
542.4320670743826
 20
218.5040460517557
 30
0.0
 10
541.1460905419118
 20
216.0902223103082
 30
0.0
 10
539.2432953763224
 20
213.232850202262
 30
0.0
 10
538.8478367047629
 20
212.669443398432
 30
0.0
 10
538.0266022806003
 20
211.5590453905415
 30
0.0
 10
537.5997748800478
 20
211.0108709998058
 30
0.0
 10
536.2863966665542
 20
209.4077274359032
 30
0.0
 10
535.3642294163672
 20
208.3897186665838
 30
0.0
 10
532.4617673243769
 20
205.4838292071513
 30
0.0
 10
530.3468294766868
 20
203.7426500484093
 30
0.0
 10
527.4707746898674
 20
201.8193705779874
 30
0.0
 10
526.8846991129896
 20
201.4481942089839
 30
0.0
 10
525.7017538895567
 20
200.7393000294565
 30
0.0
 10
525.1034073432253
 20
200.4005744813036
 30
0.0
 10
523.2880587958246
 20
199.4308468172381
 30
0.0
 10
522.0507959414288
 20
198.8461837749182
 30
0.0
 10
519.5226755887797
 20
197.7994351584936
 30
0.0
 10
518.2318196039306
 20
197.337346123259
 30
0.0
 10
515.5954163798642
 20
196.5382534671338
 30
0.0
 10
514.2453459935527
 20
196.2009022982284
 30
0.0
 10
510.1857141644378
 20
195.3978834975773
 30
0.0
 10
507.446242305648
 20
195.131177448915
 30
0.0
 10
504.6732075471693
 20
195.1372699178912
 30
0.0
  0
SPLINE
  5
19A
330
1F
100
AcDbEntity
  8
0
  6
Continuous
 62
     7
370
    25
100
AcDbSpline
210
0.0
220
0.0
230
1.0
 70
     8
 71
     3
 72
    36
 73
    32
 74
     0
 42
0.000000001
 43
0.00000001
 40
0.0
 40
0.0
 40
0.0
 40
0.0
 40
0.1250000000000006
 40
0.1250000000000006
 40
0.1875000000000009
 40
0.1875000000000009
 40
0.2187500000000011
 40
0.2187500000000011
 40
0.2500000000000012
 40
0.2500000000000012
 40
0.3750000000000042
 40
0.3750000000000042
 40
0.4062500000000047
 40
0.4062500000000047
 40
0.4375000000000052
 40
0.4375000000000052
 40
0.5000000000000053
 40
0.5000000000000053
 40
0.6250000000000057
 40
0.6250000000000057
 40
0.6562500000000056
 40
0.6562500000000056
 40
0.6875000000000054
 40
0.6875000000000054
 40
0.7500000000000047
 40
0.7500000000000047
 40
0.8125000000000039
 40
0.8125000000000039
 40
0.875000000000003
 40
0.875000000000003
 40
1.0
 40
1.0
 40
1.0
 40
1.0
 10
204.6732075471695
 20
195.1372699178914
 30
0.0
 10
201.9002493624511
 20
195.1311776171509
 30
0.0
 10
199.1722117109335
 20
195.3978651273093
 30
0.0
 10
195.1449095475406
 20
196.1911218722839
 30
0.0
 10
193.8133481611796
 20
196.5215658721114
 30
0.0
 10
191.8327078508539
 20
197.1186551609546
 30
0.0
 10
191.1735532693183
 20
197.335257437765
 30
0.0
 10
189.8701844285573
 20
197.7997475312164
 30
0.0
 10
189.2267291648901
 20
198.0472466802841
 30
0.0
 10
186.0498232609417
 20
199.3595756863962
 30
0.0
 10
183.6363284134021
 20
200.6467635199683
 30
0.0
 10
180.7790393245712
 20
202.5515556008338
 30
0.0
 10
180.2156325623403
 20
202.9474379966043
 30
0.0
 10
179.1052060529818
 20
203.7695788672906
 30
0.0
 10
178.5572746214162
 20
204.1966882499854
 30
0.0
 10
176.9554531633444
 20
205.5103626939964
 30
0.0
 10
175.9381404535309
 20
206.4328029683183
 30
0.0
 10
173.0339365258712
 20
209.3364322329793
 30
0.0
 10
171.2933422151749
 20
211.4526035253182
 30
0.0
 10
169.3705695520694
 20
214.3312232470612
 30
0.0
 10
169.0001114597009
 20
214.9168780518672
 30
0.0
 10
168.292194706487
 20
216.0995754011775
 30
0.0
 10
167.9539133064908
 20
216.6978357247795
 30
0.0
 10
166.9854113004344
 20
218.5130480112487
 30
0.0
 10
166.4014232571155
 20
219.7503829550816
 30
0.0
 10
165.3558704816435
 20
222.2790268593627
 30
0.0
 10
164.8943016692526
 20
223.570334020713
 30
0.0
 10
164.0962224039482
 20
226.2080842284536
 30
0.0
 10
163.7596228119648
 20
227.558181214572
 30
0.0
 10
162.9589210632396
 20
231.6164610357539
 30
0.0
 10
162.6934462858365
 20
234.3553506267406
 30
0.0
 10
162.7007375422237
 20
237.1281628838566
 30
0.0
  0
LINE
  5
19B
330
1F
100
AcDbEntity
  8
0
  6
Continuous
 62
     7
370
    25
100
AcDbLine
 10
204.6732015867
 20
187.1281610957
 30
0.0
 11
204.6732015867
 21
195.1372670165
 31
0.0
  0
SPLINE
  5
19C
330
1F
100
AcDbEntity
  8
0
  6
Continuous
 62
     7
370
    25
100
AcDbSpline
210
0.0
220
0.0
230
1.0
 70
     8
 71
     3
 72
    16
 73
    12
 74
     0
 42
0.000000001
 43
0.00000001
 40
0.0
 40
0.0
 40
0.0
 40
0.0
 40
0.2500000000000001
 40
0.2500000000000001
 40
0.5000000000000001
 40
0.5000000000000001
 40
0.7500000000000002
 40
0.7500000000000002
 40
0.8750000000000002
 40
0.8750000000000002
 40
1.0
 40
1.0
 40
1.0
 40
1.0
 10
504.6732075471693
 20
195.1372699178914
 30
0.0
 10
479.704837661864
 20
195.4510395076699
 30
0.0
 10
454.7273678375997
 20
195.7002803012143
 30
0.0
 10
404.752896827194
 20
196.0384878981287
 30
0.0
 10
379.7558376739702
 20
196.1268556248672
 30
0.0
 10
329.7411822941353
 20
196.1272051126853
 30
0.0
 10
304.7235852925958
 20
196.0391761892944
 30
0.0
 10
267.182380674607
 20
195.7853994685905
 30
0.0
 10
254.6640061334714
 20
195.6807055752048
 30
0.0
 10
229.6541940610937
 20
195.4350968865306
 30
0.0
 10
217.1590141362076
 20
195.2941750914966
 30
0.0
 10
204.6732075471695
 20
195.1372699178912
 30
0.0
  0
SPLINE
  5
19D
330
1F
100
AcDbEntity
  8
0
  6
Continuous
 62
     7
370
    25
100
AcDbSpline
210
0.0
220
0.0
230
1.0
 70
     8
 71
     3
 72
    16
 73
    12
 74
     0
 42
0.000000001
 43
0.00000001
 40
0.0
 40
0.0
 40
0.0
 40
0.0
 40
0.2500000000000001
 40
0.2500000000000001
 40
0.5000000000000001
 40
0.5000000000000001
 40
0.6250000000000001
 40
0.6250000000000001
 40
0.75
 40
0.75
 40
1.0
 40
1.0
 40
1.0
 40
1.0
 10
195.3752362656681
 20
478.3599615908738
 30
0.0
 10
195.4583853695402
 20
457.9404997933309
 30
0.0
 10
195.4970578495882
 20
437.5261456962075
 30
0.0
 10
195.4970292946733
 20
396.7080357296049
 30
0.0
 10
195.4583248237
 20
376.3042796555794
 30
0.0
 10
195.3337484901288
 20
345.7062834904982
 30
0.0
 10
195.2809987843557
 20
335.5082184309367
 30
0.0
 10
195.1519286634658
 20
315.1145337485352
 30
0.0
 10
195.0755868639546
 20
304.9171028306456
 30
0.0
 10
194.8116374490273
 20
274.347638498733
 30
0.0
 10
194.5887975456889
 20
253.9953289503538
 30
0.0
 10
194.3259676341233
 20
233.668786622295
 30
0.0
  0
LWPOLYLINE
  5
19E
330
1F
100
AcDbEntity
  8
0
  6
Continuous
 62
     7
370
    25
100
AcDbPolyline
 90
       14
 70
   128
 43
0.0
 10
194.3259693641
 20
233.6687864891
 10
190.7459951896
 20
233.7698610655
 10
187.2364737053
 20
233.906765484
 10
183.8348217268
 20
234.0780245296
 10
180.5773235817
 20
234.2818202606
 10
177.4987287779
 20
234.5159771076
 10
174.6318645735
 20
234.7779991261
 10
172.0073379535
 20
235.0650848976
 10
169.6531183977
 20
235.3741796843
 10
167.5943292637
 20
235.7019828788
 10
165.8529348631
 20
236.0450001589
 10
164.4475020428
 20
236.3995732895
 10
163.3930213709
 20
236.7619173757
 10
162.7007432241
 20
237.1281655661
  0
LWPOLYLINE
  5
19F
330
1F
100
AcDbEntity
  8
0
  6
Continuous
 62
     7
370
    25
100
AcDbPolyline
 90
       14
 70
   128
 43
0.0
 10
195.3752346296
 20
478.3599646917
 10
191.8418861885
 20
478.3222722045
 10
188.3786179085
 20
478.27216705
 10
185.0214756985
 20
478.2101558677
 10
181.805358078
 20
478.1368868581
 10
178.7637330551
 20
478.0531348816
 10
175.9282506962
 20
477.9597493044
 10
173.328385498
 20
477.8577210537
 10
170.9911979694
 20
477.7481006614
 10
168.9409919042
 20
477.6320355168
 10
167.1990908642
 20
477.5107251636
 10
165.7836295624
 20
477.3854362002
 10
164.7093154449
 20
477.2574724785
 10
163.9873243828
 20
477.1281602016
  0
SPLINE
  5
1A0
330
1F
100
AcDbEntity
  8
0
  6
Continuous
 62
     7
370
    25
100
AcDbSpline
210
0.0
220
0.0
230
1.0
 70
     8
 71
     3
 72
    16
 73
    12
 74
     0
 42
0.000000001
 43
0.00000001
 40
0.0
 40
0.0
 40
0.0
 40
0.0
 40
0.1250000000000001
 40
0.1250000000000001
 40
0.2500000000000001
 40
0.2500000000000001
 40
0.5
 40
0.5
 40
0.75
 40
0.75
 40
1.0
 40
1.0
 40
1.0
 40
1.0
 10
201.7921702856937
 20
226.1886232109344
 30
0.0
 10
214.5190088558611
 20
226.3229164673821
 30
0.0
 10
227.2545671692318
 20
226.4410688153914
 30
0.0
 10
252.743724977867
 20
226.6430285733009
 30
0.0
 10
265.5007726398322
 20
226.7268450311486
 30
0.0
 10
303.7589892909954
 20
226.9263050974369
 30
0.0
 10
329.2553645576789
 20
226.9904042447674
 30
0.0
 10
380.2292798038648
 20
226.9901700684144
 30
0.0
 10
405.7068203334723
 20
226.9258305079743
 30
0.0
 10
456.6437777561056
 20
226.6599733113831
 30
0.0
 10
482.1032399490072
 20
226.4571815259962
 30
0.0
 10
507.5542448086455
 20
226.1886232109344
 30
0.0
  0
LWPOLYLINE
  5
1A1
330
1F
100
AcDbEntity
  8
0
  6
Continuous
 62
     7
370
    25
100
AcDbPolyline
 90
       14
 70
   128
 43
0.0
 10
507.5542487163
 20
226.1886196366
 10
507.4661530514
 20
222.6608442298
 10
507.3489852209
 20
219.2072319022
 10
507.2039820213
 20
215.8636944524
 10
507.0326484699
 20
212.6650409928
 10
506.8367578049
 20
209.6445607177
 10
506.6183663864
 20
206.8336652747
 10
506.3797242899
 20
204.2616205445
 10
506.1233200092
 20
201.9551741115
 10
505.8518357534
 20
199.9383466474
 10
505.5680729408
 20
198.232104086
 10
505.2750118036
 20
196.8542086116
 10
504.9756772775
 20
195.8190100423
 10
504.6732135076
 20
195.1372670165
  0
LWPOLYLINE
  5
1A2
330
1F
100
AcDbEntity
  8
0
  6
Continuous
 62
     7
370
    25
100
AcDbPolyline
 90
       14
 70
   128
 43
0.0
 10
201.792166378
 20
226.1886196366
 10
201.880262043
 20
222.6608442298
 10
201.9974298734
 20
219.2072319022
 10
202.142433073
 20
215.8636944524
 10
202.3137666244
 20
212.6650409928
 10
202.5096572895
 20
209.6445607177
 10
202.7280487079
 20
206.8336652747
 10
202.9666908045
 20
204.2616205445
 10
203.2230950851
 20
201.9551741115
 10
203.4945793409
 20
199.9383466474
 10
203.7783421535
 20
198.232104086
 10
204.0714032907
 20
196.8542086116
 10
204.3707378168
 20
195.8190100423
 10
204.6732015867
 20
195.1372670165
  0
LWPOLYLINE
  5
1A3
330
1F
100
AcDbEntity
  8
0
  6
Continuous
 62
     7
370
    25
100
AcDbPolyline
 90
       14
 70
   128
 43
0.0
 10
515.0204457302
 20
233.6687864891
 10
518.6004199047
 20
233.7698610655
 10
522.1099413891
 20
233.906765484
 10
525.5115933676
 20
234.0780245296
 10
528.7690915127
 20
234.2818202606
 10
531.8476863165
 20
234.5159771076
 10
534.7145505209
 20
234.7779991261
 10
537.3390771408
 20
235.0650848976
 10
539.6932966966
 20
235.3741796843
 10
541.7520858307
 20
235.7019828788
 10
543.4934802313
 20
236.0450001589
 10
544.8989130516
 20
236.3995732895
 10
545.9533937235
 20
236.7619173757
 10
546.6456718702
 20
237.1281655661
  0
SPLINE
  5
1A4
330
1F
100
AcDbEntity
  8
0
  6
Continuous
 62
     7
370
    25
100
AcDbSpline
210
0.0
220
0.0
230
1.0
 70
     8
 71
     3
 72
    16
 73
    12
 74
     0
 42
0.000000001
 43
0.00000001
 40
0.0
 40
0.0
 40
0.0
 40
0.0
 40
0.2499999999999999
 40
0.2499999999999999
 40
0.3749999999999998
 40
0.3749999999999998
 40
0.4999999999999999
 40
0.4999999999999999
 40
0.75
 40
0.75
 40
1.0
 40
1.0
 40
1.0
 40
1.0
 10
515.0204474602155
 20
233.6687866222952
 30
0.0
 10
514.7576176530242
 20
253.9953208783338
 30
0.0
 10
514.5347778796196
 20
274.3476179977059
 30
0.0
 10
514.270828600081
 20
304.9170566962962
 30
0.0
 10
514.1944867091217
 20
315.1144935745357
 30
0.0
 10
514.0654164272895
 20
335.5081961054821
 30
0.0
 10
514.0126666702619
 20
345.7062687831923
 30
0.0
 10
513.8880902416668
 20
376.3042837398087
 30
0.0
 10
513.8493857834331
 20
396.7080468988038
 30
0.0
 10
513.8493572609657
 20
437.5261596914128
 30
0.0
 10
513.8880297644437
 20
457.9405095291351
 30
0.0
 10
513.9711788286711
 20
478.3599615908733
 30
0.0
  0
LWPOLYLINE
  5
1A5
330
1F
100
AcDbEntity
  8
0
  6
Continuous
 62
     7
370
    25
100
AcDbPolyline
 90
       14
 70
   128
 43
0.0
 10
545.3590907116
 20
477.1281602016
 10
544.6370996494
 20
477.2574724785
 10
543.562785532
 20
477.3854362002
 10
542.1473242302
 20
477.5107251636
 10
540.4054231901
 20
477.6320355168
 10
538.3552171249
 20
477.7481006614
 10
536.0180295963
 20
477.8577210537
 10
533.4181643982
 20
477.9597493044
 10
530.5826820392
 20
478.0531348816
 10
527.5410570164
 20
478.1368868581
 10
524.3249393959
 20
478.2101558677
 10
520.9677971859
 20
478.27216705
 10
517.5045289059
 20
478.3222722045
 10
513.9711804647
 20
478.3599646917
  0
SPLINE
  5
1A6
330
1F
100
AcDbEntity
  8
0
  6
Continuous
 62
     7
370
    25
100
AcDbSpline
210
0.0
220
0.0
230
1.0
 70
     8
 71
     3
 72
    28
 73
    24
 74
     0
 42
0.000000001
 43
0.00000001
 40
0.0
 40
0.0
 40
0.0
 40
0.0
 40
0.1250000000000063
 40
0.1250000000000063
 40
0.1875000000000053
 40
0.1875000000000053
 40
0.2500000000000044
 40
0.2500000000000044
 40
0.375000000000009
 40
0.375000000000009
 40
0.5000000000000137
 40
0.5000000000000137
 40
0.5625000000000159
 40
0.5625000000000159
 40
0.6250000000000182
 40
0.6250000000000182
 40
0.7500000000000169
 40
0.7500000000000169
 40
0.8125000000000129
 40
0.8125000000000129
 40
0.8750000000000088
 40
0.8750000000000088
 40
1.0
 40
1.0
 40
1.0
 40
1.0
 10
507.5542448086455
 20
226.1886232109344
 30
0.0
 10
508.0482774838571
 20
226.1834101915046
 30
0.0
 10
508.5369670428515
 20
226.2274242376355
 30
0.0
 10
509.2620878642976
 20
226.3663463520634
 30
0.0
 10
509.5034230886251
 20
226.425265326598
 30
0.0
 10
509.974717195769
 20
226.5656456556297
 30
0.0
 10
510.2055153891397
 20
226.6471660529232
 30
0.0
 10
510.8836513414623
 20
226.9250449088599
 30
0.0
 10
511.3184660680362
 20
227.1554504565556
 30
0.0
 10
512.1417578701717
 20
227.7044177680949
 30
0.0
 10
512.5197169536946
 20
228.0155047488085
 30
0.0
 10
513.0378058854529
 20
228.5352141804004
 30
0.0
 10
513.2022991905995
 20
228.7173638553803
 30
0.0
 10
513.5144129061571
 20
229.0999969009229
 30
0.0
 10
513.6613347164204
 20
229.2998680342073
 30
0.0
 10
514.0671066449662
 20
229.9136036526778
 30
0.0
 10
514.2946773260779
 20
230.3454493817592
 30
0.0
 10
514.5715015830185
 20
231.0273116963959
 30
0.0
 10
514.6532790300132
 20
231.2616791606769
 30
0.0
 10
514.791773472038
 20
231.7334654886256
 30
0.0
 10
514.8487809768418
 20
231.9711713781968
 30
0.0
 10
514.9840194555388
 20
232.6895884815279
 30
0.0
 10
515.0268252488637
 20
233.1755459932506
 30
0.0
 10
515.0204474602157
 20
233.668786622295
 30
0.0
  0
SPLINE
  5
1A7
330
1F
100
AcDbEntity
  8
0
  6
Continuous
 62
     7
370
    25
100
AcDbSpline
210
0.0
220
0.0
230
1.0
 70
     8
 71
     3
 72
    28
 73
    24
 74
     0
 42
0.000000001
 43
0.00000001
 40
0.0
 40
0.0
 40
0.0
 40
0.0
 40
0.1249999999999997
 40
0.1249999999999997
 40
0.1875000000000016
 40
0.1875000000000016
 40
0.2500000000000035
 40
0.2500000000000035
 40
0.3750000000000047
 40
0.3750000000000047
 40
0.5000000000000058
 40
0.5000000000000058
 40
0.5625000000000089
 40
0.5625000000000089
 40
0.6250000000000121
 40
0.6250000000000121
 40
0.7500000000000124
 40
0.7500000000000124
 40
0.8125000000000113
 40
0.8125000000000113
 40
0.8750000000000103
 40
0.8750000000000103
 40
1.0
 40
1.0
 40
1.0
 40
1.0
 10
194.3259676341235
 20
233.668786622295
 30
0.0
 10
194.3195898745918
 20
233.1755482450272
 30
0.0
 10
194.3623736902449
 20
232.6875779931492
 30
0.0
 10
194.49929725779
 20
231.9634193543532
 30
0.0
 10
194.5575368347382
 20
231.7222920915613
 30
0.0
 10
194.6966526121342
 20
231.2510726667013
 30
0.0
 10
194.7775422306835
 20
231.0202966816548
 30
0.0
 10
195.0535141795413
 20
230.3421748520689
 30
0.0
 10
195.2823463923649
 20
229.9077094400386
 30
0.0
 10
195.8292541424057
 20
229.0831312620114
 30
0.0
 10
196.1394089156533
 20
228.7044531336182
 30
0.0
 10
196.657831816861
 20
228.1851485270211
 30
0.0
 10
196.8395715009837
 20
228.0202270468408
 30
0.0
 10
197.2214181413526
 20
227.7072050101481
 30
0.0
 10
197.4211296597127
 20
227.5596417076113
 30
0.0
 10
198.0344017438526
 20
227.1520443208903
 30
0.0
 10
198.4660933194677
 20
226.923232516983
 30
0.0
 10
199.1479539847353
 20
226.6445037754997
 30
0.0
 10
199.3823722193504
 20
226.5620732511828
 30
0.0
 10
199.854505606656
 20
226.4222477201824
 30
0.0
 10
200.0924210164156
 20
226.3645892437029
 30
0.0
 10
200.8115716680078
 20
226.227438296965
 30
0.0
 10
201.2981570465142
 20
226.1834103965931
 30
0.0
 10
201.7921702856937
 20
226.1886232109344
 30
0.0
  0
LWPOLYLINE
  5
1A8
330
1F
100
AcDbEntity
  8
0
  6
Continuous
 62
     7
370
    25
100
AcDbPolyline
 90
       14
 70
   128
 43
0.0
 10
333.8344626088
 20
516.5712731114
 10
333.7747182656
 20
515.7919125787
 10
333.7156239856
 20
514.6443294517
 10
333.6578261066
 20
513.1410407058
 10
333.6019542028
 20
511.2984376184
 10
333.5486192215
 20
509.1366218558
 10
333.4984023083
 20
506.6791670552
 10
333.4518510808
 20
503.9528804055
 10
333.409474041
 20
500.9875046245
 10
333.3717312623
 20
497.815390133
 10
333.339036252
 20
494.4711225263
 10
333.3117447753
 20
490.991194748
 10
333.2901548554
 20
487.4135451547
 10
333.2745030482
 20
483.7772147885
  0
SPLINE
  5
1A9
330
1F
100
AcDbEntity
  8
0
  6
Continuous
 62
     7
370
    25
100
AcDbSpline
210
0.0
220
0.0
230
1.0
 70
     8
 71
     3
 72
    12
 73
     8
 74
     0
 42
0.000000001
 43
0.00000001
 40
0.0
 40
0.0
 40
0.0
 40
0.0
 40
0.2500000000000001
 40
0.2500000000000001
 40
0.5
 40
0.5
 40
1.0
 40
1.0
 40
1.0
 40
1.0
 10
333.2745023950818
 20
483.7772095223089
 30
0.0
 10
322.2808678536915
 20
483.7727108299887
 30
0.0
 10
311.2929922909191
 20
483.7726721345867
 30
0.0
 10
289.3269752708204
 20
483.8169370896018
 30
0.0
 10
278.3488090214406
 20
483.8602770758974
 30
0.0
 10
245.4270535742754
 20
484.0540141343496
 30
0.0
 10
223.4960978510922
 20
484.2653104258212
 30
0.0
 10
201.5804019282147
 20
484.5330282349142
 30
0.0
  0
LWPOLYLINE
  5
1AA
330
1F
100
AcDbEntity
  8
0
  6
Continuous
 62
     7
370
    25
100
AcDbPolyline
 90
       14
 70
   128
 43
0.0
 10
204.6732015867
 20
517.761518263
 10
204.3395794887
 20
517.0037644139
 10
204.0096975822
 20
515.8654945127
 10
203.6872811575
 20
514.3595235578
 10
203.3759511967
 20
512.5027792684
 10
203.0792094726
 20
510.3161381713
 10
202.8003938455
 20
507.8242169848
 10
202.5426484604
 20
505.0550298921
 10
202.3088641424
 20
502.0397054187
 10
202.101663496
 20
498.8121735087
 10
201.9234009046
 20
495.4087333909
 10
201.7760582228
 20
491.8676661483
 10
201.6612894792
 20
488.2287876836
 10
201.5804059763
 20
484.5330314866
  0
LWPOLYLINE
  5
1AB
330
1F
100
AcDbEntity
  8
0
  6
Continuous
 62
     7
370
    25
100
AcDbPolyline
 90
       14
 70
   128
 43
0.0
 10
504.6732135076
 20
517.761518263
 10
505.0068356056
 20
517.0037644139
 10
505.3367175121
 20
515.8654945127
 10
505.6591339369
 20
514.3595235578
 10
505.9704638977
 20
512.5027792684
 10
506.2672056217
 20
510.3161381713
 10
506.5460212488
 20
507.8242169848
 10
506.803766634
 20
505.0550298921
 10
507.0375509519
 20
502.0397054187
 10
507.2447515983
 20
498.8121735087
 10
507.4230141897
 20
495.4087333909
 10
507.5703568716
 20
491.8676661483
 10
507.6851256151
 20
488.2287876836
 10
507.7660091181
 20
484.5330314866
  0
SPLINE
  5
1AC
330
1F
100
AcDbEntity
  8
0
  6
Continuous
 62
     7
370
    25
100
AcDbSpline
210
0.0
220
0.0
230
1.0
 70
     8
 71
     3
 72
    12
 73
     8
 74
     0
 42
0.000000001
 43
0.00000001
 40
0.0
 40
0.0
 40
0.0
 40
0.0
 40
0.5000000000000002
 40
0.5000000000000002
 40
0.7500000000000001
 40
0.7500000000000001
 40
1.0
 40
1.0
 40
1.0
 40
1.0
 10
507.7660131661249
 20
484.5330282349142
 30
0.0
 10
485.8573483309993
 20
484.2653963161993
 30
0.0
 10
463.9302159589412
 20
484.0541058824521
 30
0.0
 10
431.008845094149
 20
483.8603292894695
 30
0.0
 10
420.0299095084986
 20
483.8169688861688
 30
0.0
 10
398.060301471208
 20
483.7726753061044
 30
0.0
 10
387.0695990613992
 20
483.7727091719478
 30
0.0
 10
376.0719126992677
 20
483.7772095223089
 30
0.0
  0
LWPOLYLINE
  5
1AD
330
1F
100
AcDbEntity
  8
0
  6
Continuous
 62
     7
370
    25
100
AcDbPolyline
 90
       14
 70
   128
 43
0.0
 10
375.5119524855
 20
516.5712731114
 10
375.5716968287
 20
515.7919125787
 10
375.6307911087
 20
514.6443294517
 10
375.6885889877
 20
513.1410407058
 10
375.7444608916
 20
511.2984376184
 10
375.7977958728
 20
509.1366218558
 10
375.848012786
 20
506.6791670552
 10
375.8945640136
 20
503.9528804055
 10
375.9369410534
 20
500.9875046245
 10
375.974683832
 20
497.815390133
 10
376.0073788423
 20
494.4711225263
 10
376.0346703191
 20
490.991194748
 10
376.056260239
 20
487.4135451547
 10
376.0719120462
 20
483.7772147885
  0
SPLINE
  5
1AE
330
1F
100
AcDbEntity
  8
0
  6
Continuous
 62
     7
370
    25
100
AcDbSpline
210
0.0
220
0.0
230
1.0
 70
     8
 71
     3
 72
    26
 73
    22
 74
     0
 42
0.000000001
 43
0.00000001
 40
0.0
 40
0.0
 40
0.0
 40
0.0
 40
0.1250000000000011
 40
0.1250000000000011
 40
0.1875000000000016
 40
0.1875000000000016
 40
0.2500000000000021
 40
0.2500000000000021
 40
0.3750000000000063
 40
0.3750000000000063
 40
0.500000000000007
 40
0.500000000000007
 40
0.6250000000000077
 40
0.6250000000000077
 40
0.7500000000000083
 40
0.7500000000000083
 40
0.8125000000000067
 40
0.8125000000000067
 40
0.875000000000005
 40
0.875000000000005
 40
1.0
 40
1.0
 40
1.0
 40
1.0
 10
513.9711788286711
 20
478.3599615908733
 30
0.0
 10
513.9728475685795
 20
478.769764814507
 30
0.0
 10
513.9339378413514
 20
479.1749574378681
 30
0.0
 10
513.8154242266147
 20
479.7759119601075
 30
0.0
 10
513.7656107123415
 20
479.9754131272359
 30
0.0
 10
513.6476741017116
 20
480.3645967117467
 30
0.0
 10
513.5794099415454
 20
480.5552295055207
 30
0.0
 10
513.3472163110384
 20
481.1154580503098
 30
0.0
 10
513.154764675781
 20
481.4755441224523
 30
0.0
 10
512.6994810808959
 20
482.1542048767945
 30
0.0
 10
512.4417863190769
 20
482.4660309367405
 30
0.0
 10
511.8680285688957
 20
483.0362643320863
 30
0.0
 10
511.5479628090706
 20
483.2968131567847
 30
0.0
 10
510.8717161801038
 20
483.743390109615
 30
0.0
 10
510.5147765350415
 20
483.9314768604719
 30
0.0
 10
509.9509736226851
 20
484.1604866944177
 30
0.0
 10
509.7571834329404
 20
484.2281688935689
 30
0.0
 10
509.367230482049
 20
484.3428162997959
 30
0.0
 10
509.170699182018
 20
484.3900626647518
 30
0.0
 10
508.5765501977783
 20
484.5022770689376
 30
0.0
 10
508.1744232338737
 20
484.5380172915672
 30
0.0
 10
507.7660131661251
 20
484.5330282349142
 30
0.0
  0
SPLINE
  5
1AF
330
1F
100
AcDbEntity
  8
0
  6
Continuous
 62
     7
370
    25
100
AcDbSpline
210
0.0
220
0.0
230
1.0
 70
     8
 71
     3
 72
    26
 73
    22
 74
     0
 42
0.000000001
 43
0.00000001
 40
0.0
 40
0.0
 40
0.0
 40
0.0
 40
0.1249999999999913
 40
0.1249999999999913
 40
0.1874999999999915
 40
0.1874999999999915
 40
0.2499999999999917
 40
0.2499999999999917
 40
0.3749999999999926
 40
0.3749999999999926
 40
0.4999999999999936
 40
0.4999999999999936
 40
0.6249999999999944
 40
0.6249999999999944
 40
0.7499999999999989
 40
0.7499999999999989
 40
0.8124999999999992
 40
0.8124999999999992
 40
0.8749999999999996
 40
0.8749999999999996
 40
1.0
 40
1.0
 40
1.0
 40
1.0
 10
201.5804019282147
 20
484.533028234914
 30
0.0
 10
201.1720154876931
 20
484.5380170029415
 30
0.0
 10
200.7680245135493
 20
484.502299352586
 30
0.0
 10
200.1685398330888
 20
484.3885186429665
 30
0.0
 10
199.9691882866905
 20
484.3402151997947
 30
0.0
 10
199.580017970093
 20
484.2251050928998
 30
0.0
 10
199.3893655346045
 20
484.1582057437408
 30
0.0
 10
198.8289792309218
 20
483.9300151203973
 30
0.0
 10
198.4692116183253
 20
483.7405115798583
 30
0.0
 10
197.7881764010709
 20
483.2892646227116
 30
0.0
 10
197.4750328677218
 20
483.0333355203534
 30
0.0
 10
196.9017673525141
 20
482.4627784396865
 30
0.0
 10
196.6393920340676
 20
482.1441153495292
 30
0.0
 10
196.1882190104342
 20
481.4692480070635
 30
0.0
 10
195.9976787390799
 20
481.1127135423645
 30
0.0
 10
195.7646732064859
 20
480.5491323302736
 30
0.0
 10
195.6955868462103
 20
480.3553331816886
 30
0.0
 10
195.5780053865466
 20
479.9649723480496
 30
0.0
 10
195.5292644895322
 20
479.7681554661318
 30
0.0
 10
195.4124761454227
 20
479.1729118940044
 30
0.0
 10
195.3735676252684
 20
478.7697403775333
 30
0.0
 10
195.3752362656681
 20
478.3599615908738
 30
0.0
  0
ARC
  5
1B0
330
1F
100
AcDbEntity
  8
0
  6
Continuous
 62
     7
370
    25
100
AcDbCircle
 10
354.6732075472
 20
417.1281628839
 30
0.0
 40
70.0
100
AcDbArc
 50
107.8000290607
 51
72.1999709393
  0
SPLINE
  5
1B1
330
1F
100
AcDbEntity
  8
0
  6
Continuous
 62
     7
370
    25
100
AcDbSpline
210
0.0
220
0.0
230
1.0
 70
     8
 71
     3
 72
     8
 73
     4
 74
     0
 42
0.000000001
 43
0.00000001
 40
0.0
 40
0.0
 40
0.0
 40
0.0
 40
1.0
 40
1.0
 40
1.0
 40
1.0
 10
376.0719126992703
 20
483.7772095223087
 30
0.0
 10
369.9137432861314
 20
483.8082548412294
 30
0.0
 10
363.7555738729897
 20
483.8302418914366
 30
0.0
 10
357.5974044598508
 20
483.835355184014
 30
0.0
  0
SPLINE
  5
1B2
330
1F
100
AcDbEntity
  8
0
  6
Continuous
 62
     7
370
    25
100
AcDbSpline
210
0.0
220
0.0
230
1.0
 70
     8
 71
     3
 72
     8
 73
     4
 74
     0
 42
0.000000001
 43
0.00000001
 40
0.0
 40
0.0
 40
0.0
 40
0.0
 40
1.0
 40
1.0
 40
1.0
 40
1.0
 10
351.749010634507
 20
483.835355184014
 30
0.0
 10
353.698475242955
 20
483.9141938035668
 30
0.0
 10
355.6479398514029
 20
483.9141938035661
 30
0.0
 10
357.5974044598508
 20
483.8353551840128
 30
0.0
  0
SPLINE
  5
1B3
330
1F
100
AcDbEntity
  8
0
  6
Continuous
 62
     7
370
    25
100
AcDbSpline
210
0.0
220
0.0
230
1.0
 70
     8
 71
     3
 72
     8
 73
     4
 74
     0
 42
0.000000001
 43
0.00000001
 40
0.0
 40
0.0
 40
0.0
 40
0.0
 40
1.0
 40
1.0
 40
1.0
 40
1.0
 10
351.7490106345071
 20
483.835355184014
 30
0.0
 10
345.5908412213653
 20
483.8302418914366
 30
0.0
 10
339.4326718082219
 20
483.8082548412294
 30
0.0
 10
333.2745023950802
 20
483.7772095223087
 30
0.0
  0
ARC
  5
1B4
330
1F
100
AcDbEntity
  8
0
  6
Continuous
 62
     7
370
    25
100
AcDbCircle
 10
354.6732075472
 20
417.1281628839
 30
0.0
 40
66.77125453482492
100
AcDbArc
 50
92.5100283872
 51
87.4899716128
  0
SPLINE
  5
1B5
330
1F
100
AcDbEntity
  8
0
  6
Continuous
 62
     7
370
    25
100
AcDbSpline
210
0.0
220
0.0
230
1.0
 70
     8
 71
     3
 72
     8
 73
     4
 74
     0
 42
0.000000001
 43
0.00000001
 40
0.0
 40
0.0
 40
0.0
 40
0.0
 40
1.0
 40
1.0
 40
1.0
 40
1.0
 10
357.5702761447469
 20
483.2165002346229
 30
0.0
 10
355.6388970797007
 20
483.3011647588591
 30
0.0
 10
353.7075180146529
 20
483.3011647588024
 30
0.0
 10
351.7761389496083
 20
483.2165002345678
 30
0.0
  0
LWPOLYLINE
  5
1B6
330
1F
100
AcDbEntity
  8
0
  6
Continuous
 62
     7
370
    25
100
AcDbPolyline
 90
        9
 70
   128
 43
0.0
 10
351.7490106594
 20
483.8353591195
 10
351.7524428159
 20
483.7570535174
 10
351.7558677547
 20
483.6789267293
 10
351.7592833802
 20
483.6010085574
 10
351.7626873642
 20
483.5233586064
 10
351.7660771456
 20
483.446036481
 10
351.7694506288
 20
483.3690719834
 10
351.7728052527
 20
483.2925545207
 10
351.7761389219
 20
483.216498994
  0
LWPOLYLINE
  5
1B7
330
1F
100
AcDbEntity
  8
0
  6
Continuous
 62
     7
370
    25
100
AcDbPolyline
 90
        9
 70
   128
 43
0.0
 10
357.5702761725
 20
483.216498994
 10
357.5736098416
 20
483.2925545207
 10
357.5769644656
 20
483.3690719834
 10
357.5803379488
 20
483.446036481
 10
357.5837277301
 20
483.5233586064
 10
357.5871317141
 20
483.6010085574
 10
357.5905473396
 20
483.6789267293
 10
357.5939722784
 20
483.7570535174
 10
357.5974044349
 20
483.8353591195
  0
CIRCLE
  5
1B8
330
1F
100
AcDbEntity
  8
0
  6
Continuous
 62
     7
370
    25
100
AcDbCircle
 10
354.6732075472
 20
417.1281628839
 30
0.0
 40
58.61177143234625
  0
ARC
  5
1B9
330
1F
100
AcDbEntity
  8
0
  6
Continuous
 62
     7
370
    25
100
AcDbCircle
 10
354.6732075472
 20
417.1281628839
 30
0.0
 40
66.15180526824545
100
AcDbArc
 50
92.5100283872
 51
87.4899716128
  0
CIRCLE
  5
1BA
330
1F
100
AcDbEntity
  8
0
  6
Continuous
 62
     7
370
    25
100
AcDbCircle
 10
354.6732075472
 20
417.1281628839
 30
0.0
 40
57.50000000000006
  0
LINE
  5
1BB
330
1F
100
AcDbEntity
  8
0
  6
Continuous
 62
     8
370
    25
100
AcDbLine
 10
370.699995007
 20
429.1734593144
 30
0.0
 11
371.215455975
 21
428.4551711908
 31
0.0
  0
LWPOLYLINE
  5
1BC
330
1F
100
AcDbEntity
  8
0
  6
Continuous
 62
     8
370
    25
100
AcDbPolyline
 90
        3
 70
   128
 43
0.0
 10
374.1356961388
 20
421.9405027262
 10
374.1720177193
 20
421.7911558381
 10
374.4901854504
 20
420.1669963232
  0
LINE
  5
1BD
330
1F
100
AcDbEntity
  8
0
  6
Continuous
 62
     8
370
    25
100
AcDbLine
 10
374.3295621086
 20
413.1816709569
 30
0.0
 11
373.8983988721
 21
411.4414164952
 31
0.0
  0
LWPOLYLINE
  5
1BE
330
1F
100
AcDbEntity
  8
0
  6
Continuous
 62
     8
370
    25
100
AcDbPolyline
 90
        3
 70
   128
 43
0.0
 10
370.6771440763
 20
405.0525212816
 10
369.7273114655
 20
403.8872802785
 10
369.3971706514
 20
403.5211065939
  0
LWPOLYLINE
  5
1BF
330
1F
100
AcDbEntity
  8
0
  6
Continuous
 62
     8
370
    25
100
AcDbPolyline
 90
        3
 70
   128
 43
0.0
 10
363.685331117
 20
399.2192642919
 10
363.2058192004
 20
398.9859009317
 10
362.0429535356
 20
398.4832214347
  0
LINE
  5
1C0
330
1F
100
AcDbEntity
  8
0
  6
Continuous
 62
     8
370
    25
100
AcDbLine
 10
355.2000237821
 20
397.0864685408
 30
0.0
 11
353.4155126388
 21
397.1190350286
 31
0.0
  0
LINE
  5
1C1
330
1F
100
AcDbEntity
  8
0
  6
Continuous
 62
     8
370
    25
100
AcDbLine
 10
346.4583361481
 20
398.8398360244
 30
0.0
 11
344.8498424102
 21
399.6510775915
 31
0.0
  0
LINE
  5
1C2
330
1F
100
AcDbEntity
  8
0
  6
Continuous
 62
     8
370
    25
100
AcDbLine
 10
339.3385520164
 20
404.2132320038
 30
0.0
 11
338.6464200873
 21
405.0828674963
 31
0.0
  0
LINE
  5
1C3
330
1F
100
AcDbEntity
  8
0
  6
Continuous
 62
     8
370
    25
100
AcDbLine
 10
338.6464200873
 20
405.0828674963
 30
0.0
 11
338.1309591193
 21
405.80115562
 31
0.0
  0
LWPOLYLINE
  5
1C4
330
1F
100
AcDbEntity
  8
0
  6
Continuous
 62
     8
370
    25
100
AcDbPolyline
 90
        3
 70
   128
 43
0.0
 10
335.2525241632
 20
412.1497953466
 10
335.1743973751
 20
412.4651709727
 10
334.8562296439
 20
414.0893342129
  0
LINE
  5
1C5
330
1F
100
AcDbEntity
  8
0
  6
Continuous
 62
     8
370
    25
100
AcDbLine
 10
335.0168529857
 20
421.0746558538
 30
0.0
 11
335.4504506994
 21
422.8231357566
 31
0.0
  0
LWPOLYLINE
  5
1C6
330
1F
100
AcDbEntity
  8
0
  6
Continuous
 62
     8
370
    25
100
AcDbPolyline
 90
        3
 70
   128
 43
0.0
 10
338.669271018
 20
429.2038055292
 10
339.6191036288
 20
430.3690465323
 10
339.949244443
 20
430.7352202168
  0
LWPOLYLINE
  5
1C7
330
1F
100
AcDbEntity
  8
0
  6
Continuous
 62
     8
370
    25
100
AcDbPolyline
 90
        3
 70
   128
 43
0.0
 10
345.4956978519
 20
434.9528746835
 10
346.140595894
 20
435.2704258791
 10
347.3034615588
 20
435.7731091014
  0
LINE
  5
1C8
330
1F
100
AcDbEntity
  8
0
  6
Continuous
 62
     8
370
    25
100
AcDbLine
 10
354.1463913122
 20
437.1698545447
 30
0.0
 11
355.9309024556
 21
437.1372955075
 31
0.0
  0
LINE
  5
1C9
330
1F
100
AcDbEntity
  8
0
  6
Continuous
 62
     8
370
    25
100
AcDbLine
 10
362.8880789463
 20
435.4164945117
 30
0.0
 11
364.4965726842
 21
434.6052529446
 31
0.0
  0
LINE
  5
1CA
330
1F
100
AcDbEntity
  8
0
  6
Continuous
 62
     8
370
    25
100
AcDbLine
 10
370.0078630779
 20
430.0430910817
 30
0.0
 11
370.699995007
 21
429.1734593144
 31
0.0
  0
LINE
  5
1CB
330
1F
100
AcDbEntity
  8
0
  6
Continuous
 62
     8
370
    25
100
AcDbLine
 10
371.186601739
 20
429.5391785136
 30
0.0
 11
370.4729180742
 21
430.4358558885
 31
0.0
  0
LINE
  5
1CC
330
1F
100
AcDbEntity
  8
0
  6
Continuous
 62
     8
370
    25
100
AcDbLine
 10
364.9615447928
 20
435.0411640636
 30
0.0
 11
363.1426941563
 21
435.9694244495
 31
0.0
  0
LWPOLYLINE
  5
1CD
330
1F
100
AcDbEntity
  8
0
  6
Continuous
 62
     8
370
    25
100
AcDbPolyline
 90
        3
 70
   128
 43
0.0
 10
356.163396659
 20
437.7316804758
 10
354.8796033417
 20
437.7844678393
 10
354.1299293126
 20
437.7783509127
  0
LWPOLYLINE
  5
1CE
330
1F
100
AcDbEntity
  8
0
  6
Continuous
 62
     8
370
    25
100
AcDbPolyline
 90
        3
 70
   128
 43
0.0
 10
347.0811488066
 20
436.3397779099
 10
346.9590673182
 20
436.2910809151
 10
345.217033099
 20
435.4940625063
  0
LWPOLYLINE
  5
1CF
330
1F
100
AcDbEntity
  8
0
  6
Continuous
 62
     8
370
    25
100
AcDbPolyline
 90
        3
 70
   128
 43
0.0
 10
339.5012401004
 20
431.1473267308
 10
338.4111065377
 20
429.8666687838
 10
338.1842885126
 20
429.5716779462
  0
LWPOLYLINE
  5
1D0
330
1F
100
AcDbEntity
  8
0
  6
Continuous
 62
     8
370
    25
100
AcDbPolyline
 90
        3
 70
   128
 43
0.0
 10
334.9189914722
 20
423.1693940393
 10
334.7741689492
 20
422.6737739674
 10
334.4201639254
 20
421.1950721375
  0
LINE
  5
1D1
330
1F
100
AcDbEntity
  8
0
  6
Continuous
 62
     8
370
    25
100
AcDbLine
 10
334.2547126074
 20
413.9959858886
 30
0.0
 11
334.6623692621
 21
412.000608646
 31
0.0
  0
LINE
  5
1D2
330
1F
100
AcDbEntity
  8
0
  6
Continuous
 62
     8
370
    25
100
AcDbLine
 10
337.6299709041
 20
405.4553928009
 30
0.0
 11
338.1598133553
 21
404.7171482972
 31
0.0
  0
LINE
  5
1D3
330
1F
100
AcDbEntity
  8
0
  6
Continuous
 62
     8
370
    25
100
AcDbLine
 10
338.1598133553
 20
404.7171482972
 30
0.0
 11
338.8734970201
 21
403.8204709223
 31
0.0
  0
LINE
  5
1D4
330
1F
100
AcDbEntity
  8
0
  6
Continuous
 62
     8
370
    25
100
AcDbLine
 10
344.3848703016
 20
399.2151627472
 30
0.0
 11
346.2037209381
 21
398.286898636
 31
0.0
  0
LWPOLYLINE
  5
1D5
330
1F
100
AcDbEntity
  8
0
  6
Continuous
 62
     8
370
    25
100
AcDbPolyline
 90
        3
 70
   128
 43
0.0
 10
353.1830184354
 20
396.5246500603
 10
354.4668117526
 20
396.4718589715
 10
355.2164857817
 20
396.4779721728
  0
LWPOLYLINE
  5
1D6
330
1F
100
AcDbEntity
  8
0
  6
Continuous
 62
     8
370
    25
100
AcDbPolyline
 90
        3
 70
   128
 43
0.0
 10
362.2652662877
 20
397.9165489009
 10
362.3873477761
 20
397.9652421704
 10
364.1293819953
 20
398.7622643045
  0
LWPOLYLINE
  5
1D7
330
1F
100
AcDbEntity
  8
0
  6
Continuous
 62
     8
370
    25
100
AcDbPolyline
 90
        3
 70
   128
 43
0.0
 10
369.845174994
 20
403.10900008
 10
370.9353085567
 20
404.389658027
 10
371.1621265818
 20
404.6846488646
  0
LWPOLYLINE
  5
1D8
330
1F
100
AcDbEntity
  8
0
  6
Continuous
 62
     8
370
    25
100
AcDbPolyline
 90
        3
 70
   128
 43
0.0
 10
374.4274236221
 20
411.0869327715
 10
374.5722461451
 20
411.5825565687
 10
374.9262511689
 20
413.0612583986
  0
LINE
  5
1D9
330
1F
100
AcDbEntity
  8
0
  6
Continuous
 62
     8
370
    25
100
AcDbLine
 10
375.091702487
 20
420.2603371969
 30
0.0
 11
374.6840458323
 21
422.2557144395
 31
0.0
  0
LINE
  5
1DA
330
1F
100
AcDbEntity
  8
0
  6
Continuous
 62
     8
370
    25
100
AcDbLine
 10
371.7164441902
 20
428.8009302846
 30
0.0
 11
371.186601739
 21
429.5391785136
 31
0.0
  0
LINE
  5
1DB
330
1F
100
AcDbEntity
  8
0
  6
Continuous
 62
     8
370
    25
100
AcDbLine
 10
372.2959838767
 20
430.3729580871
 30
0.0
 11
371.5360712219
 21
431.3278393975
 31
0.0
  0
LINE
  5
1DC
330
1F
100
AcDbEntity
  8
0
  6
Continuous
 62
     8
370
    25
100
AcDbLine
 10
365.6519817148
 20
436.2449990741
 30
0.0
 11
363.7105429504
 21
437.2357102266
 31
0.0
  0
LWPOLYLINE
  5
1DD
330
1F
100
AcDbEntity
  8
0
  6
Continuous
 62
     8
370
    25
100
AcDbPolyline
 90
        3
 70
   128
 43
0.0
 10
356.2640898587
 20
439.115797185
 10
354.8934691778
 20
439.1721757284
 10
354.0966295247
 20
439.1657309762
  0
LWPOLYLINE
  5
1DE
330
1F
100
AcDbEntity
  8
0
  6
Continuous
 62
     8
370
    25
100
AcDbPolyline
 90
        3
 70
   128
 43
0.0
 10
346.5642489452
 20
437.6277150742
 10
346.440825421
 20
437.5784667364
 10
344.5883689408
 20
436.7312984696
  0
LWPOLYLINE
  5
1DF
330
1F
100
AcDbEntity
  8
0
  6
Continuous
 62
     8
370
    25
100
AcDbPolyline
 90
        3
 70
   128
 43
0.0
 10
338.4783573408
 20
432.0852281681
 10
337.318605553
 20
430.7224499217
 10
337.0780169923
 20
430.4095851413
  0
LWPOLYLINE
  5
1E0
330
1F
100
AcDbEntity
  8
0
  6
Continuous
 62
     8
370
    25
100
AcDbPolyline
 90
        3
 70
   128
 43
0.0
 10
333.5933264304
 20
423.5799433819
 10
333.4373373498
 20
423.046325349
 10
333.0578401644
 20
421.4597689143
  0
LINE
  5
1E1
330
1F
100
AcDbEntity
  8
0
  6
Continuous
 62
     8
370
    25
100
AcDbLine
 10
332.8823380132
 20
413.7897575429
 30
0.0
 11
333.3167776425
 21
411.6610074571
 31
0.0
  0
LINE
  5
1E2
330
1F
100
AcDbEntity
  8
0
  6
Continuous
 62
     8
370
    25
100
AcDbLine
 10
336.4888064523
 20
404.6656424335
 30
0.0
 11
337.0504312177
 21
403.8833649984
 31
0.0
  0
LINE
  5
1E3
330
1F
100
AcDbEntity
  8
0
  6
Continuous
 62
     8
370
    25
100
AcDbLine
 10
337.0504312177
 20
403.8833649984
 30
0.0
 11
337.8103438724
 21
402.9284874133
 31
0.0
  0
LINE
  5
1E4
330
1F
100
AcDbEntity
  8
0
  6
Continuous
 62
     8
370
    25
100
AcDbLine
 10
343.6944333796
 20
398.0113277367
 30
0.0
 11
345.6358721439
 21
397.0206165842
 31
0.0
  0
LWPOLYLINE
  5
1E5
330
1F
100
AcDbEntity
  8
0
  6
Continuous
 62
     8
370
    25
100
AcDbPolyline
 90
        3
 70
   128
 43
0.0
 10
353.0823252356
 20
395.1405296258
 10
354.4529459166
 20
395.0841510824
 10
355.2497855696
 20
395.0905921093
  0
LWPOLYLINE
  5
1E6
330
1F
100
AcDbEntity
  8
0
  6
Continuous
 62
     8
370
    25
100
AcDbPolyline
 90
        3
 70
   128
 43
0.0
 10
362.7821661491
 20
396.6286080113
 10
362.9055896733
 20
396.6778637997
 10
364.7580461536
 20
397.5250283412
  0
LWPOLYLINE
  5
1E7
330
1F
100
AcDbEntity
  8
0
  6
Continuous
 62
     8
370
    25
100
AcDbPolyline
 90
        3
 70
   128
 43
0.0
 10
370.8680577535
 20
402.171102368
 10
372.0278095413
 20
403.5338731638
 10
372.268398102
 20
403.8467416695
  0
LWPOLYLINE
  5
1E8
330
1F
100
AcDbEntity
  8
0
  6
Continuous
 62
     8
370
    25
100
AcDbPolyline
 90
        3
 70
   128
 43
0.0
 10
375.7530886639
 20
410.6763797036
 10
375.9090777446
 20
411.2099977366
 10
376.2885749299
 20
412.7965616218
  0
LINE
  5
1E9
330
1F
100
AcDbEntity
  8
0
  6
Continuous
 62
     8
370
    25
100
AcDbLine
 10
376.4640770812
 20
420.4665692678
 30
0.0
 11
376.0296374519
 21
422.5953193537
 31
0.0
  0
LINE
  5
1EA
330
1F
100
AcDbEntity
  8
0
  6
Continuous
 62
     8
370
    25
100
AcDbLine
 10
372.8576086421
 20
429.5906843773
 30
0.0
 11
372.2959838767
 21
430.3729580871
 31
0.0
  0
LINE
  5
1EB
330
1F
100
AcDbEntity
  8
0
  6
Continuous
 62
     8
370
    25
100
AcDbLine
 10
375.9926695336
 20
433.1512870422
 30
0.0
 11
376.6711883206
 21
432.2062553993
 31
0.0
  0
LWPOLYLINE
  5
1EC
330
1F
100
AcDbEntity
  8
0
  6
Continuous
 62
     8
370
    25
100
AcDbPolyline
 90
        3
 70
   128
 43
0.0
 10
380.5086228956
 20
423.7456666461
 10
380.9161417146
 20
421.8787970177
 10
381.03478476
 20
421.1688684455
  0
LWPOLYLINE
  5
1ED
330
1F
100
AcDbEntity
  8
0
  6
Continuous
 62
     8
370
    25
100
AcDbPolyline
 90
        3
 70
   128
 43
0.0
 10
380.821225043
 20
411.8801849118
 10
380.2568286617
 20
409.5956767133
 10
380.1775973249
 20
409.3316132358
  0
LINE
  5
1EE
330
1F
100
AcDbEntity
  8
0
  6
Continuous
 62
     8
370
    25
100
AcDbLine
 10
375.9542655159
 20
401.0540666214
 30
0.0
 11
374.2699239362
 21
399.0386957458
 31
0.0
  0
LWPOLYLINE
  5
1EF
330
1F
100
AcDbEntity
  8
0
  6
Continuous
 62
     8
370
    25
100
AcDbPolyline
 90
        3
 70
   128
 43
0.0
 10
366.8716436211
 20
393.4119613997
 10
366.7508212809
 20
393.3502035371
 10
364.4821520854
 20
392.3280695609
  0
LWPOLYLINE
  5
1F0
330
1F
100
AcDbEntity
  8
0
  6
Continuous
 62
     8
370
    25
100
AcDbPolyline
 90
        3
 70
   128
 43
0.0
 10
355.3724872024
 20
390.4678719274
 10
354.7946288879
 20
390.4589796594
 10
352.7525300585
 20
390.5279534093
  0
LWPOLYLINE
  5
1F1
330
1F
100
AcDbEntity
  8
0
  6
Continuous
 62
     8
370
    25
100
AcDbPolyline
 90
        3
 70
   128
 43
0.0
 10
343.7347512651
 20
392.8051227859
 10
342.8126059432
 20
393.2412164441
 10
341.4027987007
 20
393.9947160116
  0
LINE
  5
1F2
330
1F
100
AcDbEntity
  8
0
  6
Continuous
 62
     8
370
    25
100
AcDbLine
 10
334.2652980197
 20
399.9590845934
 30
0.0
 11
333.3537455607
 21
401.1050360433
 31
0.0
  0
LINE
  5
1F3
330
1F
100
AcDbEntity
  8
0
  6
Continuous
 62
     8
370
    25
100
AcDbLine
 10
333.3537455607
 20
401.1050360433
 30
0.0
 11
332.6752267737
 21
402.0500676862
 31
0.0
  0
LWPOLYLINE
  5
1F4
330
1F
100
AcDbEntity
  8
0
  6
Continuous
 62
     8
370
    25
100
AcDbPolyline
 90
        3
 70
   128
 43
0.0
 10
328.8377921988
 20
410.5106564394
 10
328.4302733798
 20
412.3775297931
 10
328.3116303344
 20
413.08745464
  0
LWPOLYLINE
  5
1F5
330
1F
100
AcDbEntity
  8
0
  6
Continuous
 62
     8
370
    25
100
AcDbPolyline
 90
        3
 70
   128
 43
0.0
 10
328.5251900513
 20
422.3761381737
 10
329.0895864327
 20
424.6606500975
 10
329.1688177694
 20
424.924713575
  0
LINE
  5
1F6
330
1F
100
AcDbEntity
  8
0
  6
Continuous
 62
     8
370
    25
100
AcDbLine
 10
333.3921495784
 20
433.2022639147
 30
0.0
 11
335.0764911581
 21
435.217631065
 31
0.0
  0
LWPOLYLINE
  5
1F7
330
1F
100
AcDbEntity
  8
0
  6
Continuous
 62
     8
370
    25
100
AcDbPolyline
 90
        3
 70
   128
 43
0.0
 10
342.4747714732
 20
440.8443616859
 10
342.5955938135
 20
440.9061195484
 10
344.8642630089
 20
441.9282572499
  0
LWPOLYLINE
  5
1F8
330
1F
100
AcDbEntity
  8
0
  6
Continuous
 62
     8
370
    25
100
AcDbPolyline
 90
        3
 70
   128
 43
0.0
 10
353.9739278919
 20
443.7884511581
 10
354.5517862064
 20
443.7973471514
 10
356.5938850358
 20
443.7283696762
  0
LWPOLYLINE
  5
1F9
330
1F
100
AcDbEntity
  8
0
  6
Continuous
 62
     8
370
    25
100
AcDbPolyline
 90
        3
 70
   128
 43
0.0
 10
365.6116638292
 20
441.4512040249
 10
366.5338091512
 20
441.0151066414
 10
367.9436163936
 20
440.2616070739
  0
LINE
  5
1FA
330
1F
100
AcDbEntity
  8
0
  6
Continuous
 62
     8
370
    25
100
AcDbLine
 10
375.0811170746
 20
434.2972384921
 30
0.0
 11
375.9926695336
 21
433.1512870422
 31
0.0
  0
SPLINE
  5
1FB
330
1F
100
AcDbEntity
  8
0
  6
Continuous
 62
     8
370
    25
100
AcDbSpline
210
0.0
220
0.0
230
1.0
 70
     8
 71
     3
 72
     9
 73
     5
 74
     0
 42
0.000000001
 43
0.00000001
 40
0.0
 40
0.0
 40
0.0
 40
0.0
 40
0.4794749458322236
 40
0.9999999999999999
 40
0.9999999999999999
 40
0.9999999999999999
 40
0.9999999999999999
 10
349.2635486606773
 20
424.2409514418621
 30
0.0
 10
348.5451298299481
 20
425.1855512690069
 30
0.0
 10
347.0467849487941
 20
427.1556225633585
 30
0.0
 10
345.5241419815208
 20
429.1576444423436
 30
0.0
 10
344.7315681685027
 20
430.1997469893474
 30
0.0
  0
SPLINE
  5
1FC
330
1F
100
AcDbEntity
  8
0
  6
Continuous
 62
     8
370
    25
100
AcDbSpline
210
0.0
220
0.0
230
1.0
 70
     8
 71
     3
 72
     9
 73
     5
 74
     0
 42
0.000000001
 43
0.00000001
 40
0.0
 40
0.0
 40
0.0
 40
0.0
 40
0.6626739085719271
 40
1.0
 40
1.0
 40
1.0
 40
1.0
 10
364.6148469258364
 20
404.0565835467357
 30
0.0
 10
363.6057000630943
 20
405.383441789088
 30
0.0
 10
362.0828592666052
 20
407.3857210778737
 30
0.0
 10
360.5873430677044
 20
409.3520706336195
 30
0.0
 10
360.0828664336618
 20
410.0153716436405
 30
0.0
  0
SPLINE
  5
1FD
330
1F
100
AcDbEntity
  8
0
  6
Continuous
 62
     8
370
    25
100
AcDbSpline
210
0.0
220
0.0
230
1.0
 70
     8
 71
     3
 72
    12
 73
     8
 74
     0
 42
0.000000001
 43
0.00000001
 40
0.0
 40
0.0
 40
0.0
 40
0.0
 40
0.3049352297878863
 40
0.5250458894216766
 40
0.7557909345474181
 40
0.9865321153347777
 40
1.0
 40
1.0
 40
1.0
 40
1.0
 10
362.1356490027424
 20
413.7293445101757
 30
0.0
 10
362.2359263172948
 20
413.6836728572655
 30
0.0
 10
362.408586563356
 20
413.6050341455617
 30
0.0
 10
362.6219530371479
 20
413.5078556452576
 30
0.0
 10
362.7627216536507
 20
413.4437375252763
 30
0.0
 10
362.8380181483092
 20
413.4094428312657
 30
0.0
 10
362.8443523416391
 20
413.4065617104134
 30
0.0
 10
362.8447016660389
 20
413.4064028194923
 30
0.0
  0
LWPOLYLINE
  5
1FE
330
1F
100
AcDbEntity
  8
0
  6
Continuous
 62
     8
370
    25
100
AcDbPolyline
 90
        3
 70
   128
 43
0.0
 10
352.4714026559
 20
386.5262949995
 10
354.7700558108
 20
386.4473393342
 10
355.4688016145
 20
386.4575037888
  0
LWPOLYLINE
  5
1FF
330
1F
100
AcDbEntity
  8
0
  6
Continuous
 62
     8
370
    25
100
AcDbPolyline
 90
        3
 70
   128
 43
0.0
 10
365.9671803896
 20
388.6015350154
 10
367.6436476369
 20
389.3236676386
 10
368.6960067559
 20
389.839273893
  0
LWPOLYLINE
  5
200
330
1F
100
AcDbEntity
  8
0
  6
Continuous
 62
     8
370
    25
100
AcDbPolyline
 90
        3
 70
   128
 43
0.0
 10
377.2250384052
 20
396.3258275918
 10
378.1196650077
 20
397.3396318189
 10
379.1472602595
 20
398.6256467334
  0
LWPOLYLINE
  5
201
330
1F
100
AcDbEntity
  8
0
  6
Continuous
 62
     8
370
    25
100
AcDbPolyline
 90
        3
 70
   128
 43
0.0
 10
384.0168535669
 20
408.1686558357
 10
384.2616237659
 20
409.0134920708
 10
384.7517918755
 20
411.0782789222
  0
LWPOLYLINE
  5
202
330
1F
100
AcDbEntity
  8
0
  6
Continuous
 62
     8
370
    25
100
AcDbPolyline
 90
        3
 70
   128
 43
0.0
 10
384.9986780394
 20
421.7852177254
 10
384.9341895391
 20
422.1873404614
 10
384.3970585574
 20
424.7317807904
  0
LINE
  5
203
330
1F
100
AcDbEntity
  8
0
  6
Continuous
 62
     8
370
    25
100
AcDbLine
 10
379.9760963727
 20
434.4799937836
 30
0.0
 11
378.1522631604
 21
436.8780004016
 31
0.0
  0
LWPOLYLINE
  5
204
330
1F
100
AcDbEntity
  8
0
  6
Continuous
 62
     8
370
    25
100
AcDbPolyline
 90
        3
 70
   128
 43
0.0
 10
369.9426723603
 20
443.7395455471
 10
367.4678539817
 20
445.01398971
 10
367.2570966143
 20
445.1097296706
  0
LWPOLYLINE
  5
205
330
1F
100
AcDbEntity
  8
0
  6
Continuous
 62
     8
370
    25
100
AcDbPolyline
 90
        3
 70
   128
 43
0.0
 10
356.883916115
 20
447.7293910614
 10
354.5763592835
 20
447.8089856139
 10
353.8709248375
 20
447.7986442081
  0
LWPOLYLINE
  5
206
330
1F
100
AcDbEntity
  8
0
  6
Continuous
 62
     8
370
    25
100
AcDbPolyline
 90
        3
 70
   128
 43
0.0
 10
343.3852799196
 20
445.6571834317
 10
341.7027674575
 20
444.9326591722
 10
340.6446397264
 20
444.4140838614
  0
LWPOLYLINE
  5
207
330
1F
100
AcDbEntity
  8
0
  6
Continuous
 62
     8
370
    25
100
AcDbPolyline
 90
        3
 70
   128
 43
0.0
 10
332.1219615598
 20
437.9311325184
 10
331.2267500866
 20
436.9166912666
 10
330.1964502741
 20
435.6271000734
  0
LWPOLYLINE
  5
208
330
1F
100
AcDbEntity
  8
0
  6
Continuous
 62
     8
370
    25
100
AcDbPolyline
 90
        3
 70
   128
 43
0.0
 10
325.3285407979
 20
426.0843219391
 10
325.0847913284
 20
425.2428310147
 10
324.5944891084
 20
423.1773736111
  0
LWPOLYLINE
  5
209
330
1F
100
AcDbEntity
  8
0
  6
Continuous
 62
     8
370
    25
100
AcDbPolyline
 90
        3
 70
   128
 43
0.0
 10
324.3486572016
 20
412.4651225439
 10
324.4122255553
 20
412.0689863494
 10
324.948143955
 20
409.5292920402
  0
LINE
  5
20A
330
1F
100
AcDbEntity
  8
0
  6
Continuous
 62
     8
370
    25
100
AcDbLine
 10
329.3741762597
 20
399.7707078389
 30
0.0
 11
331.1885993887
 21
397.3849238983
 31
0.0
  0
LWPOLYLINE
  5
20B
330
1F
100
AcDbEntity
  8
0
  6
Continuous
 62
     8
370
    25
100
AcDbPolyline
 90
        3
 70
   128
 43
0.0
 10
339.4087625627
 20
390.513897889
 10
341.8785611127
 20
389.2423371008
 10
342.0818883885
 20
389.1499387256
  0
ENDSEC
  0
SECTION
  2
OBJECTS
  0
DICTIONARY
  5
C
330
0
100
AcDbDictionary
281
     1
  3
ACAD_GROUP
350
D
  3
ACAD_LAYOUT
350
1A
  3
ACAD_MLINESTYLE
350
17
  3
ACAD_PLOTSETTINGS
350
19
  3
ACAD_PLOTSTYLENAME
350
E
  3
ACAD_SCALELIST
350
47
  0
DICTIONARY
  5
D
102
{ACAD_REACTORS
330
C
102
}
330
C
100
AcDbDictionary
281
     1
  0
DICTIONARY
  5
1A
102
{ACAD_REACTORS
330
C
102
}
330
C
100
AcDbDictionary
281
     1
  3
Layout1
350
1E
  3
Layout2
350
26
  3
Model
350
22
  0
DICTIONARY
  5
17
102
{ACAD_REACTORS
330
C
102
}
330
C
100
AcDbDictionary
281
     1
  3
Standard
350
18
  0
DICTIONARY
  5
19
102
{ACAD_REACTORS
330
C
102
}
330
C
100
AcDbDictionary
281
     1
  0
ACDBDICTIONARYWDFLT
  5
E
102
{ACAD_REACTORS
330
C
102
}
330
C
100
AcDbDictionary
281
     1
  3
Normal
350
F
100
AcDbDictionaryWithDefault
340
F
  0
DICTIONARY
  5
47
102
{ACAD_REACTORS
330
C
102
}
330
C
100
AcDbDictionary
281
     1
  3
A0
350
48
  3
A1
350
49
  3
A2
350
4A
  3
A3
350
4B
  3
A4
350
4C
  3
A5
350
4D
  3
A6
350
4E
  3
A7
350
4F
  3
A8
350
50
  3
A9
350
51
  3
B0
350
52
  3
B1
350
53
  3
B2
350
54
  3
B3
350
55
  3
B4
350
56
  3
B5
350
57
  3
B6
350
58
  3
B7
350
59
  3
B8
350
5A
  3
B9
350
5B
  3
C0
350
5C
  3
C1
350
5D
  3
C2
350
5E
  3
C3
350
5F
  3
C4
350
60
  3
C5
350
61
  3
C6
350
62
  3
C7
350
63
  3
C8
350
64
  3
C9
350
65
  3
D0
350
66
  3
D1
350
67
  3
D2
350
68
  0
LAYOUT
  5
1E
102
{ACAD_REACTORS
330
1A
102
}
330
1A
100
AcDbPlotSettings
  1

  2
none_device
  4

  6

 40
0.0
 41
0.0
 42
0.0
 43
0.0
 44
0.0
 45
0.0
 46
0.0
 47
0.0
 48
0.0
 49
0.0
140
0.0
141
0.0
142
1.0
143
1.0
 70
   688
 72
     1
 73
     0
 74
     5
  7

 75
    16
147
1.0
148
0.0
149
0.0
100
AcDbLayout
  1
Layout1
 70
     1
 71
     1
 10
0.0
 20
0.0
 11
420.0
 21
297.0
 12
0.0
 22
0.0
 32
0.0
 14
1.0000000000E+20
 24
1.0000000000E+20
 34
1.0000000000E+20
 15
-1.0000000000E+20
 25
-1.0000000000E+20
 35
-1.0000000000E+20
146
0.0
 13
0.0
 23
0.0
 33
0.0
 16
1.0
 26
0.0
 36
0.0
 17
0.0
 27
1.0
 37
0.0
 76
     0
330
1B
  0
LAYOUT
  5
26
102
{ACAD_REACTORS
330
1A
102
}
330
1A
100
AcDbPlotSettings
  1

  2
none_device
  4

  6

 40
0.0
 41
0.0
 42
0.0
 43
0.0
 44
0.0
 45
0.0
 46
0.0
 47
0.0
 48
0.0
 49
0.0
140
0.0
141
0.0
142
1.0
143
1.0
 70
   688
 72
     1
 73
     0
 74
     5
  7

 75
    16
147
1.0
148
0.0
149
0.0
100
AcDbLayout
  1
Layout2
 70
     1
 71
     2
 10
0.0
 20
0.0
 11
0.0
 21
0.0
 12
0.0
 22
0.0
 32
0.0
 14
0.0
 24
0.0
 34
0.0
 15
0.0
 25
0.0
 35
0.0
146
0.0
 13
0.0
 23
0.0
 33
0.0
 16
1.0
 26
0.0
 36
0.0
 17
0.0
 27
1.0
 37
0.0
 76
     0
330
23
  0
LAYOUT
  5
22
102
{ACAD_REACTORS
330
1A
102
}
330
1A
100
AcDbPlotSettings
  1

  2
none_device
  4
Letter_(8.50_x_11.00_Inches)
  6

 40
6.35
 41
6.35
 42
6.35000508
 43
6.35000508
 44
215.9
 45
279.4
 46
0.0
 47
0.0
 48
0.0
 49
0.0
140
0.0
141
0.0
142
1.0
143
1.0
 70
  1712
 72
     1
 73
     0
 74
     0
  7

 75
     0
147
1.0
148
0.0
149
0.0
100
AcDbLayout
  1
Model
 70
     1
 71
     0
 10
0.0
 20
0.0
 11
700.0
 21
700.0
 12
0.0
 22
0.0
 32
0.0
 14
0.0
 24
0.0
 34
0.0
 15
700.0
 25
700.0
 35
0.0
146
0.0
 13
0.0
 23
0.0
 33
0.0
 16
1.0
 26
0.0
 36
0.0
 17
0.0
 27
1.0
 37
0.0
 76
     0
330
1F
331
29
  0
MLINESTYLE
  5
18
102
{ACAD_REACTORS
330
17
102
}
330
17
100
AcDbMlineStyle
  2
Standard
 70
     0
  3

 62
   256
 51
90.0
 52
90.0
 71
     2
 49
0.5
 62
   256
  6
BYLAYER
 49
-0.5
 62
   256
  6
BYLAYER
  0
ACDBPLACEHOLDER
  5
F
102
{ACAD_REACTORS
330
E
102
}
330
E
  0
SCALE
  5
48
102
{ACAD_REACTORS
330
47
102
}
330
47
100
AcDbScale
 70
     0
300
1:1
140
1.0
141
1.0
290
     1
  0
SCALE
  5
49
102
{ACAD_REACTORS
330
47
102
}
330
47
100
AcDbScale
 70
     0
300
1:2
140
1.0
141
2.0
290
     0
  0
SCALE
  5
4A
102
{ACAD_REACTORS
330
47
102
}
330
47
100
AcDbScale
 70
     0
300
1:4
140
1.0
141
4.0
290
     0
  0
SCALE
  5
4B
102
{ACAD_REACTORS
330
47
102
}
330
47
100
AcDbScale
 70
     0
300
1:5
140
1.0
141
5.0
290
     0
  0
SCALE
  5
4C
102
{ACAD_REACTORS
330
47
102
}
330
47
100
AcDbScale
 70
     0
300
1:8
140
1.0
141
8.0
290
     0
  0
SCALE
  5
4D
102
{ACAD_REACTORS
330
47
102
}
330
47
100
AcDbScale
 70
     0
300
1:10
140
1.0
141
10.0
290
     0
  0
SCALE
  5
4E
102
{ACAD_REACTORS
330
47
102
}
330
47
100
AcDbScale
 70
     0
300
1:16
140
1.0
141
16.0
290
     0
  0
SCALE
  5
4F
102
{ACAD_REACTORS
330
47
102
}
330
47
100
AcDbScale
 70
     0
300
1:20
140
1.0
141
20.0
290
     0
  0
SCALE
  5
50
102
{ACAD_REACTORS
330
47
102
}
330
47
100
AcDbScale
 70
     0
300
1:30
140
1.0
141
30.0
290
     0
  0
SCALE
  5
51
102
{ACAD_REACTORS
330
47
102
}
330
47
100
AcDbScale
 70
     0
300
1:40
140
1.0
141
40.0
290
     0
  0
SCALE
  5
52
102
{ACAD_REACTORS
330
47
102
}
330
47
100
AcDbScale
 70
     0
300
1:50
140
1.0
141
50.0
290
     0
  0
SCALE
  5
53
102
{ACAD_REACTORS
330
47
102
}
330
47
100
AcDbScale
 70
     0
300
1:100
140
1.0
141
100.0
290
     0
  0
SCALE
  5
54
102
{ACAD_REACTORS
330
47
102
}
330
47
100
AcDbScale
 70
     0
300
2:1
140
2.0
141
1.0
290
     0
  0
SCALE
  5
55
102
{ACAD_REACTORS
330
47
102
}
330
47
100
AcDbScale
 70
     0
300
4:1
140
4.0
141
1.0
290
     0
  0
SCALE
  5
56
102
{ACAD_REACTORS
330
47
102
}
330
47
100
AcDbScale
 70
     0
300
8:1
140
8.0
141
1.0
290
     0
  0
SCALE
  5
57
102
{ACAD_REACTORS
330
47
102
}
330
47
100
AcDbScale
 70
     0
300
10:1
140
10.0
141
1.0
290
     0
  0
SCALE
  5
58
102
{ACAD_REACTORS
330
47
102
}
330
47
100
AcDbScale
 70
     0
300
100:1
140
100.0
141
1.0
290
     0
  0
SCALE
  5
59
102
{ACAD_REACTORS
330
47
102
}
330
47
100
AcDbScale
 70
     0
300
1/128" = 1'-0"
140
0.0078125
141
12.0
290
     0
  0
SCALE
  5
5A
102
{ACAD_REACTORS
330
47
102
}
330
47
100
AcDbScale
 70
     0
300
1/64" = 1'-0"
140
0.015625
141
12.0
290
     0
  0
SCALE
  5
5B
102
{ACAD_REACTORS
330
47
102
}
330
47
100
AcDbScale
 70
     0
300
1/32" = 1'-0"
140
0.03125
141
12.0
290
     0
  0
SCALE
  5
5C
102
{ACAD_REACTORS
330
47
102
}
330
47
100
AcDbScale
 70
     0
300
1/16" = 1'-0"
140
0.0625
141
12.0
290
     0
  0
SCALE
  5
5D
102
{ACAD_REACTORS
330
47
102
}
330
47
100
AcDbScale
 70
     0
300
3/32" = 1'-0"
140
0.09375
141
12.0
290
     0
  0
SCALE
  5
5E
102
{ACAD_REACTORS
330
47
102
}
330
47
100
AcDbScale
 70
     0
300
1/8" = 1'-0"
140
0.125
141
12.0
290
     0
  0
SCALE
  5
5F
102
{ACAD_REACTORS
330
47
102
}
330
47
100
AcDbScale
 70
     0
300
3/16" = 1'-0"
140
0.1875
141
12.0
290
     0
  0
SCALE
  5
60
102
{ACAD_REACTORS
330
47
102
}
330
47
100
AcDbScale
 70
     0
300
1/4" = 1'-0"
140
0.25
141
12.0
290
     0
  0
SCALE
  5
61
102
{ACAD_REACTORS
330
47
102
}
330
47
100
AcDbScale
 70
     0
300
3/8" = 1'-0"
140
0.375
141
12.0
290
     0
  0
SCALE
  5
62
102
{ACAD_REACTORS
330
47
102
}
330
47
100
AcDbScale
 70
     0
300
1/2" = 1'-0"
140
0.5
141
12.0
290
     0
  0
SCALE
  5
63
102
{ACAD_REACTORS
330
47
102
}
330
47
100
AcDbScale
 70
     0
300
3/4" = 1'-0"
140
0.75
141
12.0
290
     0
  0
SCALE
  5
64
102
{ACAD_REACTORS
330
47
102
}
330
47
100
AcDbScale
 70
     0
300
1" = 1'-0"
140
1.0
141
12.0
290
     0
  0
SCALE
  5
65
102
{ACAD_REACTORS
330
47
102
}
330
47
100
AcDbScale
 70
     0
300
1-1/2" = 1'-0"
140
1.5
141
12.0
290
     0
  0
SCALE
  5
66
102
{ACAD_REACTORS
330
47
102
}
330
47
100
AcDbScale
 70
     0
300
3" = 1'-0"
140
3.0
141
12.0
290
     0
  0
SCALE
  5
67
102
{ACAD_REACTORS
330
47
102
}
330
47
100
AcDbScale
 70
     0
300
6" = 1'-0"
140
6.0
141
12.0
290
     0
  0
SCALE
  5
68
102
{ACAD_REACTORS
330
47
102
}
330
47
100
AcDbScale
 70
     0
300
1'-0" = 1'-0"
140
12.0
141
12.0
290
     0
  0
ENDSEC
  0
EOF
