  0
SECTION
  2
HEADER
  9
$ACADVER
  1
AC1015
  9
$ACADMAINTVER
 70
     6
  9
$DWGCODEPAGE
  3
ANSI_1252
  9
$INSBASE
 10
0.0
 20
0.0
 30
0.0
  9
$EXTMIN
 10
0.0
 20
0.0
 30
0.0
  9
$EXTMAX
 10
800.0
 20
700.0
 30
0.0
  9
$LIMMIN
 10
0.0
 20
0.0
  9
$LIMMAX
 10
800.0
 20
700.0
  9
$ORTHOMODE
 70
     0
  9
$REGENMODE
 70
     1
  9
$FILLMODE
 70
     1
  9
$QTEXTMODE
 70
     0
  9
$MIRRTEXT
 70
     1
  9
$LTSCALE
 40
1.0
  9
$ATTMODE
 70
     1
  9
$TEXTSIZE
 40
5.0
  9
$TRACEWID
 40
1.0
  9
$TEXTSTYLE
  7
Standard
  9
$CLAYER
  8
0
  9
$CELTYPE
  6
ByLayer
  9
$CECOLOR
 62
   256
  9
$CELTSCALE
 40
1.0
  9
$DISPSILH
 70
     0
  9
$DIMSCALE
 40
1.0
  9
$DIMASZ
 40
6.0
  9
$DIMEXO
 40
1.0
  9
$DIMDLI
 40
3.75
  9
$DIMRND
 40
0.0
  9
$DIMDLE
 40
0.0
  9
$DIMEXE
 40
1.0
  9
$DIMTP
 40
0.0
  9
$DIMTM
 40
0.0
  9
$DIMTXT
 40
5.0
  9
$DIMCEN
 40
2.5
  9
$DIMTSZ
 40
0.0
  9
$DIMTOL
 70
     0
  9
$DIMLIM
 70
     0
  9
$DIMTIH
 70
     1
  9
$DIMTOH
 70
     1
  9
$DIMSE1
 70
     0
  9
$DIMSE2
 70
     0
  9
$DIMTAD
 70
     1
  9
$DIMZIN
 70
     0
  9
$DIMBLK
  1

  9
$DIMASO
 70
     1
  9
$DIMSHO
 70
     1
  9
$DIMPOST
  1

  9
$DIMAPOST
  1

  9
$DIMALT
 70
     0
  9
$DIMALTD
 70
     3
  9
$DIMALTF
 40
0.0393700787
  9
$DIMLFAC
 40
1.0
  9
$DIMTOFL
 70
     1
  9
$DIMTVP
 40
0.0
  9
$DIMTIX
 70
     0
  9
$DIMSOXD
 70
     0
  9
$DIMSAH
 70
     0
  9
$DIMBLK1
  1

  9
$DIMBLK2
  1

  9
$DIMSTYLE
  2
ISO-25
  9
$DIMCLRD
 70
     0
  9
$DIMCLRE
 70
     0
  9
$DIMCLRT
 70
     0
  9
$DIMTFAC
 40
1.0
  9
$DIMGAP
 40
1.524
  9
$DIMJUST
 70
     0
  9
$DIMSD1
 70
     0
  9
$DIMSD2
 70
     0
  9
$DIMTOLJ
 70
     0
  9
$DIMTZIN
 70
     0
  9
$DIMALTZ
 70
     0
  9
$DIMALTTZ
 70
     0
  9
$DIMUPT
 70
     0
  9
$DIMDEC
 70
     2
  9
$DIMTDEC
 70
     2
  9
$DIMALTU
 70
     2
  9
$DIMALTTD
 70
     3
  9
$DIMTXSTY
  7
Standard
  9
$DIMAUNIT
 70
     0
  9
$DIMADEC
 70
     2
  9
$DIMALTRND
 40
0.0
  9
$DIMAZIN
 70
     0
  9
$DIMDSEP
 70
    44
  9
$DIMATFIT
 70
     3
  9
$DIMFRAC
 70
     0
  9
$DIMLDRBLK
  1

  9
$DIMLUNIT
 70
     2
  9
$DIMLWD
 70
    -2
  9
$DIMLWE
 70
    -2
  9
$DIMTMOVE
 70
     0
  9
$LUNITS
 70
     2
  9
$LUPREC
 70
     2
  9
$SKETCHINC
 40
1.0
  9
$FILLETRAD
 40
10.0
  9
$AUNITS
 70
     0
  9
$AUPREC
 70
     2
  9
$MENU
  1
.
  9
$ELEVATION
 40
0.0
  9
$PELEVATION
 40
0.0
  9
$THICKNESS
 40
0.0
  9
$LIMCHECK
 70
     0
  9
$CHAMFERA
 40
0.0
  9
$CHAMFERB
 40
0.0
  9
$CHAMFERC
 40
0.0
  9
$CHAMFERD
 40
0.0
  9
$SKPOLY
 70
     0
  9
$TDCREATE
 40
2458564.391092222
  9
$TDUCREATE
 40
2458564.307758889
  9
$TDUPDATE
 40
2458564.391093287
  9
$TDUUPDATE
 40
2458564.307759954
  9
$TDINDWG
 40
0.0000000116
  9
$TDUSRTIMER
 40
0.0000000116
  9
$USRTIMER
 70
     1
  9
$ANGBASE
 50
0.0
  9
$ANGDIR
 70
     0
  9
$PDMODE
 70
     0
  9
$PDSIZE
 40
-1.0
  9
$PLINEWID
 40
0.0
  9
$SPLFRAME
 70
     0
  9
$SPLINETYPE
 70
     6
  9
$SPLINESEGS
 70
     8
  9
$HANDSEED
  5
1EC
  9
$SURFTAB1
 70
     6
  9
$SURFTAB2
 70
     6
  9
$SURFTYPE
 70
     6
  9
$SURFU
 70
     6
  9
$SURFV
 70
     6
  9
$UCSBASE
  2

  9
$UCSNAME
  2

  9
$UCSORG
 10
0.0
 20
0.0
 30
0.0
  9
$UCSXDIR
 10
1.0
 20
0.0
 30
0.0
  9
$UCSYDIR
 10
0.0
 20
1.0
 30
0.0
  9
$UCSORTHOREF
  2

  9
$UCSORTHOVIEW
 70
     0
  9
$UCSORGTOP
 10
0.0
 20
0.0
 30
0.0
  9
$UCSORGBOTTOM
 10
0.0
 20
0.0
 30
0.0
  9
$UCSORGLEFT
 10
0.0
 20
0.0
 30
0.0
  9
$UCSORGRIGHT
 10
0.0
 20
0.0
 30
0.0
  9
$UCSORGFRONT
 10
0.0
 20
0.0
 30
0.0
  9
$UCSORGBACK
 10
0.0
 20
0.0
 30
0.0
  9
$PUCSBASE
  2

  9
$PUCSNAME
  2

  9
$PUCSORG
 10
0.0
 20
0.0
 30
0.0
  9
$PUCSXDIR
 10
1.0
 20
0.0
 30
0.0
  9
$PUCSYDIR
 10
0.0
 20
1.0
 30
0.0
  9
$PUCSORTHOREF
  2

  9
$PUCSORTHOVIEW
 70
     0
  9
$PUCSORGTOP
 10
0.0
 20
0.0
 30
0.0
  9
$PUCSORGBOTTOM
 10
0.0
 20
0.0
 30
0.0
  9
$PUCSORGLEFT
 10
0.0
 20
0.0
 30
0.0
  9
$PUCSORGRIGHT
 10
0.0
 20
0.0
 30
0.0
  9
$PUCSORGFRONT
 10
0.0
 20
0.0
 30
0.0
  9
$PUCSORGBACK
 10
0.0
 20
0.0
 30
0.0
  9
$USERI1
 70
     0
  9
$USERI2
 70
     0
  9
$USERI3
 70
     0
  9
$USERI4
 70
     0
  9
$USERI5
 70
     0
  9
$USERR1
 40
0.0
  9
$USERR2
 40
0.0
  9
$USERR3
 40
0.0
  9
$USERR4
 40
0.0
  9
$USERR5
 40
0.0
  9
$WORLDVIEW
 70
     1
  9
$SHADEDGE
 70
     3
  9
$SHADEDIF
 70
    70
  9
$TILEMODE
 70
     1
  9
$MAXACTVP
 70
    64
  9
$PINSBASE
 10
0.0
 20
0.0
 30
0.0
  9
$PLIMCHECK
 70
     0
  9
$PEXTMIN
 10
1.0000000000E+20
 20
1.0000000000E+20
 30
1.0000000000E+20
  9
$PEXTMAX
 10
-1.0000000000E+20
 20
-1.0000000000E+20
 30
-1.0000000000E+20
  9
$PLIMMIN
 10
0.0
 20
0.0
  9
$PLIMMAX
 10
420.0
 20
297.0
  9
$UNITMODE
 70
     0
  9
$VISRETAIN
 70
     1
  9
$PLINEGEN
 70
     0
  9
$PSLTSCALE
 70
     1
  9
$TREEDEPTH
 70
  3020
  9
$CMLSTYLE
  2
Standard
  9
$CMLJUST
 70
     0
  9
$CMLSCALE
 40
20.0
  9
$PROXYGRAPHICS
 70
     1
  9
$MEASUREMENT
 70
     1
  9
$CELWEIGHT
370
    -1
  9
$ENDCAPS
280
     0
  9
$JOINSTYLE
280
     0
  9
$LWDISPLAY
290
     1
  9
$INSUNITS
 70
     4
  9
$HYPERLINKBASE
  1

  9
$STYLESHEET
  1

  9
$XEDIT
290
     1
  9
$CEPSNTYPE
380
     0
  9
$PSTYLEMODE
290
     1
  9
$FINGERPRINTGUID
  2
{0971AF89-F6B8-4EA5-A611-A361627ABE2F}
  9
$VERSIONGUID
  2
{FAEB1C32-E019-11D5-929B-00C0DF256EC4}
  9
$EXTNAMES
290
     1
  9
$PSVPSCALE
 40
0.0
  9
$OLESTARTUP
290
     0
  0
ENDSEC
  0
SECTION
  2
CLASSES
  0
CLASS
  1
ACDBDICTIONARYWDFLT
  2
AcDbDictionaryWithDefault
  3
ObjectDBX Classes
 90
        0
280
     0
281
     0
  0
CLASS
  1
VISUALSTYLE
  2
AcDbVisualStyle
  3
ObjectDBX Classes
 90
     4095
280
     0
281
     0
  0
CLASS
  1
MATERIAL
  2
AcDbMaterial
  3
ObjectDBX Classes
 90
     1153
280
     0
281
     0
  0
CLASS
  1
SCALE
  2
AcDbScale
  3
ObjectDBX Classes
 90
     1153
280
     0
281
     0
  0
CLASS
  1
TABLESTYLE
  2
AcDbTableStyle
  3
ObjectDBX Classes
 90
     4095
280
     0
281
     0
  0
CLASS
  1
MLEADERSTYLE
  2
AcDbMLeaderStyle
  3
ACDB_MLEADERSTYLE_CLASS
 90
     4095
280
     0
281
     0
  0
CLASS
  1
SUN
  2
AcDbSun
  3
SCENEOE
 90
     1153
280
     0
281
     0
  0
CLASS
  1
ACDBPLACEHOLDER
  2
AcDbPlaceHolder
  3
ObjectDBX Classes
 90
        0
280
     0
281
     0
  0
CLASS
  1
LAYOUT
  2
AcDbLayout
  3
ObjectDBX Classes
 90
        0
280
     0
281
     0
  0
ENDSEC
  0
SECTION
  2
TABLES
  0
TABLE
  2
VPORT
  5
8
330
0
100
AcDbSymbolTable
 70
     1
  0
VPORT
  5
29
330
8
100
AcDbSymbolTableRecord
100
AcDbViewportTableRecord
  2
*Active
 70
     0
 10
0.0
 20
0.0
 11
1.0
 21
1.0
 12
400.0
 22
350.0
 13
0.0
 23
0.0
 14
10.0
 24
10.0
 15
10.0
 25
10.0
 16
0.0
 26
0.0
 36
1.0
 17
0.0
 27
0.0
 37
0.0
 40
700.0
 41
1.1428571429
 42
50.0
 43
0.0
 44
0.0
 50
0.0
 51
0.0
 71
     0
 72
  2000
 73
     1
 74
     3
 75
     0
 76
     0
 77
     0
 78
     0
281
     0
 65
     1
110
0.0
120
0.0
130
0.0
111
1.0
121
0.0
131
0.0
112
0.0
122
1.0
132
0.0
 79
     0
146
0.0
  0
ENDTAB
  0
TABLE
  2
LTYPE
  5
5
330
0
100
AcDbSymbolTable
 70
     6
  0
LTYPE
  5
14
330
5
100
AcDbSymbolTableRecord
100
AcDbLinetypeTableRecord
  2
ByBlock
 70
     0
  3

 72
    65
 73
     0
 40
0.0
  0
LTYPE
  5
15
330
5
100
AcDbSymbolTableRecord
100
AcDbLinetypeTableRecord
  2
ByLayer
 70
     0
  3

 72
    65
 73
     0
 40
0.0
  0
LTYPE
  5
16
330
5
100
AcDbSymbolTableRecord
100
AcDbLinetypeTableRecord
  2
Continuous
 70
     0
  3
Solid line
 72
    65
 73
     0
 40
0.0
  0
LTYPE
  5
6E
330
5
100
AcDbSymbolTableRecord
100
AcDbLinetypeTableRecord
  2
HIDDEN
 70
     0
  3
Hidden __ __ __ __ __ __ __ __ __ __ __ __ __ __
 72
    65
 73
     2
 40
1.905
 49
1.27
 74
     0
 49
-0.635
 74
     0
  0
LTYPE
  5
6F
330
5
100
AcDbSymbolTableRecord
100
AcDbLinetypeTableRecord
  2
PHANTOM
 70
     0
  3
Phantom ______  __  __  ______  __  __  ______
 72
    65
 73
     6
 40
12.7
 49
6.35
 74
     0
 49
-1.27
 74
     0
 49
1.27
 74
     0
 49
-1.27
 74
     0
 49
1.27
 74
     0
 49
-1.27
 74
     0
  0
LTYPE
  5
70
330
5
100
AcDbSymbolTableRecord
100
AcDbLinetypeTableRecord
  2
CENTER
 70
     0
  3
Center ____ _ ____ _ ____ _ ____ _ ____ _ ____
 72
    65
 73
     4
 40
10.16
 49
6.35
 74
     0
 49
-1.27
 74
     0
 49
1.27
 74
     0
 49
-1.27
 74
     0
  0
LTYPE
  5
71
330
5
100
AcDbSymbolTableRecord
100
AcDbLinetypeTableRecord
  2
CENTERX2
 70
     0
  3
Center (2x) ________  __  ________  __  _____
 72
    65
 73
     4
 40
20.32
 49
12.7
 74
     0
 49
-2.54
 74
     0
 49
2.54
 74
     0
 49
-2.54
 74
     0
  0
LTYPE
  5
72
330
5
100
AcDbSymbolTableRecord
100
AcDbLinetypeTableRecord
  2
DOT2
 70
     0
  3
Dot (.5x) ........................................
 72
    65
 73
     2
 40
0.635
 49
0.0
 74
     0
 49
-0.635
 74
     0
  0
ENDTAB
  0
TABLE
  2
LAYER
  5
2
330
0
100
AcDbSymbolTable
 70
     2
  0
LAYER
  5
10
330
2
100
AcDbSymbolTableRecord
100
AcDbLayerTableRecord
  2
0
 70
     0
 62
     7
  6
Continuous
370
    -3
390
F
  0
LAYER
  5
73
330
2
100
AcDbSymbolTableRecord
100
AcDbLayerTableRecord
  2
TABLE_BL1
 70
     0
 62
   179
  6
Continuous
370
    -3
390
F
  0
ENDTAB
  0
TABLE
  2
STYLE
  5
3
330
0
100
AcDbSymbolTable
 70
     1
  0
STYLE
  5
11
330
3
100
AcDbSymbolTableRecord
100
AcDbTextStyleTableRecord
  2
Standard
 70
     0
 40
0.0
 41
1.0
 50
0.0
 71
     0
 42
5.0
  3
txt
  4

  0
ENDTAB
  0
TABLE
  2
VIEW
  5
6
330
0
100
AcDbSymbolTable
 70
     0
  0
ENDTAB
  0
TABLE
  2
UCS
  5
7
330
0
100
AcDbSymbolTable
 70
     0
  0
ENDTAB
  0
TABLE
  2
APPID
  5
9
330
0
100
AcDbSymbolTable
 70
     1
  0
APPID
  5
12
330
9
100
AcDbSymbolTableRecord
100
AcDbRegAppTableRecord
  2
ACAD
 70
     0
  0
ENDTAB
  0
TABLE
  2
DIMSTYLE
  5
A
330
0
100
AcDbSymbolTable
 70
     1
100
AcDbDimStyleTable
  0
DIMSTYLE
105
27
330
A
100
AcDbSymbolTableRecord
100
AcDbDimStyleTableRecord
  2
ISO-25
 70
     0
 41
2.5
 42
0.625
 43
3.75
 44
1.25
 73
     0
 74
     0
 77
     1
 78
     8
140
2.5
141
2.5
143
0.0393700787
147
0.625
171
     3
172
     1
178
     0
271
     2
272
     2
274
     3
278
    44
283
     0
284
     8
340
11
  0
ENDTAB
  0
TABLE
  2
BLOCK_RECORD
  5
1
330
0
100
AcDbSymbolTable
 70
     1
  0
BLOCK_RECORD
  5
1F
330
1
100
AcDbSymbolTableRecord
100
AcDbBlockTableRecord
  2
*Model_Space
340
22
  0
BLOCK_RECORD
  5
1B
330
1
100
AcDbSymbolTableRecord
100
AcDbBlockTableRecord
  2
*Paper_Space
340
1E
  0
BLOCK_RECORD
  5
23
330
1
100
AcDbSymbolTableRecord
100
AcDbBlockTableRecord
  2
*Paper_Space0
340
26
  0
ENDTAB
  0
ENDSEC
  0
SECTION
  2
BLOCKS
  0
BLOCK
  5
20
330
1F
100
AcDbEntity
  8
0
100
AcDbBlockBegin
  2
*Model_Space
 70
     0
 10
0.0
 20
0.0
 30
0.0
  3
*Model_Space
  1

  0
ENDBLK
  5
21
330
1F
100
AcDbEntity
  8
0
100
AcDbBlockEnd
  0
BLOCK
  5
1C
330
1B
100
AcDbEntity
 67
     1
  8
0
100
AcDbBlockBegin
  2
*Paper_Space
 70
     0
 10
0.0
 20
0.0
 30
0.0
  3
*Paper_Space
  1

  0
ENDBLK
  5
1D
330
1B
100
AcDbEntity
 67
     1
  8
0
100
AcDbBlockEnd
  0
BLOCK
  5
24
330
23
100
AcDbEntity
  8
0
100
AcDbBlockBegin
  2
*Paper_Space0
 70
     0
 10
0.0
 20
0.0
 30
0.0
  3
*Paper_Space0
  1

  0
ENDBLK
  5
25
330
23
100
AcDbEntity
  8
0
100
AcDbBlockEnd
  0
ENDSEC
  0
SECTION
  2
ENTITIES
  0
SPLINE
  5
74
330
1F
100
AcDbEntity
  8
0
  6
Continuous
 62
     7
370
    25
100
AcDbSpline
210
0.0
220
0.0
230
1.0
 70
     8
 71
     3
 72
    18
 73
    14
 74
     0
 42
0.000000001
 43
0.00000001
 40
0.0
 40
0.0
 40
0.0
 40
0.0
 40
0.1181634741431477
 40
0.241730171355351
 40
0.3519953742603288
 40
0.439343418409758
 40
0.5540330687406406
 40
0.6249959640856927
 40
0.7018579133833931
 40
0.7811806445850034
 40
0.8592623405960824
 40
0.9329153026131797
 40
1.0
 40
1.0
 40
1.0
 40
1.0
 10
377.4151329076334
 20
423.5327926695902
 30
0.0
 10
377.7663552235963
 20
424.5959528984025
 30
0.0
 10
378.484860085079
 20
426.7708881408925
 30
0.0
 10
377.9492153998643
 20
430.1520506565481
 30
0.0
 10
376.4709847488106
 20
432.8283271396227
 30
0.0
 10
374.310264621933
 20
434.8545330264446
 30
0.0
 10
371.9359812268256
 20
435.9597614689879
 30
0.0
 10
369.4842051776134
 20
436.3139875147617
 30
0.0
 10
367.3435910986438
 20
436.126070539405
 30
0.0
 10
365.2459629440145
 20
435.4024898576
 30
0.0
 10
363.4234872301412
 20
434.2017990668631
 30
0.0
 10
361.9856799154909
 20
432.7033628178756
 30
0.0
 10
361.3645296765575
 20
431.5349425578464
 30
0.0
 10
361.0684491819187
 20
430.9779976726134
 30
0.0
  0
SPLINE
  5
75
330
1F
100
AcDbEntity
  8
0
  6
Continuous
 62
     7
370
    25
100
AcDbSpline
210
0.0
220
0.0
230
1.0
 70
     8
 71
     3
 72
    18
 73
    14
 74
     0
 42
0.000000001
 43
0.00000001
 40
0.0
 40
0.0
 40
0.0
 40
0.0
 40
0.1181634607256906
 40
0.2417302751773918
 40
0.3519954655617609
 40
0.4393434997928236
 40
0.5540330811525086
 40
0.6249959874694653
 40
0.7018579280394948
 40
0.7811806935287934
 40
0.8592624532749145
 40
0.9329153102306439
 40
1.0
 40
1.0
 40
1.0
 40
1.0
 10
361.0684491819187
 20
430.9779976726134
 30
0.0
 10
360.7172269766116
 20
429.9148374606513
 30
0.0
 10
359.9987219513195
 20
427.7399010715434
 30
0.0
 10
360.5343660019614
 20
424.3587369207985
 30
0.0
 10
362.0125975042791
 20
421.6824599109646
 30
0.0
 10
364.1733165647357
 20
419.6562525318497
 30
0.0
 10
366.5476022093188
 20
418.5510315354014
 30
0.0
 10
368.9993764178056
 20
418.1967977874864
 30
0.0
 10
371.1399916675412
 20
418.3847156811071
 30
0.0
 10
373.2376198065465
 20
419.1083004966372
 30
0.0
 10
375.0600924487551
 20
420.3089952761697
 30
0.0
 10
376.4979033267293
 20
421.8074276162005
 30
0.0
 10
377.1190526473102
 20
422.9758475548713
 30
0.0
 10
377.4151329076334
 20
423.5327926695902
 30
0.0
  0
LWPOLYLINE
  5
76
330
1F
100
AcDbEntity
  8
0
  6
Continuous
 62
     7
370
    25
100
AcDbPolyline
 90
        3
 70
   128
 43
0.0
 10
378.6951100579
 20
444.1390310646
 10
377.6142394295
 20
444.7002982021
 10
377.3917064196
 20
444.8053662897
  0
LWPOLYLINE
  5
77
330
1F
100
AcDbEntity
  8
0
  6
Continuous
 62
     7
370
    25
100
AcDbPolyline
 90
        3
 70
   128
 43
0.0
 10
370.5270761516
 20
446.5626602293
 10
369.9710269817
 20
446.5916504384
 10
368.9137707648
 20
446.602617693
  0
LINE
  5
78
330
1F
100
AcDbEntity
  8
0
  6
Continuous
 62
     7
370
    25
100
AcDbLine
 10
361.9282662062
 20
445.1700498581
 30
0.0
 11
360.5018856129
 21
444.5191298843
 31
0.0
  0
LINE
  5
79
330
1F
100
AcDbEntity
  8
0
  6
Continuous
 62
     7
370
    25
100
AcDbLine
 10
354.8847364387
 20
440.2283479691
 30
0.0
 11
353.9452713108
 21
439.1060893655
 31
0.0
  0
LWPOLYLINE
  5
7A
330
1F
100
AcDbEntity
  8
0
  6
Continuous
 62
     7
370
    25
100
AcDbPolyline
 90
        3
 70
   128
 43
0.0
 10
350.6963105997
 20
432.7769552589
 10
350.4583390555
 20
431.9034566403
 10
350.3067942461
 20
431.2414204002
  0
LWPOLYLINE
  5
7B
330
1F
100
AcDbEntity
  8
0
  6
Continuous
 62
     7
370
    25
100
AcDbPolyline
 90
        3
 70
   128
 43
0.0
 10
350.1495832703
 20
424.1073628188
 10
350.161604782
 20
424.0353008032
 10
350.4662515721
 20
422.5754750193
  0
LINE
  5
7C
330
1F
100
AcDbEntity
  8
0
  6
Continuous
 62
     7
370
    25
100
AcDbLine
 10
353.3995935819
 20
416.144711268
 30
0.0
 11
354.2845223224
 21
414.9792951763
 31
0.0
  0
LWPOLYLINE
  5
7D
330
1F
100
AcDbEntity
  8
0
  6
Continuous
 62
     7
370
    25
100
AcDbPolyline
 90
        3
 70
   128
 43
0.0
 10
359.7053868821
 20
410.4185451985
 10
360.86934266
 20
409.8104921401
 10
361.1416623122
 20
409.6823905826
  0
LWPOLYLINE
  5
7E
330
1F
100
AcDbEntity
  8
0
  6
Continuous
 62
     7
370
    25
100
AcDbPolyline
 90
        3
 70
   128
 43
0.0
 10
368.0575847052
 20
407.9416667343
 10
368.5125551079
 20
407.9191399038
 10
369.6327737367
 20
407.9093461156
  0
LINE
  5
7F
330
1F
100
AcDbEntity
  8
0
  6
Continuous
 62
     7
370
    25
100
AcDbLine
 10
376.5490704341
 20
409.3381923855
 30
0.0
 11
377.8915993995
 21
409.9463423014
 31
0.0
  0
LINE
  5
80
330
1F
100
AcDbEntity
  8
0
  6
Continuous
 62
     7
370
    25
100
AcDbLine
 10
383.5339529565
 20
414.2109875799
 30
0.0
 11
384.5713466531
 21
415.447463584
 31
0.0
  0
LWPOLYLINE
  5
81
330
1F
100
AcDbEntity
  8
0
  6
Continuous
 62
     7
370
    25
100
AcDbPolyline
 90
        3
 70
   128
 43
0.0
 10
387.7872714898
 20
421.733831358
 10
388.0252430341
 20
422.6073337019
 10
388.1887963167
 20
423.3268437207
  0
LWPOLYLINE
  5
82
330
1F
100
AcDbEntity
  8
0
  6
Continuous
 62
     7
370
    25
100
AcDbPolyline
 90
        3
 70
   128
 43
0.0
 10
388.3357292166
 20
430.3929184795
 10
388.3219773075
 20
430.4754858137
 10
388.0441470197
 20
431.826380384
  0
LINE
  5
83
330
1F
100
AcDbEntity
  8
0
  6
Continuous
 62
     7
370
    25
100
AcDbLine
 10
385.1398809007
 20
438.2859518052
 30
0.0
 11
384.1132355979
 21
439.6353264571
 31
0.0
  0
SPLINE
  5
84
330
1F
100
AcDbEntity
  8
0
  6
Continuous
 62
     7
370
    25
100
AcDbSpline
210
0.0
220
0.0
230
1.0
 70
     8
 71
     3
 72
     9
 73
     5
 74
     0
 42
0.000000001
 43
0.00000001
 40
0.0
 40
0.0
 40
0.0
 40
0.0
 40
0.5600062956444763
 40
1.0
 40
1.0
 40
1.0
 40
1.0
 10
385.7551852366372
 20
439.6664102793295
 30
0.0
 10
385.6838213935917
 20
439.6127742104927
 30
0.0
 10
385.5563873922231
 20
439.5169965928945
 30
0.0
 10
385.3565192353512
 20
439.3667837745389
 30
0.0
 10
385.2685785046264
 20
439.3006910801489
 30
0.0
  0
SPLINE
  5
85
330
1F
100
AcDbEntity
  8
0
  6
Continuous
 62
     7
370
    25
100
AcDbSpline
210
0.0
220
0.0
230
1.0
 70
     8
 71
     3
 72
     9
 73
     5
 74
     0
 42
0.000000001
 43
0.00000001
 40
0.0
 40
0.0
 40
0.0
 40
0.0
 40
0.5600006404659171
 40
0.9999999999999999
 40
0.9999999999999999
 40
0.9999999999999999
 40
0.9999999999999999
 10
353.2150035849257
 20
415.2100992620547
 30
0.0
 10
353.1034505120057
 20
415.1262592942857
 30
0.0
 10
352.9042488239019
 20
414.9765452373533
 30
0.0
 10
352.7821293452906
 20
414.8847638253657
 30
0.0
 10
352.7283968529149
 20
414.8443800628741
 30
0.0
  0
SPLINE
  5
86
330
1F
100
AcDbEntity
  8
0
  6
Continuous
 62
     7
370
    25
100
AcDbSpline
210
0.0
220
0.0
230
1.0
 70
     8
 71
     3
 72
     9
 73
     5
 74
     0
 42
0.000000001
 43
0.00000001
 40
0.0
 40
0.0
 40
0.0
 40
0.0
 40
0.5600013979963514
 40
1.0
 40
1.0
 40
1.0
 40
1.0
 10
351.6190147152587
 20
414.0105967641432
 30
0.0
 10
351.8744427249695
 20
414.2025688617915
 30
0.0
 10
352.3305630322128
 20
414.5453753232312
 30
0.0
 10
352.6068367870266
 20
414.7530177051244
 30
0.0
 10
352.7283968529149
 20
414.8443800628741
 30
0.0
  0
SPLINE
  5
87
330
1F
100
AcDbEntity
  8
0
  6
Continuous
 62
     7
370
    25
100
AcDbSpline
210
0.0
220
0.0
230
1.0
 70
     8
 71
     3
 72
     9
 73
     5
 74
     0
 42
0.000000001
 43
0.00000001
 40
0.0
 40
0.0
 40
0.0
 40
0.0
 40
0.5600017644456654
 40
1.0
 40
1.0
 40
1.0
 40
1.0
 10
385.7551852366372
 20
439.6664102793295
 30
0.0
 10
385.9174661087172
 20
439.7883769254622
 30
0.0
 10
386.2072524672311
 20
440.0061738216087
 30
0.0
 10
386.6637217120071
 20
440.3492409302786
 30
0.0
 10
386.8645673742934
 20
440.5001898527701
 30
0.0
  0
SPLINE
  5
88
330
1F
100
AcDbEntity
  8
0
  6
Continuous
 62
     7
370
    25
100
AcDbSpline
210
0.0
220
0.0
230
1.0
 70
     8
 71
     3
 72
    11
 73
     7
 74
     0
 42
0.000000001
 43
0.00000001
 40
0.0
 40
0.0
 40
0.0
 40
0.0
 40
0.2723420744630538
 40
0.5618927665648356
 40
0.7876485978181754
 40
1.0
 40
1.0
 40
1.0
 40
1.0
 10
390.8254860094233
 20
443.4771140337546
 30
0.0
 10
390.8209834071686
 20
443.4737271187584
 30
0.0
 10
390.8116936944328
 20
443.4667392780398
 30
0.0
 10
390.7427877367626
 20
443.4149648307978
 30
0.0
 10
390.6550593133353
 20
443.3490183430676
 30
0.0
 10
390.5918774159857
 20
443.3015343762165
 30
0.0
 10
390.5612530311986
 20
443.2785188079436
 30
0.0
  0
SPLINE
  5
89
330
1F
100
AcDbEntity
  8
0
  6
Continuous
 62
     7
370
    25
100
AcDbSpline
210
0.0
220
0.0
230
1.0
 70
     8
 71
     3
 72
    11
 73
     7
 74
     0
 42
0.000000001
 43
0.00000001
 40
0.0
 40
0.0
 40
0.0
 40
0.0
 40
0.2723528878647046
 40
0.5618962734813925
 40
0.7876528160299847
 40
1.0
 40
1.0
 40
1.0
 40
1.0
 10
347.9223290583535
 20
411.2322678089697
 30
0.0
 10
347.8831423233319
 20
411.2028165330546
 30
0.0
 10
347.8022954465052
 20
411.1420550617308
 30
0.0
 10
347.7162464173699
 20
411.077381337752
 30
0.0
 10
347.6664518350321
 20
411.0399602317999
 30
0.0
 10
347.6608239124602
 20
411.0357277675312
 30
0.0
 10
347.6580960801288
 20
411.033676308449
 30
0.0
  0
LINE
  5
8A
330
1F
100
AcDbEntity
  8
0
  6
Continuous
 62
     7
370
    25
100
AcDbLine
 10
390.8254860094
 20
443.4771140338
 30
0.0
 11
389.900466626
 21
444.6398441911
 31
0.0
  0
LWPOLYLINE
  5
8B
330
1F
100
AcDbEntity
  8
0
  6
Continuous
 62
     7
370
    25
100
AcDbPolyline
 90
        3
 70
   128
 43
0.0
 10
382.6833360022
 20
450.6717299343
 10
381.2493926039
 20
451.4383946777
 10
380.3117239973
 20
451.8817340255
  0
LWPOLYLINE
  5
8C
330
1F
100
AcDbEntity
  8
0
  6
Continuous
 62
     7
370
    25
100
AcDbPolyline
 90
        3
 70
   128
 43
0.0
 10
371.1921177697
 20
454.1848649502
 10
369.1188648032
 20
454.2551164747
 10
368.5305919158
 20
454.2460267664
  0
LWPOLYLINE
  5
8D
330
1F
100
AcDbEntity
  8
0
  6
Continuous
 62
     7
370
    25
100
AcDbPolyline
 90
        3
 70
   128
 43
0.0
 10
359.3144707507
 20
452.3641218663
 10
357.0144876963
 20
451.3280590296
 10
356.8904858208
 20
451.2646694899
  0
LINE
  5
8E
330
1F
100
AcDbEntity
  8
0
  6
Continuous
 62
     7
370
    25
100
AcDbLine
 10
349.403048133
 20
445.569989574
 30
0.0
 11
347.696714302
 21
443.5283665777
 31
0.0
  0
LWPOLYLINE
  5
8F
330
1F
100
AcDbEntity
  8
0
  6
Continuous
 62
     7
370
    25
100
AcDbPolyline
 90
        3
 70
   128
 43
0.0
 10
343.4211501977
 20
435.1480801821
 10
343.3410862586
 20
434.8812376381
 10
342.7699117115
 20
432.5694863916
  0
LWPOLYLINE
  5
90
330
1F
100
AcDbEntity
  8
0
  6
Continuous
 62
     7
370
    25
100
AcDbPolyline
 90
        3
 70
   128
 43
0.0
 10
342.5537796816
 20
423.1627148808
 10
342.6736036441
 20
422.4458833457
 10
343.0855145803
 20
420.5584389389
  0
LINE
  5
91
330
1F
100
AcDbEntity
  8
0
  6
Continuous
 62
     7
370
    25
100
AcDbLine
 10
346.9729313752
 20
411.9878498138
 30
0.0
 11
347.6580960801
 21
411.0336763084
 31
0.0
  0
LINE
  5
92
330
1F
100
AcDbEntity
  8
0
  6
Continuous
 62
     7
370
    25
100
AcDbLine
 10
347.6580960801
 20
411.0336763084
 30
0.0
 11
348.5831154636
 21
409.8709424258
 31
0.0
  0
LWPOLYLINE
  5
93
330
1F
100
AcDbEntity
  8
0
  6
Continuous
 62
     7
370
    25
100
AcDbPolyline
 90
        3
 70
   128
 43
0.0
 10
355.8002460873
 20
403.8390566826
 10
357.2341894856
 20
403.0723956645
 10
358.1718580923
 20
402.6290563167
  0
LWPOLYLINE
  5
94
330
1F
100
AcDbEntity
  8
0
  6
Continuous
 62
     7
370
    25
100
AcDbPolyline
 90
        3
 70
   128
 43
0.0
 10
367.2914643199
 20
400.325925392
 10
369.3647172864
 20
400.2556738675
 10
369.9529901738
 20
400.2647635758
  0
LWPOLYLINE
  5
95
330
1F
100
AcDbEntity
  8
0
  6
Continuous
 62
     7
370
    25
100
AcDbPolyline
 90
        3
 70
   128
 43
0.0
 10
379.1691113389
 20
402.1466647506
 10
381.4690943933
 20
403.1827313126
 10
381.5930962688
 20
403.2461208523
  0
LINE
  5
96
330
1F
100
AcDbEntity
  8
0
  6
Continuous
 62
     7
370
    25
100
AcDbLine
 10
389.0805339566
 20
408.9408044935
 30
0.0
 11
390.7868677875
 21
410.9824200392
 31
0.0
  0
LWPOLYLINE
  5
97
330
1F
100
AcDbEntity
  8
0
  6
Continuous
 62
     7
370
    25
100
AcDbPolyline
 90
        3
 70
   128
 43
0.0
 10
395.0624318919
 20
419.3627064348
 10
395.142495831
 20
419.6295489789
 10
395.713670378
 20
421.9413039506
  0
LWPOLYLINE
  5
98
330
1F
100
AcDbEntity
  8
0
  6
Continuous
 62
     7
370
    25
100
AcDbPolyline
 90
        3
 70
   128
 43
0.0
 10
395.9298024079
 20
431.3480754614
 10
395.8099784455
 20
432.0649032713
 10
395.3980675092
 20
433.9523514033
  0
LINE
  5
99
330
1F
100
AcDbEntity
  8
0
  6
Continuous
 62
     7
370
    25
100
AcDbLine
 10
391.5106507143
 20
442.5229405284
 30
0.0
 11
390.8254860094
 21
443.4771140338
 31
0.0
  0
SPLINE
  5
9A
330
1F
100
AcDbEntity
  8
0
  6
Continuous
 62
     7
370
    25
100
AcDbSpline
210
0.0
220
0.0
230
1.0
 70
     8
 71
     3
 72
     9
 73
     5
 74
     0
 42
0.000000001
 43
0.00000001
 40
0.0
 40
0.0
 40
0.0
 40
0.0
 40
0.5600001251115571
 40
1.0
 40
1.0
 40
1.0
 40
1.0
 10
338.7577088674947
 20
404.070613277014
 30
0.0
 10
338.6028477218677
 20
403.9528341785957
 30
0.0
 10
338.3263100236017
 20
403.74251440698
 30
0.0
 10
337.9620470847524
 20
403.4654727436842
 30
0.0
 10
337.8017714372321
 20
403.3435744464953
 30
0.0
  0
SPLINE
  5
9B
330
1F
100
AcDbEntity
  8
0
  6
Continuous
 62
     7
370
    25
100
AcDbSpline
210
0.0
220
0.0
230
1.0
 70
     8
 71
     3
 72
     9
 73
     5
 74
     0
 42
0.000000001
 43
0.00000001
 40
0.0
 40
0.0
 40
0.0
 40
0.0
 40
0.5600008092822362
 40
1.0
 40
1.0
 40
1.0
 40
1.0
 10
400.68181065232
 20
451.1672158957083
 30
0.0
 10
400.4769264088673
 20
451.0113926195931
 30
0.0
 10
400.1110622171435
 20
450.7331371715075
 30
0.0
 10
399.8435697091137
 20
450.5296899518864
 30
0.0
 10
399.7258732220575
 20
450.4401733398993
 30
0.0
  0
ARC
  5
9C
330
1F
100
AcDbEntity
  8
0
  6
Continuous
 62
     7
370
    25
100
AcDbCircle
 10
369.2417910448
 20
427.2553946496
 30
0.0
 40
38.29899805700013
100
AcDbArc
 50
37.2549368278
 51
217.2549368278
  0
ARC
  5
9D
330
1F
100
AcDbEntity
  8
0
  6
Continuous
 62
     7
370
    25
100
AcDbCircle
 10
369.2417910448
 20
427.2553946496
 30
0.0
 40
39.50000000000018
100
AcDbArc
 50
37.2549368278
 51
217.2549368513
  0
ARC
  5
9E
330
1F
100
AcDbEntity
  8
0
  6
Continuous
 62
     7
370
    25
100
AcDbCircle
 10
369.2417910448
 20
427.2553946496
 30
0.0
 40
38.29899805700013
100
AcDbArc
 50
217.2549368278
 51
37.2549368278
  0
ARC
  5
9F
330
1F
100
AcDbEntity
  8
0
  6
Continuous
 62
     7
370
    25
100
AcDbCircle
 10
369.2417910448
 20
427.2553946496
 30
0.0
 40
39.50000000000018
100
AcDbArc
 50
217.2549368513
 51
37.2549368176
  0
SPLINE
  5
A0
330
1F
100
AcDbEntity
  8
0
  6
Continuous
 62
     7
370
    25
100
AcDbSpline
210
0.0
220
0.0
230
1.0
 70
     8
 71
     3
 72
    12
 73
     8
 74
     0
 42
0.000000001
 43
0.00000001
 40
0.0
 40
0.0
 40
0.0
 40
0.0
 40
0.3203754995990751
 40
0.5620064884785603
 40
0.762512049407527
 40
0.8964626787621234
 40
1.0
 40
1.0
 40
1.0
 40
1.0
 10
387.3027471950694
 20
458.7545518994887
 30
0.0
 10
387.3435430704325
 20
458.8528162924159
 30
0.0
 10
387.4151076772325
 20
459.0251928520487
 30
0.0
 10
387.3816682464267
 20
459.3001144726847
 30
0.0
 10
387.2792886428363
 20
459.50651110449
 30
0.0
 10
387.1464222357478
 20
459.6475056450766
 30
0.0
 10
387.053731990226
 20
459.7020049079593
 30
0.0
 10
387.0133219412014
 20
459.7257648826201
 30
0.0
  0
LINE
  5
A1
330
1F
100
AcDbEntity
  8
0
  6
Continuous
 62
     7
370
    25
100
AcDbLine
 10
385.1009702435
 20
460.7014482141
 30
0.0
 11
387.0133219412
 21
459.7257648826
 31
0.0
  0
SPLINE
  5
A2
330
1F
100
AcDbEntity
  8
0
  6
Continuous
 62
     7
370
    25
100
AcDbSpline
210
0.0
220
0.0
230
1.0
 70
     8
 71
     3
 72
    12
 73
     8
 74
     0
 42
0.000000001
 43
0.00000001
 40
0.0
 40
0.0
 40
0.0
 40
0.0
 40
0.1369206870470634
 40
0.2732922192817945
 40
0.4609276282794518
 40
0.7173054987664071
 40
1.0
 40
1.0
 40
1.0
 40
1.0
 10
385.100970243518
 20
460.7014482141096
 30
0.0
 10
385.0434585349151
 20
460.7252844674221
 30
0.0
 10
384.9286657828649
 20
460.7728613727651
 30
0.0
 10
384.7286774496127
 20
460.7849311701509
 30
0.0
 10
384.5065856869376
 20
460.7367157003849
 30
0.0
 10
384.2839014841017
 20
460.5995930338269
 30
0.0
 10
384.1926275951225
 20
460.446201981512
 30
0.0
 10
384.1447627297088
 20
460.3657623053152
 30
0.0
  0
SPLINE
  5
A3
330
1F
100
AcDbEntity
  8
0
  6
Continuous
 62
     7
370
    25
100
AcDbSpline
210
0.0
220
0.0
230
1.0
 70
     8
 71
     3
 72
    11
 73
     7
 74
     0
 42
0.000000001
 43
0.00000001
 40
0.0
 40
0.0
 40
0.0
 40
0.0
 40
0.2603295496727688
 40
0.5282091365375859
 40
0.7614183953819049
 40
1.0
 40
1.0
 40
1.0
 40
1.0
 10
377.3108303672119
 20
445.2167351961691
 30
0.0
 10
377.967446159119
 20
446.6722784157359
 30
0.0
 10
379.2997208122122
 20
449.6255782933986
 30
0.0
 10
381.1166797352947
 20
453.6533053162543
 30
0.0
 10
382.7657039807467
 20
457.3087526698993
 30
0.0
 10
383.6816000031478
 20
459.3390526608363
 30
0.0
 10
384.1447627297088
 20
460.3657623053152
 30
0.0
  0
SPLINE
  5
A4
330
1F
100
AcDbEntity
  8
0
  6
Continuous
 62
     7
370
    25
100
AcDbSpline
210
0.0
220
0.0
230
1.0
 70
     8
 71
     3
 72
    12
 73
     8
 74
     0
 42
0.000000001
 43
0.00000001
 40
0.0
 40
0.0
 40
0.0
 40
0.0
 40
0.2229052515408547
 40
0.4458350960256393
 40
0.6679336586748091
 40
0.8889145358946153
 40
1.0
 40
1.0
 40
1.0
 40
1.0
 10
377.3108303672119
 20
445.2167351961691
 30
0.0
 10
377.2854585636803
 20
445.1415740408956
 30
0.0
 10
377.2347121573679
 20
444.9912434378832
 30
0.0
 10
377.2589907332855
 20
444.7494070969828
 30
0.0
 10
377.3568216720033
 20
444.5315118231067
 30
0.0
 10
377.4943448972516
 20
444.3839646977243
 30
0.0
 10
377.5965801146528
 20
444.3250567340734
 30
0.0
 10
377.6307806497856
 20
444.305350375231
 30
0.0
  0
LINE
  5
A5
330
1F
100
AcDbEntity
  8
0
  6
Continuous
 62
     7
370
    25
100
AcDbLine
 10
378.12262514
 20
444.0544148207
 30
0.0
 11
377.6307806498
 21
444.3053503752
 31
0.0
  0
SPLINE
  5
A6
330
1F
100
AcDbEntity
  8
0
  6
Continuous
 62
     7
370
    25
100
AcDbSpline
210
0.0
220
0.0
230
1.0
 70
     8
 71
     3
 72
    12
 73
     8
 74
     0
 42
0.000000001
 43
0.00000001
 40
0.0
 40
0.0
 40
0.0
 40
0.0
 40
0.220134686879274
 40
0.4402567019337178
 40
0.6607468836364947
 40
0.8821606742213027
 40
1.0
 40
1.0
 40
1.0
 40
1.0
 10
378.1226251399561
 20
444.0544148207266
 30
0.0
 10
378.1959918032602
 20
444.0256163053344
 30
0.0
 10
378.3427209065925
 20
443.9680209323066
 30
0.0
 10
378.5834609558275
 20
443.9797444727326
 30
0.0
 10
378.8047428654218
 20
444.064958725989
 30
0.0
 10
378.9607247267585
 20
444.1946188147503
 30
0.0
 10
379.0257272000907
 20
444.2952952347321
 30
0.0
 10
379.0483057624145
 20
444.3302651167471
 30
0.0
  0
SPLINE
  5
A7
330
1F
100
AcDbEntity
  8
0
  6
Continuous
 62
     7
370
    25
100
AcDbSpline
210
0.0
220
0.0
230
1.0
 70
     8
 71
     3
 72
    11
 73
     7
 74
     0
 42
0.000000001
 43
0.00000001
 40
0.0
 40
0.0
 40
0.0
 40
0.0
 40
0.283226957056512
 40
0.5762691526469469
 40
0.7861907145586761
 40
1.0
 40
1.0
 40
1.0
 40
1.0
 10
387.3027471950694
 20
458.7545518994887
 30
0.0
 10
386.6335076915356
 20
457.5850842887475
 30
0.0
 10
385.271836169773
 20
455.2056211327902
 30
0.0
 10
383.0894579865436
 20
451.3920057357478
 30
0.0
 10
380.9917907337426
 20
447.7264287304271
 30
0.0
 10
379.7000845471701
 20
445.4692229299596
 30
0.0
 10
379.0483057624145
 20
444.3302651167471
 30
0.0
  0
SPLINE
  5
A8
330
1F
100
AcDbEntity
  8
0
  6
Continuous
 62
     7
370
    25
100
AcDbSpline
210
0.0
220
0.0
230
1.0
 70
     8
 71
     3
 72
    13
 73
     9
 74
     0
 42
0.000000001
 43
0.00000001
 40
0.0
 40
0.0
 40
0.0
 40
0.0
 40
0.3201787716707656
 40
0.4946644419200706
 40
0.6890197844706267
 40
0.8387711736686659
 40
0.9672347939978265
 40
1.0
 40
1.0
 40
1.0
 40
1.0
 10
371.8471771231337
 20
463.4715070248205
 30
0.0
 10
371.841541313897
 20
463.5778922510782
 30
0.0
 10
371.832834195632
 20
463.7422535180688
 30
0.0
 10
371.7104391310392
 20
463.9540425284564
 30
0.0
 10
371.5689087544071
 20
464.0943904525769
 30
0.0
 10
371.3904839459788
 20
464.1865468773808
 30
0.0
 10
371.2523380028978
 20
464.217233185232
 30
0.0
 10
371.1797693916638
 20
464.2203375110803
 30
0.0
 10
371.1650218706994
 20
464.2209683776457
 30
0.0
  0
LINE
  5
A9
330
1F
100
AcDbEntity
  8
0
  6
Continuous
 62
     7
370
    25
100
AcDbLine
 10
369.0187171256
 20
464.2702912212
 30
0.0
 11
371.1650218707
 21
464.2209683776
 31
0.0
  0
SPLINE
  5
AA
330
1F
100
AcDbEntity
  8
0
  6
Continuous
 62
     7
370
    25
100
AcDbSpline
210
0.0
220
0.0
230
1.0
 70
     8
 71
     3
 72
    12
 73
     8
 74
     0
 42
0.000000001
 43
0.00000001
 40
0.0
 40
0.0
 40
0.0
 40
0.0
 40
0.1369198719823039
 40
0.2732919300191893
 40
0.4609274765495773
 40
0.7173055757398704
 40
1.0
 40
1.0
 40
1.0
 40
1.0
 10
369.0187171255888
 20
464.2702912211973
 30
0.0
 10
368.9565594190972
 20
464.2668119886731
 30
0.0
 10
368.8324926979799
 20
464.2598674439712
 30
0.0
 10
368.6470734252179
 20
464.1839704237205
 30
0.0
 10
368.4678962901363
 20
464.044167519065
 30
0.0
 10
368.3267600973605
 20
463.8240066417191
 30
0.0
 10
368.3110776449981
 20
463.6462049896755
 30
0.0
 10
368.3028536275446
 20
463.5529642224867
 30
0.0
  0
SPLINE
  5
AB
330
1F
100
AcDbEntity
  8
0
  6
Continuous
 62
     7
370
    25
100
AcDbSpline
210
0.0
220
0.0
230
1.0
 70
     8
 71
     3
 72
    11
 73
     7
 74
     0
 42
0.000000001
 43
0.00000001
 40
0.0
 40
0.0
 40
0.0
 40
0.0
 40
0.2603295742420702
 40
0.5282088593707273
 40
0.7614182563757466
 40
1.0
 40
1.0
 40
1.0
 40
1.0
 10
368.718611799129
 20
446.9390263081152
 30
0.0
 10
368.6786650595529
 20
448.535320862218
 30
0.0
 10
368.5976131014398
 20
451.7742034520936
 30
0.0
 10
368.4870739145023
 20
456.1914075596231
 30
0.0
 10
368.3867518951914
 20
460.2003383576959
 30
0.0
 10
368.3310312162813
 20
462.4269706178996
 30
0.0
 10
368.3028536275446
 20
463.5529642224867
 30
0.0
  0
SPLINE
  5
AC
330
1F
100
AcDbEntity
  8
0
  6
Continuous
 62
     7
370
    25
100
AcDbSpline
210
0.0
220
0.0
230
1.0
 70
     8
 71
     3
 72
    12
 73
     8
 74
     0
 42
0.000000001
 43
0.00000001
 40
0.0
 40
0.0
 40
0.0
 40
0.0
 40
0.22289877759877
 40
0.4458334893522448
 40
0.6679300880700738
 40
0.8889149030804887
 40
1.0
 40
1.0
 40
1.0
 40
1.0
 10
368.718611799129
 20
446.9390263081152
 30
0.0
 10
368.7283633327929
 20
446.8603029185795
 30
0.0
 10
368.7478679721935
 20
446.7028434482836
 30
0.0
 10
368.8746667345974
 20
446.4954889737331
 30
0.0
 10
369.0573565340567
 20
446.3416264751019
 30
0.0
 10
369.2452748911574
 20
446.2683493504037
 30
0.0
 10
369.3629463133475
 20
446.2596384779213
 30
0.0
 10
369.4023101366541
 20
446.2567244887907
 30
0.0
  0
LINE
  5
AD
330
1F
100
AcDbEntity
  8
0
  6
Continuous
 62
     7
370
    25
100
AcDbLine
 10
369.9543255157
 20
446.24403615
 30
0.0
 11
369.4023101367
 21
446.2567244888
 31
0.0
  0
SPLINE
  5
AE
330
1F
100
AcDbEntity
  8
0
  6
Continuous
 62
     7
370
    25
100
AcDbSpline
210
0.0
220
0.0
230
1.0
 70
     8
 71
     3
 72
    12
 73
     8
 74
     0
 42
0.000000001
 43
0.00000001
 40
0.0
 40
0.0
 40
0.0
 40
0.0
 40
0.2201344540067019
 40
0.4402563602647468
 40
0.6607447638142426
 40
0.8821616863352011
 40
1.0
 40
1.0
 40
1.0
 40
1.0
 10
369.9543255157254
 20
446.2440361500342
 30
0.0
 10
370.0329217349797
 20
446.2499233176887
 30
0.0
 10
370.1901096934735
 20
446.2616973174273
 30
0.0
 10
370.4019208815484
 20
446.3767131972793
 30
0.0
 10
370.5643201589429
 20
446.5494968506557
 30
0.0
 10
370.6485933994663
 20
446.7339974623083
 30
0.0
 10
370.6634763071447
 20
446.8529081402623
 30
0.0
 10
370.6686457977115
 20
446.8942110658247
 30
0.0
  0
SPLINE
  5
AF
330
1F
100
AcDbEntity
  8
0
  6
Continuous
 62
     7
370
    25
100
AcDbSpline
210
0.0
220
0.0
230
1.0
 70
     8
 71
     3
 72
    11
 73
     7
 74
     0
 42
0.000000001
 43
0.00000001
 40
0.0
 40
0.0
 40
0.0
 40
0.0
 40
0.2832266936652512
 40
0.5762691446878905
 40
0.7861908076116996
 40
1.0
 40
1.0
 40
1.0
 40
1.0
 10
371.8471771231337
 20
463.4715070248205
 30
0.0
 10
371.7516260889441
 20
462.1274838151387
 30
0.0
 10
371.5572125185496
 20
459.3928577265418
 30
0.0
 10
371.2456231441893
 20
455.0100086835428
 30
0.0
 10
370.9461276056357
 20
450.7972936405794
 30
0.0
 10
370.7617037341795
 20
448.2031718693746
 30
0.0
 10
370.6686457977116
 20
446.8942110658247
 30
0.0
  0
SPLINE
  5
B0
330
1F
100
AcDbEntity
  8
0
  6
Continuous
 62
     7
370
    25
100
AcDbSpline
210
0.0
220
0.0
230
1.0
 70
     8
 71
     3
 72
    13
 73
     9
 74
     0
 42
0.000000001
 43
0.00000001
 40
0.0
 40
0.0
 40
0.0
 40
0.0
 40
0.1923235129897835
 40
0.4540916207480188
 40
0.6566887768747575
 40
0.8131117725890166
 40
0.9441959218661089
 40
1.0
 40
1.0
 40
1.0
 40
1.0
 10
355.8755789077326
 20
461.0154231310446
 30
0.0
 10
355.8475452671502
 20
461.0723569713298
 30
0.0
 10
355.7813555377217
 20
461.2067824474906
 30
0.0
 10
355.6101518382562
 20
461.358620823294
 30
0.0
 10
355.3937567603982
 20
461.4480108824511
 30
0.0
 10
355.1896062958892
 20
461.464402755011
 30
0.0
 10
355.0369786121653
 20
461.4366392811573
 30
0.0
 10
354.9590661397942
 20
461.4043280420823
 30
0.0
 10
354.9358017867847
 20
461.3946800351698
 30
0.0
  0
LINE
  5
B1
330
1F
100
AcDbEntity
  8
0
  6
Continuous
 62
     7
370
    25
100
AcDbLine
 10
352.9806474349
 20
460.5078746796
 30
0.0
 11
354.9358017868
 21
461.3946800352
 31
0.0
  0
SPLINE
  5
B2
330
1F
100
AcDbEntity
  8
0
  6
Continuous
 62
     7
370
    25
100
AcDbSpline
210
0.0
220
0.0
230
1.0
 70
     8
 71
     3
 72
    12
 73
     8
 74
     0
 42
0.000000001
 43
0.00000001
 40
0.0
 40
0.0
 40
0.0
 40
0.0
 40
0.1369194906043587
 40
0.2732896500344842
 40
0.4609254929285139
 40
0.7173071848171819
 40
0.9999999999999999
 40
0.9999999999999999
 40
0.9999999999999999
 40
0.9999999999999999
 10
352.9806474348946
 20
460.507874679621
 30
0.0
 10
352.9261552312215
 20
460.4777704684652
 30
0.0
 10
352.8173894506468
 20
460.4176828264866
 30
0.0
 10
352.6832566408813
 20
460.2688585140401
 30
0.0
 10
352.582486092023
 20
460.065153740387
 30
0.0
 10
352.5508513233777
 20
459.8055538785616
 30
0.0
 10
352.6138675948613
 20
459.6385560419807
 30
0.0
 10
352.6469135782166
 20
459.5509817123968
 30
0.0
  0
SPLINE
  5
B3
330
1F
100
AcDbEntity
  8
0
  6
Continuous
 62
     7
370
    25
100
AcDbSpline
210
0.0
220
0.0
230
1.0
 70
     8
 71
     3
 72
    11
 73
     7
 74
     0
 42
0.000000001
 43
0.00000001
 40
0.0
 40
0.0
 40
0.0
 40
0.0
 40
0.2603295971342782
 40
0.5282091762957949
 40
0.7614184837973069
 40
1.0
 40
1.0
 40
1.0
 40
1.0
 10
360.2300157895728
 20
444.7627340674956
 30
0.0
 10
359.5014183447288
 20
446.1836132467256
 30
0.0
 10
358.023092943281
 20
449.0665794139949
 30
0.0
 10
356.0069478863191
 20
452.9983843460273
 30
0.0
 10
354.1771520966141
 20
456.5667777775
 30
0.0
 10
353.1608505734534
 20
458.5487243616403
 30
0.0
 10
352.6469135782166
 20
459.5509817123968
 30
0.0
  0
SPLINE
  5
B4
330
1F
100
AcDbEntity
  8
0
  6
Continuous
 62
     7
370
    25
100
AcDbSpline
210
0.0
220
0.0
230
1.0
 70
     8
 71
     3
 72
    12
 73
     8
 74
     0
 42
0.000000001
 43
0.00000001
 40
0.0
 40
0.0
 40
0.0
 40
0.0
 40
0.2229024620714878
 40
0.4458313843265186
 40
0.6679310824824674
 40
0.8889144962352037
 40
1.0
 40
1.0
 40
1.0
 40
1.0
 10
360.2300157895728
 20
444.7627340674956
 30
0.0
 10
360.2729581112523
 20
444.6960353647614
 30
0.0
 10
360.358847852185
 20
444.5626300416602
 30
0.0
 10
360.5630640420109
 20
444.4308391555433
 30
0.0
 10
360.7944151561792
 20
444.3714626804669
 30
0.0
 10
360.9955170478839
 20
444.3869933805356
 30
0.0
 10
361.1053163031867
 20
444.4301945420978
 30
0.0
 10
361.1420469483777
 20
444.4446464300711
 30
0.0
  0
LINE
  5
B5
330
1F
100
AcDbEntity
  8
0
  6
Continuous
 62
     7
370
    25
100
AcDbLine
 10
361.6448996714
 20
444.6727236033
 30
0.0
 11
361.1420469484
 21
444.4446464301
 31
0.0
  0
SPLINE
  5
B6
330
1F
100
AcDbEntity
  8
0
  6
Continuous
 62
     7
370
    25
100
AcDbSpline
210
0.0
220
0.0
230
1.0
 70
     8
 71
     3
 72
    12
 73
     8
 74
     0
 42
0.000000001
 43
0.00000001
 40
0.0
 40
0.0
 40
0.0
 40
0.0
 40
0.2201341045863815
 40
0.4402543360854184
 40
0.6607458834218695
 40
0.8821607779692272
 40
1.0
 40
1.0
 40
1.0
 40
1.0
 10
361.6448996713801
 20
444.6727236033041
 30
0.0
 10
361.7131584403522
 20
444.7121292391108
 30
0.0
 10
361.8496716765555
 20
444.7909380273385
 30
0.0
 10
361.9906063209801
 20
444.9864658164581
 30
0.0
 10
362.0619503181496
 20
445.2126033927515
 30
0.0
 10
362.0578293992613
 20
445.4153991538117
 30
0.0
 10
362.0196433397152
 20
445.5289913034709
 30
0.0
 10
362.0063794902011
 20
445.5684473038275
 30
0.0
  0
SPLINE
  5
B7
330
1F
100
AcDbEntity
  8
0
  6
Continuous
 62
     7
370
    25
100
AcDbSpline
210
0.0
220
0.0
230
1.0
 70
     8
 71
     3
 72
    11
 73
     7
 74
     0
 42
0.000000001
 43
0.00000001
 40
0.0
 40
0.0
 40
0.0
 40
0.0
 40
0.2832268669922378
 40
0.5762690436075987
 40
0.7861909501347845
 40
1.0
 40
1.0
 40
1.0
 40
1.0
 10
355.8755789077326
 20
461.0154231310446
 30
0.0
 10
356.3726411707012
 20
459.7630403744257
 30
0.0
 10
357.3839915342322
 20
457.2148731717457
 30
0.0
 10
359.0049054748774
 20
453.1308702392277
 30
0.0
 10
360.56289840659
 20
449.2053980911396
 30
0.0
 10
361.5222854475433
 20
446.7881558469923
 30
0.0
 10
362.0063794902011
 20
445.5684473038275
 30
0.0
  0
SPLINE
  5
B8
330
1F
100
AcDbEntity
  8
0
  6
Continuous
 62
     7
370
    25
100
AcDbSpline
210
0.0
220
0.0
230
1.0
 70
     8
 71
     3
 72
    12
 73
     8
 74
     0
 42
0.000000001
 43
0.00000001
 40
0.0
 40
0.0
 40
0.0
 40
0.0
 40
0.320328016571131
 40
0.5619268913929607
 40
0.7389305545542386
 40
0.8801325515669064
 40
0.9999999999999999
 40
0.9999999999999999
 40
0.9999999999999999
 40
0.9999999999999999
 10
342.5513228526755
 20
451.872748625334
 30
0.0
 10
342.4646413955195
 20
451.9343988295869
 30
0.0
 10
342.3125827579939
 20
452.0425470583942
 30
0.0
 10
342.0451910436381
 20
452.0701123663517
 30
0.0
 10
341.8293048237784
 20
452.0219855751777
 30
0.0
 10
341.6597830649729
 20
451.9313131698668
 30
0.0
 10
341.5777321417441
 20
451.8459057487156
 30
0.0
 10
341.5400592735454
 20
451.8066917777617
 30
0.0
  0
LINE
  5
B9
330
1F
100
AcDbEntity
  8
0
  6
Continuous
 62
     7
370
    25
100
AcDbLine
 10
340.1632962874
 20
450.1593982101
 30
0.0
 11
341.5400592735
 21
451.8066917778
 31
0.0
  0
SPLINE
  5
BA
330
1F
100
AcDbEntity
  8
0
  6
Continuous
 62
     7
370
    25
100
AcDbSpline
210
0.0
220
0.0
230
1.0
 70
     8
 71
     3
 72
    12
 73
     8
 74
     0
 42
0.000000001
 43
0.00000001
 40
0.0
 40
0.0
 40
0.0
 40
0.0
 40
0.1369179339774682
 40
0.2732896290670955
 40
0.4609274640190613
 40
0.7173075987944502
 40
1.0
 40
1.0
 40
1.0
 40
1.0
 10
340.1632962873622
 20
450.1593982101042
 30
0.0
 10
340.1272621607935
 20
450.1086329327837
 30
0.0
 10
340.0553376670645
 20
450.0073049079928
 30
0.0
 10
339.9990639306017
 20
449.8150188133205
 30
0.0
 10
339.996656471502
 20
449.5877631733159
 30
0.0
 10
340.0807877108765
 20
449.3401474593368
 30
0.0
 10
340.2100207525341
 20
449.2170303741651
 30
0.0
 10
340.2777912220403
 20
449.1524671435911
 30
0.0
  0
SPLINE
  5
BB
330
1F
100
AcDbEntity
  8
0
  6
Continuous
 62
     7
370
    25
100
AcDbSpline
210
0.0
220
0.0
230
1.0
 70
     8
 71
     3
 72
    11
 73
     7
 74
     0
 42
0.000000001
 43
0.00000001
 40
0.0
 40
0.0
 40
0.0
 40
0.0
 40
0.2603296021453179
 40
0.5282092178600486
 40
0.7614184666869798
 40
1.0
 40
1.0
 40
1.0
 40
1.0
 10
353.526311194007
 20
439.118896913584
 30
0.0
 10
352.2533710630973
 20
440.0829384701668
 30
0.0
 10
349.6705733121325
 20
442.0389804738071
 30
0.0
 10
346.1481461455011
 20
444.7066473832445
 30
0.0
 10
342.9512867084791
 20
447.1277370174397
 30
0.0
 10
341.1756959384611
 20
448.4724530051822
 30
0.0
 10
340.2777912220403
 20
449.1524671435911
 30
0.0
  0
SPLINE
  5
BC
330
1F
100
AcDbEntity
  8
0
  6
Continuous
 62
     7
370
    25
100
AcDbSpline
210
0.0
220
0.0
230
1.0
 70
     8
 71
     3
 72
    12
 73
     8
 74
     0
 42
0.000000001
 43
0.00000001
 40
0.0
 40
0.0
 40
0.0
 40
0.0
 40
0.2229019581118925
 40
0.4458331604551618
 40
0.6679315789583058
 40
0.8889147058629934
 40
1.0
 40
1.0
 40
1.0
 40
1.0
 10
353.526311194007
 20
439.118896913584
 30
0.0
 10
353.5939402724665
 20
439.0774356878252
 30
0.0
 10
353.7292073021669
 20
438.9945077966892
 30
0.0
 10
353.9703825661005
 20
438.9643775765519
 30
0.0
 10
354.2045837338556
 20
439.0112622408534
 30
0.0
 10
354.3790349267811
 20
439.1125035266743
 30
0.0
 10
354.4592149850244
 20
439.1990676700121
 30
0.0
 10
354.4860372445031
 20
439.2280255675871
 30
0.0
  0
LINE
  5
BD
330
1F
100
AcDbEntity
  8
0
  6
Continuous
 62
     7
370
    25
100
AcDbLine
 10
354.840130744
 20
439.6517028332
 30
0.0
 11
354.4860372445
 21
439.2280255676
 31
0.0
  0
SPLINE
  5
BE
330
1F
100
AcDbEntity
  8
0
  6
Continuous
 62
     7
370
    25
100
AcDbSpline
210
0.0
220
0.0
230
1.0
 70
     8
 71
     3
 72
    12
 73
     8
 74
     0
 42
0.000000001
 43
0.00000001
 40
0.0
 40
0.0
 40
0.0
 40
0.0
 40
0.2201362649342282
 40
0.4402611324457272
 40
0.6607553379299984
 40
0.8834183349402331
 40
1.0
 40
1.0
 40
1.0
 40
1.0
 10
354.8401307439848
 20
439.6517028332312
 30
0.0
 10
354.8845330965919
 20
439.7168213470974
 30
0.0
 10
354.973335502901
 20
439.8470550033581
 30
0.0
 10
355.0154725548044
 20
440.0843684751634
 30
0.0
 10
354.981580961567
 20
440.3195068912535
 30
0.0
 10
354.8896779196679
 20
440.5003780991537
 30
0.0
 10
354.805948778446
 20
440.5860972103137
 30
0.0
 10
354.7771752005859
 20
440.6155546427328
 30
0.0
  0
SPLINE
  5
BF
330
1F
100
AcDbEntity
  8
0
  6
Continuous
 62
     7
370
    25
100
AcDbSpline
210
0.0
220
0.0
230
1.0
 70
     8
 71
     3
 72
    11
 73
     7
 74
     0
 42
0.000000001
 43
0.00000001
 40
0.0
 40
0.0
 40
0.0
 40
0.0
 40
0.2832269394207236
 40
0.5762691603346928
 40
0.7861910049394228
 40
1.0
 40
1.0
 40
1.0
 40
1.0
 10
342.5513228526755
 20
451.872748625334
 30
0.0
 10
343.5425486216387
 20
450.9600562756033
 30
0.0
 10
345.5593512702526
 20
449.103042055491
 30
0.0
 10
348.7917305304222
 20
446.1267731748132
 30
0.0
 10
351.8986287389988
 20
443.2660290909742
 30
0.0
 10
353.8118094419871
 20
441.5044328701707
 30
0.0
 10
354.7771752005859
 20
440.6155546427328
 30
0.0
  0
SPLINE
  5
C0
330
1F
100
AcDbEntity
  8
0
  6
Continuous
 62
     7
370
    25
100
AcDbSpline
210
0.0
220
0.0
230
1.0
 70
     8
 71
     3
 72
    12
 73
     8
 74
     0
 42
0.000000001
 43
0.00000001
 40
0.0
 40
0.0
 40
0.0
 40
0.0
 40
0.3203308234543393
 40
0.5619301218319309
 40
0.7389344545477525
 40
0.8801321760500066
 40
0.9999999999999999
 40
0.9999999999999999
 40
0.9999999999999999
 40
0.9999999999999999
 10
334.5134427896186
 20
437.8543024182875
 30
0.0
 10
334.4085947149842
 20
437.8722417998484
 30
0.0
 10
334.2246683268902
 20
437.9037113873126
 30
0.0
 10
333.971799055354
 20
437.8125155774944
 30
0.0
 10
333.7981792323251
 20
437.6754845276577
 30
0.0
 10
333.6847746074251
 20
437.5202499672646
 30
0.0
 10
333.6479108038004
 20
437.407699742994
 30
0.0
 10
333.630984847848
 20
437.3560224891264
 30
0.0
  0
LINE
  5
C1
330
1F
100
AcDbEntity
  8
0
  6
Continuous
 62
     7
370
    25
100
AcDbLine
 10
333.105297958
 20
435.2745016337
 30
0.0
 11
333.6309848478
 21
437.3560224891
 31
0.0
  0
SPLINE
  5
C2
330
1F
100
AcDbEntity
  8
0
  6
Continuous
 62
     7
370
    25
100
AcDbSpline
210
0.0
220
0.0
230
1.0
 70
     8
 71
     3
 72
    12
 73
     8
 74
     0
 42
0.000000001
 43
0.00000001
 40
0.0
 40
0.0
 40
0.0
 40
0.0
 40
0.1369172058320702
 40
0.2732909255389207
 40
0.4609262363053508
 40
0.7173073895992136
 40
1.0
 40
1.0
 40
1.0
 40
1.0
 10
333.1052979579612
 20
435.2745016336996
 30
0.0
 10
333.0948594270995
 20
435.2131294594119
 30
0.0
 10
333.0740238006117
 20
435.0906287246689
 30
0.0
 10
333.1067508577447
 20
434.8929683943232
 30
0.0
 10
333.2031826311253
 20
434.6871752177542
 30
0.0
 10
333.3864184798309
 20
434.5005821566855
 30
0.0
 10
333.556273260971
 20
434.4457328320801
 30
0.0
 10
333.6453458419486
 20
434.4169696093161
 30
0.0
  0
SPLINE
  5
C3
330
1F
100
AcDbEntity
  8
0
  6
Continuous
 62
     7
370
    25
100
AcDbSpline
210
0.0
220
0.0
230
1.0
 70
     8
 71
     3
 72
    11
 73
     7
 74
     0
 42
0.000000001
 43
0.00000001
 40
0.0
 40
0.0
 40
0.0
 40
0.0
 40
0.2603295872349791
 40
0.5282090171965729
 40
0.7614184649213145
 40
1.0
 40
1.0
 40
1.0
 40
1.0
 10
349.9352505555793
 20
431.1253552556593
 30
0.0
 10
348.3700897496977
 20
431.4416203068128
 30
0.0
 10
345.194376762902
 20
432.0833224414711
 30
0.0
 10
340.863320048915
 20
432.9584617810602
 30
0.0
 10
336.9325797304392
 20
433.7527392581676
 30
0.0
 10
334.7493768785334
 20
434.1938851109245
 30
0.0
 10
333.6453458419486
 20
434.4169696093161
 30
0.0
  0
SPLINE
  5
C4
330
1F
100
AcDbEntity
  8
0
  6
Continuous
 62
     7
370
    25
100
AcDbSpline
210
0.0
220
0.0
230
1.0
 70
     8
 71
     3
 72
    12
 73
     8
 74
     0
 42
0.000000001
 43
0.00000001
 40
0.0
 40
0.0
 40
0.0
 40
0.0
 40
0.2229013716755148
 40
0.4458311214477087
 40
0.667931490656979
 40
0.8889122089747292
 40
1.0
 40
1.0
 40
1.0
 40
1.0
 10
349.9352505555793
 20
431.1253552556593
 30
0.0
 10
350.0141713222644
 20
431.1173445703994
 30
0.0
 10
350.1720229032224
 20
431.1013221800207
 30
0.0
 10
350.4023962788273
 20
431.1787968876461
 30
0.0
 10
350.5930541406186
 20
431.3226689733802
 30
0.0
 10
350.7063040818796
 20
431.489574989141
 30
0.0
 10
350.7409834505049
 20
431.6023568431937
 30
0.0
 10
350.7525848349973
 20
431.6400860667784
 30
0.0
  0
LINE
  5
C5
330
1F
100
AcDbEntity
  8
0
  6
Continuous
 62
     7
370
    25
100
AcDbLine
 10
350.8877886584
 20
432.1754326344
 30
0.0
 11
350.752584835
 21
431.6400860668
 31
0.0
  0
SPLINE
  5
C6
330
1F
100
AcDbEntity
  8
0
  6
Continuous
 62
     7
370
    25
100
AcDbSpline
210
0.0
220
0.0
230
1.0
 70
     8
 71
     3
 72
    12
 73
     8
 74
     0
 42
0.000000001
 43
0.00000001
 40
0.0
 40
0.0
 40
0.0
 40
0.0
 40
0.2200853448335976
 40
0.4401592254748142
 40
0.588534886524649
 40
0.8110251182854923
 40
1.0
 40
1.0
 40
1.0
 40
1.0
 10
350.8877886584445
 20
432.1754326344092
 30
0.0
 10
350.8995650443848
 20
432.2533458948316
 30
0.0
 10
350.9231172028362
 20
432.4091683571936
 30
0.0
 10
350.8648625025716
 20
432.6162418795808
 30
0.0
 10
350.7575974163286
 20
432.7962509321566
 30
0.0
 10
350.6108202758851
 20
432.9377198993323
 30
0.0
 10
350.4751665512152
 20
432.9917202951444
 30
0.0
 10
350.4128644368096
 20
433.0165212274153
 30
0.0
  0
SPLINE
  5
C7
330
1F
100
AcDbEntity
  8
0
  6
Continuous
 62
     7
370
    25
100
AcDbSpline
210
0.0
220
0.0
230
1.0
 70
     8
 71
     3
 72
    11
 73
     7
 74
     0
 42
0.000000001
 43
0.00000001
 40
0.0
 40
0.0
 40
0.0
 40
0.0
 40
0.2832268164197738
 40
0.5762691608890778
 40
0.7861909153741522
 40
1.0
 40
1.0
 40
1.0
 40
1.0
 10
334.5134427896186
 20
437.8543024182875
 30
0.0
 10
335.8025082001434
 20
437.4620753412438
 30
0.0
 10
338.4253129608101
 20
436.6640281385702
 30
0.0
 10
342.6289356888062
 20
435.3849633196413
 30
0.0
 10
346.6693883175408
 20
434.1555694230943
 30
0.0
 10
349.1574305846231
 20
433.3985190333494
 30
0.0
 10
350.4128644368096
 20
433.0165212274153
 30
0.0
  0
SPLINE
  5
C8
330
1F
100
AcDbEntity
  8
0
  6
Continuous
 62
     7
370
    25
100
AcDbSpline
210
0.0
220
0.0
230
1.0
 70
     8
 71
     3
 72
    12
 73
     8
 74
     0
 42
0.000000001
 43
0.00000001
 40
0.0
 40
0.0
 40
0.0
 40
0.0
 40
0.320328900064685
 40
0.5619275293606388
 40
0.738932714521585
 40
0.8801332832050706
 40
1.0
 40
1.0
 40
1.0
 40
1.0
 10
333.3539350083514
 20
421.7366141498644
 30
0.0
 10
333.2516883347111
 20
421.7072837413289
 30
0.0
 10
333.0723251217993
 20
421.6558317368417
 30
0.0
 10
332.884067969209
 20
421.4639552147254
 30
0.0
 10
332.7870842383402
 20
421.265166266163
 30
0.0
 10
332.7522775523083
 20
421.0760963169421
 30
0.0
 10
332.7678951797501
 20
420.9586969512843
 30
0.0
 10
332.7750658741637
 20
420.9047940791208
 30
0.0
  0
LINE
  5
C9
330
1F
100
AcDbEntity
  8
0
  6
Continuous
 62
     7
370
    25
100
AcDbLine
 10
333.2045732191
 20
418.8013238133
 30
0.0
 11
332.7750658742
 21
420.9047940791
 31
0.0
  0
SPLINE
  5
CA
330
1F
100
AcDbEntity
  8
0
  6
Continuous
 62
     7
370
    25
100
AcDbSpline
210
0.0
220
0.0
230
1.0
 70
     8
 71
     3
 72
    12
 73
     8
 74
     0
 42
0.000000001
 43
0.00000001
 40
0.0
 40
0.0
 40
0.0
 40
0.0
 40
0.1369198932665511
 40
0.2732923015254696
 40
0.4609288682224091
 40
0.7173062007704396
 40
1.0
 40
1.0
 40
1.0
 40
1.0
 10
333.2045732191249
 20
418.8013238132555
 30
0.0
 10
333.2217964144778
 20
418.7414985736585
 30
0.0
 10
333.2561739368764
 20
418.6220873104104
 30
0.0
 10
333.3714278629118
 20
418.4582043566928
 30
0.0
 10
333.5475993134465
 20
418.3146298343015
 30
0.0
 10
333.7936455073061
 20
418.2260229806206
 30
0.0
 10
333.9704787143414
 20
418.2502996401672
 30
0.0
 10
334.0632116547271
 20
418.2630305409987
 30
0.0
  0
SPLINE
  5
CB
330
1F
100
AcDbEntity
  8
0
  6
Continuous
 62
     7
370
    25
100
AcDbSpline
210
0.0
220
0.0
230
1.0
 70
     8
 71
     3
 72
    11
 73
     7
 74
     0
 42
0.000000001
 43
0.00000001
 40
0.0
 40
0.0
 40
0.0
 40
0.0
 40
0.2603296405693379
 40
0.5282090670452053
 40
0.7614184435003829
 40
1.0
 40
1.0
 40
1.0
 40
1.0
 10
350.1680886498137
 20
422.3653127670843
 30
0.0
 10
348.6207050835565
 20
421.9711585270301
 30
0.0
 10
345.4810624823286
 20
421.1714192312832
 30
0.0
 10
341.1992026893967
 20
420.0807301146547
 30
0.0
 10
337.3131077168763
 20
419.0908525656333
 30
0.0
 10
335.1547027702755
 20
418.5410580126054
 30
0.0
 10
334.0632116547271
 20
418.2630305409987
 30
0.0
  0
SPLINE
  5
CC
330
1F
100
AcDbEntity
  8
0
  6
Continuous
 62
     7
370
    25
100
AcDbSpline
210
0.0
220
0.0
230
1.0
 70
     8
 71
     3
 72
    12
 73
     8
 74
     0
 42
0.000000001
 43
0.00000001
 40
0.0
 40
0.0
 40
0.0
 40
0.0
 40
0.2228995289717756
 40
0.4458333805015684
 40
0.667932588433942
 40
0.8889160846513942
 40
1.0
 40
1.0
 40
1.0
 40
1.0
 10
350.1680886498137
 20
422.3653127670843
 30
0.0
 10
350.2426691891869
 20
422.3923366617227
 30
0.0
 10
350.391841752008
 20
422.4463886121981
 30
0.0
 10
350.5657774664083
 20
422.6161538274971
 30
0.0
 10
350.6751376738723
 20
422.8284979362053
 30
0.0
 10
350.7047510475523
 20
423.0280118109574
 30
0.0
 10
350.6870636368311
 20
423.1446707221185
 30
0.0
 10
350.6811468055888
 20
423.1836957157213
 30
0.0
  0
LINE
  5
CD
330
1F
100
AcDbEntity
  8
0
  6
Continuous
 62
     7
370
    25
100
AcDbLine
 10
350.5706807724
 20
423.7246935487
 30
0.0
 11
350.6811468056
 21
423.1836957157
 31
0.0
  0
SPLINE
  5
CE
330
1F
100
AcDbEntity
  8
0
  6
Continuous
 62
     7
370
    25
100
AcDbSpline
210
0.0
220
0.0
230
1.0
 70
     8
 71
     3
 72
    13
 73
     9
 74
     0
 42
0.000000001
 43
0.00000001
 40
0.0
 40
0.0
 40
0.0
 40
0.0
 40
0.2200607040527532
 40
0.2941795266557479
 40
0.5152194872316829
 40
0.7362286658820866
 40
0.9580126626727812
 40
1.0
 40
1.0
 40
1.0
 40
1.0
 10
350.5706807723685
 20
423.7246935487349
 30
0.0
 10
350.5478512208629
 20
423.80021272456
 30
0.0
 10
350.5173324297655
 20
423.9011675746923
 30
0.0
 10
350.4135459166291
 20
424.0523725453182
 30
0.0
 10
350.277846730657
 20
424.1802723529755
 30
0.0
 10
350.0590417230234
 20
424.2761052356341
 30
0.0
 10
349.8846917297543
 20
424.290763726654
 30
0.0
 10
349.7925261676069
 20
424.2783963220051
 30
0.0
 10
349.7778551778241
 20
424.2764276683886
 30
0.0
  0
SPLINE
  5
CF
330
1F
100
AcDbEntity
  8
0
  6
Continuous
 62
     7
370
    25
100
AcDbSpline
210
0.0
220
0.0
230
1.0
 70
     8
 71
     3
 72
    11
 73
     7
 74
     0
 42
0.000000001
 43
0.00000001
 40
0.0
 40
0.0
 40
0.0
 40
0.0
 40
0.28322698851771
 40
0.5762691602936638
 40
0.7861909416599636
 40
1.0
 40
1.0
 40
1.0
 40
1.0
 10
333.3539350083514
 20
421.7366141498644
 30
0.0
 10
334.6855256748675
 20
421.9425331001706
 30
0.0
 10
337.3948530566403
 20
422.3615070870868
 30
0.0
 10
341.7371486246267
 20
423.0330046991452
 30
0.0
 10
345.910886055132
 20
423.6784356331695
 30
0.0
 10
348.4810061033014
 20
424.0758816094881
 30
0.0
 10
349.7778551778241
 20
424.2764276683886
 30
0.0
  0
ARC
  5
D0
330
1F
100
AcDbEntity
  8
0
  6
Continuous
 62
     7
370
    25
100
AcDbCircle
 10
369.2417910448
 20
427.2553946496
 30
0.0
 40
16.42261912900016
100
AcDbArc
 50
307.2549368278
 51
127.2549368278
  0
ARC
  5
D1
330
1F
100
AcDbEntity
  8
0
  6
Continuous
 62
     7
370
    25
100
AcDbCircle
 10
369.2417910448
 20
427.2553946496
 30
0.0
 40
16.42261912900016
100
AcDbArc
 50
127.2549368278
 51
307.2549368278
  0
SPLINE
  5
D2
330
1F
100
AcDbEntity
  8
0
  6
Continuous
 62
     7
370
    25
100
AcDbSpline
210
0.0
220
0.0
230
1.0
 70
     8
 71
     3
 72
    12
 73
     8
 74
     0
 42
0.000000001
 43
0.00000001
 40
0.0
 40
0.0
 40
0.0
 40
0.0
 40
0.3203288466047182
 40
0.5619268427422809
 40
0.738931116752745
 40
0.8801314270814364
 40
1.0
 40
1.0
 40
1.0
 40
1.0
 10
366.6364049664184
 20
391.0392777294476
 30
0.0
 10
366.6422478361327
 20
390.9330678213408
 30
0.0
 10
366.6524975072626
 20
390.7467524177706
 30
0.0
 10
366.7976704159512
 20
390.5205169169239
 30
0.0
 10
366.9698969636603
 20
390.3817353180211
 30
0.0
 10
367.146479757366
 20
390.30572418112
 30
0.0
 10
367.2644121191799
 20
390.2948271491449
 30
0.0
 10
367.3185602188527
 20
390.289823827203
 30
0.0
  0
LINE
  5
D3
330
1F
100
AcDbEntity
  8
0
  6
Continuous
 62
     7
370
    25
100
AcDbLine
 10
369.464864964
 20
390.240499121
 30
0.0
 11
367.3185602189
 21
390.2898238272
 31
0.0
  0
SPLINE
  5
D4
330
1F
100
AcDbEntity
  8
0
  6
Continuous
 62
     7
370
    25
100
AcDbSpline
210
0.0
220
0.0
230
1.0
 70
     8
 71
     3
 72
    12
 73
     8
 74
     0
 42
0.000000001
 43
0.00000001
 40
0.0
 40
0.0
 40
0.0
 40
0.0
 40
0.1369198119756195
 40
0.2732913440731926
 40
0.4609268083701776
 40
0.717305699633903
 40
1.0
 40
1.0
 40
1.0
 40
1.0
 10
369.4648649639634
 20
390.2404991210062
 30
0.0
 10
369.5270226139028
 20
390.2439785242317
 30
0.0
 10
369.6510890105133
 20
390.2509233978068
 30
0.0
 10
369.8365090859895
 20
390.3268173654726
 30
0.0
 10
370.0156860563945
 20
390.466621277695
 30
0.0
 10
370.1568217579001
 20
390.6867837190271
 30
0.0
 10
370.1725043730073
 20
390.8645854615272
 30
0.0
 10
370.1807284620076
 20
390.9578261197169
 30
0.0
  0
SPLINE
  5
D5
330
1F
100
AcDbEntity
  8
0
  6
Continuous
 62
     7
370
    25
100
AcDbSpline
210
0.0
220
0.0
230
1.0
 70
     8
 71
     3
 72
    11
 73
     7
 74
     0
 42
0.000000001
 43
0.00000001
 40
0.0
 40
0.0
 40
0.0
 40
0.0
 40
0.2603297602936712
 40
0.5282090346837476
 40
0.7614184223400114
 40
1.0
 40
1.0
 40
1.0
 40
1.0
 10
369.7649702904231
 20
407.5717640340883
 30
0.0
 10
369.804917022091
 20
405.9754681993053
 30
0.0
 10
369.8859689331337
 20
402.7365842506964
 30
0.0
 10
369.9965081852391
 20
398.3193791879851
 30
0.0
 10
370.0968301576881
 20
394.3104486985227
 30
0.0
 10
370.1525508670182
 20
392.0838183783686
 30
0.0
 10
370.1807284620076
 20
390.9578261197169
 30
0.0
  0
SPLINE
  5
D6
330
1F
100
AcDbEntity
  8
0
  6
Continuous
 62
     7
370
    25
100
AcDbSpline
210
0.0
220
0.0
230
1.0
 70
     8
 71
     3
 72
    12
 73
     8
 74
     0
 42
0.000000001
 43
0.00000001
 40
0.0
 40
0.0
 40
0.0
 40
0.0
 40
0.222842162520471
 40
0.4114711902028321
 40
0.6322890762667002
 40
0.8531344923462297
 40
1.0
 40
1.0
 40
1.0
 40
1.0
 10
369.7649702904232
 20
407.5717640340883
 30
0.0
 10
369.7552770440636
 20
407.6505171625997
 30
0.0
 10
369.7373787631847
 20
407.7959323890285
 30
0.0
 10
369.6236643596046
 20
407.9939855793893
 30
0.0
 10
369.458818851087
 20
408.1486487427022
 30
0.0
 10
369.2637732370268
 20
408.2377078023324
 30
0.0
 10
369.1333597324895
 20
408.2493970941584
 30
0.0
 10
369.081271952898
 20
408.2540658534128
 30
0.0
  0
LINE
  5
D7
330
1F
100
AcDbEntity
  8
0
  6
Continuous
 62
     7
370
    25
100
AcDbLine
 10
368.5292565738
 20
408.2667541922
 30
0.0
 11
369.0812719529
 21
408.2540658534
 31
0.0
  0
SPLINE
  5
D8
330
1F
100
AcDbEntity
  8
0
  6
Continuous
 62
     7
370
    25
100
AcDbSpline
210
0.0
220
0.0
230
1.0
 70
     8
 71
     3
 72
    12
 73
     8
 74
     0
 42
0.000000001
 43
0.00000001
 40
0.0
 40
0.0
 40
0.0
 40
0.0
 40
0.2201334438627996
 40
0.4402548461866108
 40
0.6607452899599981
 40
0.8821585212331563
 40
1.0
 40
1.0
 40
1.0
 40
1.0
 10
368.5292565738267
 20
408.2667541921694
 30
0.0
 10
368.4506603732665
 20
408.2608685214348
 30
0.0
 10
368.2934722714435
 20
408.2490975019182
 30
0.0
 10
368.0816596899096
 20
408.1340807887938
 30
0.0
 10
367.9192643410082
 20
407.9612943121833
 30
0.0
 10
367.8349874811611
 20
407.7767946047464
 30
0.0
 10
367.8201055797464
 20
407.6578835175392
 30
0.0
 10
367.8149362918406
 20
407.6165792763788
 30
0.0
  0
SPLINE
  5
D9
330
1F
100
AcDbEntity
  8
0
  6
Continuous
 62
     7
370
    25
100
AcDbSpline
210
0.0
220
0.0
230
1.0
 70
     8
 71
     3
 72
    11
 73
     7
 74
     0
 42
0.000000001
 43
0.00000001
 40
0.0
 40
0.0
 40
0.0
 40
0.0
 40
0.2832269415736984
 40
0.576269056073165
 40
0.7861908587623103
 40
1.0
 40
1.0
 40
1.0
 40
1.0
 10
366.6364049664184
 20
391.0392777294476
 30
0.0
 10
366.7319559195448
 20
392.3833037429001
 30
0.0
 10
366.9263691249378
 20
395.1179327220736
 30
0.0
 10
367.2379593476181
 20
399.5007798996227
 30
0.0
 10
367.5374543031112
 20
403.7134957849547
 30
0.0
 10
367.7218783224678
 20
406.3076185554776
 30
0.0
 10
367.8149362918406
 20
407.6165792763788
 30
0.0
  0
SPLINE
  5
DA
330
1F
100
AcDbEntity
  8
0
  6
Continuous
 62
     7
370
    25
100
AcDbSpline
210
0.0
220
0.0
230
1.0
 70
     8
 71
     3
 72
    12
 73
     8
 74
     0
 42
0.000000001
 43
0.00000001
 40
0.0
 40
0.0
 40
0.0
 40
0.0
 40
0.3203294821570674
 40
0.5619268440702099
 40
0.7389312386735238
 40
0.8801315904988527
 40
0.9999999999999999
 40
0.9999999999999999
 40
0.9999999999999999
 40
0.9999999999999999
 10
351.1808348944827
 20
395.7562365800698
 30
0.0
 10
351.1400159789485
 20
395.6580089145697
 30
0.0
 10
351.0684108171943
 20
395.4856964514674
 30
0.0
 10
351.101047580637
 20
395.2188773368019
 30
0.0
 10
351.196004185545
 20
395.0191129498884
 30
0.0
 10
351.3221206885164
 20
394.8740135680468
 30
0.0
 10
351.4236455284225
 20
394.8130258165043
 30
0.0
 10
351.4702601483508
 20
394.7850235969383
 30
0.0
  0
LINE
  5
DB
330
1F
100
AcDbEntity
  8
0
  6
Continuous
 62
     7
370
    25
100
AcDbLine
 10
353.382611846
 20
393.8093384028
 30
0.0
 11
351.4702601484
 21
394.7850235969
 31
0.0
  0
SPLINE
  5
DC
330
1F
100
AcDbEntity
  8
0
  6
Continuous
 62
     7
370
    25
100
AcDbSpline
210
0.0
220
0.0
230
1.0
 70
     8
 71
     3
 72
    12
 73
     8
 74
     0
 42
0.000000001
 43
0.00000001
 40
0.0
 40
0.0
 40
0.0
 40
0.0
 40
0.1369199977292336
 40
0.2732918635054105
 40
0.4609278174158432
 40
0.7173066730167181
 40
1.0
 40
1.0
 40
1.0
 40
1.0
 10
353.3826118460341
 20
393.8093384028036
 30
0.0
 10
353.4401236725463
 20
393.7855039468994
 30
0.0
 10
353.5549170884225
 20
393.7379304515902
 30
0.0
 10
353.7549045545078
 20
393.7258556930697
 30
0.0
 10
353.9769966235616
 20
393.774075652836
 30
0.0
 10
354.1996796343438
 20
393.9111994085858
 30
0.0
 10
354.2909542797699
 20
394.0645880619692
 30
0.0
 10
354.3388193598433
 20
394.1450261742432
 30
0.0
  0
SPLINE
  5
DD
330
1F
100
AcDbEntity
  8
0
  6
Continuous
 62
     7
370
    25
100
AcDbSpline
210
0.0
220
0.0
230
1.0
 70
     8
 71
     3
 72
    11
 73
     7
 74
     0
 42
0.000000001
 43
0.00000001
 40
0.0
 40
0.0
 40
0.0
 40
0.0
 40
0.2603295311099951
 40
0.5282090988736837
 40
0.7614183410890387
 40
1.0
 40
1.0
 40
1.0
 40
1.0
 10
361.1727517223402
 20
409.2940551460345
 30
0.0
 10
360.5161359276923
 20
407.8385119330008
 30
0.0
 10
359.1838612690378
 20
404.8852120685942
 30
0.0
 10
357.3669023867355
 20
400.8574849485327
 30
0.0
 10
355.7178778445901
 20
397.2020375707905
 30
0.0
 10
354.8019820431103
 20
395.1717365109427
 30
0.0
 10
354.3388193598433
 20
394.1450261742432
 30
0.0
  0
SPLINE
  5
DE
330
1F
100
AcDbEntity
  8
0
  6
Continuous
 62
     7
370
    25
100
AcDbSpline
210
0.0
220
0.0
230
1.0
 70
     8
 71
     3
 72
    13
 73
     9
 74
     0
 42
0.000000001
 43
0.00000001
 40
0.0
 40
0.0
 40
0.0
 40
0.0
 40
0.222880196091685
 40
0.4457883510065292
 40
0.6678653049638733
 40
0.7058058069908881
 40
0.9258788990860911
 40
1.0
 40
1.0
 40
1.0
 40
1.0
 10
361.1727517223402
 20
409.2940551460345
 30
0.0
 10
361.1981240752357
 20
409.3692386409722
 30
0.0
 10
361.2488719638179
 20
409.5196150621121
 30
0.0
 10
361.2245841539368
 20
409.7610969048088
 30
0.0
 10
361.1536641371639
 20
409.9200776126563
 30
0.0
 10
361.0545557031845
 20
410.0582882896825
 30
0.0
 10
360.9671122711601
 20
410.142072902543
 30
0.0
 10
360.8758057646183
 20
410.1926847743061
 30
0.0
 10
360.8528014397665
 20
410.2054362416823
 30
0.0
  0
LINE
  5
DF
330
1F
100
AcDbEntity
  8
0
  6
Continuous
 62
     7
370
    25
100
AcDbLine
 10
360.3609569496
 20
410.4563755215
 30
0.0
 11
360.8528014398
 21
410.2054362417
 31
0.0
  0
SPLINE
  5
E0
330
1F
100
AcDbEntity
  8
0
  6
Continuous
 62
     7
370
    25
100
AcDbSpline
210
0.0
220
0.0
230
1.0
 70
     8
 71
     3
 72
    12
 73
     8
 74
     0
 42
0.000000001
 43
0.00000001
 40
0.0
 40
0.0
 40
0.0
 40
0.0
 40
0.2201338385686327
 40
0.4402550053612674
 40
0.6607430809852117
 40
0.8821582743247655
 40
1.0
 40
1.0
 40
1.0
 40
1.0
 10
360.360956949596
 20
410.456375521477
 30
0.0
 10
360.2875902411614
 20
410.4851741446867
 30
0.0
 10
360.1408610475705
 20
410.5427697333434
 30
0.0
 10
359.9001221333855
 20
410.5310445971651
 30
0.0
 10
359.6788372514527
 20
410.4458365917603
 30
0.0
 10
359.5228565553338
 20
410.3161715986299
 30
0.0
 10
359.4578548347432
 20
410.2154925985859
 30
0.0
 10
359.4352763271376
 20
410.1805215001662
 30
0.0
  0
SPLINE
  5
E1
330
1F
100
AcDbEntity
  8
0
  6
Continuous
 62
     7
370
    25
100
AcDbSpline
210
0.0
220
0.0
230
1.0
 70
     8
 71
     3
 72
    11
 73
     7
 74
     0
 42
0.000000001
 43
0.00000001
 40
0.0
 40
0.0
 40
0.0
 40
0.0
 40
0.2832269094734872
 40
0.5762691268786615
 40
0.7861908697284915
 40
1.0
 40
1.0
 40
1.0
 40
1.0
 10
351.1808348944827
 20
395.7562365800698
 30
0.0
 10
351.850074367686
 20
396.9257035559651
 30
0.0
 10
353.2117459956132
 20
399.3051657135879
 30
0.0
 10
355.3941254459695
 20
403.1187810483456
 30
0.0
 10
357.4917894731917
 20
406.78436050226
 30
0.0
 10
358.7834972517464
 20
409.041565159607
 30
0.0
 10
359.4352763271376
 20
410.1805215001662
 30
0.0
  0
SPLINE
  5
E2
330
1F
100
AcDbEntity
  8
0
  6
Continuous
 62
     7
370
    25
100
AcDbSpline
210
0.0
220
0.0
230
1.0
 70
     8
 71
     3
 72
    12
 73
     8
 74
     0
 42
0.000000001
 43
0.00000001
 40
0.0
 40
0.0
 40
0.0
 40
0.0
 40
0.3203293432264566
 40
0.5619277340279497
 40
0.7389311640951158
 40
0.8801316732379226
 40
1.0
 40
1.0
 40
1.0
 40
1.0
 10
382.6080031818195
 20
393.495367211159
 30
0.0
 10
382.6593500048849
 20
393.4022099955521
 30
0.0
 10
382.7494235636918
 20
393.2387918629918
 30
0.0
 10
382.9783803149948
 20
393.0979469609135
 30
0.0
 10
383.1937664426251
 20
393.0476390084977
 30
0.0
 10
383.3858417091446
 20
393.0557709660002
 30
0.0
 10
383.496823582977
 20
393.0971209588846
 30
0.0
 10
383.5477803027674
 20
393.1161065817435
 30
0.0
  0
LINE
  5
E3
330
1F
100
AcDbEntity
  8
0
  6
Continuous
 62
     7
370
    25
100
AcDbLine
 10
385.5029346547
 20
394.0029137999
 30
0.0
 11
383.5477803028
 21
393.1161065817
 31
0.0
  0
SPLINE
  5
E4
330
1F
100
AcDbEntity
  8
0
  6
Continuous
 62
     7
370
    25
100
AcDbSpline
210
0.0
220
0.0
230
1.0
 70
     8
 71
     3
 72
    12
 73
     8
 74
     0
 42
0.000000001
 43
0.00000001
 40
0.0
 40
0.0
 40
0.0
 40
0.0
 40
0.1369196820758279
 40
0.2732919294265322
 40
0.4609280347149833
 40
0.7173058151922594
 40
1.0
 40
1.0
 40
1.0
 40
1.0
 10
385.5029346546575
 20
394.0029137999375
 30
0.0
 10
385.5574270192214
 20
394.0330178234503
 30
0.0
 10
385.6661938760016
 20
394.0931055080303
 30
0.0
 10
385.8003241939289
 20
394.2419339135158
 30
0.0
 10
385.9010956762143
 20
394.4456373466813
 30
0.0
 10
385.9327305057984
 20
394.7052313100208
 30
0.0
 10
385.8697146123615
 20
394.8722295343683
 30
0.0
 10
385.8366685113355
 20
394.9598049045164
 30
0.0
  0
SPLINE
  5
E5
330
1F
100
AcDbEntity
  8
0
  6
Continuous
 62
     7
370
    25
100
AcDbSpline
210
0.0
220
0.0
230
1.0
 70
     8
 71
     3
 72
    11
 73
     7
 74
     0
 42
0.000000001
 43
0.00000001
 40
0.0
 40
0.0
 40
0.0
 40
0.0
 40
0.2603297336286147
 40
0.5282091066764987
 40
0.7614183797771601
 40
1.0
 40
1.0
 40
1.0
 40
1.0
 10
378.2535662999793
 20
409.748056274708
 30
0.0
 10
378.9821634849607
 20
408.327175644693
 30
0.0
 10
380.4604873891946
 20
405.4442084253402
 30
0.0
 10
382.4766350553896
 20
401.5124054229651
 30
0.0
 10
384.3064304419289
 20
397.9440123219966
 30
0.0
 10
385.3227315684447
 20
395.9620636169053
 30
0.0
 10
385.8366685113355
 20
394.9598049045164
 30
0.0
  0
SPLINE
  5
E6
330
1F
100
AcDbEntity
  8
0
  6
Continuous
 62
     7
370
    25
100
AcDbSpline
210
0.0
220
0.0
230
1.0
 70
     8
 71
     3
 72
    12
 73
     8
 74
     0
 42
0.000000001
 43
0.00000001
 40
0.0
 40
0.0
 40
0.0
 40
0.0
 40
0.116585454382834
 40
0.3388937394394454
 40
0.5612376705973252
 40
0.7827183232767725
 40
1.0
 40
1.0
 40
1.0
 40
1.0
 10
378.2535662999793
 20
409.748056274708
 30
0.0
 10
378.2328614514019
 20
409.7836526787491
 30
0.0
 10
378.1726760397992
 20
409.8871252649303
 30
0.0
 10
378.0225814995829
 20
410.0243918008752
 30
0.0
 10
377.8039432398198
 20
410.1201111364622
 30
0.0
 10
377.563740924414
 20
410.1420779298785
 30
0.0
 10
377.4151296633544
 20
410.0912932474546
 30
0.0
 10
377.3415351411744
 20
410.0661439121325
 30
0.0
  0
LINE
  5
E7
330
1F
100
AcDbEntity
  8
0
  6
Continuous
 62
     7
370
    25
100
AcDbLine
 10
376.8386824182
 20
409.8380630136
 30
0.0
 11
377.3415351412
 21
410.0661439121
 31
0.0
  0
SPLINE
  5
E8
330
1F
100
AcDbEntity
  8
0
  6
Continuous
 62
     7
370
    25
100
AcDbSpline
210
0.0
220
0.0
230
1.0
 70
     8
 71
     3
 72
    12
 73
     8
 74
     0
 42
0.000000001
 43
0.00000001
 40
0.0
 40
0.0
 40
0.0
 40
0.0
 40
0.2201326930177109
 40
0.4402562744450425
 40
0.660745040261023
 40
0.8821604850990353
 40
1.0
 40
1.0
 40
1.0
 40
1.0
 10
376.838682418172
 20
409.8380630136091
 30
0.0
 10
376.7704233436277
 20
409.7986589229508
 30
0.0
 10
376.6339080198746
 20
409.7198523726229
 30
0.0
 10
376.4929779290659
 20
409.5243219179441
 30
0.0
 10
376.4216310386975
 20
409.2981861057594
 30
0.0
 10
376.4257527809552
 20
409.095391144978
 30
0.0
 10
376.4639387732103
 20
408.9817990275404
 30
0.0
 10
376.477202599351
 20
408.9423430383761
 30
0.0
  0
SPLINE
  5
E9
330
1F
100
AcDbEntity
  8
0
  6
Continuous
 62
     7
370
    25
100
AcDbSpline
210
0.0
220
0.0
230
1.0
 70
     8
 71
     3
 72
    11
 73
     7
 74
     0
 42
0.000000001
 43
0.00000001
 40
0.0
 40
0.0
 40
0.0
 40
0.0
 40
0.2832268669922378
 40
0.5762690436075987
 40
0.7861909501347845
 40
1.0
 40
1.0
 40
1.0
 40
1.0
 10
382.6080031818195
 20
393.495367211159
 30
0.0
 10
382.1109409188509
 20
394.7477499677778
 30
0.0
 10
381.0995905553199
 20
397.2959171704578
 30
0.0
 10
379.4786766146748
 20
401.3799201029758
 30
0.0
 10
377.9206836829622
 20
405.3053922510639
 30
0.0
 10
376.9612966420088
 20
407.7226344952113
 30
0.0
 10
376.477202599351
 20
408.9423430383761
 30
0.0
  0
SPLINE
  5
EA
330
1F
100
AcDbEntity
  8
0
  6
Continuous
 62
     7
370
    25
100
AcDbSpline
210
0.0
220
0.0
230
1.0
 70
     8
 71
     3
 72
    12
 73
     8
 74
     0
 42
0.000000001
 43
0.00000001
 40
0.0
 40
0.0
 40
0.0
 40
0.0
 40
0.3203294283353229
 40
0.5619281757072129
 40
0.7389315092989013
 40
0.8801323970002725
 40
1.0
 40
1.0
 40
1.0
 40
1.0
 10
395.9322592368766
 20
402.6380417168696
 30
0.0
 10
396.0189405052183
 20
402.5763884017664
 30
0.0
 10
396.1709984889019
 20
402.4682349453004
 30
0.0
 10
396.4383910838308
 20
402.4406849942941
 30
0.0
 10
396.6542764708855
 20
402.4888047168606
 30
0.0
 10
396.8237998170729
 20
402.5794732859351
 30
0.0
 10
396.9058500694662
 20
402.6648806845645
 30
0.0
 10
396.9435228160068
 20
402.7040948391516
 30
0.0
  0
LINE
  5
EB
330
1F
100
AcDbEntity
  8
0
  6
Continuous
 62
     7
370
    25
100
AcDbLine
 10
398.3202858022
 20
404.3513921321
 30
0.0
 11
396.943522816
 21
402.7040948392
 31
0.0
  0
SPLINE
  5
EC
330
1F
100
AcDbEntity
  8
0
  6
Continuous
 62
     7
370
    25
100
AcDbSpline
210
0.0
220
0.0
230
1.0
 70
     8
 71
     3
 72
    13
 73
     9
 74
     0
 42
0.000000001
 43
0.00000001
 40
0.0
 40
0.0
 40
0.0
 40
0.0
 40
0.136823768610902
 40
0.2731016740099874
 40
0.4606104609622012
 40
0.7168122333914858
 40
0.8076503563245376
 40
1.0
 40
1.0
 40
1.0
 40
1.0
 10
398.3202858021899
 20
404.3513921320994
 30
0.0
 10
398.356327656756
 20
404.4021652782324
 30
0.0
 10
398.4282675756485
 20
404.5035090092557
 30
0.0
 10
398.4844115438787
 20
404.6956629711306
 30
0.0
 10
398.4875877149996
 20
404.9237005407359
 30
0.0
 10
398.4225168840132
 20
405.1027643701601
 30
0.0
 10
398.3236002012475
 20
405.2544088020359
 30
0.0
 10
398.2534434451549
 20
405.316290969976
 30
0.0
 10
398.2057908675118
 20
405.3583231986124
 30
0.0
  0
SPLINE
  5
ED
330
1F
100
AcDbEntity
  8
0
  6
Continuous
 62
     7
370
    25
100
AcDbSpline
210
0.0
220
0.0
230
1.0
 70
     8
 71
     3
 72
    11
 73
     7
 74
     0
 42
0.000000001
 43
0.00000001
 40
0.0
 40
0.0
 40
0.0
 40
0.0
 40
0.2603296337344833
 40
0.5282090558860122
 40
0.7614184377367894
 40
1.0
 40
1.0
 40
1.0
 40
1.0
 10
384.9572708955451
 20
415.3918897033293
 30
0.0
 10
386.2302106407858
 20
414.4278474860493
 30
0.0
 10
388.8130065038151
 20
412.4718049790212
 30
0.0
 10
392.335438933206
 20
409.8041482599072
 30
0.0
 10
395.5322942735351
 20
407.3830523344876
 30
0.0
 10
397.307885911492
 20
406.0383369041829
 30
0.0
 10
398.2057908675119
 20
405.3583231986124
 30
0.0
  0
SPLINE
  5
EE
330
1F
100
AcDbEntity
  8
0
  6
Continuous
 62
     7
370
    25
100
AcDbSpline
210
0.0
220
0.0
230
1.0
 70
     8
 71
     3
 72
    12
 73
     8
 74
     0
 42
0.000000001
 43
0.00000001
 40
0.0
 40
0.0
 40
0.0
 40
0.0
 40
0.2229011884036078
 40
0.4458325942679246
 40
0.6679309361410826
 40
0.88891508945438
 40
1.0
 40
1.0
 40
1.0
 40
1.0
 10
384.9572708955451
 20
415.3918897033293
 30
0.0
 10
384.8896417050577
 20
415.4333500032945
 30
0.0
 10
384.7543741559737
 20
415.5162762237649
 30
0.0
 10
384.5131998858502
 20
415.5464201854739
 30
0.0
 10
384.278997498694
 20
415.4995270779648
 30
0.0
 10
384.1045478501838
 20
415.3982833319081
 30
0.0
 10
384.0243671685303
 20
415.3117188905458
 30
0.0
 10
383.997544845049
 20
415.2827610493262
 30
0.0
  0
LINE
  5
EF
330
1F
100
AcDbEntity
  8
0
  6
Continuous
 62
     7
370
    25
100
AcDbLine
 10
383.6434513456
 20
414.859087509
 30
0.0
 11
383.997544845
 21
415.2827610493
 31
0.0
  0
SPLINE
  5
F0
330
1F
100
AcDbEntity
  8
0
  6
Continuous
 62
     7
370
    25
100
AcDbSpline
210
0.0
220
0.0
230
1.0
 70
     8
 71
     3
 72
    12
 73
     8
 74
     0
 42
0.000000001
 43
0.00000001
 40
0.0
 40
0.0
 40
0.0
 40
0.0
 40
0.2201329787240127
 40
0.4402545601954378
 40
0.6607420195439955
 40
0.8821585411757041
 40
1.0
 40
1.0
 40
1.0
 40
1.0
 10
383.6434513455673
 20
414.8590875089724
 30
0.0
 10
383.5990491622825
 20
414.7939689935554
 30
0.0
 10
383.5102470946092
 20
414.6637353341936
 30
0.0
 10
383.4681077219368
 20
414.4264231264077
 30
0.0
 10
383.5019447054653
 20
414.1917265351858
 30
0.0
 10
383.5936466245932
 20
414.0108022145591
 30
0.0
 10
383.6773369910201
 20
413.9250262914614
 30
0.0
 10
383.7064068889662
 20
413.8952319741804
 30
0.0
  0
SPLINE
  5
F1
330
1F
100
AcDbEntity
  8
0
  6
Continuous
 62
     7
370
    25
100
AcDbSpline
210
0.0
220
0.0
230
1.0
 70
     8
 71
     3
 72
    11
 73
     7
 74
     0
 42
0.000000001
 43
0.00000001
 40
0.0
 40
0.0
 40
0.0
 40
0.0
 40
0.2832268649768581
 40
0.5762692403727373
 40
0.7861909802266551
 40
0.9999999999999999
 40
0.9999999999999999
 40
0.9999999999999999
 40
0.9999999999999999
 10
395.9322592368766
 20
402.6380417168696
 30
0.0
 10
394.9410331007262
 20
403.550732242551
 30
0.0
 10
392.9242288947987
 20
405.4077434973726
 30
0.0
 10
389.6918538956613
 20
408.3840180474265
 30
0.0
 10
386.584952128565
 20
411.2447571693941
 30
0.0
 10
384.671772433106
 20
413.0063534472936
 30
0.0
 10
383.7064068889662
 20
413.8952319741804
 30
0.0
  0
SPLINE
  5
F2
330
1F
100
AcDbEntity
  8
0
  6
Continuous
 62
     7
370
    25
100
AcDbSpline
210
0.0
220
0.0
230
1.0
 70
     8
 71
     3
 72
    12
 73
     8
 74
     0
 42
0.000000001
 43
0.00000001
 40
0.0
 40
0.0
 40
0.0
 40
0.0
 40
0.3203296932892237
 40
0.5619267570207508
 40
0.738930539425718
 40
0.8801299788891255
 40
1.0
 40
1.0
 40
1.0
 40
1.0
 10
403.9701392999335
 20
416.6564879239161
 30
0.0
 10
404.0749871586165
 20
416.6385513246044
 30
0.0
 10
404.2589127154554
 20
416.6070866952106
 30
0.0
 10
404.5117836357275
 20
416.6982697343788
 30
0.0
 10
404.6854040295559
 20
416.8353024051365
 30
0.0
 10
404.7988076665143
 20
416.9905406347299
 30
0.0
 10
404.835671305109
 20
417.1030931159676
 30
0.0
 10
404.8525972417041
 20
417.1547715783674
 30
0.0
  0
LINE
  5
F3
330
1F
100
AcDbEntity
  8
0
  6
Continuous
 62
     7
370
    25
100
AcDbLine
 10
405.3782841316
 20
419.2362849832
 30
0.0
 11
404.8525972417
 21
417.1547715784
 31
0.0
  0
SPLINE
  5
F4
330
1F
100
AcDbEntity
  8
0
  6
Continuous
 62
     7
370
    25
100
AcDbSpline
210
0.0
220
0.0
230
1.0
 70
     8
 71
     3
 72
    13
 73
     9
 74
     0
 42
0.000000001
 43
0.00000001
 40
0.0
 40
0.0
 40
0.0
 40
0.0
 40
0.1368516810734683
 40
0.2731548403699727
 40
0.4606987944950606
 40
0.5051897535806287
 40
0.7678000400678685
 40
1.0
 40
1.0
 40
1.0
 40
1.0
 10
405.3782841315909
 20
419.2362849832136
 30
0.0
 10
405.3887254010533
 20
419.2976741559992
 30
0.0
 10
405.4095660898258
 20
419.420206444687
 30
0.0
 10
405.3767948500117
 20
419.6176036072685
 30
0.0
 10
405.3157285043853
 20
419.7492632659645
 30
0.0
 10
405.2108500543964
 20
419.8969862059368
 30
0.0
 10
405.0680833616713
 20
420.0244675558787
 30
0.0
 10
404.9116471711515
 20
420.0716700054535
 30
0.0
 10
404.8382362476035
 20
420.0938207328875
 30
0.0
  0
SPLINE
  5
F5
330
1F
100
AcDbEntity
  8
0
  6
Continuous
 62
     7
370
    25
100
AcDbSpline
210
0.0
220
0.0
230
1.0
 70
     8
 71
     3
 72
    11
 73
     7
 74
     0
 42
0.000000001
 43
0.00000001
 40
0.0
 40
0.0
 40
0.0
 40
0.0
 40
0.2603295489546924
 40
0.5282090537474554
 40
0.7614184333403582
 40
1.0
 40
1.0
 40
1.0
 40
1.0
 10
388.5483315339728
 20
423.3854350865442
 30
0.0
 10
390.1134925752944
 20
423.0691726674748
 30
0.0
 10
393.2892067265247
 20
422.4274757345553
 30
0.0
 10
397.6202603413593
 20
421.5523192592822
 30
0.0
 10
401.551003441262
 20
420.7580587195868
 30
0.0
 10
403.7342054205988
 20
420.3169078268008
 30
0.0
 10
404.8382362476035
 20
420.0938207328875
 30
0.0
  0
SPLINE
  5
F6
330
1F
100
AcDbEntity
  8
0
  6
Continuous
 62
     7
370
    25
100
AcDbSpline
210
0.0
220
0.0
230
1.0
 70
     8
 71
     3
 72
    12
 73
     8
 74
     0
 42
0.000000001
 43
0.00000001
 40
0.0
 40
0.0
 40
0.0
 40
0.0
 40
0.2229023430655548
 40
0.4458341240181739
 40
0.6679333530382644
 40
0.8889150343759692
 40
1.0
 40
1.0
 40
1.0
 40
1.0
 10
388.5483315339728
 20
423.3854350865442
 30
0.0
 10
388.4694105927051
 20
423.3934462095197
 30
0.0
 10
388.3115582873732
 20
423.4094695134698
 30
0.0
 10
388.0811879038263
 20
423.3319881275975
 30
0.0
 10
387.8905265151989
 20
423.188122072353
 30
0.0
 10
387.7772793072372
 20
423.0212160290067
 30
0.0
 10
387.7425987924602
 20
422.9084358994166
 30
0.0
 10
387.7309972545548
 20
422.8707080007155
 30
0.0
  0
LINE
  5
F7
330
1F
100
AcDbEntity
  8
0
  6
Continuous
 62
     7
370
    25
100
AcDbLine
 10
387.5957934311
 20
422.3353539825
 30
0.0
 11
387.7309972546
 21
422.8707080007
 31
0.0
  0
SPLINE
  5
F8
330
1F
100
AcDbEntity
  8
0
  6
Continuous
 62
     7
370
    25
100
AcDbSpline
210
0.0
220
0.0
230
1.0
 70
     8
 71
     3
 72
    12
 73
     8
 74
     0
 42
0.000000001
 43
0.00000001
 40
0.0
 40
0.0
 40
0.0
 40
0.0
 40
0.2201336630538979
 40
0.44025247741492
 40
0.6607418355925261
 40
0.8821572761711033
 40
1.0
 40
1.0
 40
1.0
 40
1.0
 10
387.5957934311076
 20
422.3353539825041
 30
0.0
 10
387.5840429989302
 20
422.2574185295401
 30
0.0
 10
387.560542927178
 20
422.1015528805983
 30
0.0
 10
387.6255402365754
 20
421.8694577105985
 30
0.0
 10
387.7578592260302
 20
421.6726865309749
 30
0.0
 10
387.9189789254725
 20
421.5494647799993
 30
0.0
 10
388.0315987068117
 20
421.508496047757
 30
0.0
 10
388.0707176527425
 20
421.494265389498
 30
0.0
  0
SPLINE
  5
F9
330
1F
100
AcDbEntity
  8
0
  6
Continuous
 62
     7
370
    25
100
AcDbSpline
210
0.0
220
0.0
230
1.0
 70
     8
 71
     3
 72
    11
 73
     7
 74
     0
 42
0.000000001
 43
0.00000001
 40
0.0
 40
0.0
 40
0.0
 40
0.0
 40
0.2832268793442865
 40
0.5762691375964765
 40
0.786190960024487
 40
1.0
 40
1.0
 40
1.0
 40
1.0
 10
403.9701392999335
 20
416.6564879239161
 30
0.0
 10
402.6810741990388
 20
417.0487175204543
 30
0.0
 10
400.058270757084
 20
417.8467696398723
 30
0.0
 10
395.8546445017236
 20
419.1258195416349
 30
0.0
 10
391.8141950862614
 20
420.3552231718281
 30
0.0
 10
389.3261517255652
 20
421.1122696553599
 30
0.0
 10
388.0707176527425
 20
421.494265389498
 30
0.0
  0
SPLINE
  5
FA
330
1F
100
AcDbEntity
  8
0
  6
Continuous
 62
     7
370
    25
100
AcDbSpline
210
0.0
220
0.0
230
1.0
 70
     8
 71
     3
 72
    12
 73
     8
 74
     0
 42
0.000000001
 43
0.00000001
 40
0.0
 40
0.0
 40
0.0
 40
0.0
 40
0.3203288541756648
 40
0.5619274488611781
 40
0.7389326086650787
 40
0.8801305617163468
 40
1.0
 40
1.0
 40
1.0
 40
1.0
 10
405.1296470812007
 20
432.7741761923392
 30
0.0
 10
405.2318937509338
 20
432.8035066088969
 30
0.0
 10
405.4112569569913
 20
432.8549586274568
 30
0.0
 10
405.5995141480025
 20
433.0468350706897
 30
0.0
 10
405.6964973338092
 20
433.2456232935216
 30
0.0
 10
405.7313046203082
 20
433.4346925098482
 30
0.0
 10
405.7156870455228
 20
433.5520920903182
 30
0.0
 10
405.7085162153884
 20
433.6059962630827
 30
0.0
  0
LINE
  5
FB
330
1F
100
AcDbEntity
  8
0
  6
Continuous
 62
     7
370
    25
100
AcDbLine
 10
405.2790088704
 20
435.7094665289
 30
0.0
 11
405.7085162154
 21
433.6059962631
 31
0.0
  0
SPLINE
  5
FC
330
1F
100
AcDbEntity
  8
0
  6
Continuous
 62
     7
370
    25
100
AcDbSpline
210
0.0
220
0.0
230
1.0
 70
     8
 71
     3
 72
    12
 73
     8
 74
     0
 42
0.000000001
 43
0.00000001
 40
0.0
 40
0.0
 40
0.0
 40
0.0
 40
0.1335502124324347
 40
0.237449769308259
 40
0.4314226963072614
 40
0.6784610052383999
 40
1.0
 40
1.0
 40
1.0
 40
1.0
 10
405.2790088704272
 20
435.709466528948
 30
0.0
 10
405.2624048498708
 20
435.7678356566632
 30
0.0
 10
405.2328832131853
 20
435.8716148694273
 30
0.0
 10
405.1313237604816
 20
436.0296805458131
 30
0.0
 10
404.9698926255974
 20
436.1766697293497
 30
0.0
 10
404.7137107604994
 20
436.2838955248052
 30
0.0
 10
404.5263345134563
 20
436.2608155809688
 30
0.0
 10
404.420370434825
 20
436.2477635264952
 30
0.0
  0
SPLINE
  5
FD
330
1F
100
AcDbEntity
  8
0
  6
Continuous
 62
     7
370
    25
100
AcDbSpline
210
0.0
220
0.0
230
1.0
 70
     8
 71
     3
 72
    11
 73
     7
 74
     0
 42
0.000000001
 43
0.00000001
 40
0.0
 40
0.0
 40
0.0
 40
0.0
 40
0.2603296204624472
 40
0.5282090262483066
 40
0.7614183846912614
 40
1.0
 40
1.0
 40
1.0
 40
1.0
 10
388.3154934397384
 20
432.1454738498289
 30
0.0
 10
389.8628770129921
 20
432.5396280412292
 30
0.0
 10
393.0025196284158
 20
433.3393672382572
 30
0.0
 10
397.2843793172509
 20
434.4300570787879
 30
0.0
 10
401.1704750471213
 20
435.4199322863478
 30
0.0
 10
403.3288794297902
 20
435.9697329302716
 30
0.0
 10
404.420370434825
 20
436.2477635264952
 30
0.0
  0
SPLINE
  5
FE
330
1F
100
AcDbEntity
  8
0
  6
Continuous
 62
     7
370
    25
100
AcDbSpline
210
0.0
220
0.0
230
1.0
 70
     8
 71
     3
 72
    12
 73
     8
 74
     0
 42
0.000000001
 43
0.00000001
 40
0.0
 40
0.0
 40
0.0
 40
0.0
 40
0.2228985081670031
 40
0.4458351503307429
 40
0.6679285345959106
 40
0.88891588814883
 40
1.0
 40
1.0
 40
1.0
 40
1.0
 10
388.3154934397384
 20
432.1454738498289
 30
0.0
 10
388.2409125350556
 20
432.1184516645179
 30
0.0
 10
388.0917379662149
 20
432.0644026708775
 30
0.0
 10
387.9178084084468
 20
431.8946336642686
 30
0.0
 10
387.808441876448
 20
431.6822937326821
 30
0.0
 10
387.7788311724967
 20
431.4827796320598
 30
0.0
 10
387.7965185317145
 20
431.3661195907628
 30
0.0
 10
387.8024352839633
 20
431.3270946264822
 30
0.0
  0
LINE
  5
FF
330
1F
100
AcDbEntity
  8
0
  6
Continuous
 62
     7
370
    25
100
AcDbLine
 10
387.9129013172
 20
430.7860930682
 30
0.0
 11
387.802435284
 21
431.3270946265
 31
0.0
  0
SPLINE
  5
100
330
1F
100
AcDbEntity
  8
0
  6
Continuous
 62
     7
370
    25
100
AcDbSpline
210
0.0
220
0.0
230
1.0
 70
     8
 71
     3
 72
    12
 73
     8
 74
     0
 42
0.000000001
 43
0.00000001
 40
0.0
 40
0.0
 40
0.0
 40
0.0
 40
0.2201303240806063
 40
0.4402519091786898
 40
0.6607421817554124
 40
0.8821580620505511
 40
1.0
 40
1.0
 40
1.0
 40
1.0
 10
387.9129013171836
 20
430.7860930681784
 30
0.0
 10
387.9361288911342
 20
430.7107785000244
 30
0.0
 10
387.9825831169208
 20
430.5601523536395
 30
0.0
 10
388.1418492673085
 20
430.3792464970438
 30
0.0
 10
388.3464382946111
 20
430.2593696387747
 30
0.0
 10
388.5450660546529
 20
430.2182541246273
 30
0.0
 10
388.6643079730964
 20
430.230209832716
 30
0.0
 10
388.705726911728
 20
430.234362673815
 30
0.0
  0
SPLINE
  5
101
330
1F
100
AcDbEntity
  8
0
  6
Continuous
 62
     7
370
    25
100
AcDbSpline
210
0.0
220
0.0
230
1.0
 70
     8
 71
     3
 72
    11
 73
     7
 74
     0
 42
0.000000001
 43
0.00000001
 40
0.0
 40
0.0
 40
0.0
 40
0.0
 40
0.2832269882686047
 40
0.5762691325749724
 40
0.7861909719725926
 40
1.0
 40
1.0
 40
1.0
 40
1.0
 10
405.1296470812007
 20
432.7741761923392
 30
0.0
 10
403.798056518627
 20
432.5682564641921
 30
0.0
 10
401.0887294762775
 20
432.1492809144227
 30
0.0
 10
396.7464322949243
 20
431.4777943008584
 30
0.0
 10
392.5726970624571
 20
430.8323475021281
 30
0.0
 10
390.0025761524358
 20
430.4349062881499
 30
0.0
 10
388.705726911728
 20
430.234362673815
 30
0.0
  0
SPLINE
  5
102
330
1F
100
AcDbEntity
  8
0
  6
Continuous
 62
     7
370
    25
100
AcDbSpline
210
0.0
220
0.0
230
1.0
 70
     8
 71
     3
 72
    12
 73
     8
 74
     0
 42
0.000000001
 43
0.00000001
 40
0.0
 40
0.0
 40
0.0
 40
0.0
 40
0.1369195209948726
 40
0.2732916967983935
 40
0.4609274456797927
 40
0.7173055716762535
 40
1.0
 40
1.0
 40
1.0
 40
1.0
 10
340.4414637139483
 20
404.0025783002932
 30
0.0
 10
340.4829392657417
 20
403.956151670806
 30
0.0
 10
340.5657245679606
 20
403.8634840054727
 30
0.0
 10
340.7406672602348
 20
403.7658333744623
 30
0.0
 10
340.9616867771021
 20
403.7129150812989
 30
0.0
 10
341.2218117284507
 20
403.7398414068323
 30
0.0
 10
341.370601129589
 20
403.8384371213843
 30
0.0
 10
341.4486276111051
 20
403.890141588505
 30
0.0
  0
SPLINE
  5
103
330
1F
100
AcDbEntity
  8
0
  6
Continuous
 62
     7
370
    25
100
AcDbSpline
210
0.0
220
0.0
230
1.0
 70
     8
 71
     3
 72
    11
 73
     7
 74
     0
 42
0.000000001
 43
0.00000001
 40
0.0
 40
0.0
 40
0.0
 40
0.0
 40
0.2603295836764269
 40
0.5282090530088662
 40
0.7614184113824917
 40
1.0
 40
1.0
 40
1.0
 40
1.0
 10
354.1787054514929
 20
414.5738122284968
 30
0.0
 10
352.9555782047628
 20
413.5473078121752
 30
0.0
 10
350.4738514813504
 20
411.4645290591905
 30
0.0
 10
347.0892615550313
 20
408.6240234278181
 30
0.0
 10
344.0175028623109
 20
406.0460620441931
 30
0.0
 10
342.3113951136068
 20
404.6142164949347
 30
0.0
 10
341.4486276111051
 20
403.890141588505
 30
0.0
  0
SPLINE
  5
104
330
1F
100
AcDbEntity
  8
0
  6
Continuous
 62
     7
370
    25
100
AcDbSpline
210
0.0
220
0.0
230
1.0
 70
     8
 71
     3
 72
    12
 73
     8
 74
     0
 42
0.000000001
 43
0.00000001
 40
0.0
 40
0.0
 40
0.0
 40
0.0
 40
0.2229009072201283
 40
0.4458327388624537
 40
0.6679323440003284
 40
0.8889144541595543
 40
1.0
 40
1.0
 40
1.0
 40
1.0
 10
354.1787054514929
 20
414.5738122284968
 30
0.0
 10
354.2341748498434
 20
414.6305201594722
 30
0.0
 10
354.3451213421573
 20
414.7439438888654
 30
0.0
 10
354.428176453622
 20
414.9723640874338
 30
0.0
 10
354.4345737070875
 20
415.2111289888968
 30
0.0
 10
354.3746889229121
 20
415.4037342849987
 30
0.0
 10
354.3081363593723
 20
415.5011663067613
 30
0.0
 10
354.2858727401539
 20
415.5337599337656
 30
0.0
  0
SPLINE
  5
105
330
1F
100
AcDbEntity
  8
0
  6
Continuous
 62
     7
370
    25
100
AcDbSpline
210
0.0
220
0.0
230
1.0
 70
     8
 71
     3
 72
     9
 73
     5
 74
     0
 42
0.000000001
 43
0.00000001
 40
0.0
 40
0.0
 40
0.0
 40
0.0
 40
0.4999973149610002
 40
1.0
 40
1.0
 40
1.0
 40
1.0
 10
353.9516154801889
 20
415.9732510567267
 30
0.0
 10
354.0073251730971
 20
415.9000032708793
 30
0.0
 10
354.1187451572475
 20
415.7535069124879
 30
0.0
 10
354.2301633464103
 20
415.6070091889077
 30
0.0
 10
354.2858727401539
 20
415.5337599337656
 30
0.0
  0
SPLINE
  5
106
330
1F
100
AcDbEntity
  8
0
  6
Continuous
 62
     7
370
    25
100
AcDbSpline
210
0.0
220
0.0
230
1.0
 70
     8
 71
     3
 72
    12
 73
     8
 74
     0
 42
0.000000001
 43
0.00000001
 40
0.0
 40
0.0
 40
0.0
 40
0.0
 40
0.2201352912312935
 40
0.4402547167501791
 40
0.6607436775633282
 40
0.8821602130441398
 40
1.0
 40
1.0
 40
1.0
 40
1.0
 10
353.9516154801889
 20
415.9732510567267
 30
0.0
 10
353.8980097458663
 20
416.0310315185288
 30
0.0
 10
353.7908021407231
 20
416.1465882777476
 30
0.0
 10
353.5688151534824
 20
416.240475967372
 30
0.0
 10
353.3324728940871
 20
416.2597171288297
 30
0.0
 10
353.1356804913474
 20
416.210566713106
 30
0.0
 10
353.0334318228397
 20
416.148063398535
 30
0.0
 10
352.9979160180732
 20
416.1263530374129
 30
0.0
  0
SPLINE
  5
107
330
1F
100
AcDbEntity
  8
0
  6
Continuous
 62
     7
370
    25
100
AcDbSpline
210
0.0
220
0.0
230
1.0
 70
     8
 71
     3
 72
    11
 73
     7
 74
     0
 42
0.000000001
 43
0.00000001
 40
0.0
 40
0.0
 40
0.0
 40
0.0
 40
0.2832268725175713
 40
0.5762691125207862
 40
0.7861909783404124
 40
1.0
 40
1.0
 40
1.0
 40
1.0
 10
339.3024599304839
 20
406.7119893849451
 30
0.0
 10
340.412836571878
 20
407.4752698242227
 30
0.0
 10
342.6720705068935
 20
409.0282825642821
 30
0.0
 10
346.2929912688913
 20
411.5173343755525
 30
0.0
 10
349.7733566809739
 20
413.9097655078742
 30
0.0
 10
351.9165093998118
 20
415.3829855959083
 30
0.0
 10
352.9979160180732
 20
416.1263530374129
 30
0.0
  0
SPLINE
  5
108
330
1F
100
AcDbEntity
  8
0
  6
Continuous
 62
     7
370
    25
100
AcDbSpline
210
0.0
220
0.0
230
1.0
 70
     8
 71
     3
 72
    12
 73
     8
 74
     0
 42
0.000000001
 43
0.00000001
 40
0.0
 40
0.0
 40
0.0
 40
0.0
 40
0.3203294378360103
 40
0.5619285544086448
 40
0.7389314311684413
 40
0.8801304760884341
 40
1.0
 40
1.0
 40
1.0
 40
1.0
 10
339.3024599304839
 20
406.7119893849451
 30
0.0
 10
339.2230642673639
 20
406.6412002022193
 30
0.0
 10
339.083786745745
 20
406.5170203472999
 30
0.0
 10
338.9974232092801
 20
406.2624616912113
 30
0.0
 10
338.9963018831747
 20
406.0412822229439
 30
0.0
 10
339.0469706754592
 20
405.8558326671026
 30
0.0
 10
339.1119800918346
 20
405.7568349132429
 30
0.0
 10
339.1418291381045
 20
405.7113801360686
 30
0.0
  0
LINE
  5
109
330
1F
100
AcDbEntity
  8
0
  6
Continuous
 62
     7
370
    25
100
AcDbLine
 10
339.1418291381
 20
405.7113801361
 30
0.0
 11
339.791646426
 21
404.8569810808
 31
0.0
  0
LINE
  5
10A
330
1F
100
AcDbEntity
  8
0
  6
Continuous
 62
     7
370
    25
100
AcDbLine
 10
340.4414637139
 20
404.0025783003
 30
0.0
 11
339.791646426
 21
404.8569810808
 31
0.0
  0
SPLINE
  5
10B
330
1F
100
AcDbEntity
  8
0
  6
Continuous
 62
     7
370
    25
100
AcDbSpline
210
0.0
220
0.0
230
1.0
 70
     8
 71
     3
 72
    12
 73
     8
 74
     0
 42
0.000000001
 43
0.00000001
 40
0.0
 40
0.0
 40
0.0
 40
0.0
 40
0.2201311932958143
 40
0.4402541338396634
 40
0.6607435009212035
 40
0.8821598457290597
 40
1.0
 40
1.0
 40
1.0
 40
1.0
 10
384.5319666093632
 20
438.5375355601866
 30
0.0
 10
384.5855731179918
 20
438.4797589587996
 30
0.0
 10
384.6927841255329
 20
438.3642079220789
 30
0.0
 10
384.9147646217612
 20
438.2703066759373
 30
0.0
 10
385.1511090712974
 20
438.2510766095529
 30
0.0
 10
385.3479019679771
 20
438.300219228276
 30
0.0
 10
385.4501502935998
 20
438.3627230023885
 30
0.0
 10
385.485666071479
 20
438.3844335795004
 30
0.0
  0
SPLINE
  5
10C
330
1F
100
AcDbEntity
  8
0
  6
Continuous
 62
     7
370
    25
100
AcDbSpline
210
0.0
220
0.0
230
1.0
 70
     8
 71
     3
 72
    11
 73
     7
 74
     0
 42
0.000000001
 43
0.00000001
 40
0.0
 40
0.0
 40
0.0
 40
0.0
 40
0.2832269337071994
 40
0.5762690434129806
 40
0.7861908881498507
 40
1.0
 40
1.0
 40
1.0
 40
1.0
 10
399.1811221590682
 20
447.7988009572584
 30
0.0
 10
398.0707457732625
 20
447.0355187360709
 30
0.0
 10
395.8115131173099
 20
445.4825028922012
 30
0.0
 10
392.1905901128495
 20
442.9934562343654
 30
0.0
 10
388.71022450881
 20
440.6010249357849
 30
0.0
 10
386.5670725739514
 20
439.1278024321965
 30
0.0
 10
385.4856660714789
 20
438.3844335795004
 30
0.0
  0
SPLINE
  5
10D
330
1F
100
AcDbEntity
  8
0
  6
Continuous
 62
     7
370
    25
100
AcDbSpline
210
0.0
220
0.0
230
1.0
 70
     8
 71
     3
 72
    12
 73
     8
 74
     0
 42
0.000000001
 43
0.00000001
 40
0.0
 40
0.0
 40
0.0
 40
0.0
 40
0.3203283701441329
 40
0.5619278112511487
 40
0.7389309257747246
 40
0.8801326801341218
 40
0.9999999999999999
 40
0.9999999999999999
 40
0.9999999999999999
 40
0.9999999999999999
 10
399.1811221590682
 20
447.7988009572584
 30
0.0
 10
399.2605178282964
 20
447.8695886566648
 30
0.0
 10
399.3997956406618
 20
447.9937661591852
 30
0.0
 10
399.4861591512586
 20
448.2483251838897
 30
0.0
 10
399.4872794551727
 20
448.4695049709296
 30
0.0
 10
399.4366130900329
 20
448.6549562156542
 30
0.0
 10
399.3716021093404
 20
448.7539530497447
 30
0.0
 10
399.3417529514476
 20
448.7994064808447
 30
0.0
  0
LINE
  5
10E
330
1F
100
AcDbEntity
  8
0
  6
Continuous
 62
     7
370
    25
100
AcDbLine
 10
398.6919356635
 20
449.6538092614
 30
0.0
 11
399.3417529514
 21
448.7994064808
 31
0.0
  0
LINE
  5
10F
330
1F
100
AcDbEntity
  8
0
  6
Continuous
 62
     7
370
    25
100
AcDbLine
 10
398.6919356635
 20
449.6538092614
 30
0.0
 11
398.0421183756
 21
450.5082120419
 31
0.0
  0
SPLINE
  5
110
330
1F
100
AcDbEntity
  8
0
  6
Continuous
 62
     7
370
    25
100
AcDbSpline
210
0.0
220
0.0
230
1.0
 70
     8
 71
     3
 72
    12
 73
     8
 74
     0
 42
0.000000001
 43
0.00000001
 40
0.0
 40
0.0
 40
0.0
 40
0.0
 40
0.1369213827573265
 40
0.2732921497907886
 40
0.4609277817097602
 40
0.7173057478933484
 40
0.9999999999999999
 40
0.9999999999999999
 40
0.9999999999999999
 40
0.9999999999999999
 10
398.0421183756038
 20
450.5082120419104
 30
0.0
 10
398.0006431902119
 20
450.5546404678569
 30
0.0
 10
397.9178596077613
 20
450.6473106124522
 30
0.0
 10
397.7429134360668
 20
450.7449555532185
 30
0.0
 10
397.5218956895171
 20
450.7978759119603
 30
0.0
 10
397.2617702423272
 20
450.7709487302919
 30
0.0
 10
397.1129809191038
 20
450.6723531502702
 30
0.0
 10
397.034954478447
 20
450.6206487536986
 30
0.0
  0
SPLINE
  5
111
330
1F
100
AcDbEntity
  8
0
  6
Continuous
 62
     7
370
    25
100
AcDbSpline
210
0.0
220
0.0
230
1.0
 70
     8
 71
     3
 72
    11
 73
     7
 74
     0
 42
0.000000001
 43
0.00000001
 40
0.0
 40
0.0
 40
0.0
 40
0.0
 40
0.2603295859795406
 40
0.5282089373239014
 40
0.7614184092717808
 40
1.0
 40
1.0
 40
1.0
 40
1.0
 10
384.3048766380592
 20
439.9369781137068
 30
0.0
 10
385.5280036640546
 20
440.9634828862583
 30
0.0
 10
388.0097293741086
 20
443.0462618874511
 30
0.0
 10
391.3943225892647
 20
445.8867622224955
 30
0.0
 10
394.4660782158797
 20
448.464729000611
 30
0.0
 10
396.1721867717087
 20
449.8965741969021
 30
0.0
 10
397.0349544784471
 20
450.6206487536986
 30
0.0
  0
SPLINE
  5
112
330
1F
100
AcDbEntity
  8
0
  6
Continuous
 62
     7
370
    25
100
AcDbSpline
210
0.0
220
0.0
230
1.0
 70
     8
 71
     3
 72
    12
 73
     8
 74
     0
 42
0.000000001
 43
0.00000001
 40
0.0
 40
0.0
 40
0.0
 40
0.0
 40
0.2229037123934462
 40
0.4458356944372323
 40
0.6679354494151042
 40
0.8889143792154415
 40
1.0
 40
1.0
 40
1.0
 40
1.0
 10
384.3048766380593
 20
439.9369781137068
 30
0.0
 10
384.2494073091366
 20
439.8802688526896
 30
0.0
 10
384.1384616164218
 20
439.766843138532
 30
0.0
 10
384.0554056284898
 20
439.5384227026947
 30
0.0
 10
384.0490079106589
 20
439.2996586255043
 30
0.0
 10
384.1088939438893
 20
439.1070551129855
 30
0.0
 10
384.1754457577455
 20
439.0096240436324
 30
0.0
 10
384.1977093493982
 20
438.9770304084379
 30
0.0
  0
SPLINE
  5
113
330
1F
100
AcDbEntity
  8
0
  6
Continuous
 62
     7
370
    25
100
AcDbSpline
210
0.0
220
0.0
230
1.0
 70
    24
 71
     3
 72
     9
 73
     5
 74
     0
 42
0.000000001
 43
0.00000001
 40
0.0
 40
0.0
 40
0.0
 40
0.0
 40
0.4999999999999999
 40
0.9999999999999999
 40
0.9999999999999999
 40
0.9999999999999999
 40
0.9999999999999999
 10
384.5319666093632
 20
438.5375355601866
 30
0.0
 10
384.4762570660357
 20
438.6107847015618
 30
0.0
 10
384.3648379793807
 20
438.7572829843123
 30
0.0
 10
384.2534188927257
 20
438.9037812670627
 30
0.0
 10
384.1977093493982
 20
438.9770304084379
 30
0.0
  0
SPLINE
  5
114
330
1F
100
AcDbEntity
  8
0
  6
Continuous
 62
     7
370
    25
100
AcDbSpline
210
0.0
220
0.0
230
1.0
 70
     8
 71
     3
 72
    19
 73
    15
 74
     0
 42
0.000000001
 43
0.00000001
 40
0.0
 40
0.0
 40
0.0
 40
0.0
 40
0.0903185374914314
 40
0.2045632318995751
 40
0.2714199557082139
 40
0.3439361990411834
 40
0.4207855409090051
 40
0.4999999698189933
 40
0.5792144383613751
 40
0.6560637695671369
 40
0.7285800625086855
 40
0.7954368413959033
 40
0.9096815961607848
 40
1.0
 40
1.0
 40
1.0
 40
1.0
 10
361.7793495892032
 20
430.6542103410322
 30
0.0
 10
362.1593283699345
 20
431.3329840608001
 30
0.0
 10
363.0199455765299
 20
432.8703444931188
 30
0.0
 10
364.9121055044312
 20
434.3466806241551
 30
0.0
 10
366.9218015969166
 20
435.1894352060503
 30
0.0
 10
368.7617816957059
 20
435.5168500849301
 30
0.0
 10
370.733560912468
 20
435.4023738655893
 30
0.0
 10
372.6758463295018
 20
434.7952043144879
 30
0.0
 10
374.408817893397
 20
433.7284616143523
 30
0.0
 10
375.7894462141276
 20
432.3160564211263
 30
0.0
 10
376.7501925414538
 20
430.7130298220931
 30
0.0
 10
377.4335664251946
 20
428.6437011558032
 30
0.0
 10
377.5617940356734
 20
426.2471629816026
 30
0.0
 10
376.966892493136
 20
424.5887820255759
 30
0.0
 10
376.7042325003489
 20
423.856576275881
 30
0.0
  0
SPLINE
  5
115
330
1F
100
AcDbEntity
  8
0
  6
Continuous
 62
     7
370
    25
100
AcDbSpline
210
0.0
220
0.0
230
1.0
 70
     8
 71
     3
 72
    19
 73
    15
 74
     0
 42
0.000000001
 43
0.00000001
 40
0.0
 40
0.0
 40
0.0
 40
0.0
 40
0.0903184369374616
 40
0.2045632499070928
 40
0.2714199339031644
 40
0.3439361946083812
 40
0.4207855464700884
 40
0.5000000376472548
 40
0.5792146012075976
 40
0.6560639508236564
 40
0.7285801366846756
 40
0.7954369315883394
 40
0.9096817137220978
 40
1.0
 40
1.0
 40
1.0
 40
1.0
 10
376.7042325003489
 20
423.856576275881
 30
0.0
 10
376.3242532727047
 20
423.1778042850001
 30
0.0
 10
375.463634019983
 20
421.6404459215395
 30
0.0
 10
373.571479018705
 20
420.1641041912998
 30
0.0
 10
371.561779410277
 20
419.3213559505788
 30
0.0
 10
369.721800766665
 20
418.9939414019317
 30
0.0
 10
367.7500203736142
 20
419.1084105402995
 30
0.0
 10
365.8077353444378
 20
419.715586738731
 30
0.0
 10
364.0747649967699
 20
420.7823324632942
 30
0.0
 10
362.6941370827521
 20
422.1947370717021
 30
0.0
 10
361.7333886253995
 20
423.7977612222832
 30
0.0
 10
361.0500160135044
 20
425.8670893141401
 30
0.0
 10
360.9217875557749
 20
428.2636262326475
 30
0.0
 10
361.5166896006876
 20
429.922005824067
 30
0.0
 10
361.7793495892032
 20
430.6542103410322
 30
0.0
  0
SPLINE
  5
116
330
1F
100
AcDbEntity
  8
0
  6
Continuous
 62
     7
370
    25
100
AcDbSpline
210
0.0
220
0.0
230
1.0
 70
     8
 71
     3
 72
     9
 73
     5
 74
     0
 42
0.000000001
 43
0.00000001
 40
0.0
 40
0.0
 40
0.0
 40
0.0
 40
0.7733293869242798
 40
1.0
 40
1.0
 40
1.0
 40
1.0
 10
377.4132851636454
 20
423.5336345851977
 30
0.0
 10
377.4283487471774
 20
423.5267740388468
 30
0.0
 10
377.447827618389
 20
423.5179025974317
 30
0.0
 10
377.4211744073256
 20
423.530041204161
 30
0.0
 10
377.4151329076334
 20
423.5327926695902
 30
0.0
  0
SPLINE
  5
117
330
1F
100
AcDbEntity
  8
0
  6
Continuous
 62
     7
370
    25
100
AcDbSpline
210
0.0
220
0.0
230
1.0
 70
     8
 71
     3
 72
    13
 73
     9
 74
     0
 42
0.000000001
 43
0.00000001
 40
0.0
 40
0.0
 40
0.0
 40
0.0
 40
0.2017367306476474
 40
0.3473525713521929
 40
0.5000012363050125
 40
0.652651482158658
 40
0.798266293678602
 40
1.0
 40
1.0
 40
1.0
 40
1.0
 10
361.1320184668942
 20
430.9490447164137
 30
0.0
 10
361.0966877337382
 20
430.9651358972683
 30
0.0
 10
361.0358548800971
 20
430.9928418734086
 30
0.0
 10
361.0620962462575
 20
430.9808921537989
 30
0.0
 10
361.1473892660878
 20
430.9420423715245
 30
0.0
 10
361.2942679928445
 20
430.8751457970019
 30
0.0
 10
361.505976367875
 20
430.778729311424
 30
0.0
 10
361.6789118210135
 20
430.6999588142099
 30
0.0
 10
361.7793495892032
 20
430.6542103410322
 30
0.0
  0
ARC
  5
118
330
1F
100
AcDbEntity
  8
0
  6
Continuous
 62
     7
370
    25
100
AcDbCircle
 10
369.2417910448
 20
427.2553946496
 30
0.0
 40
8.911311195999975
100
AcDbArc
 50
155.512792029
 51
213.6929108093
  0
CIRCLE
  5
119
330
1F
100
AcDbEntity
  8
0
  6
Continuous
 62
     7
370
    25
100
AcDbCircle
 10
369.2417910448
 20
427.2553946496
 30
0.0
 40
57.00000000000012
  0
SPLINE
  5
11A
330
1F
100
AcDbEntity
  8
0
  6
Continuous
 62
     7
370
    25
100
AcDbSpline
210
0.0
220
0.0
230
1.0
 70
     8
 71
     3
 72
    35
 73
    31
 74
     0
 42
0.000000001
 43
0.00000001
 40
0.0
 40
0.0
 40
0.0
 40
0.0
 40
0.0282546045320069
 40
0.0583834345360691
 40
0.0903495200177339
 40
0.1258616740106122
 40
0.1640104980987543
 40
0.2048405395250376
 40
0.2374624693212385
 40
0.2716126903981788
 40
0.3071914228265689
 40
0.3440549913966255
 40
0.3820151163558663
 40
0.4208413653533347
 40
0.4602672693049566
 40
0.5000000025029342
 40
0.539732733341612
 40
0.5791586400228661
 40
0.6179848818364463
 40
0.6559450083492306
 40
0.6928085762377301
 40
0.7283873087095399
 40
0.7625375378333422
 40
0.7951594840727284
 40
0.8359928524625182
 40
0.8741416159322394
 40
0.9096504580346575
 40
0.9416198649435661
 40
0.9717470211580295
 40
1.0
 40
1.0
 40
1.0
 40
1.0
 10
413.2496511688872
 20
422.6097625911791
 30
0.0
 10
413.3535723872717
 20
423.9151210318086
 30
0.0
 10
413.5683082772604
 20
426.6124268453891
 30
0.0
 10
413.4175150115439
 20
430.8036076052099
 30
0.0
 10
412.8437588869643
 20
435.2939111051569
 30
0.0
 10
411.703278278172
 20
440.0625422979311
 30
0.0
 10
409.880810962828
 20
445.0553467906534
 30
0.0
 10
407.5135763324843
 20
449.6671407160192
 30
0.0
 10
404.7380429810542
 20
453.8163163525727
 30
0.0
 10
401.6984706958957
 20
457.4660781422696
 30
0.0
 10
398.1359336024298
 20
460.8987182971604
 30
0.0
 10
394.0655768406199
 20
464.0126036356467
 30
0.0
 10
389.5278974311662
 20
466.704964539638
 30
0.0
 10
384.589802949994
 20
468.8799299892875
 30
0.0
 10
379.3430468683353
 20
470.456765570099
 30
0.0
 10
373.8995055332828
 20
471.377716545801
 30
0.0
 10
368.3836542975358
 20
471.6136789099731
 30
0.0
 10
362.9233019376647
 20
471.1671278279118
 30
0.0
 10
357.6399173820053
 20
470.0711818907832
 30
0.0
 10
352.6400891443745
 20
468.3856379888217
 30
0.0
 10
348.009270656918
 20
466.1902777645437
 30
0.0
 10
343.8085209556393
 20
463.577157587364
 30
0.0
 10
340.0738776613633
 20
460.6425017487865
 30
0.0
 10
336.4930493978242
 20
457.1642158539254
 30
0.0
 10
333.2149952526901
 20
453.1481976097367
 30
0.0
 10
330.3902145408193
 20
448.6459672705813
 30
0.0
 10
328.2792260522232
 20
444.2205617673476
 30
0.0
 10
326.7805509697793
 20
439.9491070195442
 30
0.0
 10
325.7580548904156
 20
435.881769995223
 30
0.0
 10
325.4048593654776
 20
433.1992360381301
 30
0.0
 10
325.2339309206649
 20
431.9010277510245
 30
0.0
  0
SPLINE
  5
11B
330
1F
100
AcDbEntity
  8
0
  6
Continuous
 62
     7
370
    25
100
AcDbSpline
210
0.0
220
0.0
230
1.0
 70
     8
 71
     3
 72
    35
 73
    31
 74
     0
 42
0.000000001
 43
0.00000001
 40
0.0
 40
0.0
 40
0.0
 40
0.0
 40
0.0282546309286537
 40
0.058383460544051
 40
0.0903495456133501
 40
0.1258616469930045
 40
0.164010470589023
 40
0.2048405353411357
 40
0.2374624870011326
 40
0.2716127076375317
 40
0.3071914396069525
 40
0.3440550158465859
 40
0.3820151266353851
 40
0.4208413697285888
 40
0.4602672808882206
 40
0.5000000091013511
 40
0.5397327405734172
 40
0.579158650024031
 40
0.6179848913367488
 40
0.6559450173598438
 40
0.69280857903033
 40
0.7283873110431707
 40
0.7625375314439147
 40
0.7951594959433582
 40
0.8359928534210245
 40
0.8741415936894945
 40
0.9096504837391142
 40
0.9416198396621595
 40
0.9717470215224956
 40
1.0
 40
1.0
 40
1.0
 40
1.0
 10
325.2339309206649
 20
431.9010277510245
 30
0.0
 10
325.1300096770039
 20
430.5956680662212
 30
0.0
 10
324.9152738397426
 20
427.8983610001352
 30
0.0
 10
325.0660671913911
 20
423.7071790461762
 30
0.0
 10
325.6398223025351
 20
419.2168777728825
 30
0.0
 10
326.7803051421669
 20
414.4482495980797
 30
0.0
 10
328.6027716752117
 20
409.4554463372249
 30
0.0
 10
330.9700060698173
 20
404.8436499705925
 30
0.0
 10
333.7455379570894
 20
400.6944707395801
 30
0.0
 10
336.785111427612
 20
397.0447084227119
 30
0.0
 10
340.3476491687351
 20
393.6120686388484
 30
0.0
 10
344.4180036001128
 20
390.4981805369774
 30
0.0
 10
348.9556853547689
 20
387.8058239325119
 30
0.0
 10
353.893780203794
 20
385.6308621223333
 30
0.0
 10
359.1405340484973
 20
384.0540180113567
 30
0.0
 10
364.584077157152
 20
383.1330773727675
 30
0.0
 10
370.0999279199216
 20
382.8971038419403
 30
0.0
 10
375.5602798530793
 20
383.3436668686886
 30
0.0
 10
380.843664827001
 20
384.4396094988704
 30
0.0
 10
385.8434923721667
 20
386.1251549145658
 30
0.0
 10
390.4743120698355
 20
388.3205119538224
 30
0.0
 10
394.6750602085762
 20
390.9336333337176
 30
0.0
 10
398.4097064011904
 20
393.8682863795647
 30
0.0
 10
401.9905307662477
 20
397.3465764882071
 30
0.0
 10
405.2685859838529
 20
401.3625923434806
 30
0.0
 10
408.0933710276774
 20
405.8648213489001
 30
0.0
 10
410.2043521990108
 20
410.290228925222
 30
0.0
 10
411.7030335031685
 20
414.5616825162891
 30
0.0
 10
412.7255264818392
 20
418.6290193208403
 30
0.0
 10
413.0787225415145
 20
421.3115543595568
 30
0.0
 10
413.2496511688873
 20
422.6097625911791
 30
0.0
  0
SPLINE
  5
11C
330
1F
100
AcDbEntity
  8
0
  6
Continuous
 62
     7
370
    25
100
AcDbSpline
210
0.0
220
0.0
230
1.0
 70
     8
 71
     3
 72
    11
 73
     7
 74
     0
 42
0.000000001
 43
0.00000001
 40
0.0
 40
0.0
 40
0.0
 40
0.0
 40
0.2706998649799739
 40
0.5623154333545825
 40
0.7892986429245511
 40
1.0
 40
1.0
 40
1.0
 40
1.0
 10
325.2339309206649
 20
431.9010277510245
 30
0.0
 10
325.7721848099095
 20
431.8442089300235
 30
0.0
 10
326.8902809308947
 20
431.7261811653765
 30
0.0
 10
328.1739106555335
 20
431.5906678921193
 30
0.0
 10
328.9435169215081
 20
431.5094329940168
 30
0.0
 10
329.0559108204494
 20
431.4975633581228
 30
0.0
 10
329.1100172451182
 20
431.491849315222
 30
0.0
  0
SPLINE
  5
11D
330
1F
100
AcDbEntity
  8
0
  6
Continuous
 62
     7
370
    25
100
AcDbSpline
210
0.0
220
0.0
230
1.0
 70
     8
 71
     3
 72
    11
 73
     7
 74
     0
 42
0.000000001
 43
0.00000001
 40
0.0
 40
0.0
 40
0.0
 40
0.0
 40
0.2706996726986962
 40
0.5623163846554119
 40
0.7892984678934586
 40
1.0
 40
1.0
 40
1.0
 40
1.0
 10
409.3735648444339
 20
423.0189373016913
 30
0.0
 10
409.4578320511159
 20
423.0100424614992
 30
0.0
 10
409.6328778150579
 20
422.9915654743311
 30
0.0
 10
410.6817768674536
 20
422.8808380921898
 30
0.0
 10
411.9636640859185
 20
422.7455191817328
 30
0.0
 10
412.8317522553851
 20
422.6538785332787
 30
0.0
 10
413.2496511688872
 20
422.6097625911791
 30
0.0
  0
ARC
  5
11E
330
1F
100
AcDbEntity
  8
0
  6
Continuous
 62
     7
370
    25
100
AcDbCircle
 10
369.2417910448
 20
427.2553946496
 30
0.0
 40
40.35476230894871
100
AcDbArc
 50
353.973964907
 51
173.973964907
  0
ARC
  5
11F
330
1F
100
AcDbEntity
  8
0
  6
Continuous
 62
     7
370
    25
100
AcDbCircle
 10
369.2417910448
 20
427.2553946496
 30
0.0
 40
40.35476230894871
100
AcDbArc
 50
173.973964907
 51
353.973964907
  0
CIRCLE
  5
120
330
1F
100
AcDbEntity
  8
0
  6
Continuous
 62
     7
370
    25
100
AcDbCircle
 10
369.2417910448
 20
427.2553946496
 30
0.0
 40
39.93812333100008
  0
ARC
  5
121
330
1F
100
AcDbEntity
  8
0
  6
Continuous
 62
     7
370
    25
100
AcDbCircle
 10
519.2417910448
 20
487.2553946496
 30
0.0
 40
63.95796437412241
100
AcDbArc
 50
0.0
 51
90.0
  0
LINE
  5
122
330
1F
100
AcDbEntity
  8
0
  6
Continuous
 62
     7
370
    25
100
AcDbLine
 10
519.2417970052
 20
551.2133588315
 30
0.0
 11
519.2417970052
 21
552.2553970337
 31
0.0
  0
ARC
  5
123
330
1F
100
AcDbEntity
  8
0
  6
Continuous
 62
     7
370
    25
100
AcDbCircle
 10
519.2417910448
 20
487.2553946496
 30
0.0
 40
65.0
100
AcDbArc
 50
0.0
 51
90.0
  0
LINE
  5
124
330
1F
100
AcDbEntity
  8
0
  6
Continuous
 62
     7
370
    25
100
AcDbLine
 10
584.2417946211
 20
487.2553919674
 30
0.0
 11
583.1997564188
 21
487.2553919674
 31
0.0
  0
ARC
  5
125
330
1F
100
AcDbEntity
  8
0
  6
Continuous
 62
     7
370
    25
100
AcDbCircle
 10
519.2417910448
 20
487.2553946496
 30
0.0
 40
51.50000000000011
100
AcDbArc
 50
0.0
 51
90.0
  0
LINE
  5
126
330
1F
100
AcDbEntity
  8
0
  6
Continuous
 62
     7
370
    25
100
AcDbLine
 10
219.2417850843
 20
538.755392027
 30
0.0
 11
519.2417970052
 21
538.755392027
 31
0.0
  0
ARC
  5
127
330
1F
100
AcDbEntity
  8
0
  6
Continuous
 62
     7
370
    25
100
AcDbCircle
 10
219.2417910448
 20
487.2553946496
 30
0.0
 40
51.5
100
AcDbArc
 50
90.0
 51
180.0
  0
LINE
  5
128
330
1F
100
AcDbEntity
  8
0
  6
Continuous
 62
     7
370
    25
100
AcDbLine
 10
167.7417924753
 20
247.2553973318
 30
0.0
 11
167.7417924753
 21
487.2553919674
 31
0.0
  0
ARC
  5
129
330
1F
100
AcDbEntity
  8
0
  6
Continuous
 62
     7
370
    25
100
AcDbCircle
 10
219.2417910448
 20
247.2553946496
 30
0.0
 40
51.50000000000003
100
AcDbArc
 50
180.0
 51
270.0
  0
LINE
  5
12A
330
1F
100
AcDbEntity
  8
0
  6
Continuous
 62
     7
370
    25
100
AcDbLine
 10
519.2417970052
 20
195.7553972722
 30
0.0
 11
219.2417850843
 21
195.7553972722
 31
0.0
  0
ARC
  5
12B
330
1F
100
AcDbEntity
  8
0
  6
Continuous
 62
     7
370
    25
100
AcDbCircle
 10
519.2417910448
 20
247.2553946496
 30
0.0
 40
51.49999999999997
100
AcDbArc
 50
270.0
 51
0.0
  0
LINE
  5
12C
330
1F
100
AcDbEntity
  8
0
  6
Continuous
 62
     7
370
    25
100
AcDbLine
 10
570.7417896143
 20
487.2553919674
 30
0.0
 11
570.7417896143
 21
247.2553973318
 31
0.0
  0
ARC
  5
12D
330
1F
100
AcDbEntity
  8
0
  6
Continuous
 62
     7
370
    25
100
AcDbCircle
 10
219.2417910448
 20
487.2553946496
 30
0.0
 40
63.95796437412253
100
AcDbArc
 50
90.0
 51
180.0
  0
LINE
  5
12E
330
1F
100
AcDbEntity
  8
0
  6
Continuous
 62
     7
370
    25
100
AcDbLine
 10
519.2417970052
 20
551.2133588315
 30
0.0
 11
219.2417850843
 21
551.2133588315
 31
0.0
  0
LINE
  5
12F
330
1F
100
AcDbEntity
  8
0
  6
Continuous
 62
     7
370
    25
100
AcDbLine
 10
583.1997564188
 20
247.2553973318
 30
0.0
 11
583.1997564188
 21
487.2553919674
 31
0.0
  0
ARC
  5
130
330
1F
100
AcDbEntity
  8
0
  6
Continuous
 62
     7
370
    25
100
AcDbCircle
 10
519.2417910448
 20
247.2553946496
 30
0.0
 40
63.95796437412241
100
AcDbArc
 50
270.0
 51
0.0
  0
LINE
  5
131
330
1F
100
AcDbEntity
  8
0
  6
Continuous
 62
     7
370
    25
100
AcDbLine
 10
219.2417850843
 20
183.2974304677
 30
0.0
 11
519.2417970052
 21
183.2974304677
 31
0.0
  0
ARC
  5
132
330
1F
100
AcDbEntity
  8
0
  6
Continuous
 62
     7
370
    25
100
AcDbCircle
 10
219.2417910448
 20
247.2553946496
 30
0.0
 40
63.95796437412247
100
AcDbArc
 50
180.0
 51
270.0
  0
LINE
  5
133
330
1F
100
AcDbEntity
  8
0
  6
Continuous
 62
     7
370
    25
100
AcDbLine
 10
155.2838256708
 20
487.2553919674
 30
0.0
 11
155.2838256708
 21
247.2553973318
 31
0.0
  0
LINE
  5
134
330
1F
100
AcDbEntity
  8
0
  6
Continuous
 62
     7
370
    25
100
AcDbLine
 10
155.2838256708
 20
487.2553919674
 30
0.0
 11
154.2417874685
 21
487.2553919674
 31
0.0
  0
ARC
  5
135
330
1F
100
AcDbEntity
  8
0
  6
Continuous
 62
     7
370
    25
100
AcDbCircle
 10
219.2417910448
 20
487.2553946496
 30
0.0
 40
65.0
100
AcDbArc
 50
90.0
 51
180.0
  0
LINE
  5
136
330
1F
100
AcDbEntity
  8
0
  6
Continuous
 62
     7
370
    25
100
AcDbLine
 10
219.2417850843
 20
551.2133588315
 30
0.0
 11
219.2417850843
 21
552.2553970337
 31
0.0
  0
LINE
  5
137
330
1F
100
AcDbEntity
  8
0
  6
Continuous
 62
     7
370
    25
100
AcDbLine
 10
219.2417850843
 20
552.2553970337
 30
0.0
 11
519.2417970052
 21
552.2553970337
 31
0.0
  0
LINE
  5
138
330
1F
100
AcDbEntity
  8
0
  6
Continuous
 62
     7
370
    25
100
AcDbLine
 10
570.7417896143
 20
487.2553919674
 30
0.0
 11
569.241794025
 21
487.2553919674
 31
0.0
  0
ARC
  5
139
330
1F
100
AcDbEntity
  8
0
  6
Continuous
 62
     7
370
    25
100
AcDbCircle
 10
519.2417910448
 20
487.2553946496
 30
0.0
 40
50.0
100
AcDbArc
 50
0.0
 51
90.0
  0
LINE
  5
13A
330
1F
100
AcDbEntity
  8
0
  6
Continuous
 62
     7
370
    25
100
AcDbLine
 10
519.2417970052
 20
538.755392027
 30
0.0
 11
519.2417970052
 21
537.2553964377
 31
0.0
  0
ARC
  5
13B
330
1F
100
AcDbEntity
  8
0
  6
Continuous
 62
     7
370
    25
100
AcDbCircle
 10
219.2417910448
 20
487.2553946496
 30
0.0
 40
50.00000000000003
100
AcDbArc
 50
90.0
 51
180.0
  0
LINE
  5
13C
330
1F
100
AcDbEntity
  8
0
  6
Continuous
 62
     7
370
    25
100
AcDbLine
 10
169.2417880645
 20
487.2553919674
 30
0.0
 11
167.7417924753
 21
487.2553919674
 31
0.0
  0
LINE
  5
13D
330
1F
100
AcDbEntity
  8
0
  6
Continuous
 62
     7
370
    25
100
AcDbLine
 10
219.2417850843
 20
538.755392027
 30
0.0
 11
219.2417850843
 21
537.2553964377
 31
0.0
  0
LINE
  5
13E
330
1F
100
AcDbEntity
  8
0
  6
Continuous
 62
     7
370
    25
100
AcDbLine
 10
519.2417970052
 20
537.2553964377
 30
0.0
 11
219.2417850843
 21
537.2553964377
 31
0.0
  0
LINE
  5
13F
330
1F
100
AcDbEntity
  8
0
  6
Continuous
 62
     7
370
    25
100
AcDbLine
 10
584.2417946211
 20
487.2553919674
 30
0.0
 11
584.2417946211
 21
247.2553973318
 31
0.0
  0
LINE
  5
140
330
1F
100
AcDbEntity
  8
0
  6
Continuous
 62
     7
370
    25
100
AcDbLine
 10
584.2417946211
 20
247.2553973318
 30
0.0
 11
583.1997564188
 21
247.2553973318
 31
0.0
  0
LINE
  5
141
330
1F
100
AcDbEntity
  8
0
  6
Continuous
 62
     7
370
    25
100
AcDbLine
 10
169.2417880645
 20
487.2553919674
 30
0.0
 11
169.2417880645
 21
247.2553973318
 31
0.0
  0
LINE
  5
142
330
1F
100
AcDbEntity
  8
0
  6
Continuous
 62
     7
370
    25
100
AcDbLine
 10
169.2417880645
 20
247.2553973318
 30
0.0
 11
167.7417924753
 21
247.2553973318
 31
0.0
  0
LINE
  5
143
330
1F
100
AcDbEntity
  8
0
  6
Continuous
 62
     7
370
    25
100
AcDbLine
 10
155.2838256708
 20
247.2553973318
 30
0.0
 11
154.2417874685
 21
247.2553973318
 31
0.0
  0
LINE
  5
144
330
1F
100
AcDbEntity
  8
0
  6
Continuous
 62
     7
370
    25
100
AcDbLine
 10
154.2417874685
 20
247.2553973318
 30
0.0
 11
154.2417874685
 21
487.2553919674
 31
0.0
  0
LINE
  5
145
330
1F
100
AcDbEntity
  8
0
  6
Continuous
 62
     7
370
    25
100
AcDbLine
 10
570.7417896143
 20
247.2553973318
 30
0.0
 11
569.241794025
 21
247.2553973318
 31
0.0
  0
LINE
  5
146
330
1F
100
AcDbEntity
  8
0
  6
Continuous
 62
     7
370
    25
100
AcDbLine
 10
569.241794025
 20
247.2553973318
 30
0.0
 11
569.241794025
 21
487.2553919674
 31
0.0
  0
ARC
  5
147
330
1F
100
AcDbEntity
  8
0
  6
Continuous
 62
     7
370
    25
100
AcDbCircle
 10
219.2417910448
 20
247.2553946496
 30
0.0
 40
49.99999999999997
100
AcDbArc
 50
180.0
 51
270.0
  0
LINE
  5
148
330
1F
100
AcDbEntity
  8
0
  6
Continuous
 62
     7
370
    25
100
AcDbLine
 10
219.2417850843
 20
197.2553928614
 30
0.0
 11
219.2417850843
 21
195.7553972722
 31
0.0
  0
ARC
  5
149
330
1F
100
AcDbEntity
  8
0
  6
Continuous
 62
     7
370
    25
100
AcDbCircle
 10
519.2417910448
 20
247.2553946496
 30
0.0
 40
50.0
100
AcDbArc
 50
270.0
 51
0.0
  0
LINE
  5
14A
330
1F
100
AcDbEntity
  8
0
  6
Continuous
 62
     7
370
    25
100
AcDbLine
 10
519.2417970052
 20
197.2553928614
 30
0.0
 11
519.2417970052
 21
195.7553972722
 31
0.0
  0
ARC
  5
14B
330
1F
100
AcDbEntity
  8
0
  6
Continuous
 62
     7
370
    25
100
AcDbCircle
 10
519.2417910448
 20
247.2553946496
 30
0.0
 40
65.0
100
AcDbArc
 50
270.0
 51
0.0
  0
LINE
  5
14C
330
1F
100
AcDbEntity
  8
0
  6
Continuous
 62
     7
370
    25
100
AcDbLine
 10
519.2417970052
 20
182.2553922654
 30
0.0
 11
519.2417970052
 21
183.2974304677
 31
0.0
  0
LINE
  5
14D
330
1F
100
AcDbEntity
  8
0
  6
Continuous
 62
     7
370
    25
100
AcDbLine
 10
219.2417850843
 20
182.2553922654
 30
0.0
 11
219.2417850843
 21
183.2974304677
 31
0.0
  0
ARC
  5
14E
330
1F
100
AcDbEntity
  8
0
  6
Continuous
 62
     7
370
    25
100
AcDbCircle
 10
219.2417910448
 20
247.2553946496
 30
0.0
 40
65.00000000000003
100
AcDbArc
 50
180.0
 51
270.0
  0
LINE
  5
14F
330
1F
100
AcDbEntity
  8
0
  6
Continuous
 62
     7
370
    25
100
AcDbLine
 10
219.2417850843
 20
197.2553928614
 30
0.0
 11
519.2417970052
 21
197.2553928614
 31
0.0
  0
LINE
  5
150
330
1F
100
AcDbEntity
  8
0
  6
Continuous
 62
     7
370
    25
100
AcDbLine
 10
519.2417970052
 20
182.2553922654
 30
0.0
 11
219.2417850843
 21
182.2553922654
 31
0.0
  0
LINE
  5
151
330
1F
100
AcDbEntity
  8
0
  6
Continuous
 62
     7
370
    25
100
AcDbLine
 10
569.241794025
 20
487.2553919674
 30
0.0
 11
559.9276742092
 21
487.2553919674
 31
0.0
  0
SPLINE
  5
152
330
1F
100
AcDbEntity
  8
0
  6
Continuous
 62
     7
370
    25
100
AcDbSpline
210
0.0
220
0.0
230
1.0
 70
     8
 71
     3
 72
    38
 73
    34
 74
     0
 42
0.000000001
 43
0.00000001
 40
0.0
 40
0.0
 40
0.0
 40
0.0
 40
0.1250000000000066
 40
0.1250000000000066
 40
0.1875000000000106
 40
0.1875000000000106
 40
0.2187500000000119
 40
0.2187500000000119
 40
0.2500000000000133
 40
0.2500000000000133
 40
0.3750000000000146
 40
0.3750000000000146
 40
0.4062500000000148
 40
0.4062500000000148
 40
0.4375000000000149
 40
0.4375000000000149
 40
0.5000000000000133
 40
0.5000000000000133
 40
0.6250000000000093
 40
0.6250000000000093
 40
0.6562500000000084
 40
0.6562500000000084
 40
0.6875000000000075
 40
0.6875000000000075
 40
0.7500000000000058
 40
0.7500000000000058
 40
0.812500000000004
 40
0.812500000000004
 40
0.8437500000000031
 40
0.8437500000000031
 40
0.8750000000000021
 40
0.8750000000000021
 40
1.0
 40
1.0
 40
1.0
 40
1.0
 10
519.2417910447759
 20
527.8887450911664
 30
0.0
 10
521.9270453841768
 20
527.8945040411201
 30
0.0
 10
524.5682008215655
 20
527.6363869500153
 30
0.0
 10
528.4664535504429
 20
526.8693595793686
 30
0.0
 10
529.7552123019057
 20
526.5499039213976
 30
0.0
 10
531.6719907301461
 20
525.9728276176801
 30
0.0
 10
532.3095239840645
 20
525.7636391127352
 30
0.0
 10
533.5727353950069
 20
525.3140866414806
 30
0.0
 10
534.1962687921867
 20
525.0745690415933
 30
0.0
 10
537.2743745597573
 20
523.8047357114931
 30
0.0
 10
539.6113923702422
 20
522.5597459028959
 30
0.0
 10
542.3769118624315
 20
520.7190778215944
 30
0.0
 10
542.9221578685391
 20
520.3365943692766
 30
0.0
 10
543.9966735354312
 20
519.5424519531517
 30
0.0
 10
544.5273703066435
 20
519.1295819323944
 30
0.0
 10
546.0815895148521
 20
517.8573175367497
 30
0.0
 10
547.0681786775322
 20
516.9643140198536
 30
0.0
 10
549.8836295451208
 20
514.1547604001147
 30
0.0
 10
551.5695559512183
 20
512.1089167147182
 30
0.0
 10
553.431436304545
 20
509.3295174599254
 30
0.0
 10
553.7918710992315
 20
508.7615190790945
 30
0.0
 10
554.480123653248
 20
507.6152006873014
 30
0.0
 10
554.8089179143811
 20
507.0355184868139
 30
0.0
 10
555.750075290973
 20
505.2772307405455
 30
0.0
 10
556.3173198634406
 20
504.0794295151473
 30
0.0
 10
557.3328384242536
 20
501.6332110409837
 30
0.0
 10
557.7811139059195
 20
500.384794427551
 30
0.0
 10
558.3627685085914
 20
498.4735562615808
 30
0.0
 10
558.5414999567955
 20
497.8300298521629
 30
0.0
 10
558.8680564519078
 20
496.5298279080114
 30
0.0
 10
559.0154410149092
 20
495.8745927247283
 30
0.0
 10
559.6684290252587
 20
492.5951974019252
 30
0.0
 10
559.929998806664
 20
489.9408786727645
 30
0.0
 10
559.9276761198884
 20
487.2553946495606
 30
0.0
  0
LINE
  5
153
330
1F
100
AcDbEntity
  8
0
  6
Continuous
 62
     7
370
    25
100
AcDbLine
 10
519.2417970052
 20
537.2553964377
 30
0.0
 11
519.2417970052
 21
527.8887500287
 31
0.0
  0
LINE
  5
154
330
1F
100
AcDbEntity
  8
0
  6
Continuous
 62
     7
370
    25
100
AcDbLine
 10
219.2417850843
 20
537.2553964377
 30
0.0
 11
219.2417850843
 21
527.8887500287
 31
0.0
  0
SPLINE
  5
155
330
1F
100
AcDbEntity
  8
0
  6
Continuous
 62
     7
370
    25
100
AcDbSpline
210
0.0
220
0.0
230
1.0
 70
     8
 71
     3
 72
    36
 73
    32
 74
     0
 42
0.000000001
 43
0.00000001
 40
0.0
 40
0.0
 40
0.0
 40
0.0
 40
0.1249999999999976
 40
0.1249999999999976
 40
0.1874999999999971
 40
0.1874999999999971
 40
0.2187499999999968
 40
0.2187499999999968
 40
0.2499999999999966
 40
0.2499999999999966
 40
0.3749999999999988
 40
0.3749999999999988
 40
0.4062499999999994
 40
0.4062499999999994
 40
0.4375
 40
0.4375
 40
0.5000000000000001
 40
0.5000000000000001
 40
0.6250000000000004
 40
0.6250000000000004
 40
0.6562500000000008
 40
0.6562500000000008
 40
0.6875000000000012
 40
0.6875000000000012
 40
0.7500000000000009
 40
0.7500000000000009
 40
0.8125000000000007
 40
0.8125000000000007
 40
0.8750000000000003
 40
0.8750000000000003
 40
1.0
 40
1.0
 40
1.0
 40
1.0
 10
178.5559059696638
 20
487.2553946495611
 30
0.0
 10
178.5535834466024
 20
489.9406893868863
 30
0.0
 10
178.8150986084222
 20
492.5820396354955
 30
0.0
 10
179.5875805831466
 20
496.4807378666998
 30
0.0
 10
179.9089135408752
 20
497.7696710104345
 30
0.0
 10
180.4889523968253
 20
499.6867414140727
 30
0.0
 10
180.6992683551905
 20
500.324667517686
 30
0.0
 10
181.1503106974391
 20
501.5864975212022
 30
0.0
 10
181.390575535389
 20
502.209414836437
 30
0.0
 10
182.6642150606358
 20
505.2847740350421
 30
0.0
 10
183.9124708574353
 20
507.6206538856844
 30
0.0
 10
185.7583938135573
 20
510.3855785479856
 30
0.0
 10
186.141987307692
 20
510.9307473867914
 30
0.0
 10
186.9384939363525
 20
512.0051806580594
 30
0.0
 10
187.3523649465444
 20
512.5355062976322
 30
0.0
 10
188.6255161248383
 20
514.086168140337
 30
0.0
 10
189.5192814389701
 20
515.070840193735
 30
0.0
 10
192.3319282023662
 20
517.8815239294008
 30
0.0
 10
194.3808908541668
 20
519.5655886142216
 30
0.0
 10
197.1665981510176
 20
521.4256868129041
 30
0.0
 10
197.7343494304206
 20
521.7847381743669
 30
0.0
 10
198.8801435884452
 20
522.4703943866584
 30
0.0
 10
199.4596469607087
 20
522.7979957204029
 30
0.0
 10
201.2176690966739
 20
523.7358267083964
 30
0.0
 10
202.4156538376691
 20
524.3011894707294
 30
0.0
 10
204.8630804734424
 20
525.3133121649761
 30
0.0
 10
206.1125210996448
 20
525.7600750206028
 30
0.0
 10
208.6638723913636
 20
526.5326634486207
 30
0.0
 10
209.9709914792105
 20
526.8590795389804
 30
0.0
 10
213.90355919757
 20
527.6364177735029
 30
0.0
 10
216.5567243639301
 20
527.8945036386568
 30
0.0
 10
219.2417910447766
 20
527.8887450911665
 30
0.0
  0
LINE
  5
156
330
1F
100
AcDbEntity
  8
0
  6
Continuous
 62
     7
370
    25
100
AcDbLine
 10
169.2417880645
 20
487.2553919674
 30
0.0
 11
178.5559078804
 21
487.2553919674
 31
0.0
  0
SPLINE
  5
157
330
1F
100
AcDbEntity
  8
0
  6
Continuous
 62
     7
370
    25
100
AcDbSpline
210
0.0
220
0.0
230
1.0
 70
     8
 71
     3
 72
    17
 73
    13
 74
     0
 42
0.000000001
 43
0.00000001
 40
0.0
 40
0.0
 40
0.0
 40
0.0
 40
0.1074258907292084
 40
0.2148526761693433
 40
0.3222640849750051
 40
0.4296538713159995
 40
0.5370275667711635
 40
0.644394491387106
 40
0.7517643884965635
 40
0.8591472045307654
 40
0.966550643188419
 40
1.0
 40
1.0
 40
1.0
 40
1.0
 10
372.3417911338105
 20
537.0528747559149
 30
0.0
 10
372.3075073049111
 20
537.0605794822719
 30
0.0
 10
372.2389393615746
 20
537.0759889991559
 30
0.0
 10
371.7043983725117
 20
537.0949747717186
 30
0.0
 10
370.9171972503694
 20
537.1087431862153
 30
0.0
 10
369.9345772670042
 20
537.116312611347
 30
0.0
 10
368.8752918595191
 20
537.1173316237649
 30
0.0
 10
367.8587106714087
 20
537.1117680855731
 30
0.0
 10
366.9914716909714
 20
537.0999214954758
 30
0.0
 10
366.4027550186035
 20
537.0823248490165
 30
0.0
 10
366.1239410810584
 20
537.0656351680506
 30
0.0
 10
366.1688381639138
 20
537.0552512862785
 30
0.0
 10
366.1795002067878
 20
537.0527853489477
 30
0.0
  0
LINE
  5
158
330
1F
100
AcDbEntity
  8
0
  6
Continuous
 62
     7
370
    25
100
AcDbLine
 10
377.7417915067
 20
536.8163635254
 30
0.0
 11
377.7417915067
 21
537.1989806414
 31
0.0
  0
SPLINE
  5
159
330
1F
100
AcDbEntity
  8
0
  6
Continuous
 62
     7
370
    25
100
AcDbSpline
210
0.0
220
0.0
230
1.0
 70
     8
 71
     3
 72
    34
 73
    30
 74
     0
 42
0.000000001
 43
0.00000001
 40
0.0
 40
0.0
 40
0.0
 40
0.0
 40
0.0625000000000005
 40
0.0625000000000005
 40
0.125000000000001
 40
0.125000000000001
 40
0.1875000000000015
 40
0.1875000000000015
 40
0.250000000000002
 40
0.250000000000002
 40
0.3750000000000017
 40
0.3750000000000017
 40
0.5000000000000014
 40
0.5000000000000014
 40
0.5625000000000012
 40
0.5625000000000012
 40
0.6250000000000011
 40
0.6250000000000011
 40
0.6875000000000009
 40
0.6875000000000009
 40
0.7500000000000008
 40
0.7500000000000008
 40
0.8125000000000006
 40
0.8125000000000006
 40
0.8750000000000004
 40
0.8750000000000004
 40
0.9375000000000002
 40
0.9375000000000002
 40
1.0
 40
1.0
 40
1.0
 40
1.0
 10
377.741791044776
 20
537.1989864108804
 30
0.0
 10
377.741791044776
 20
537.2005556729697
 30
0.0
 10
377.7288242153792
 20
537.2020659945264
 30
0.0
 10
377.6780168363567
 20
537.2049771813302
 30
0.0
 10
377.6395599133278
 20
537.206392307833
 30
0.0
 10
377.5391565188742
 20
537.2090369919842
 30
0.0
 10
377.4777150812163
 20
537.210263904385
 30
0.0
 10
377.3325531045307
 20
537.2125440901456
 30
0.0
 10
377.2480602225045
 20
537.2136009938489
 30
0.0
 10
376.9712085811435
 20
537.2163983587457
 30
0.0
 10
376.7480364899534
 20
537.2178411284389
 30
0.0
 10
376.2666312833157
 20
537.2197491124535
 30
0.0
 10
376.0034030013151
 20
537.2202367571945
 30
0.0
 10
375.6120504620208
 20
537.2202380602058
 30
0.0
 10
375.4795534028182
 20
537.2201164416172
 30
0.0
 10
375.2230241350755
 20
537.2196351762794
 30
0.0
 10
375.0983430955325
 20
537.2192782500641
 30
0.0
 10
374.8561888315807
 20
537.218320051836
 30
0.0
 10
374.7390487710086
 20
537.217716082013
 30
0.0
 10
374.5222953795603
 20
537.216297254482
 30
0.0
 10
374.4212759414262
 20
537.2154777512374
 30
0.0
 10
374.2345275101397
 20
537.2135910858161
 30
0.0
 10
374.1516055240111
 20
537.2125513610742
 30
0.0
 10
374.0067598957862
 20
537.2102796969898
 30
0.0
 10
373.9441728019904
 20
537.2090316240676
 30
0.0
 10
373.843782448213
 20
537.2063846967563
 30
0.0
 10
373.8059822645573
 20
537.2049956707806
 30
0.0
 10
373.7548693504783
 20
537.2020777309398
 30
0.0
 10
373.741791044776
 20
537.200536515682
 30
0.0
 10
373.741791044776
 20
537.1989864108803
 30
0.0
  0
LINE
  5
15A
330
1F
100
AcDbEntity
  8
0
  6
Continuous
 62
     7
370
    25
100
AcDbLine
 10
373.7417908511
 20
537.1989806414
 30
0.0
 11
373.7417908511
 21
536.8163635254
 31
0.0
  0
SPLINE
  5
15B
330
1F
100
AcDbEntity
  8
0
  6
Continuous
 62
     7
370
    25
100
AcDbSpline
210
0.0
220
0.0
230
1.0
 70
     8
 71
     3
 72
    34
 73
    30
 74
     0
 42
0.000000001
 43
0.00000001
 40
0.0
 40
0.0
 40
0.0
 40
0.0
 40
0.0625000000000018
 40
0.0625000000000018
 40
0.1250000000000036
 40
0.1250000000000036
 40
0.2500000000000039
 40
0.2500000000000039
 40
0.3125000000000038
 40
0.3125000000000038
 40
0.3750000000000038
 40
0.3750000000000038
 40
0.4375000000000038
 40
0.4375000000000038
 40
0.5000000000000038
 40
0.5000000000000038
 40
0.5625000000000038
 40
0.5625000000000038
 40
0.6250000000000038
 40
0.6250000000000038
 40
0.6875000000000039
 40
0.6875000000000039
 40
0.7500000000000039
 40
0.7500000000000039
 40
0.8125000000000039
 40
0.8125000000000039
 40
0.8750000000000039
 40
0.8750000000000039
 40
1.0
 40
1.0
 40
1.0
 40
1.0
 10
373.7417910447761
 20
536.8163679342757
 30
0.0
 10
373.7417910447761
 20
536.8120438193764
 30
0.0
 10
373.754434784448
 20
536.8077143367996
 30
0.0
 10
373.8055287803604
 20
536.7990480986824
 30
0.0
 10
373.8439184480402
 20
536.7947652366224
 30
0.0
 10
373.9932557820531
 20
536.7824556866518
 30
0.0
 10
374.1421534008304
 20
536.7747288793146
 30
0.0
 10
374.4184830744423
 20
536.7650650628059
 30
0.0
 10
374.5212376050639
 20
536.7620988967641
 30
0.0
 10
374.7387542756454
 20
536.7569749366771
 30
0.0
 10
374.8535834302587
 20
536.7547991062054
 30
0.0
 10
375.0954101830501
 20
536.7512370710158
 30
0.0
 10
375.2226336480823
 20
536.7498622346902
 30
0.0
 10
375.4783462308182
 20
536.7480460954357
 30
0.0
 10
375.6081853886913
 20
536.7475812800894
 30
0.0
 10
375.8719694340481
 20
536.7475732232032
 30
0.0
 10
376.0025324792907
 20
536.7480335806652
 30
0.0
 10
376.2581510336525
 20
536.7498358237486
 30
0.0
 10
376.3849112898255
 20
536.7511968438497
 30
0.0
 10
376.6275529233821
 20
536.7547554618945
 30
0.0
 10
376.7424893854464
 20
536.7569279177276
 30
0.0
 10
376.9597985529284
 20
536.7620310360206
 30
0.0
 10
377.0628261414184
 20
536.7649946318173
 30
0.0
 10
377.2475626634098
 20
536.7714373309635
 30
0.0
 10
377.3303565776359
 20
536.7749337251136
 30
0.0
 10
377.4764775405087
 20
536.7824671839974
 30
0.0
 10
377.5388787225581
 20
536.7864735642573
 30
0.0
 10
377.6887265265675
 20
536.7987782637626
 30
0.0
 10
377.7417910447761
 20
536.8076128365218
 30
0.0
 10
377.7417910447761
 20
536.816367934276
 30
0.0
  0
LINE
  5
15C
330
1F
100
AcDbEntity
  8
0
  6
Continuous
 62
     7
370
    25
100
AcDbLine
 10
393.741790404
 20
536.8163635254
 30
0.0
 11
393.741790404
 21
537.1989806414
 31
0.0
  0
SPLINE
  5
15D
330
1F
100
AcDbEntity
  8
0
  6
Continuous
 62
     7
370
    25
100
AcDbSpline
210
0.0
220
0.0
230
1.0
 70
     8
 71
     3
 72
    34
 73
    30
 74
     0
 42
0.000000001
 43
0.00000001
 40
0.0
 40
0.0
 40
0.0
 40
0.0
 40
0.0625000000000005
 40
0.0625000000000005
 40
0.1250000000000009
 40
0.1250000000000009
 40
0.1875000000000014
 40
0.1875000000000014
 40
0.2500000000000018
 40
0.2500000000000018
 40
0.3750000000000026
 40
0.3750000000000026
 40
0.5000000000000034
 40
0.5000000000000034
 40
0.562500000000003
 40
0.562500000000003
 40
0.6250000000000026
 40
0.6250000000000026
 40
0.6875000000000021
 40
0.6875000000000021
 40
0.7500000000000017
 40
0.7500000000000017
 40
0.8125000000000013
 40
0.8125000000000013
 40
0.8750000000000009
 40
0.8750000000000009
 40
0.9375000000000004
 40
0.9375000000000004
 40
1.0
 40
1.0
 40
1.0
 40
1.0
 10
393.7417910447761
 20
537.1989864108804
 30
0.0
 10
393.7417910447761
 20
537.2005556729697
 30
0.0
 10
393.7288242153792
 20
537.2020659945265
 30
0.0
 10
393.6780168363566
 20
537.2049771813303
 30
0.0
 10
393.6395599133278
 20
537.206392307833
 30
0.0
 10
393.5391565188742
 20
537.2090369919842
 30
0.0
 10
393.4777150812163
 20
537.2102639043852
 30
0.0
 10
393.3325531045307
 20
537.2125440901458
 30
0.0
 10
393.2480602225045
 20
537.2136009938489
 30
0.0
 10
392.9712085811435
 20
537.2163983587456
 30
0.0
 10
392.7480364899534
 20
537.2178411284389
 30
0.0
 10
392.2666312833157
 20
537.2197491124534
 30
0.0
 10
392.0034030013151
 20
537.2202367571945
 30
0.0
 10
391.6120504620209
 20
537.2202380602057
 30
0.0
 10
391.4795534028182
 20
537.2201164416172
 30
0.0
 10
391.2230241350755
 20
537.2196351762794
 30
0.0
 10
391.0983430955325
 20
537.2192782500641
 30
0.0
 10
390.8561888315808
 20
537.218320051836
 30
0.0
 10
390.7390487710086
 20
537.2177160820129
 30
0.0
 10
390.5222953795603
 20
537.216297254482
 30
0.0
 10
390.4212759414262
 20
537.2154777512375
 30
0.0
 10
390.2345275101397
 20
537.2135910858162
 30
0.0
 10
390.1516055240111
 20
537.2125513610742
 30
0.0
 10
390.0067598957862
 20
537.2102796969899
 30
0.0
 10
389.9441728019905
 20
537.2090316240676
 30
0.0
 10
389.843782448213
 20
537.2063846967563
 30
0.0
 10
389.8059822645573
 20
537.2049956707805
 30
0.0
 10
389.7548693504783
 20
537.2020777309397
 30
0.0
 10
389.741791044776
 20
537.200536515682
 30
0.0
 10
389.741791044776
 20
537.1989864108803
 30
0.0
  0
LINE
  5
15E
330
1F
100
AcDbEntity
  8
0
  6
Continuous
 62
     7
370
    25
100
AcDbLine
 10
389.741791611
 20
537.1989806414
 30
0.0
 11
389.741791611
 21
536.8163635254
 31
0.0
  0
SPLINE
  5
15F
330
1F
100
AcDbEntity
  8
0
  6
Continuous
 62
     7
370
    25
100
AcDbSpline
210
0.0
220
0.0
230
1.0
 70
     8
 71
     3
 72
    34
 73
    30
 74
     0
 42
0.000000001
 43
0.00000001
 40
0.0
 40
0.0
 40
0.0
 40
0.0
 40
0.0624999999999989
 40
0.0624999999999989
 40
0.1249999999999979
 40
0.1249999999999979
 40
0.2499999999999993
 40
0.2499999999999993
 40
0.3124999999999994
 40
0.3124999999999994
 40
0.3749999999999995
 40
0.3749999999999995
 40
0.4374999999999996
 40
0.4374999999999996
 40
0.4999999999999998
 40
0.4999999999999998
 40
0.5624999999999998
 40
0.5624999999999998
 40
0.6249999999999999
 40
0.6249999999999999
 40
0.6874999999999999
 40
0.6874999999999999
 40
0.75
 40
0.75
 40
0.8125
 40
0.8125
 40
0.8750000000000001
 40
0.8750000000000001
 40
1.0
 40
1.0
 40
1.0
 40
1.0
 10
389.7417910447761
 20
536.8163679342757
 30
0.0
 10
389.7417910447761
 20
536.8120438193764
 30
0.0
 10
389.754434784448
 20
536.8077143367996
 30
0.0
 10
389.8055287803605
 20
536.7990480986825
 30
0.0
 10
389.8439184480402
 20
536.7947652366225
 30
0.0
 10
389.9932557820532
 20
536.7824556866518
 30
0.0
 10
390.1421534008304
 20
536.7747288793146
 30
0.0
 10
390.4184830744423
 20
536.7650650628058
 30
0.0
 10
390.5212376050638
 20
536.7620988967641
 30
0.0
 10
390.7387542756454
 20
536.7569749366771
 30
0.0
 10
390.8535834302587
 20
536.7547991062054
 30
0.0
 10
391.0954101830501
 20
536.7512370710157
 30
0.0
 10
391.2226336480823
 20
536.7498622346901
 30
0.0
 10
391.4783462308181
 20
536.7480460954357
 30
0.0
 10
391.6081853886913
 20
536.7475812800894
 30
0.0
 10
391.8719694340482
 20
536.7475732232032
 30
0.0
 10
392.0025324792907
 20
536.7480335806652
 30
0.0
 10
392.2581510336526
 20
536.7498358237486
 30
0.0
 10
392.3849112898255
 20
536.7511968438496
 30
0.0
 10
392.6275529233821
 20
536.7547554618945
 30
0.0
 10
392.7424893854464
 20
536.7569279177276
 30
0.0
 10
392.9597985529285
 20
536.7620310360206
 30
0.0
 10
393.0628261414184
 20
536.7649946318173
 30
0.0
 10
393.2475626634098
 20
536.7714373309635
 30
0.0
 10
393.3303565776359
 20
536.7749337251136
 30
0.0
 10
393.4764775405087
 20
536.7824671839974
 30
0.0
 10
393.5388787225582
 20
536.7864735642573
 30
0.0
 10
393.6887265265675
 20
536.7987782637629
 30
0.0
 10
393.7417910447761
 20
536.8076128365219
 30
0.0
 10
393.7417910447761
 20
536.816367934276
 30
0.0
  0
LINE
  5
160
330
1F
100
AcDbEntity
  8
0
  6
Continuous
 62
     7
370
    25
100
AcDbLine
 10
356.7417908585
 20
536.8163635254
 30
0.0
 11
356.7417908585
 21
537.1989806414
 31
0.0
  0
SPLINE
  5
161
330
1F
100
AcDbEntity
  8
0
  6
Continuous
 62
     7
370
    25
100
AcDbSpline
210
0.0
220
0.0
230
1.0
 70
     8
 71
     3
 72
    34
 73
    30
 74
     0
 42
0.000000001
 43
0.00000001
 40
0.0
 40
0.0
 40
0.0
 40
0.0
 40
0.0625000000000003
 40
0.0625000000000003
 40
0.1250000000000006
 40
0.1250000000000006
 40
0.1875000000000008
 40
0.1875000000000008
 40
0.2500000000000011
 40
0.2500000000000011
 40
0.3750000000000004
 40
0.3750000000000004
 40
0.4999999999999997
 40
0.4999999999999997
 40
0.5624999999999997
 40
0.5624999999999997
 40
0.6249999999999998
 40
0.6249999999999998
 40
0.6874999999999998
 40
0.6874999999999998
 40
0.7499999999999999
 40
0.7499999999999999
 40
0.8124999999999999
 40
0.8124999999999999
 40
0.875
 40
0.875
 40
0.9375
 40
0.9375
 40
1.0
 40
1.0
 40
1.0
 40
1.0
 10
356.7417910447761
 20
537.1989864108804
 30
0.0
 10
356.7417910447761
 20
537.2005556729697
 30
0.0
 10
356.7288242153792
 20
537.2020659945264
 30
0.0
 10
356.6780168363567
 20
537.2049771813303
 30
0.0
 10
356.6395599133278
 20
537.206392307833
 30
0.0
 10
356.5391565188742
 20
537.2090369919842
 30
0.0
 10
356.4777150812163
 20
537.210263904385
 30
0.0
 10
356.3325531045307
 20
537.2125440901456
 30
0.0
 10
356.2480602225045
 20
537.2136009938489
 30
0.0
 10
355.9712085811436
 20
537.2163983587456
 30
0.0
 10
355.7480364899534
 20
537.2178411284387
 30
0.0
 10
355.2666312833156
 20
537.2197491124534
 30
0.0
 10
355.0034030013152
 20
537.2202367571945
 30
0.0
 10
354.6120504620209
 20
537.2202380602057
 30
0.0
 10
354.4795534028182
 20
537.2201164416172
 30
0.0
 10
354.2230241350755
 20
537.2196351762794
 30
0.0
 10
354.0983430955325
 20
537.2192782500641
 30
0.0
 10
353.8561888315808
 20
537.2183200518359
 30
0.0
 10
353.7390487710086
 20
537.2177160820129
 30
0.0
 10
353.5222953795603
 20
537.216297254482
 30
0.0
 10
353.4212759414262
 20
537.2154777512376
 30
0.0
 10
353.2345275101397
 20
537.2135910858162
 30
0.0
 10
353.1516055240111
 20
537.2125513610744
 30
0.0
 10
353.0067598957862
 20
537.21027969699
 30
0.0
 10
352.9441728019905
 20
537.2090316240677
 30
0.0
 10
352.843782448213
 20
537.2063846967563
 30
0.0
 10
352.8059822645573
 20
537.2049956707805
 30
0.0
 10
352.7548693504783
 20
537.2020777309397
 30
0.0
 10
352.7417910447761
 20
537.2005365156822
 30
0.0
 10
352.7417910447761
 20
537.1989864108805
 30
0.0
  0
LINE
  5
162
330
1F
100
AcDbEntity
  8
0
  6
Continuous
 62
     7
370
    25
100
AcDbLine
 10
352.7417911342
 20
537.1989806414
 30
0.0
 11
352.7417911342
 21
536.8163635254
 31
0.0
  0
SPLINE
  5
163
330
1F
100
AcDbEntity
  8
0
  6
Continuous
 62
     7
370
    25
100
AcDbSpline
210
0.0
220
0.0
230
1.0
 70
     8
 71
     3
 72
    34
 73
    30
 74
     0
 42
0.000000001
 43
0.00000001
 40
0.0
 40
0.0
 40
0.0
 40
0.0
 40
0.0624999999999976
 40
0.0624999999999976
 40
0.1249999999999952
 40
0.1249999999999952
 40
0.2499999999999939
 40
0.2499999999999939
 40
0.3124999999999951
 40
0.3124999999999951
 40
0.3749999999999955
 40
0.3749999999999955
 40
0.4374999999999959
 40
0.4374999999999959
 40
0.4999999999999963
 40
0.4999999999999963
 40
0.5624999999999967
 40
0.5624999999999967
 40
0.6249999999999971
 40
0.6249999999999971
 40
0.6874999999999974
 40
0.6874999999999974
 40
0.7499999999999979
 40
0.7499999999999979
 40
0.8124999999999982
 40
0.8124999999999982
 40
0.8749999999999987
 40
0.8749999999999987
 40
1.0
 40
1.0
 40
1.0
 40
1.0
 10
352.7417910447761
 20
536.8163679342757
 30
0.0
 10
352.7417910447761
 20
536.8120438193764
 30
0.0
 10
352.754434784448
 20
536.8077143367996
 30
0.0
 10
352.8055287803605
 20
536.7990480986824
 30
0.0
 10
352.8439184480403
 20
536.7947652366225
 30
0.0
 10
352.9932557820531
 20
536.7824556866518
 30
0.0
 10
353.1421534008305
 20
536.7747288793146
 30
0.0
 10
353.4184830744423
 20
536.7650650628058
 30
0.0
 10
353.5212376050639
 20
536.7620988967641
 30
0.0
 10
353.7387542756454
 20
536.7569749366771
 30
0.0
 10
353.8535834302587
 20
536.7547991062054
 30
0.0
 10
354.0954101830501
 20
536.7512370710157
 30
0.0
 10
354.2226336480822
 20
536.7498622346902
 30
0.0
 10
354.4783462308181
 20
536.7480460954357
 30
0.0
 10
354.6081853886913
 20
536.7475812800893
 30
0.0
 10
354.8719694340481
 20
536.7475732232031
 30
0.0
 10
355.0025324792907
 20
536.7480335806652
 30
0.0
 10
355.2581510336526
 20
536.7498358237486
 30
0.0
 10
355.3849112898256
 20
536.7511968438497
 30
0.0
 10
355.6275529233821
 20
536.7547554618945
 30
0.0
 10
355.7424893854464
 20
536.7569279177275
 30
0.0
 10
355.9597985529285
 20
536.7620310360206
 30
0.0
 10
356.0628261414184
 20
536.7649946318173
 30
0.0
 10
356.2475626634098
 20
536.7714373309635
 30
0.0
 10
356.3303565776359
 20
536.7749337251136
 30
0.0
 10
356.4764775405087
 20
536.7824671839974
 30
0.0
 10
356.5388787225583
 20
536.7864735642573
 30
0.0
 10
356.6887265265675
 20
536.7987782637628
 30
0.0
 10
356.7417910447761
 20
536.8076128365218
 30
0.0
 10
356.7417910447761
 20
536.816367934276
 30
0.0
  0
SPLINE
  5
164
330
1F
100
AcDbEntity
  8
0
  6
Continuous
 62
     7
370
    25
100
AcDbSpline
210
0.0
220
0.0
230
1.0
 70
     8
 71
     3
 72
    12
 73
     8
 74
     0
 42
0.000000001
 43
0.00000001
 40
0.0
 40
0.0
 40
0.0
 40
0.0
 40
0.2500000000000002
 40
0.2500000000000002
 40
0.5000000000000002
 40
0.5000000000000002
 40
1.0
 40
1.0
 40
1.0
 40
1.0
 10
390.0805353486288
 20
526.6985066434967
 30
0.0
 10
400.8691645842108
 20
526.7284100144707
 30
0.0
 10
411.6500120014913
 20
526.7805840086742
 30
0.0
 10
433.1989834374276
 20
526.9204848128882
 30
0.0
 10
443.9671297646426
 20
527.0081423310323
 30
0.0
 10
476.2550215686085
 20
527.3153481400664
 30
0.0
 10
497.7583381782001
 20
527.578944786009
 30
0.0
 10
519.2417910447759
 20
527.8887450911664
 30
0.0
  0
SPLINE
  5
165
330
1F
100
AcDbEntity
  8
0
  6
Continuous
 62
     7
370
    25
100
AcDbSpline
210
0.0
220
0.0
230
1.0
 70
     8
 71
     3
 72
     9
 73
     5
 74
     0
 42
0.000000001
 43
0.00000001
 40
0.0
 40
0.0
 40
0.0
 40
0.0
 40
0.5
 40
1.0
 40
1.0
 40
1.0
 40
1.0
 10
348.4030467409344
 20
526.6985066434969
 30
0.0
 10
355.3492948422168
 20
526.679253388119
 30
0.0
 10
369.2417910447816
 20
526.6585164552681
 30
0.0
 10
383.1342872473464
 20
526.6792533881193
 30
0.0
 10
390.0805353486288
 20
526.698506643497
 30
0.0
  0
SPLINE
  5
166
330
1F
100
AcDbEntity
  8
0
  6
Continuous
 62
     7
370
    25
100
AcDbSpline
210
0.0
220
0.0
230
1.0
 70
     8
 71
     3
 72
    12
 73
     8
 74
     0
 42
0.000000001
 43
0.00000001
 40
0.0
 40
0.0
 40
0.0
 40
0.0
 40
0.5000000000000002
 40
0.5000000000000002
 40
0.7500000000000001
 40
0.7500000000000001
 40
1.0
 40
1.0
 40
1.0
 40
1.0
 10
219.2417910447766
 20
527.8887450911665
 30
0.0
 10
240.7327629082263
 20
527.578836358954
 30
0.0
 10
262.2401708531345
 20
527.3152156764879
 30
0.0
 10
294.5284929085668
 20
527.0080387770843
 30
0.0
 10
305.2958264202647
 20
526.920401614336
 30
0.0
 10
326.8409683218027
 20
526.7805462919152
 30
0.0
 10
337.6187952769929
 20
526.7283978803872
 30
0.0
 10
348.4030467409344
 20
526.6985066434969
 30
0.0
  0
LINE
  5
167
330
1F
100
AcDbEntity
  8
0
  6
Continuous
 62
     7
370
    25
100
AcDbLine
 10
348.7417904785
 20
536.8163635254
 30
0.0
 11
348.7417904785
 21
537.1989806414
 31
0.0
  0
SPLINE
  5
168
330
1F
100
AcDbEntity
  8
0
  6
Continuous
 62
     7
370
    25
100
AcDbSpline
210
0.0
220
0.0
230
1.0
 70
     8
 71
     3
 72
    34
 73
    30
 74
     0
 42
0.000000001
 43
0.00000001
 40
0.0
 40
0.0
 40
0.0
 40
0.0
 40
0.0624999999999996
 40
0.0624999999999996
 40
0.1249999999999992
 40
0.1249999999999992
 40
0.1874999999999988
 40
0.1874999999999988
 40
0.2499999999999983
 40
0.2499999999999983
 40
0.3749999999999986
 40
0.3749999999999986
 40
0.4999999999999989
 40
0.4999999999999989
 40
0.562499999999999
 40
0.562499999999999
 40
0.6249999999999991
 40
0.6249999999999991
 40
0.6874999999999993
 40
0.6874999999999993
 40
0.7499999999999994
 40
0.7499999999999994
 40
0.8124999999999996
 40
0.8124999999999996
 40
0.8749999999999997
 40
0.8749999999999997
 40
0.9374999999999999
 40
0.9374999999999999
 40
1.0
 40
1.0
 40
1.0
 40
1.0
 10
348.7417910447761
 20
537.1989864108804
 30
0.0
 10
348.7417910447761
 20
537.2005556729697
 30
0.0
 10
348.7288242153792
 20
537.2020659945264
 30
0.0
 10
348.6780168363567
 20
537.2049771813303
 30
0.0
 10
348.6395599133278
 20
537.206392307833
 30
0.0
 10
348.5391565188742
 20
537.2090369919842
 30
0.0
 10
348.4777150812163
 20
537.210263904385
 30
0.0
 10
348.3325531045307
 20
537.2125440901456
 30
0.0
 10
348.2480602225045
 20
537.2136009938489
 30
0.0
 10
347.9712085811436
 20
537.2163983587456
 30
0.0
 10
347.7480364899534
 20
537.2178411284387
 30
0.0
 10
347.2666312833157
 20
537.2197491124535
 30
0.0
 10
347.0034030013152
 20
537.2202367571945
 30
0.0
 10
346.6120504620209
 20
537.2202380602058
 30
0.0
 10
346.4795534028182
 20
537.2201164416172
 30
0.0
 10
346.2230241350755
 20
537.2196351762794
 30
0.0
 10
346.0983430955325
 20
537.219278250064
 30
0.0
 10
345.8561888315808
 20
537.218320051836
 30
0.0
 10
345.7390487710086
 20
537.2177160820129
 30
0.0
 10
345.5222953795603
 20
537.216297254482
 30
0.0
 10
345.4212759414262
 20
537.2154777512376
 30
0.0
 10
345.2345275101397
 20
537.2135910858162
 30
0.0
 10
345.1516055240111
 20
537.2125513610744
 30
0.0
 10
345.0067598957863
 20
537.2102796969899
 30
0.0
 10
344.9441728019905
 20
537.2090316240677
 30
0.0
 10
344.843782448213
 20
537.2063846967563
 30
0.0
 10
344.8059822645573
 20
537.2049956707805
 30
0.0
 10
344.7548693504783
 20
537.2020777309397
 30
0.0
 10
344.7417910447761
 20
537.2005365156822
 30
0.0
 10
344.7417910447761
 20
537.1989864108805
 30
0.0
  0
LINE
  5
169
330
1F
100
AcDbEntity
  8
0
  6
Continuous
 62
     7
370
    25
100
AcDbLine
 10
344.7417916855
 20
537.1989806414
 30
0.0
 11
344.7417916855
 21
536.8163635254
 31
0.0
  0
SPLINE
  5
16A
330
1F
100
AcDbEntity
  8
0
  6
Continuous
 62
     7
370
    25
100
AcDbSpline
210
0.0
220
0.0
230
1.0
 70
     8
 71
     3
 72
    34
 73
    30
 74
     0
 42
0.000000001
 43
0.00000001
 40
0.0
 40
0.0
 40
0.0
 40
0.0
 40
0.0625000000000008
 40
0.0625000000000008
 40
0.1250000000000016
 40
0.1250000000000016
 40
0.2499999999999999
 40
0.2499999999999999
 40
0.3124999999999997
 40
0.3124999999999997
 40
0.3749999999999994
 40
0.3749999999999994
 40
0.4374999999999992
 40
0.4374999999999992
 40
0.4999999999999989
 40
0.4999999999999989
 40
0.5624999999999987
 40
0.5624999999999987
 40
0.6249999999999983
 40
0.6249999999999983
 40
0.6874999999999981
 40
0.6874999999999981
 40
0.7499999999999978
 40
0.7499999999999978
 40
0.8124999999999974
 40
0.8124999999999974
 40
0.8749999999999971
 40
0.8749999999999971
 40
1.0
 40
1.0
 40
1.0
 40
1.0
 10
344.7417910447761
 20
536.8163679342757
 30
0.0
 10
344.7417910447761
 20
536.8120438193764
 30
0.0
 10
344.754434784448
 20
536.8077143367996
 30
0.0
 10
344.8055287803605
 20
536.7990480986824
 30
0.0
 10
344.8439184480403
 20
536.7947652366224
 30
0.0
 10
344.9932557820531
 20
536.7824556866519
 30
0.0
 10
345.1421534008304
 20
536.7747288793146
 30
0.0
 10
345.4184830744423
 20
536.7650650628058
 30
0.0
 10
345.5212376050638
 20
536.7620988967641
 30
0.0
 10
345.7387542756454
 20
536.7569749366771
 30
0.0
 10
345.8535834302587
 20
536.7547991062055
 30
0.0
 10
346.0954101830501
 20
536.7512370710157
 30
0.0
 10
346.2226336480822
 20
536.7498622346902
 30
0.0
 10
346.4783462308181
 20
536.7480460954358
 30
0.0
 10
346.6081853886913
 20
536.7475812800894
 30
0.0
 10
346.8719694340481
 20
536.7475732232032
 30
0.0
 10
347.0025324792907
 20
536.748033580665
 30
0.0
 10
347.2581510336526
 20
536.7498358237486
 30
0.0
 10
347.3849112898256
 20
536.7511968438497
 30
0.0
 10
347.6275529233821
 20
536.7547554618945
 30
0.0
 10
347.7424893854464
 20
536.7569279177275
 30
0.0
 10
347.9597985529285
 20
536.7620310360206
 30
0.0
 10
348.0628261414184
 20
536.7649946318173
 30
0.0
 10
348.2475626634098
 20
536.7714373309635
 30
0.0
 10
348.3303565776359
 20
536.7749337251136
 30
0.0
 10
348.4764775405087
 20
536.7824671839974
 30
0.0
 10
348.5388787225582
 20
536.7864735642573
 30
0.0
 10
348.6887265265675
 20
536.7987782637626
 30
0.0
 10
348.7417910447761
 20
536.8076128365219
 30
0.0
 10
348.7417910447761
 20
536.816367934276
 30
0.0
  0
LINE
  5
16B
330
1F
100
AcDbEntity
  8
0
  6
Continuous
 62
     7
370
    25
100
AcDbLine
 10
364.7417912385
 20
536.8163635254
 30
0.0
 11
364.7417912385
 21
537.1989806414
 31
0.0
  0
SPLINE
  5
16C
330
1F
100
AcDbEntity
  8
0
  6
Continuous
 62
     7
370
    25
100
AcDbSpline
210
0.0
220
0.0
230
1.0
 70
     8
 71
     3
 72
    34
 73
    30
 74
     0
 42
0.000000001
 43
0.00000001
 40
0.0
 40
0.0
 40
0.0
 40
0.0
 40
0.0625
 40
0.0625
 40
0.125
 40
0.125
 40
0.1875000000000001
 40
0.1875000000000001
 40
0.2500000000000001
 40
0.2500000000000001
 40
0.3749999999999999
 40
0.3749999999999999
 40
0.4999999999999999
 40
0.4999999999999999
 40
0.5624999999999999
 40
0.5624999999999999
 40
0.6249999999999999
 40
0.6249999999999999
 40
0.6874999999999999
 40
0.6874999999999999
 40
0.7499999999999999
 40
0.7499999999999999
 40
0.8125
 40
0.8125
 40
0.875
 40
0.875
 40
0.9375
 40
0.9375
 40
1.0
 40
1.0
 40
1.0
 40
1.0
 10
364.7417910447761
 20
537.1989864108804
 30
0.0
 10
364.7417910447761
 20
537.2005556729697
 30
0.0
 10
364.7288242153792
 20
537.2020659945264
 30
0.0
 10
364.6780168363567
 20
537.2049771813303
 30
0.0
 10
364.6395599133278
 20
537.206392307833
 30
0.0
 10
364.5391565188743
 20
537.2090369919844
 30
0.0
 10
364.4777150812163
 20
537.210263904385
 30
0.0
 10
364.3325531045308
 20
537.2125440901457
 30
0.0
 10
364.2480602225045
 20
537.2136009938489
 30
0.0
 10
363.9712085811436
 20
537.2163983587457
 30
0.0
 10
363.7480364899534
 20
537.2178411284389
 30
0.0
 10
363.2666312833157
 20
537.2197491124534
 30
0.0
 10
363.0034030013152
 20
537.2202367571945
 30
0.0
 10
362.6120504620209
 20
537.2202380602056
 30
0.0
 10
362.4795534028182
 20
537.2201164416173
 30
0.0
 10
362.2230241350755
 20
537.2196351762797
 30
0.0
 10
362.0983430955326
 20
537.219278250064
 30
0.0
 10
361.8561888315808
 20
537.2183200518359
 30
0.0
 10
361.7390487710086
 20
537.2177160820129
 30
0.0
 10
361.5222953795603
 20
537.216297254482
 30
0.0
 10
361.4212759414262
 20
537.2154777512376
 30
0.0
 10
361.2345275101397
 20
537.2135910858162
 30
0.0
 10
361.1516055240111
 20
537.2125513610744
 30
0.0
 10
361.0067598957862
 20
537.2102796969899
 30
0.0
 10
360.9441728019905
 20
537.2090316240677
 30
0.0
 10
360.843782448213
 20
537.2063846967562
 30
0.0
 10
360.8059822645573
 20
537.2049956707805
 30
0.0
 10
360.7548693504784
 20
537.2020777309397
 30
0.0
 10
360.7417910447761
 20
537.2005365156822
 30
0.0
 10
360.7417910447761
 20
537.1989864108805
 30
0.0
  0
LINE
  5
16D
330
1F
100
AcDbEntity
  8
0
  6
Continuous
 62
     7
370
    25
100
AcDbLine
 10
360.7417905828
 20
537.1989806414
 30
0.0
 11
360.7417905828
 21
536.8163635254
 31
0.0
  0
SPLINE
  5
16E
330
1F
100
AcDbEntity
  8
0
  6
Continuous
 62
     7
370
    25
100
AcDbSpline
210
0.0
220
0.0
230
1.0
 70
     8
 71
     3
 72
    34
 73
    30
 74
     0
 42
0.000000001
 43
0.00000001
 40
0.0
 40
0.0
 40
0.0
 40
0.0
 40
0.0625000000000008
 40
0.0625000000000008
 40
0.1250000000000015
 40
0.1250000000000015
 40
0.2500000000000001
 40
0.2500000000000001
 40
0.3125000000000003
 40
0.3125000000000003
 40
0.3750000000000006
 40
0.3750000000000006
 40
0.4375000000000008
 40
0.4375000000000008
 40
0.5000000000000011
 40
0.5000000000000011
 40
0.5625000000000014
 40
0.5625000000000014
 40
0.6250000000000018
 40
0.6250000000000018
 40
0.6875000000000021
 40
0.6875000000000021
 40
0.7500000000000023
 40
0.7500000000000023
 40
0.8125000000000027
 40
0.8125000000000027
 40
0.875000000000003
 40
0.875000000000003
 40
1.0
 40
1.0
 40
1.0
 40
1.0
 10
360.7417910447761
 20
536.8163679342758
 30
0.0
 10
360.7417910447761
 20
536.8120438193764
 30
0.0
 10
360.754434784448
 20
536.8077143367996
 30
0.0
 10
360.8055287803605
 20
536.7990480986825
 30
0.0
 10
360.8439184480403
 20
536.7947652366223
 30
0.0
 10
360.9932557820531
 20
536.7824556866518
 30
0.0
 10
361.1421534008305
 20
536.7747288793146
 30
0.0
 10
361.4184830744423
 20
536.7650650628059
 30
0.0
 10
361.5212376050639
 20
536.7620988967641
 30
0.0
 10
361.7387542756454
 20
536.7569749366771
 30
0.0
 10
361.8535834302587
 20
536.7547991062054
 30
0.0
 10
362.0954101830501
 20
536.7512370710157
 30
0.0
 10
362.2226336480822
 20
536.7498622346902
 30
0.0
 10
362.4783462308181
 20
536.7480460954357
 30
0.0
 10
362.6081853886913
 20
536.7475812800894
 30
0.0
 10
362.8719694340481
 20
536.7475732232032
 30
0.0
 10
363.0025324792907
 20
536.7480335806652
 30
0.0
 10
363.2581510336526
 20
536.7498358237486
 30
0.0
 10
363.3849112898256
 20
536.7511968438497
 30
0.0
 10
363.6275529233821
 20
536.7547554618945
 30
0.0
 10
363.7424893854464
 20
536.7569279177275
 30
0.0
 10
363.9597985529285
 20
536.7620310360206
 30
0.0
 10
364.0628261414184
 20
536.7649946318172
 30
0.0
 10
364.2475626634098
 20
536.7714373309635
 30
0.0
 10
364.3303565776359
 20
536.7749337251136
 30
0.0
 10
364.4764775405087
 20
536.7824671839974
 30
0.0
 10
364.5388787225583
 20
536.7864735642573
 30
0.0
 10
364.6887265265675
 20
536.7987782637626
 30
0.0
 10
364.7417910447761
 20
536.8076128365218
 30
0.0
 10
364.7417910447761
 20
536.816367934276
 30
0.0
  0
LINE
  5
16F
330
1F
100
AcDbEntity
  8
0
  6
Continuous
 62
     7
370
    25
100
AcDbLine
 10
381.741791231
 20
537.1989806414
 30
0.0
 11
381.741791231
 21
536.8163635254
 31
0.0
  0
SPLINE
  5
170
330
1F
100
AcDbEntity
  8
0
  6
Continuous
 62
     7
370
    25
100
AcDbSpline
210
0.0
220
0.0
230
1.0
 70
     8
 71
     3
 72
    34
 73
    30
 74
     0
 42
0.000000001
 43
0.00000001
 40
0.0
 40
0.0
 40
0.0
 40
0.0
 40
0.0624999999999986
 40
0.0624999999999986
 40
0.1249999999999973
 40
0.1249999999999973
 40
0.2499999999999981
 40
0.2499999999999981
 40
0.3124999999999984
 40
0.3124999999999984
 40
0.3749999999999988
 40
0.3749999999999988
 40
0.4374999999999992
 40
0.4374999999999992
 40
0.4999999999999997
 40
0.4999999999999997
 40
0.5625000000000001
 40
0.5625000000000001
 40
0.6250000000000004
 40
0.6250000000000004
 40
0.6875000000000009
 40
0.6875000000000009
 40
0.7500000000000013
 40
0.7500000000000013
 40
0.8125000000000018
 40
0.8125000000000018
 40
0.8750000000000021
 40
0.8750000000000021
 40
1.0
 40
1.0
 40
1.0
 40
1.0
 10
381.7417910447761
 20
536.8163679342757
 30
0.0
 10
381.7417910447761
 20
536.8120438193764
 30
0.0
 10
381.754434784448
 20
536.8077143367996
 30
0.0
 10
381.8055287803605
 20
536.7990480986824
 30
0.0
 10
381.8439184480402
 20
536.7947652366224
 30
0.0
 10
381.9932557820531
 20
536.7824556866519
 30
0.0
 10
382.1421534008304
 20
536.7747288793146
 30
0.0
 10
382.4184830744423
 20
536.7650650628059
 30
0.0
 10
382.5212376050638
 20
536.7620988967641
 30
0.0
 10
382.7387542756454
 20
536.7569749366771
 30
0.0
 10
382.8535834302587
 20
536.7547991062054
 30
0.0
 10
383.0954101830501
 20
536.7512370710157
 30
0.0
 10
383.2226336480823
 20
536.7498622346901
 30
0.0
 10
383.4783462308181
 20
536.7480460954357
 30
0.0
 10
383.6081853886913
 20
536.7475812800894
 30
0.0
 10
383.8719694340481
 20
536.7475732232032
 30
0.0
 10
384.0025324792907
 20
536.7480335806652
 30
0.0
 10
384.2581510336525
 20
536.7498358237486
 30
0.0
 10
384.3849112898255
 20
536.7511968438497
 30
0.0
 10
384.6275529233821
 20
536.7547554618947
 30
0.0
 10
384.7424893854464
 20
536.7569279177276
 30
0.0
 10
384.9597985529284
 20
536.7620310360206
 30
0.0
 10
385.0628261414184
 20
536.7649946318173
 30
0.0
 10
385.2475626634098
 20
536.7714373309636
 30
0.0
 10
385.3303565776359
 20
536.7749337251136
 30
0.0
 10
385.4764775405087
 20
536.7824671839974
 30
0.0
 10
385.5388787225581
 20
536.7864735642573
 30
0.0
 10
385.6887265265675
 20
536.7987782637628
 30
0.0
 10
385.7417910447761
 20
536.8076128365218
 30
0.0
 10
385.7417910447761
 20
536.816367934276
 30
0.0
  0
LINE
  5
171
330
1F
100
AcDbEntity
  8
0
  6
Continuous
 62
     7
370
    25
100
AcDbLine
 10
385.7417909554
 20
536.8163635254
 30
0.0
 11
385.7417909554
 21
537.1989806414
 31
0.0
  0
SPLINE
  5
172
330
1F
100
AcDbEntity
  8
0
  6
Continuous
 62
     7
370
    25
100
AcDbSpline
210
0.0
220
0.0
230
1.0
 70
     8
 71
     3
 72
    34
 73
    30
 74
     0
 42
0.000000001
 43
0.00000001
 40
0.0
 40
0.0
 40
0.0
 40
0.0
 40
0.0625000000000007
 40
0.0625000000000007
 40
0.1250000000000014
 40
0.1250000000000014
 40
0.1875000000000021
 40
0.1875000000000021
 40
0.2500000000000028
 40
0.2500000000000028
 40
0.3750000000000029
 40
0.3750000000000029
 40
0.5000000000000031
 40
0.5000000000000031
 40
0.5625000000000028
 40
0.5625000000000028
 40
0.6250000000000024
 40
0.6250000000000024
 40
0.687500000000002
 40
0.687500000000002
 40
0.7500000000000016
 40
0.7500000000000016
 40
0.8125000000000012
 40
0.8125000000000012
 40
0.8750000000000008
 40
0.8750000000000008
 40
0.9375000000000004
 40
0.9375000000000004
 40
1.0
 40
1.0
 40
1.0
 40
1.0
 10
385.741791044776
 20
537.1989864108804
 30
0.0
 10
385.741791044776
 20
537.2005556729696
 30
0.0
 10
385.7288242153792
 20
537.2020659945265
 30
0.0
 10
385.6780168363567
 20
537.2049771813302
 30
0.0
 10
385.6395599133278
 20
537.206392307833
 30
0.0
 10
385.5391565188742
 20
537.2090369919842
 30
0.0
 10
385.4777150812164
 20
537.2102639043852
 30
0.0
 10
385.3325531045308
 20
537.2125440901457
 30
0.0
 10
385.2480602225045
 20
537.2136009938489
 30
0.0
 10
384.9712085811436
 20
537.2163983587457
 30
0.0
 10
384.7480364899534
 20
537.2178411284389
 30
0.0
 10
384.2666312833157
 20
537.2197491124534
 30
0.0
 10
384.0034030013151
 20
537.2202367571946
 30
0.0
 10
383.6120504620209
 20
537.2202380602057
 30
0.0
 10
383.4795534028182
 20
537.2201164416172
 30
0.0
 10
383.2230241350755
 20
537.2196351762794
 30
0.0
 10
383.0983430955325
 20
537.2192782500641
 30
0.0
 10
382.8561888315807
 20
537.218320051836
 30
0.0
 10
382.7390487710086
 20
537.2177160820129
 30
0.0
 10
382.5222953795603
 20
537.216297254482
 30
0.0
 10
382.4212759414262
 20
537.2154777512375
 30
0.0
 10
382.2345275101397
 20
537.2135910858162
 30
0.0
 10
382.1516055240111
 20
537.2125513610744
 30
0.0
 10
382.0067598957862
 20
537.2102796969899
 30
0.0
 10
381.9441728019904
 20
537.2090316240676
 30
0.0
 10
381.843782448213
 20
537.2063846967562
 30
0.0
 10
381.8059822645573
 20
537.2049956707806
 30
0.0
 10
381.7548693504783
 20
537.2020777309398
 30
0.0
 10
381.741791044776
 20
537.200536515682
 30
0.0
 10
381.741791044776
 20
537.1989864108803
 30
0.0
  0
LINE
  5
173
330
1F
100
AcDbEntity
  8
0
  6
Continuous
 62
     7
370
    25
100
AcDbLine
 10
569.241794025
 20
247.2553973318
 30
0.0
 11
561.2142553678
 21
247.2553973318
 31
0.0
  0
SPLINE
  5
174
330
1F
100
AcDbEntity
  8
0
  6
Continuous
 62
     7
370
    25
100
AcDbSpline
210
0.0
220
0.0
230
1.0
 70
     8
 71
     3
 72
    16
 73
    12
 74
     0
 42
0.000000001
 43
0.00000001
 40
0.0
 40
0.0
 40
0.0
 40
0.0
 40
0.2500000000000002
 40
0.2500000000000002
 40
0.5000000000000002
 40
0.5000000000000002
 40
0.6250000000000002
 40
0.6250000000000002
 40
0.7500000000000001
 40
0.7500000000000001
 40
1.0
 40
1.0
 40
1.0
 40
1.0
 10
559.9276761198884
 20
487.2553946495607
 30
0.0
 10
559.8119967337279
 20
467.2244133703003
 30
0.0
 10
559.7521706538487
 20
447.1989901740729
 30
0.0
 10
559.7524709405103
 20
407.1597488892925
 30
0.0
 10
559.8125922224067
 20
387.1459304344619
 30
0.0
 10
559.9862389900723
 20
357.1335097977386
 30
0.0
 10
560.0579050466977
 20
347.1307465901512
 30
0.0
 10
560.2267559453956
 20
327.1278656522182
 30
0.0
 10
560.3239566695025
 20
317.1258183925133
 30
0.0
 10
560.6502021733304
 20
287.1443748548014
 30
0.0
 10
560.9139024615075
 20
267.1860992625597
 30
0.0
 10
561.2142610497218
 20
247.2553946495613
 30
0.0
  0
SPLINE
  5
175
330
1F
100
AcDbEntity
  8
0
  6
Continuous
 62
     7
370
    25
100
AcDbSpline
210
0.0
220
0.0
230
1.0
 70
     8
 71
     3
 72
    14
 73
    10
 74
     0
 42
0.000000001
 43
0.00000001
 40
0.0
 40
0.0
 40
0.0
 40
0.0
 40
0.25
 40
0.25
 40
0.5
 40
0.5
 40
0.75
 40
0.75
 40
1.0
 40
1.0
 40
1.0
 40
1.0
 10
177.2693210398303
 20
247.2553946495617
 30
0.0
 10
177.5699548823937
 20
267.2043641410771
 30
0.0
 10
177.833614002166
 20
287.1650233780072
 30
0.0
 10
178.268271790515
 20
327.1111111112326
 30
0.0
 10
178.4391934348519
 20
347.0965529411608
 30
0.0
 10
178.6707687227102
 20
387.0943357326971
 30
0.0
 10
178.7310198257042
 20
407.1067599876594
 30
0.0
 10
178.7315018610034
 20
447.1600361118681
 30
0.0
 10
178.6717212038743
 20
467.2008899938201
 30
0.0
 10
178.5559059696636
 20
487.255394649561
 30
0.0
  0
LINE
  5
176
330
1F
100
AcDbEntity
  8
0
  6
Continuous
 62
     7
370
    25
100
AcDbLine
 10
169.2417880645
 20
247.2553973318
 30
0.0
 11
177.2693267217
 21
247.2553973318
 31
0.0
  0
SPLINE
  5
177
330
1F
100
AcDbEntity
  8
0
  6
Continuous
 62
     7
370
    25
100
AcDbSpline
210
0.0
220
0.0
230
1.0
 70
     8
 71
     3
 72
    36
 73
    32
 74
     0
 42
0.000000001
 43
0.00000001
 40
0.0
 40
0.0
 40
0.0
 40
0.0
 40
0.1249999999999971
 40
0.1249999999999971
 40
0.1874999999999957
 40
0.1874999999999957
 40
0.218749999999995
 40
0.218749999999995
 40
0.2499999999999943
 40
0.2499999999999943
 40
0.3749999999999939
 40
0.3749999999999939
 40
0.4062499999999936
 40
0.4062499999999936
 40
0.4374999999999932
 40
0.4374999999999932
 40
0.4999999999999933
 40
0.4999999999999933
 40
0.6249999999999934
 40
0.6249999999999934
 40
0.6562499999999938
 40
0.6562499999999938
 40
0.687499999999994
 40
0.687499999999994
 40
0.7499999999999952
 40
0.7499999999999952
 40
0.8124999999999964
 40
0.8124999999999964
 40
0.8749999999999976
 40
0.8749999999999976
 40
1.0
 40
1.0
 40
1.0
 40
1.0
 10
219.241791044776
 20
205.2645016835968
 30
0.0
 10
216.4688328600577
 20
205.2584093828562
 30
0.0
 10
213.74079520854
 20
205.5250968930143
 30
0.0
 10
209.7134930451471
 20
206.3183536379891
 30
0.0
 10
208.381931658786
 20
206.6487976378168
 30
0.0
 10
206.4012913484604
 20
207.2458869266599
 30
0.0
 10
205.7421367669247
 20
207.4624892034703
 30
0.0
 10
204.4387679261638
 20
207.9269792969217
 30
0.0
 10
203.7953126624963
 20
208.1744784459891
 30
0.0
 10
200.6184067585481
 20
209.4868074521012
 30
0.0
 10
198.2049119110087
 20
210.7739952856738
 30
0.0
 10
195.3476228221778
 20
212.6787873665392
 30
0.0
 10
194.7842160599468
 20
213.0746697623097
 30
0.0
 10
193.6737895505883
 20
213.8968106329959
 30
0.0
 10
193.1258581190229
 20
214.3239200156908
 30
0.0
 10
191.524036660951
 20
215.6375944597017
 30
0.0
 10
190.5067239511375
 20
216.5600347340236
 30
0.0
 10
187.6025200234779
 20
219.4636639986847
 30
0.0
 10
185.8619257127815
 20
221.5798352910235
 30
0.0
 10
183.9391530496762
 20
224.4584550127665
 30
0.0
 10
183.5686949573076
 20
225.0441098175724
 30
0.0
 10
182.8607782040937
 20
226.2268071668827
 30
0.0
 10
182.5224968040973
 20
226.8250674904845
 30
0.0
 10
181.5539947980409
 20
228.6402797769537
 30
0.0
 10
180.9700067547221
 20
229.8776147207868
 30
0.0
 10
179.9244539792502
 20
232.4062586250678
 30
0.0
 10
179.4628851668591
 20
233.6975657864181
 30
0.0
 10
178.6648059015546
 20
236.3353159941587
 30
0.0
 10
178.3282063095714
 20
237.6854129802772
 30
0.0
 10
177.5275045608462
 20
241.7436928014591
 30
0.0
 10
177.2620297834431
 20
244.4825823924458
 30
0.0
 10
177.2693210398302
 20
247.2553946495618
 30
0.0
  0
LINE
  5
178
330
1F
100
AcDbEntity
  8
0
  6
Continuous
 62
     7
370
    25
100
AcDbLine
 10
219.2417850843
 20
197.2553928614
 30
0.0
 11
219.2417850843
 21
205.2644987822
 31
0.0
  0
LINE
  5
179
330
1F
100
AcDbEntity
  8
0
  6
Continuous
 62
     7
370
    25
100
AcDbLine
 10
519.2417970052
 20
197.2553928614
 30
0.0
 11
519.2417970052
 21
205.2644987822
 31
0.0
  0
SPLINE
  5
17A
330
1F
100
AcDbEntity
  8
0
  6
Continuous
 62
     7
370
    25
100
AcDbSpline
210
0.0
220
0.0
230
1.0
 70
     8
 71
     3
 72
    36
 73
    32
 74
     0
 42
0.000000001
 43
0.00000001
 40
0.0
 40
0.0
 40
0.0
 40
0.0
 40
0.1250000000000036
 40
0.1250000000000036
 40
0.1875000000000049
 40
0.1875000000000049
 40
0.2187500000000057
 40
0.2187500000000057
 40
0.2500000000000066
 40
0.2500000000000066
 40
0.3750000000000055
 40
0.3750000000000055
 40
0.4062500000000049
 40
0.4062500000000049
 40
0.4375000000000043
 40
0.4375000000000043
 40
0.500000000000004
 40
0.500000000000004
 40
0.6250000000000034
 40
0.6250000000000034
 40
0.656250000000003
 40
0.656250000000003
 40
0.6875000000000024
 40
0.6875000000000024
 40
0.7500000000000019
 40
0.7500000000000019
 40
0.8125000000000013
 40
0.8125000000000013
 40
0.8750000000000008
 40
0.8750000000000008
 40
1.0
 40
1.0
 40
1.0
 40
1.0
 10
561.2142610497218
 20
247.2553946495614
 30
0.0
 10
561.2215524933115
 20
244.4825112007074
 30
0.0
 10
560.956064194882
 20
241.7546135765535
 30
0.0
 10
560.164762136686
 20
237.7275895712786
 30
0.0
 10
559.8349955431572
 20
236.3961323947943
 30
0.0
 10
559.2389833595593
 20
234.4156624872763
 30
0.0
 10
559.0227800952683
 20
233.7566357547806
 30
0.0
 10
558.5588256970601
 20
232.4527832184091
 30
0.0
 10
558.3115965097138
 20
231.8091153820164
 30
0.0
 10
557.000650571989
 20
228.631277817461
 30
0.0
 10
555.7146740395183
 20
226.2174540760136
 30
0.0
 10
553.8118788739289
 20
223.3600819679674
 30
0.0
 10
553.4164202023694
 20
222.7966751641373
 30
0.0
 10
552.5951857782068
 20
221.6862771562468
 30
0.0
 10
552.1683583776542
 20
221.1381027655112
 30
0.0
 10
550.8549801641606
 20
219.5349592016087
 30
0.0
 10
549.9328129139734
 20
218.5169504322893
 30
0.0
 10
547.0303508219831
 20
215.6110609728568
 30
0.0
 10
544.9154129742933
 20
213.8698818141145
 30
0.0
 10
542.0393581874738
 20
211.9466023436926
 30
0.0
 10
541.4532826105958
 20
211.5754259746894
 30
0.0
 10
540.270337387163
 20
210.866531795162
 30
0.0
 10
539.6719908408314
 20
210.5278062470092
 30
0.0
 10
537.8566422934308
 20
209.5580785829437
 30
0.0
 10
536.619379439035
 20
208.9734155406236
 30
0.0
 10
534.0912590863861
 20
207.9266669241991
 30
0.0
 10
532.8004031015369
 20
207.4645778889646
 30
0.0
 10
530.1639998774706
 20
206.6654852328392
 30
0.0
 10
528.8139294911592
 20
206.3281340639339
 30
0.0
 10
524.7542976620443
 20
205.5251152632827
 30
0.0
 10
522.0148258032544
 20
205.2584092146204
 30
0.0
 10
519.2417910447758
 20
205.2645016835966
 30
0.0
  0
SPLINE
  5
17B
330
1F
100
AcDbEntity
  8
0
  6
Continuous
 62
     7
370
    25
100
AcDbSpline
210
0.0
220
0.0
230
1.0
 70
     8
 71
     3
 72
    16
 73
    12
 74
     0
 42
0.000000001
 43
0.00000001
 40
0.0
 40
0.0
 40
0.0
 40
0.0
 40
0.2500000000000001
 40
0.2500000000000001
 40
0.5000000000000001
 40
0.5000000000000001
 40
0.7500000000000002
 40
0.7500000000000002
 40
0.8750000000000002
 40
0.8750000000000002
 40
1.0
 40
1.0
 40
1.0
 40
1.0
 10
519.2417910447757
 20
205.2645016835968
 30
0.0
 10
494.2734211594704
 20
205.5782712733752
 30
0.0
 10
469.2959513352061
 20
205.8275120669197
 30
0.0
 10
419.3214803248005
 20
206.165719663834
 30
0.0
 10
394.3244211715767
 20
206.2540873905724
 30
0.0
 10
344.3097657917418
 20
206.2544368783906
 30
0.0
 10
319.2921687902022
 20
206.1664079549997
 30
0.0
 10
281.7509641722135
 20
205.9126312342959
 30
0.0
 10
269.2325896310779
 20
205.8079373409101
 30
0.0
 10
244.2227775587002
 20
205.5623286522359
 30
0.0
 10
231.7275976338141
 20
205.4214068572021
 30
0.0
 10
219.241791044776
 20
205.2645016835966
 30
0.0
  0
SPLINE
  5
17C
330
1F
100
AcDbEntity
  8
0
  6
Continuous
 62
     7
370
    25
100
AcDbSpline
210
0.0
220
0.0
230
1.0
 70
     8
 71
     3
 72
    16
 73
    12
 74
     0
 42
0.000000001
 43
0.00000001
 40
0.0
 40
0.0
 40
0.0
 40
0.0
 40
0.2500000000000002
 40
0.2500000000000002
 40
0.5000000000000002
 40
0.5000000000000002
 40
0.6250000000000002
 40
0.6250000000000002
 40
0.7500000000000001
 40
0.7500000000000001
 40
1.0
 40
1.0
 40
1.0
 40
1.0
 10
209.9438197632747
 20
488.487193356579
 30
0.0
 10
210.0269688671468
 20
468.0677315590361
 30
0.0
 10
210.0656413471947
 20
447.6533774619128
 30
0.0
 10
210.0656127922798
 20
406.8352674953102
 30
0.0
 10
210.0269083213064
 20
386.4315114212846
 30
0.0
 10
209.9023319877352
 20
355.8335152562034
 30
0.0
 10
209.8495822819622
 20
345.6354501966419
 30
0.0
 10
209.7205121610723
 20
325.2417655142405
 30
0.0
 10
209.6441703615611
 20
315.0443345963508
 30
0.0
 10
209.3802209466339
 20
284.4748702644383
 30
0.0
 10
209.1573810432956
 20
264.1225607160591
 30
0.0
 10
208.8945511317299
 20
243.7960183880002
 30
0.0
  0
LWPOLYLINE
  5
17D
330
1F
100
AcDbEntity
  8
0
  6
Continuous
 62
     7
370
    25
100
AcDbPolyline
 90
       14
 70
   128
 43
0.0
 10
208.8945528618
 20
243.7960182548
 10
205.3145786873
 20
243.8970928312
 10
201.8050572029
 20
244.0339972497
 10
198.4034052244
 20
244.2052562953
 10
195.1459070793
 20
244.4090520263
 10
192.0673122755
 20
244.6432088733
 10
189.2004480711
 20
244.9052308918
 10
186.5759214512
 20
245.1923166633
 10
184.2217018953
 20
245.50141145
 10
182.1629127613
 20
245.8292146445
 10
180.4215183607
 20
246.1722319246
 10
179.0160855404
 20
246.5268050552
 10
177.9616048685
 20
246.8891491414
 10
177.2693267217
 20
247.2553973318
  0
LWPOLYLINE
  5
17E
330
1F
100
AcDbEntity
  8
0
  6
Continuous
 62
     7
370
    25
100
AcDbPolyline
 90
       14
 70
   128
 43
0.0
 10
209.9438181272
 20
488.4871964574
 10
206.4104696861
 20
488.4495039702
 10
202.9472014061
 20
488.3993988157
 10
199.5900591961
 20
488.3373876334
 10
196.3739415756
 20
488.2641186238
 10
193.3323165527
 20
488.1803666473
 10
190.4968341938
 20
488.0869810701
 10
187.8969689956
 20
487.9849528194
 10
185.559781467
 20
487.8753324271
 10
183.5095754018
 20
487.7592672825
 10
181.7676743618
 20
487.6379569293
 10
180.35221306
 20
487.5126679659
 10
179.2778989425
 20
487.3847042442
 10
178.5559078804
 20
487.2553919674
  0
SPLINE
  5
17F
330
1F
100
AcDbEntity
  8
0
  6
Continuous
 62
     7
370
    25
100
AcDbSpline
210
0.0
220
0.0
230
1.0
 70
     8
 71
     3
 72
    16
 73
    12
 74
     0
 42
0.000000001
 43
0.00000001
 40
0.0
 40
0.0
 40
0.0
 40
0.0
 40
0.1249999999999999
 40
0.1249999999999999
 40
0.2499999999999999
 40
0.2499999999999999
 40
0.4999999999999999
 40
0.4999999999999999
 40
0.7499999999999999
 40
0.7499999999999999
 40
1.0
 40
1.0
 40
1.0
 40
1.0
 10
216.3607537833
 20
236.3158549766398
 30
0.0
 10
229.0875923534675
 20
236.4501482330876
 30
0.0
 10
241.8231506668382
 20
236.5683005810968
 30
0.0
 10
267.3123084754735
 20
236.7702603390064
 30
0.0
 10
280.0693561374387
 20
236.854076796854
 30
0.0
 10
318.327572788602
 20
237.0535368631423
 30
0.0
 10
343.8239480552854
 20
237.1176360104727
 30
0.0
 10
394.7978633014712
 20
237.1174018341197
 30
0.0
 10
420.2754038310788
 20
237.0530622736796
 30
0.0
 10
471.2123612537121
 20
236.7872050770885
 30
0.0
 10
496.6718234466137
 20
236.5844132917015
 30
0.0
 10
522.122828306252
 20
236.3158549766397
 30
0.0
  0
LWPOLYLINE
  5
180
330
1F
100
AcDbEntity
  8
0
  6
Continuous
 62
     7
370
    25
100
AcDbPolyline
 90
       14
 70
   128
 43
0.0
 10
522.1228322139
 20
236.3158514023
 10
522.034736549
 20
232.7880759955
 10
521.9175687185
 20
229.3344636679
 10
521.7725655189
 20
225.9909262181
 10
521.6012319675
 20
222.7922727585
 10
521.4053413025
 20
219.7717924834
 10
521.186949884
 20
216.9608970404
 10
520.9483077875
 20
214.3888523102
 10
520.6919035068
 20
212.0824058772
 10
520.420419251
 20
210.0655784131
 10
520.1366564384
 20
208.3593358517
 10
519.8435953012
 20
206.9814403773
 10
519.5442607752
 20
205.946241808
 10
519.2417970052
 20
205.2644987822
  0
LWPOLYLINE
  5
181
330
1F
100
AcDbEntity
  8
0
  6
Continuous
 62
     7
370
    25
100
AcDbPolyline
 90
       14
 70
   128
 43
0.0
 10
216.3607498756
 20
236.3158514023
 10
216.4488455406
 20
232.7880759955
 10
216.5660133711
 20
229.3344636679
 10
216.7110165706
 20
225.9909262181
 10
216.882350122
 20
222.7922727585
 10
217.0782407871
 20
219.7717924834
 10
217.2966322056
 20
216.9608970404
 10
217.5352743021
 20
214.3888523102
 10
217.7916785827
 20
212.0824058772
 10
218.0631628385
 20
210.0655784131
 10
218.3469256511
 20
208.3593358517
 10
218.6399867883
 20
206.9814403773
 10
218.9393213144
 20
205.946241808
 10
219.2417850843
 20
205.2644987822
  0
LWPOLYLINE
  5
182
330
1F
100
AcDbEntity
  8
0
  6
Continuous
 62
     7
370
    25
100
AcDbPolyline
 90
       14
 70
   128
 43
0.0
 10
529.5890292278
 20
243.7960182548
 10
533.1690034023
 20
243.8970928312
 10
536.6785248867
 20
244.0339972497
 10
540.0801768652
 20
244.2052562953
 10
543.3376750103
 20
244.4090520263
 10
546.4162698141
 20
244.6432088733
 10
549.2831340185
 20
244.9052308918
 10
551.9076606384
 20
245.1923166633
 10
554.2618801943
 20
245.50141145
 10
556.3206693283
 20
245.8292146445
 10
558.0620637289
 20
246.1722319246
 10
559.4674965492
 20
246.5268050552
 10
560.5219772211
 20
246.8891491414
 10
561.2142553678
 20
247.2553973318
  0
SPLINE
  5
183
330
1F
100
AcDbEntity
  8
0
  6
Continuous
 62
     7
370
    25
100
AcDbSpline
210
0.0
220
0.0
230
1.0
 70
     8
 71
     3
 72
    16
 73
    12
 74
     0
 42
0.000000001
 43
0.00000001
 40
0.0
 40
0.0
 40
0.0
 40
0.0
 40
0.2500000000000001
 40
0.2500000000000001
 40
0.375
 40
0.375
 40
0.5
 40
0.5
 40
0.7499999999999999
 40
0.7499999999999999
 40
1.0
 40
1.0
 40
1.0
 40
1.0
 10
529.589030957822
 20
243.7960183880005
 30
0.0
 10
529.3262011506308
 20
264.122552644039
 30
0.0
 10
529.1033613772257
 20
284.4748497634112
 30
0.0
 10
528.8394120976873
 20
315.0442884620016
 30
0.0
 10
528.7630702067282
 20
325.241725340241
 30
0.0
 10
528.6339999248959
 20
345.6354278711875
 30
0.0
 10
528.5812501678681
 20
355.8335005488977
 30
0.0
 10
528.4566737392729
 20
386.431515505514
 30
0.0
 10
528.4179692810395
 20
406.8352786645092
 30
0.0
 10
528.417940758572
 20
447.653391457118
 30
0.0
 10
528.4566132620503
 20
468.0677412948404
 30
0.0
 10
528.5397623262777
 20
488.4871933565785
 30
0.0
  0
LWPOLYLINE
  5
184
330
1F
100
AcDbEntity
  8
0
  6
Continuous
 62
     7
370
    25
100
AcDbPolyline
 90
       14
 70
   128
 43
0.0
 10
559.9276742092
 20
487.2553919674
 10
559.205683147
 20
487.3847042442
 10
558.1313690296
 20
487.5126679659
 10
556.7159077278
 20
487.6379569293
 10
554.9740066877
 20
487.7592672825
 10
552.9238006225
 20
487.8753324271
 10
550.5866130939
 20
487.9849528194
 10
547.9867478958
 20
488.0869810701
 10
545.1512655368
 20
488.1803666473
 10
542.109640514
 20
488.2641186238
 10
538.8935228935
 20
488.3373876334
 10
535.5363806835
 20
488.3993988157
 10
532.0731124035
 20
488.4495039702
 10
528.5397639623
 20
488.4871964574
  0
SPLINE
  5
185
330
1F
100
AcDbEntity
  8
0
  6
Continuous
 62
     7
370
    25
100
AcDbSpline
210
0.0
220
0.0
230
1.0
 70
     8
 71
     3
 72
    28
 73
    24
 74
     0
 42
0.000000001
 43
0.00000001
 40
0.0
 40
0.0
 40
0.0
 40
0.0
 40
0.1250000000000075
 40
0.1250000000000075
 40
0.1875000000000071
 40
0.1875000000000071
 40
0.2500000000000068
 40
0.2500000000000068
 40
0.3749999999999995
 40
0.3749999999999995
 40
0.4999999999999922
 40
0.4999999999999922
 40
0.5624999999999911
 40
0.5624999999999911
 40
0.6249999999999899
 40
0.6249999999999899
 40
0.7499999999999877
 40
0.7499999999999877
 40
0.8124999999999913
 40
0.8124999999999913
 40
0.8749999999999949
 40
0.8749999999999949
 40
1.0
 40
1.0
 40
1.0
 40
1.0
 10
522.122828306252
 20
236.3158549766398
 30
0.0
 10
522.6168609814634
 20
236.31064195721
 30
0.0
 10
523.1055505404578
 20
236.354656003341
 30
0.0
 10
523.8306713619041
 20
236.493578117769
 30
0.0
 10
524.0720065862314
 20
236.5524970923036
 30
0.0
 10
524.5433006933754
 20
236.6928774213353
 30
0.0
 10
524.7740988867461
 20
236.7743978186287
 30
0.0
 10
525.4522348390685
 20
237.0522766745654
 30
0.0
 10
525.8870495656423
 20
237.2826822222609
 30
0.0
 10
526.7103413677779
 20
237.8316495338002
 30
0.0
 10
527.0883004513007
 20
238.1427365145141
 30
0.0
 10
527.606389383059
 20
238.6624459461059
 30
0.0
 10
527.7708826882059
 20
238.8445956210855
 30
0.0
 10
528.0829964037633
 20
239.2272286666282
 30
0.0
 10
528.2299182140268
 20
239.4270997999124
 30
0.0
 10
528.6356901425726
 20
240.0408354183828
 30
0.0
 10
528.8632608236843
 20
240.4726811474642
 30
0.0
 10
529.1400850806249
 20
241.1545434621009
 30
0.0
 10
529.2218625276194
 20
241.3889109263819
 30
0.0
 10
529.3603569696443
 20
241.8606972543307
 30
0.0
 10
529.4173644744478
 20
242.0984031439019
 30
0.0
 10
529.552602953145
 20
242.8168202472331
 30
0.0
 10
529.5954087464703
 20
243.302777758956
 30
0.0
 10
529.5890309578223
 20
243.7960183880004
 30
0.0
  0
SPLINE
  5
186
330
1F
100
AcDbEntity
  8
0
  6
Continuous
 62
     7
370
    25
100
AcDbSpline
210
0.0
220
0.0
230
1.0
 70
     8
 71
     3
 72
    28
 73
    24
 74
     0
 42
0.000000001
 43
0.00000001
 40
0.0
 40
0.0
 40
0.0
 40
0.0
 40
0.1250000000000009
 40
0.1250000000000009
 40
0.1875000000000004
 40
0.1875000000000004
 40
0.2499999999999999
 40
0.2499999999999999
 40
0.3749999999999928
 40
0.3749999999999928
 40
0.4999999999999857
 40
0.4999999999999857
 40
0.5624999999999871
 40
0.5624999999999871
 40
0.6249999999999887
 40
0.6249999999999887
 40
0.7499999999999917
 40
0.7499999999999917
 40
0.8124999999999917
 40
0.8124999999999917
 40
0.8749999999999917
 40
0.8749999999999917
 40
1.0
 40
1.0
 40
1.0
 40
1.0
 10
208.89455113173
 20
243.7960183880002
 30
0.0
 10
208.8881733721983
 20
243.3027800107324
 30
0.0
 10
208.9309571878514
 20
242.8148097588544
 30
0.0
 10
209.0678807553966
 20
242.0906511200584
 30
0.0
 10
209.1261203323448
 20
241.8495238572667
 30
0.0
 10
209.2652361097408
 20
241.3783044324066
 30
0.0
 10
209.34612572829
 20
241.1475284473601
 30
0.0
 10
209.6220976771479
 20
240.4694066177742
 30
0.0
 10
209.8509298899714
 20
240.034941205744
 30
0.0
 10
210.3978376400122
 20
239.2103630277167
 30
0.0
 10
210.7079924132597
 20
238.8316848993236
 30
0.0
 10
211.2264153144675
 20
238.3123802927265
 30
0.0
 10
211.4081549985901
 20
238.147458812546
 30
0.0
 10
211.790001638959
 20
237.8344367758533
 30
0.0
 10
211.9897131573191
 20
237.6868734733166
 30
0.0
 10
212.602985241459
 20
237.2792760865957
 30
0.0
 10
213.0346768170741
 20
237.0504642826883
 30
0.0
 10
213.7165374823417
 20
236.7717355412049
 30
0.0
 10
213.9509557169568
 20
236.689305016888
 30
0.0
 10
214.4230891042624
 20
236.5494794858876
 30
0.0
 10
214.661004514022
 20
236.4918210094081
 30
0.0
 10
215.3801551656142
 20
236.3546700626703
 30
0.0
 10
215.8667405441206
 20
236.3106421622984
 30
0.0
 10
216.3607537833
 20
236.3158549766397
 30
0.0
  0
LWPOLYLINE
  5
187
330
1F
100
AcDbEntity
  8
0
  6
Continuous
 62
     7
370
    25
100
AcDbPolyline
 90
       14
 70
   128
 43
0.0
 10
348.4030461064
 20
526.6985048771
 10
348.3433017632
 20
525.9191443444
 10
348.2842074832
 20
524.7715612174
 10
348.2264096043
 20
523.2682724715
 10
348.1705377004
 20
521.4256693841
 10
348.1172027192
 20
519.2638536215
 10
348.0669858059
 20
516.8063988209
 10
348.0204345784
 20
514.0801121712
 10
347.9780575386
 20
511.1147363902
 10
347.9403147599
 20
507.9426218987
 10
347.9076197496
 20
504.598354292
 10
347.8803282729
 20
501.1184265137
 10
347.858738353
 20
497.5407769204
 10
347.8430865458
 20
493.9044465542
  0
SPLINE
  5
188
330
1F
100
AcDbEntity
  8
0
  6
Continuous
 62
     7
370
    25
100
AcDbSpline
210
0.0
220
0.0
230
1.0
 70
     8
 71
     3
 72
    12
 73
     8
 74
     0
 42
0.000000001
 43
0.00000001
 40
0.0
 40
0.0
 40
0.0
 40
0.0
 40
0.25
 40
0.25
 40
0.5
 40
0.5
 40
1.0
 40
1.0
 40
1.0
 40
1.0
 10
347.8430858926882
 20
493.9044412880141
 30
0.0
 10
336.8494513512979
 20
493.8999425956939
 30
0.0
 10
325.8615757885255
 20
493.8999039002919
 30
0.0
 10
303.8955587684269
 20
493.944168855307
 30
0.0
 10
292.9173925190471
 20
493.9875088416026
 30
0.0
 10
259.9956370718819
 20
494.1812459000549
 30
0.0
 10
238.0646813486987
 20
494.3925421915265
 30
0.0
 10
216.1489854258212
 20
494.6602600006196
 30
0.0
  0
LWPOLYLINE
  5
189
330
1F
100
AcDbEntity
  8
0
  6
Continuous
 62
     7
370
    25
100
AcDbPolyline
 90
       14
 70
   128
 43
0.0
 10
219.2417850843
 20
527.8887500287
 10
218.9081629863
 20
527.1309961796
 10
218.5782810798
 20
525.9927262784
 10
218.2558646551
 20
524.4867553235
 10
217.9445346943
 20
522.6300110341
 10
217.6477929702
 20
520.443369937
 10
217.3689773431
 20
517.9514487506
 10
217.111231958
 20
515.1822616578
 10
216.87744764
 20
512.1669371844
 10
216.6702469936
 20
508.9394052744
 10
216.4919844022
 20
505.5359651566
 10
216.3446417204
 20
501.994897914
 10
216.2298729768
 20
498.3560194493
 10
216.1489894739
 20
494.6602632523
  0
LWPOLYLINE
  5
18A
330
1F
100
AcDbEntity
  8
0
  6
Continuous
 62
     7
370
    25
100
AcDbPolyline
 90
       14
 70
   128
 43
0.0
 10
519.2417970052
 20
527.8887500287
 10
519.5754191032
 20
527.1309961796
 10
519.9053010097
 20
525.9927262784
 10
520.2277174345
 20
524.4867553235
 10
520.5390473953
 20
522.6300110341
 10
520.8357891193
 20
520.443369937
 10
521.1146047464
 20
517.9514487506
 10
521.3723501316
 20
515.1822616578
 10
521.6061344495
 20
512.1669371844
 10
521.8133350959
 20
508.9394052744
 10
521.9915976873
 20
505.5359651566
 10
522.1389403692
 20
501.994897914
 10
522.2537091127
 20
498.3560194493
 10
522.3345926157
 20
494.6602632523
  0
SPLINE
  5
18B
330
1F
100
AcDbEntity
  8
0
  6
Continuous
 62
     7
370
    25
100
AcDbSpline
210
0.0
220
0.0
230
1.0
 70
     8
 71
     3
 72
    12
 73
     8
 74
     0
 42
0.000000001
 43
0.00000001
 40
0.0
 40
0.0
 40
0.0
 40
0.0
 40
0.5
 40
0.5
 40
0.75
 40
0.75
 40
1.0
 40
1.0
 40
1.0
 40
1.0
 10
522.3345966637316
 20
494.6602600006195
 30
0.0
 10
500.4259318286058
 20
494.3926280819045
 30
0.0
 10
478.4987994565477
 20
494.1813376481575
 30
0.0
 10
445.5774285917554
 20
493.9875610551749
 30
0.0
 10
434.5984930061051
 20
493.944200651874
 30
0.0
 10
412.6288849688144
 20
493.8999070718097
 30
0.0
 10
401.6381825590057
 20
493.899940937653
 30
0.0
 10
390.640496196874
 20
493.904441288014
 30
0.0
  0
LWPOLYLINE
  5
18C
330
1F
100
AcDbEntity
  8
0
  6
Continuous
 62
     7
370
    25
100
AcDbPolyline
 90
       14
 70
   128
 43
0.0
 10
390.0805359831
 20
526.6985048771
 10
390.1402803263
 20
525.9191443444
 10
390.1993746063
 20
524.7715612174
 10
390.2571724853
 20
523.2682724715
 10
390.3130443892
 20
521.4256693841
 10
390.3663793704
 20
519.2638536215
 10
390.4165962836
 20
516.8063988209
 10
390.4631475112
 20
514.0801121712
 10
390.505524551
 20
511.1147363902
 10
390.5432673296
 20
507.9426218987
 10
390.5759623399
 20
504.598354292
 10
390.6032538167
 20
501.1184265137
 10
390.6248437366
 20
497.5407769204
 10
390.6404955438
 20
493.9044465542
  0
SPLINE
  5
18D
330
1F
100
AcDbEntity
  8
0
  6
Continuous
 62
     7
370
    25
100
AcDbSpline
210
0.0
220
0.0
230
1.0
 70
     8
 71
     3
 72
    26
 73
    22
 74
     0
 42
0.000000001
 43
0.00000001
 40
0.0
 40
0.0
 40
0.0
 40
0.0
 40
0.125000000000007
 40
0.125000000000007
 40
0.1875000000000083
 40
0.1875000000000083
 40
0.2500000000000096
 40
0.2500000000000096
 40
0.3750000000000122
 40
0.3750000000000122
 40
0.5000000000000113
 40
0.5000000000000113
 40
0.6250000000000104
 40
0.6250000000000104
 40
0.7500000000000094
 40
0.7500000000000094
 40
0.8125000000000071
 40
0.8125000000000071
 40
0.8750000000000048
 40
0.8750000000000048
 40
1.0
 40
1.0
 40
1.0
 40
1.0
 10
528.5397623262776
 20
488.4871933565785
 30
0.0
 10
528.5414310661859
 20
488.8969965802122
 30
0.0
 10
528.5025213389576
 20
489.3021892035734
 30
0.0
 10
528.384007724221
 20
489.9031437258128
 30
0.0
 10
528.3341942099479
 20
490.1026448929412
 30
0.0
 10
528.2162575993179
 20
490.491828477452
 30
0.0
 10
528.1479934391516
 20
490.6824612712259
 30
0.0
 10
527.9157998086446
 20
491.2426898160149
 30
0.0
 10
527.7233481733874
 20
491.6027758881574
 30
0.0
 10
527.2680645785024
 20
492.2814366424997
 30
0.0
 10
527.0103698166832
 20
492.5932627024455
 30
0.0
 10
526.4366120665021
 20
493.1634960977914
 30
0.0
 10
526.116546306677
 20
493.4240449224899
 30
0.0
 10
525.4402996777103
 20
493.8706218753203
 30
0.0
 10
525.0833600326481
 20
494.0587086261772
 30
0.0
 10
524.5195571202917
 20
494.287718460123
 30
0.0
 10
524.325766930547
 20
494.355400659274
 30
0.0
 10
523.9358139796554
 20
494.4700480655011
 30
0.0
 10
523.7392826796246
 20
494.5172944304568
 30
0.0
 10
523.1451336953847
 20
494.6295088346425
 30
0.0
 10
522.7430067314801
 20
494.6652490572726
 30
0.0
 10
522.3345966637316
 20
494.6602600006196
 30
0.0
  0
SPLINE
  5
18E
330
1F
100
AcDbEntity
  8
0
  6
Continuous
 62
     7
370
    25
100
AcDbSpline
210
0.0
220
0.0
230
1.0
 70
     8
 71
     3
 72
    26
 73
    22
 74
     0
 42
0.000000001
 43
0.00000001
 40
0.0
 40
0.0
 40
0.0
 40
0.0
 40
0.1250000000000027
 40
0.1250000000000027
 40
0.1875000000000038
 40
0.1875000000000038
 40
0.2500000000000048
 40
0.2500000000000048
 40
0.3750000000000037
 40
0.3750000000000037
 40
0.5000000000000026
 40
0.5000000000000026
 40
0.6250000000000014
 40
0.6250000000000014
 40
0.7499999999999967
 40
0.7499999999999967
 40
0.812499999999998
 40
0.812499999999998
 40
0.8749999999999992
 40
0.8749999999999992
 40
1.0
 40
1.0
 40
1.0
 40
1.0
 10
216.1489854258212
 20
494.6602600006195
 30
0.0
 10
215.7405989852996
 20
494.6652487686469
 30
0.0
 10
215.3366080111558
 20
494.629531118291
 30
0.0
 10
214.7371233306953
 20
494.5157504086714
 30
0.0
 10
214.5377717842972
 20
494.4674469654995
 30
0.0
 10
214.1486014676996
 20
494.3523368586047
 30
0.0
 10
213.9579490322112
 20
494.2854375094456
 30
0.0
 10
213.3975627285284
 20
494.0572468861021
 30
0.0
 10
213.0377951159322
 20
493.8677433455633
 30
0.0
 10
212.3567598986777
 20
493.4164963884166
 30
0.0
 10
212.0436163653286
 20
493.1605672860584
 30
0.0
 10
211.470350850121
 20
492.5900102053915
 30
0.0
 10
211.2079755316743
 20
492.2713471152344
 30
0.0
 10
210.756802508041
 20
491.5964797727688
 30
0.0
 10
210.5662622366867
 20
491.2399453080697
 30
0.0
 10
210.3332567040927
 20
490.6763640959788
 30
0.0
 10
210.2641703438172
 20
490.4825649473938
 30
0.0
 10
210.1465888841535
 20
490.0922041137548
 30
0.0
 10
210.097847987139
 20
489.895387231837
 30
0.0
 10
209.9810596430294
 20
489.3001436597096
 30
0.0
 10
209.9421511228748
 20
488.8969721432385
 30
0.0
 10
209.9438197632746
 20
488.487193356579
 30
0.0
  0
ARC
  5
18F
330
1F
100
AcDbEntity
  8
0
  6
Continuous
 62
     7
370
    25
100
AcDbCircle
 10
369.2417910448
 20
427.2553946496
 30
0.0
 40
69.99999999999999
100
AcDbArc
 50
107.8000290607
 51
72.1999709393
  0
SPLINE
  5
190
330
1F
100
AcDbEntity
  8
0
  6
Continuous
 62
     7
370
    25
100
AcDbSpline
210
0.0
220
0.0
230
1.0
 70
     8
 71
     3
 72
     8
 73
     4
 74
     0
 42
0.000000001
 43
0.00000001
 40
0.0
 40
0.0
 40
0.0
 40
0.0
 40
1.0
 40
1.0
 40
1.0
 40
1.0
 10
390.6404961968767
 20
493.904441288014
 30
0.0
 10
384.4823267837381
 20
493.9354866069348
 30
0.0
 10
378.3241573705968
 20
493.9574736571417
 30
0.0
 10
372.1659879574581
 20
493.9625869497191
 30
0.0
  0
SPLINE
  5
191
330
1F
100
AcDbEntity
  8
0
  6
Continuous
 62
     7
370
    25
100
AcDbSpline
210
0.0
220
0.0
230
1.0
 70
     8
 71
     3
 72
     8
 73
     4
 74
     0
 42
0.000000001
 43
0.00000001
 40
0.0
 40
0.0
 40
0.0
 40
0.0
 40
1.0
 40
1.0
 40
1.0
 40
1.0
 10
366.3175941321125
 20
493.9625869497192
 30
0.0
 10
368.267058740561
 20
494.0414255692721
 30
0.0
 10
370.2165233490096
 20
494.0414255692716
 30
0.0
 10
372.1659879574581
 20
493.9625869497182
 30
0.0
  0
SPLINE
  5
192
330
1F
100
AcDbEntity
  8
0
  6
Continuous
 62
     7
370
    25
100
AcDbSpline
210
0.0
220
0.0
230
1.0
 70
     8
 71
     3
 72
     8
 73
     4
 74
     0
 42
0.000000001
 43
0.00000001
 40
0.0
 40
0.0
 40
0.0
 40
0.0
 40
1.0
 40
1.0
 40
1.0
 40
1.0
 10
366.3175941321125
 20
493.9625869497191
 30
0.0
 10
360.1594247189711
 20
493.9574736571417
 30
0.0
 10
354.001255305828
 20
493.9354866069348
 30
0.0
 10
347.8430858926865
 20
493.9044412880141
 30
0.0
  0
ARC
  5
193
330
1F
100
AcDbEntity
  8
0
  6
Continuous
 62
     7
370
    25
100
AcDbCircle
 10
369.2417910448
 20
427.2553946496
 30
0.0
 40
66.77125453482513
100
AcDbArc
 50
92.5100283872
 51
87.4899716128
  0
SPLINE
  5
194
330
1F
100
AcDbEntity
  8
0
  6
Continuous
 62
     7
370
    25
100
AcDbSpline
210
0.0
220
0.0
230
1.0
 70
     8
 71
     3
 72
     8
 73
     4
 74
     0
 42
0.000000001
 43
0.00000001
 40
0.0
 40
0.0
 40
0.0
 40
0.0
 40
1.0
 40
1.0
 40
1.0
 40
1.0
 10
372.1388596423544
 20
493.3437320003282
 30
0.0
 10
370.2074805773075
 20
493.4283965245645
 30
0.0
 10
368.2761015122589
 20
493.4283965245082
 30
0.0
 10
366.3447224472136
 20
493.3437320002731
 30
0.0
  0
LWPOLYLINE
  5
195
330
1F
100
AcDbEntity
  8
0
  6
Continuous
 62
     7
370
    25
100
AcDbPolyline
 90
        9
 70
   128
 43
0.0
 10
366.317594157
 20
493.9625908852
 10
366.3210263135
 20
493.8842852831
 10
366.3244512523
 20
493.806158495
 10
366.3278668778
 20
493.7282403231
 10
366.3312708619
 20
493.6505903721
 10
366.3346606432
 20
493.5732682467
 10
366.3380341264
 20
493.4963037491
 10
366.3413887503
 20
493.4197862864
 10
366.3447224195
 20
493.3437307597
  0
LWPOLYLINE
  5
196
330
1F
100
AcDbEntity
  8
0
  6
Continuous
 62
     7
370
    25
100
AcDbPolyline
 90
        9
 70
   128
 43
0.0
 10
372.1388596701
 20
493.3437307597
 10
372.1421933392
 20
493.4197862864
 10
372.1455479632
 20
493.4963037491
 10
372.1489214464
 20
493.5732682467
 10
372.1523112277
 20
493.6505903721
 10
372.1557152117
 20
493.7282403231
 10
372.1591308373
 20
493.806158495
 10
372.162555776
 20
493.8842852831
 10
372.1659879325
 20
493.9625908852
  0
CIRCLE
  5
197
330
1F
100
AcDbEntity
  8
0
  6
Continuous
 62
     7
370
    25
100
AcDbCircle
 10
369.2417910448
 20
427.2553946496
 30
0.0
 40
58.61177143234625
  0
ARC
  5
198
330
1F
100
AcDbEntity
  8
0
  6
Continuous
 62
     7
370
    25
100
AcDbCircle
 10
369.2417910448
 20
427.2553946496
 30
0.0
 40
66.15180526824545
100
AcDbArc
 50
92.5100283872
 51
87.4899716128
  0
CIRCLE
  5
199
330
1F
100
AcDbEntity
  8
0
  6
Continuous
 62
     7
370
    25
100
AcDbCircle
 10
369.2417910448
 20
427.2553946496
 30
0.0
 40
57.50000000000006
  0
LINE
  5
19A
330
1F
100
AcDbEntity
  8
0
  6
Continuous
 62
     8
370
    25
100
AcDbLine
 10
385.2685785046
 20
439.3006910801
 30
0.0
 11
385.7840394726
 21
438.5824029565
 31
0.0
  0
LWPOLYLINE
  5
19B
330
1F
100
AcDbEntity
  8
0
  6
Continuous
 62
     8
370
    25
100
AcDbPolyline
 90
        3
 70
   128
 43
0.0
 10
388.7042796364
 20
432.0677344919
 10
388.7406012169
 20
431.9183876038
 10
389.058768948
 20
430.2942280889
  0
LINE
  5
19C
330
1F
100
AcDbEntity
  8
0
  6
Continuous
 62
     8
370
    25
100
AcDbLine
 10
388.8981456062
 20
423.3089027227
 30
0.0
 11
388.4669823697
 21
421.5686482609
 31
0.0
  0
LWPOLYLINE
  5
19D
330
1F
100
AcDbEntity
  8
0
  6
Continuous
 62
     8
370
    25
100
AcDbPolyline
 90
        3
 70
   128
 43
0.0
 10
385.2457275739
 20
415.1797530473
 10
384.2958949631
 20
414.0145120442
 10
383.965754149
 20
413.6483383596
  0
LWPOLYLINE
  5
19E
330
1F
100
AcDbEntity
  8
0
  6
Continuous
 62
     8
370
    25
100
AcDbPolyline
 90
        3
 70
   128
 43
0.0
 10
378.2539146146
 20
409.3464960576
 10
377.774402698
 20
409.1131326974
 10
376.6115370332
 20
408.6104532004
  0
LINE
  5
19F
330
1F
100
AcDbEntity
  8
0
  6
Continuous
 62
     8
370
    25
100
AcDbLine
 10
369.7686072797
 20
407.2137003065
 30
0.0
 11
367.9840961364
 21
407.2462667943
 31
0.0
  0
LINE
  5
1A0
330
1F
100
AcDbEntity
  8
0
  6
Continuous
 62
     8
370
    25
100
AcDbLine
 10
361.0269196457
 20
408.9670677901
 30
0.0
 11
359.4184259078
 21
409.7783093572
 31
0.0
  0
LINE
  5
1A1
330
1F
100
AcDbEntity
  8
0
  6
Continuous
 62
     8
370
    25
100
AcDbLine
 10
353.907135514
 20
414.3404637695
 30
0.0
 11
353.2150035849
 21
415.2100992621
 31
0.0
  0
LINE
  5
1A2
330
1F
100
AcDbEntity
  8
0
  6
Continuous
 62
     8
370
    25
100
AcDbLine
 10
353.2150035849
 20
415.2100992621
 30
0.0
 11
352.6995426169
 21
415.9283873857
 31
0.0
  0
LWPOLYLINE
  5
1A3
330
1F
100
AcDbEntity
  8
0
  6
Continuous
 62
     8
370
    25
100
AcDbPolyline
 90
        3
 70
   128
 43
0.0
 10
349.8211076608
 20
422.2770271123
 10
349.7429808727
 20
422.5924027384
 10
349.4248131415
 20
424.2165659786
  0
LINE
  5
1A4
330
1F
100
AcDbEntity
  8
0
  6
Continuous
 62
     8
370
    25
100
AcDbLine
 10
349.5854364833
 20
431.2018876196
 30
0.0
 11
350.019034197
 21
432.9503675223
 31
0.0
  0
LWPOLYLINE
  5
1A5
330
1F
100
AcDbEntity
  8
0
  6
Continuous
 62
     8
370
    25
100
AcDbPolyline
 90
        3
 70
   128
 43
0.0
 10
353.2378545156
 20
439.3310372949
 10
354.1876871264
 20
440.496278298
 10
354.5178279406
 20
440.8624519826
  0
LWPOLYLINE
  5
1A6
330
1F
100
AcDbEntity
  8
0
  6
Continuous
 62
     8
370
    25
100
AcDbPolyline
 90
        3
 70
   128
 43
0.0
 10
360.0642813495
 20
445.0801064492
 10
360.7091793916
 20
445.3976576448
 10
361.8720450564
 20
445.9003408671
  0
LINE
  5
1A7
330
1F
100
AcDbEntity
  8
0
  6
Continuous
 62
     8
370
    25
100
AcDbLine
 10
368.7149748099
 20
447.2970863104
 30
0.0
 11
370.4994859532
 21
447.2645272732
 31
0.0
  0
LINE
  5
1A8
330
1F
100
AcDbEntity
  8
0
  6
Continuous
 62
     8
370
    25
100
AcDbLine
 10
377.4566624439
 20
445.5437262774
 30
0.0
 11
379.0651561818
 21
444.7324847103
 31
0.0
  0
LINE
  5
1A9
330
1F
100
AcDbEntity
  8
0
  6
Continuous
 62
     8
370
    25
100
AcDbLine
 10
384.5764465755
 20
440.1703228474
 30
0.0
 11
385.2685785046
 21
439.3006910801
 31
0.0
  0
LINE
  5
1AA
330
1F
100
AcDbEntity
  8
0
  6
Continuous
 62
     8
370
    25
100
AcDbLine
 10
385.7551852366
 20
439.6664102793
 30
0.0
 11
385.0415015718
 21
440.5630876542
 31
0.0
  0
LINE
  5
1AB
330
1F
100
AcDbEntity
  8
0
  6
Continuous
 62
     8
370
    25
100
AcDbLine
 10
379.5301282904
 20
445.1683958293
 30
0.0
 11
377.7112776539
 21
446.0966562152
 31
0.0
  0
LWPOLYLINE
  5
1AC
330
1F
100
AcDbEntity
  8
0
  6
Continuous
 62
     8
370
    25
100
AcDbPolyline
 90
        3
 70
   128
 43
0.0
 10
370.7319801566
 20
447.8589122415
 10
369.4481868393
 20
447.911699605
 10
368.6985128102
 20
447.9055826784
  0
LWPOLYLINE
  5
1AD
330
1F
100
AcDbEntity
  8
0
  6
Continuous
 62
     8
370
    25
100
AcDbPolyline
 90
        3
 70
   128
 43
0.0
 10
361.6497323042
 20
446.4670096756
 10
361.5276508158
 20
446.4183126808
 10
359.7856165966
 20
445.621294272
  0
LWPOLYLINE
  5
1AE
330
1F
100
AcDbEntity
  8
0
  6
Continuous
 62
     8
370
    25
100
AcDbPolyline
 90
        3
 70
   128
 43
0.0
 10
354.069823598
 20
441.2745584965
 10
352.9796900353
 20
439.9939005495
 10
352.7528720102
 20
439.6989097119
  0
LWPOLYLINE
  5
1AF
330
1F
100
AcDbEntity
  8
0
  6
Continuous
 62
     8
370
    25
100
AcDbPolyline
 90
        3
 70
   128
 43
0.0
 10
349.4875749698
 20
433.296625805
 10
349.3427524468
 20
432.8010057331
 10
348.988747423
 20
431.3223039032
  0
LINE
  5
1B0
330
1F
100
AcDbEntity
  8
0
  6
Continuous
 62
     8
370
    25
100
AcDbLine
 10
348.823296105
 20
424.1232176543
 30
0.0
 11
349.2309527597
 21
422.1278404117
 31
0.0
  0
LINE
  5
1B1
330
1F
100
AcDbEntity
  8
0
  6
Continuous
 62
     8
370
    25
100
AcDbLine
 10
352.1985544017
 20
415.5826245666
 30
0.0
 11
352.7283968529
 21
414.8443800629
 31
0.0
  0
LINE
  5
1B2
330
1F
100
AcDbEntity
  8
0
  6
Continuous
 62
     8
370
    25
100
AcDbLine
 10
352.7283968529
 20
414.8443800629
 30
0.0
 11
353.4420805177
 21
413.947702688
 31
0.0
  0
LINE
  5
1B3
330
1F
100
AcDbEntity
  8
0
  6
Continuous
 62
     8
370
    25
100
AcDbLine
 10
358.9534537992
 20
409.3423945129
 30
0.0
 11
360.7723044357
 21
408.4141304017
 31
0.0
  0
LWPOLYLINE
  5
1B4
330
1F
100
AcDbEntity
  8
0
  6
Continuous
 62
     8
370
    25
100
AcDbPolyline
 90
        3
 70
   128
 43
0.0
 10
367.751601933
 20
406.651881826
 10
369.0353952503
 20
406.5990907372
 10
369.7850692793
 20
406.6052039385
  0
LWPOLYLINE
  5
1B5
330
1F
100
AcDbEntity
  8
0
  6
Continuous
 62
     8
370
    25
100
AcDbPolyline
 90
        3
 70
   128
 43
0.0
 10
376.8338497853
 20
408.0437806666
 10
376.9559312737
 20
408.0924739361
 10
378.6979654929
 20
408.8894960702
  0
LWPOLYLINE
  5
1B6
330
1F
100
AcDbEntity
  8
0
  6
Continuous
 62
     8
370
    25
100
AcDbPolyline
 90
        3
 70
   128
 43
0.0
 10
384.4137584916
 20
413.2362318457
 10
385.5038920543
 20
414.5168897927
 10
385.7307100794
 20
414.8118806303
  0
LWPOLYLINE
  5
1B7
330
1F
100
AcDbEntity
  8
0
  6
Continuous
 62
     8
370
    25
100
AcDbPolyline
 90
        3
 70
   128
 43
0.0
 10
388.9960071197
 20
421.2141645372
 10
389.1408296427
 20
421.7097883344
 10
389.4948346666
 20
423.1884901643
  0
LINE
  5
1B8
330
1F
100
AcDbEntity
  8
0
  6
Continuous
 62
     8
370
    25
100
AcDbLine
 10
389.6602859846
 20
430.3875689626
 30
0.0
 11
389.2526293299
 21
432.3829462052
 31
0.0
  0
LINE
  5
1B9
330
1F
100
AcDbEntity
  8
0
  6
Continuous
 62
     8
370
    25
100
AcDbLine
 10
386.2850276879
 20
438.9281620503
 30
0.0
 11
385.7551852366
 21
439.6664102793
 31
0.0
  0
LINE
  5
1BA
330
1F
100
AcDbEntity
  8
0
  6
Continuous
 62
     8
370
    25
100
AcDbLine
 10
386.8645673743
 20
440.5001898528
 30
0.0
 11
386.1046547195
 21
441.4550711632
 31
0.0
  0
LINE
  5
1BB
330
1F
100
AcDbEntity
  8
0
  6
Continuous
 62
     8
370
    25
100
AcDbLine
 10
380.2205652124
 20
446.3722308398
 30
0.0
 11
378.279126448
 21
447.3629419923
 31
0.0
  0
LWPOLYLINE
  5
1BC
330
1F
100
AcDbEntity
  8
0
  6
Continuous
 62
     8
370
    25
100
AcDbPolyline
 90
        3
 70
   128
 43
0.0
 10
370.8326733564
 20
449.2430289507
 10
369.4620526754
 20
449.2994074941
 10
368.6652130223
 20
449.2929627419
  0
LWPOLYLINE
  5
1BD
330
1F
100
AcDbEntity
  8
0
  6
Continuous
 62
     8
370
    25
100
AcDbPolyline
 90
        3
 70
   128
 43
0.0
 10
361.1328324428
 20
447.7549468399
 10
361.0094089186
 20
447.7056985021
 10
359.1569524384
 20
446.8585302353
  0
LWPOLYLINE
  5
1BE
330
1F
100
AcDbEntity
  8
0
  6
Continuous
 62
     8
370
    25
100
AcDbPolyline
 90
        3
 70
   128
 43
0.0
 10
353.0469408384
 20
442.2124599338
 10
351.8871890506
 20
440.8496816874
 10
351.6466004899
 20
440.536816907
  0
LWPOLYLINE
  5
1BF
330
1F
100
AcDbEntity
  8
0
  6
Continuous
 62
     8
370
    25
100
AcDbPolyline
 90
        3
 70
   128
 43
0.0
 10
348.161909928
 20
433.7071751476
 10
348.0059208474
 20
433.1735571147
 10
347.626423662
 20
431.58700068
  0
LINE
  5
1C0
330
1F
100
AcDbEntity
  8
0
  6
Continuous
 62
     8
370
    25
100
AcDbLine
 10
347.4509215108
 20
423.9169893087
 30
0.0
 11
347.8853611401
 21
421.7882392228
 31
0.0
  0
LINE
  5
1C1
330
1F
100
AcDbEntity
  8
0
  6
Continuous
 62
     8
370
    25
100
AcDbLine
 10
351.0573899499
 20
414.7928741992
 30
0.0
 11
351.6190147153
 21
414.0105967641
 31
0.0
  0
LINE
  5
1C2
330
1F
100
AcDbEntity
  8
0
  6
Continuous
 62
     8
370
    25
100
AcDbLine
 10
351.6190147153
 20
414.0105967641
 30
0.0
 11
352.37892737
 21
413.055719179
 31
0.0
  0
LINE
  5
1C3
330
1F
100
AcDbEntity
  8
0
  6
Continuous
 62
     8
370
    25
100
AcDbLine
 10
358.2630168772
 20
408.1385595024
 30
0.0
 11
360.2044556415
 21
407.1478483499
 31
0.0
  0
LWPOLYLINE
  5
1C4
330
1F
100
AcDbEntity
  8
0
  6
Continuous
 62
     8
370
    25
100
AcDbPolyline
 90
        3
 70
   128
 43
0.0
 10
367.6509087332
 20
405.2677613915
 10
369.0215294142
 20
405.2113828481
 10
369.8183690672
 20
405.217823875
  0
LWPOLYLINE
  5
1C5
330
1F
100
AcDbEntity
  8
0
  6
Continuous
 62
     8
370
    25
100
AcDbPolyline
 90
        3
 70
   128
 43
0.0
 10
377.3507496467
 20
406.755839777
 10
377.4741731709
 20
406.8050955654
 10
379.3266296512
 20
407.6522601069
  0
LWPOLYLINE
  5
1C6
330
1F
100
AcDbEntity
  8
0
  6
Continuous
 62
     8
370
    25
100
AcDbPolyline
 90
        3
 70
   128
 43
0.0
 10
385.4366412512
 20
412.2983341337
 10
386.5963930389
 20
413.6611049295
 10
386.8369815996
 20
413.9739734352
  0
LWPOLYLINE
  5
1C7
330
1F
100
AcDbEntity
  8
0
  6
Continuous
 62
     8
370
    25
100
AcDbPolyline
 90
        3
 70
   128
 43
0.0
 10
390.3216721615
 20
420.8036114693
 10
390.4776612422
 20
421.3372295023
 10
390.8571584275
 20
422.9237933875
  0
LINE
  5
1C8
330
1F
100
AcDbEntity
  8
0
  6
Continuous
 62
     8
370
    25
100
AcDbLine
 10
391.0326605788
 20
430.5938010336
 30
0.0
 11
390.5982209495
 21
432.7225511194
 31
0.0
  0
LINE
  5
1C9
330
1F
100
AcDbEntity
  8
0
  6
Continuous
 62
     8
370
    25
100
AcDbLine
 10
387.4261921397
 20
439.717916143
 30
0.0
 11
386.8645673743
 21
440.5001898528
 31
0.0
  0
LINE
  5
1CA
330
1F
100
AcDbEntity
  8
0
  6
Continuous
 62
     8
370
    25
100
AcDbLine
 10
390.5612530312
 20
443.2785188079
 30
0.0
 11
391.2397718182
 21
442.333487165
 31
0.0
  0
LWPOLYLINE
  5
1CB
330
1F
100
AcDbEntity
  8
0
  6
Continuous
 62
     8
370
    25
100
AcDbPolyline
 90
        3
 70
   128
 43
0.0
 10
395.0772063932
 20
433.8728984118
 10
395.4847252122
 20
432.0060287834
 10
395.6033682576
 20
431.2961002112
  0
LWPOLYLINE
  5
1CC
330
1F
100
AcDbEntity
  8
0
  6
Continuous
 62
     8
370
    25
100
AcDbPolyline
 90
        3
 70
   128
 43
0.0
 10
395.3898085406
 20
422.0074166775
 10
394.8254121593
 20
419.722908479
 10
394.7461808226
 20
419.4588450015
  0
LINE
  5
1CD
330
1F
100
AcDbEntity
  8
0
  6
Continuous
 62
     8
370
    25
100
AcDbLine
 10
390.5228490135
 20
411.1812983871
 30
0.0
 11
388.8385074338
 21
409.1659275115
 31
0.0
  0
LWPOLYLINE
  5
1CE
330
1F
100
AcDbEntity
  8
0
  6
Continuous
 62
     8
370
    25
100
AcDbPolyline
 90
        3
 70
   128
 43
0.0
 10
381.4402271187
 20
403.5391931654
 10
381.3194047785
 20
403.4774353028
 10
379.050735583
 20
402.4553013266
  0
LWPOLYLINE
  5
1CF
330
1F
100
AcDbEntity
  8
0
  6
Continuous
 62
     8
370
    25
100
AcDbPolyline
 90
        3
 70
   128
 43
0.0
 10
369.9410707
 20
400.5951036931
 10
369.3632123855
 20
400.5862114251
 10
367.3211135561
 20
400.655185175
  0
LWPOLYLINE
  5
1D0
330
1F
100
AcDbEntity
  8
0
  6
Continuous
 62
     8
370
    25
100
AcDbPolyline
 90
        3
 70
   128
 43
0.0
 10
358.3033347628
 20
402.9323545516
 10
357.3811894408
 20
403.3684482098
 10
355.9713821983
 20
404.1219477773
  0
LINE
  5
1D1
330
1F
100
AcDbEntity
  8
0
  6
Continuous
 62
     8
370
    25
100
AcDbLine
 10
348.8338815174
 20
410.0863163591
 30
0.0
 11
347.9223290584
 21
411.232267809
 31
0.0
  0
LINE
  5
1D2
330
1F
100
AcDbEntity
  8
0
  6
Continuous
 62
     8
370
    25
100
AcDbLine
 10
347.9223290584
 20
411.232267809
 30
0.0
 11
347.2438102713
 21
412.1772994519
 31
0.0
  0
LWPOLYLINE
  5
1D3
330
1F
100
AcDbEntity
  8
0
  6
Continuous
 62
     8
370
    25
100
AcDbPolyline
 90
        3
 70
   128
 43
0.0
 10
343.4063756964
 20
420.6378882051
 10
342.9988568774
 20
422.5047615588
 10
342.880213832
 20
423.2146864057
  0
LWPOLYLINE
  5
1D4
330
1F
100
AcDbEntity
  8
0
  6
Continuous
 62
     8
370
    25
100
AcDbPolyline
 90
        3
 70
   128
 43
0.0
 10
343.0937735489
 20
432.5033699394
 10
343.6581699303
 20
434.7878818632
 10
343.737401267
 20
435.0519453407
  0
LINE
  5
1D5
330
1F
100
AcDbEntity
  8
0
  6
Continuous
 62
     8
370
    25
100
AcDbLine
 10
347.960733076
 20
443.3294956804
 30
0.0
 11
349.6450746557
 21
445.3448628307
 31
0.0
  0
LWPOLYLINE
  5
1D6
330
1F
100
AcDbEntity
  8
0
  6
Continuous
 62
     8
370
    25
100
AcDbPolyline
 90
        3
 70
   128
 43
0.0
 10
357.0433549708
 20
450.9715934516
 10
357.1641773111
 20
451.0333513141
 10
359.4328465065
 20
452.0554890156
  0
LWPOLYLINE
  5
1D7
330
1F
100
AcDbEntity
  8
0
  6
Continuous
 62
     8
370
    25
100
AcDbPolyline
 90
        3
 70
   128
 43
0.0
 10
368.5425113895
 20
453.9156829238
 10
369.120369704
 20
453.9245789171
 10
371.1624685334
 20
453.8556014419
  0
LWPOLYLINE
  5
1D8
330
1F
100
AcDbEntity
  8
0
  6
Continuous
 62
     8
370
    25
100
AcDbPolyline
 90
        3
 70
   128
 43
0.0
 10
380.1802473268
 20
451.5784357906
 10
381.1023926488
 20
451.1423384071
 10
382.5121998912
 20
450.3888388396
  0
LINE
  5
1D9
330
1F
100
AcDbEntity
  8
0
  6
Continuous
 62
     8
370
    25
100
AcDbLine
 10
389.6497005722
 20
444.4244702578
 30
0.0
 11
390.5612530312
 21
443.2785188079
 31
0.0
  0
SPLINE
  5
1DA
330
1F
100
AcDbEntity
  8
0
  6
Continuous
 62
     8
370
    25
100
AcDbSpline
210
0.0
220
0.0
230
1.0
 70
     8
 71
     3
 72
     9
 73
     5
 74
     0
 42
0.000000001
 43
0.00000001
 40
0.0
 40
0.0
 40
0.0
 40
0.0
 40
0.6626739085719271
 40
1.0
 40
1.0
 40
1.0
 40
1.0
 10
379.1834304234429
 20
414.1838153124411
 30
0.0
 10
378.1742835607008
 20
415.5106735547932
 30
0.0
 10
376.6514427642117
 20
417.512952843579
 30
0.0
 10
375.1559265653109
 20
419.4793023993248
 30
0.0
 10
374.6514499312683
 20
420.1426034093458
 30
0.0
  0
SPLINE
  5
1DB
330
1F
100
AcDbEntity
  8
0
  6
Continuous
 62
     8
370
    25
100
AcDbSpline
210
0.0
220
0.0
230
1.0
 70
     8
 71
     3
 72
     9
 73
     5
 74
     0
 42
0.000000001
 43
0.00000001
 40
0.0
 40
0.0
 40
0.0
 40
0.0
 40
0.4794749458322236
 40
0.9999999999999999
 40
0.9999999999999999
 40
0.9999999999999999
 40
0.9999999999999999
 10
363.8321321582838
 20
434.3681832075674
 30
0.0
 10
363.1137133275545
 20
435.3127830347122
 30
0.0
 10
361.6153684464006
 20
437.2828543290638
 30
0.0
 10
360.0927254791273
 20
439.2848762080489
 30
0.0
 10
359.3001516661092
 20
440.3269787550528
 30
0.0
  0
ARC
  5
1DC
330
1F
100
AcDbEntity
  8
0
  6
Continuous
 62
     8
370
    25
100
AcDbCircle
 10
369.2417910448
 20
427.2553946496
 30
0.0
 40
8.911311196000025
100
AcDbArc
 50
337.3074712698
 51
33.6929108129
  0
SPLINE
  5
1DD
330
1F
100
AcDbEntity
  8
0
  6
Continuous
 62
     8
370
    25
100
AcDbSpline
210
0.0
220
0.0
230
1.0
 70
     8
 71
     3
 72
    12
 73
     8
 74
     0
 42
0.000000001
 43
0.00000001
 40
0.0
 40
0.0
 40
0.0
 40
0.0
 40
0.3049352297878863
 40
0.5250458894216766
 40
0.7557909345474181
 40
0.9865321153347777
 40
1.0
 40
1.0
 40
1.0
 40
1.0
 10
376.7042325003489
 20
423.856576275881
 30
0.0
 10
376.8045098149013
 20
423.8109046229708
 30
0.0
 10
376.9771700609625
 20
423.732265911267
 30
0.0
 10
377.1905365347544
 20
423.6350874109629
 30
0.0
 10
377.3313051512571
 20
423.5709692909816
 30
0.0
 10
377.4066016459157
 20
423.5366745969711
 30
0.0
 10
377.4129358392456
 20
423.5337934761187
 30
0.0
 10
377.4132851636454
 20
423.5336345851977
 30
0.0
  0
LWPOLYLINE
  5
1DE
330
1F
100
AcDbEntity
  8
0
  6
Continuous
 62
     8
370
    25
100
AcDbPolyline
 90
        3
 70
   128
 43
0.0
 10
367.0399861535
 20
396.6535267652
 10
369.3386393084
 20
396.5745710999
 10
370.0373851121
 20
396.5847355545
  0
LWPOLYLINE
  5
1DF
330
1F
100
AcDbEntity
  8
0
  6
Continuous
 62
     8
370
    25
100
AcDbPolyline
 90
        3
 70
   128
 43
0.0
 10
380.5357638872
 20
398.7287667811
 10
382.2122311345
 20
399.4508994043
 10
383.2645902535
 20
399.9665056587
  0
LWPOLYLINE
  5
1E0
330
1F
100
AcDbEntity
  8
0
  6
Continuous
 62
     8
370
    25
100
AcDbPolyline
 90
        3
 70
   128
 43
0.0
 10
391.7936219028
 20
406.4530593575
 10
392.6882485053
 20
407.4668635846
 10
393.7158437571
 20
408.7528784991
  0
LWPOLYLINE
  5
1E1
330
1F
100
AcDbEntity
  8
0
  6
Continuous
 62
     8
370
    25
100
AcDbPolyline
 90
        3
 70
   128
 43
0.0
 10
398.5854370645
 20
418.2958876014
 10
398.8302072635
 20
419.1407238365
 10
399.3203753731
 20
421.2055106879
  0
LWPOLYLINE
  5
1E2
330
1F
100
AcDbEntity
  8
0
  6
Continuous
 62
     8
370
    25
100
AcDbPolyline
 90
        3
 70
   128
 43
0.0
 10
399.567261537
 20
431.9124494911
 10
399.5027730367
 20
432.3145722271
 10
398.965642055
 20
434.8590125561
  0
LINE
  5
1E3
330
1F
100
AcDbEntity
  8
0
  6
Continuous
 62
     8
370
    25
100
AcDbLine
 10
394.5446798703
 20
444.6072255493
 30
0.0
 11
392.7208466581
 21
447.0052321673
 31
0.0
  0
LWPOLYLINE
  5
1E4
330
1F
100
AcDbEntity
  8
0
  6
Continuous
 62
     8
370
    25
100
AcDbPolyline
 90
        3
 70
   128
 43
0.0
 10
384.5112558579
 20
453.8667773128
 10
382.0364374793
 20
455.1412214757
 10
381.8256801119
 20
455.2369614363
  0
LWPOLYLINE
  5
1E5
330
1F
100
AcDbEntity
  8
0
  6
Continuous
 62
     8
370
    25
100
AcDbPolyline
 90
        3
 70
   128
 43
0.0
 10
371.4524996126
 20
457.8566228271
 10
369.1449427811
 20
457.9362173796
 10
368.4395083351
 20
457.9258759738
  0
LWPOLYLINE
  5
1E6
330
1F
100
AcDbEntity
  8
0
  6
Continuous
 62
     8
370
    25
100
AcDbPolyline
 90
        3
 70
   128
 43
0.0
 10
357.9538634172
 20
455.7844151974
 10
356.2713509551
 20
455.0598909379
 10
355.213223224
 20
454.5413156272
  0
LWPOLYLINE
  5
1E7
330
1F
100
AcDbEntity
  8
0
  6
Continuous
 62
     8
370
    25
100
AcDbPolyline
 90
        3
 70
   128
 43
0.0
 10
346.6905450574
 20
448.0583642841
 10
345.7953335843
 20
447.0439230323
 10
344.7650337717
 20
445.7543318391
  0
LWPOLYLINE
  5
1E8
330
1F
100
AcDbEntity
  8
0
  6
Continuous
 62
     8
370
    25
100
AcDbPolyline
 90
        3
 70
   128
 43
0.0
 10
339.8971242955
 20
436.2115537048
 10
339.653374826
 20
435.3700627804
 10
339.163072606
 20
433.3046053768
  0
LWPOLYLINE
  5
1E9
330
1F
100
AcDbEntity
  8
0
  6
Continuous
 62
     8
370
    25
100
AcDbPolyline
 90
        3
 70
   128
 43
0.0
 10
338.9172406992
 20
422.5923543096
 10
338.9808090529
 20
422.1962181151
 10
339.5167274526
 20
419.6565238059
  0
LINE
  5
1EA
330
1F
100
AcDbEntity
  8
0
  6
Continuous
 62
     8
370
    25
100
AcDbLine
 10
343.9427597573
 20
409.8979396046
 30
0.0
 11
345.7571828863
 21
407.512155664
 31
0.0
  0
LWPOLYLINE
  5
1EB
330
1F
100
AcDbEntity
  8
0
  6
Continuous
 62
     8
370
    25
100
AcDbPolyline
 90
        3
 70
   128
 43
0.0
 10
353.9773460603
 20
400.6411296547
 10
356.4471446103
 20
399.3695688665
 10
356.6504718861
 20
399.2771704913
  0
ENDSEC
  0
SECTION
  2
OBJECTS
  0
DICTIONARY
  5
C
330
0
100
AcDbDictionary
281
     1
  3
ACAD_GROUP
350
D
  3
ACAD_LAYOUT
350
1A
  3
ACAD_MLINESTYLE
350
17
  3
ACAD_PLOTSETTINGS
350
19
  3
ACAD_PLOTSTYLENAME
350
E
  3
ACAD_SCALELIST
350
47
  0
DICTIONARY
  5
D
102
{ACAD_REACTORS
330
C
102
}
330
C
100
AcDbDictionary
281
     1
  0
DICTIONARY
  5
1A
102
{ACAD_REACTORS
330
C
102
}
330
C
100
AcDbDictionary
281
     1
  3
Layout1
350
1E
  3
Layout2
350
26
  3
Model
350
22
  0
DICTIONARY
  5
17
102
{ACAD_REACTORS
330
C
102
}
330
C
100
AcDbDictionary
281
     1
  3
Standard
350
18
  0
DICTIONARY
  5
19
102
{ACAD_REACTORS
330
C
102
}
330
C
100
AcDbDictionary
281
     1
  0
ACDBDICTIONARYWDFLT
  5
E
102
{ACAD_REACTORS
330
C
102
}
330
C
100
AcDbDictionary
281
     1
  3
Normal
350
F
100
AcDbDictionaryWithDefault
340
F
  0
DICTIONARY
  5
47
102
{ACAD_REACTORS
330
C
102
}
330
C
100
AcDbDictionary
281
     1
  3
A0
350
48
  3
A1
350
49
  3
A2
350
4A
  3
A3
350
4B
  3
A4
350
4C
  3
A5
350
4D
  3
A6
350
4E
  3
A7
350
4F
  3
A8
350
50
  3
A9
350
51
  3
B0
350
52
  3
B1
350
53
  3
B2
350
54
  3
B3
350
55
  3
B4
350
56
  3
B5
350
57
  3
B6
350
58
  3
B7
350
59
  3
B8
350
5A
  3
B9
350
5B
  3
C0
350
5C
  3
C1
350
5D
  3
C2
350
5E
  3
C3
350
5F
  3
C4
350
60
  3
C5
350
61
  3
C6
350
62
  3
C7
350
63
  3
C8
350
64
  3
C9
350
65
  3
D0
350
66
  3
D1
350
67
  3
D2
350
68
  0
LAYOUT
  5
1E
102
{ACAD_REACTORS
330
1A
102
}
330
1A
100
AcDbPlotSettings
  1

  2
none_device
  4

  6

 40
0.0
 41
0.0
 42
0.0
 43
0.0
 44
0.0
 45
0.0
 46
0.0
 47
0.0
 48
0.0
 49
0.0
140
0.0
141
0.0
142
1.0
143
1.0
 70
   688
 72
     1
 73
     0
 74
     5
  7

 75
    16
147
1.0
148
0.0
149
0.0
100
AcDbLayout
  1
Layout1
 70
     1
 71
     1
 10
0.0
 20
0.0
 11
420.0
 21
297.0
 12
0.0
 22
0.0
 32
0.0
 14
1.0000000000E+20
 24
1.0000000000E+20
 34
1.0000000000E+20
 15
-1.0000000000E+20
 25
-1.0000000000E+20
 35
-1.0000000000E+20
146
0.0
 13
0.0
 23
0.0
 33
0.0
 16
1.0
 26
0.0
 36
0.0
 17
0.0
 27
1.0
 37
0.0
 76
     0
330
1B
  0
LAYOUT
  5
26
102
{ACAD_REACTORS
330
1A
102
}
330
1A
100
AcDbPlotSettings
  1

  2
none_device
  4

  6

 40
0.0
 41
0.0
 42
0.0
 43
0.0
 44
0.0
 45
0.0
 46
0.0
 47
0.0
 48
0.0
 49
0.0
140
0.0
141
0.0
142
1.0
143
1.0
 70
   688
 72
     1
 73
     0
 74
     5
  7

 75
    16
147
1.0
148
0.0
149
0.0
100
AcDbLayout
  1
Layout2
 70
     1
 71
     2
 10
0.0
 20
0.0
 11
0.0
 21
0.0
 12
0.0
 22
0.0
 32
0.0
 14
0.0
 24
0.0
 34
0.0
 15
0.0
 25
0.0
 35
0.0
146
0.0
 13
0.0
 23
0.0
 33
0.0
 16
1.0
 26
0.0
 36
0.0
 17
0.0
 27
1.0
 37
0.0
 76
     0
330
23
  0
LAYOUT
  5
22
102
{ACAD_REACTORS
330
1A
102
}
330
1A
100
AcDbPlotSettings
  1

  2
none_device
  4
Letter_(8.50_x_11.00_Inches)
  6

 40
6.35
 41
6.35
 42
6.35000508
 43
6.35000508
 44
215.9
 45
279.4
 46
0.0
 47
0.0
 48
0.0
 49
0.0
140
0.0
141
0.0
142
1.0
143
1.0
 70
  1712
 72
     1
 73
     0
 74
     0
  7

 75
     0
147
1.0
148
0.0
149
0.0
100
AcDbLayout
  1
Model
 70
     1
 71
     0
 10
0.0
 20
0.0
 11
800.0
 21
700.0
 12
0.0
 22
0.0
 32
0.0
 14
0.0
 24
0.0
 34
0.0
 15
800.0
 25
700.0
 35
0.0
146
0.0
 13
0.0
 23
0.0
 33
0.0
 16
1.0
 26
0.0
 36
0.0
 17
0.0
 27
1.0
 37
0.0
 76
     0
330
1F
331
29
  0
MLINESTYLE
  5
18
102
{ACAD_REACTORS
330
17
102
}
330
17
100
AcDbMlineStyle
  2
Standard
 70
     0
  3

 62
   256
 51
90.0
 52
90.0
 71
     2
 49
0.5
 62
   256
  6
BYLAYER
 49
-0.5
 62
   256
  6
BYLAYER
  0
ACDBPLACEHOLDER
  5
F
102
{ACAD_REACTORS
330
E
102
}
330
E
  0
SCALE
  5
48
102
{ACAD_REACTORS
330
47
102
}
330
47
100
AcDbScale
 70
     0
300
1:1
140
1.0
141
1.0
290
     1
  0
SCALE
  5
49
102
{ACAD_REACTORS
330
47
102
}
330
47
100
AcDbScale
 70
     0
300
1:2
140
1.0
141
2.0
290
     0
  0
SCALE
  5
4A
102
{ACAD_REACTORS
330
47
102
}
330
47
100
AcDbScale
 70
     0
300
1:4
140
1.0
141
4.0
290
     0
  0
SCALE
  5
4B
102
{ACAD_REACTORS
330
47
102
}
330
47
100
AcDbScale
 70
     0
300
1:5
140
1.0
141
5.0
290
     0
  0
SCALE
  5
4C
102
{ACAD_REACTORS
330
47
102
}
330
47
100
AcDbScale
 70
     0
300
1:8
140
1.0
141
8.0
290
     0
  0
SCALE
  5
4D
102
{ACAD_REACTORS
330
47
102
}
330
47
100
AcDbScale
 70
     0
300
1:10
140
1.0
141
10.0
290
     0
  0
SCALE
  5
4E
102
{ACAD_REACTORS
330
47
102
}
330
47
100
AcDbScale
 70
     0
300
1:16
140
1.0
141
16.0
290
     0
  0
SCALE
  5
4F
102
{ACAD_REACTORS
330
47
102
}
330
47
100
AcDbScale
 70
     0
300
1:20
140
1.0
141
20.0
290
     0
  0
SCALE
  5
50
102
{ACAD_REACTORS
330
47
102
}
330
47
100
AcDbScale
 70
     0
300
1:30
140
1.0
141
30.0
290
     0
  0
SCALE
  5
51
102
{ACAD_REACTORS
330
47
102
}
330
47
100
AcDbScale
 70
     0
300
1:40
140
1.0
141
40.0
290
     0
  0
SCALE
  5
52
102
{ACAD_REACTORS
330
47
102
}
330
47
100
AcDbScale
 70
     0
300
1:50
140
1.0
141
50.0
290
     0
  0
SCALE
  5
53
102
{ACAD_REACTORS
330
47
102
}
330
47
100
AcDbScale
 70
     0
300
1:100
140
1.0
141
100.0
290
     0
  0
SCALE
  5
54
102
{ACAD_REACTORS
330
47
102
}
330
47
100
AcDbScale
 70
     0
300
2:1
140
2.0
141
1.0
290
     0
  0
SCALE
  5
55
102
{ACAD_REACTORS
330
47
102
}
330
47
100
AcDbScale
 70
     0
300
4:1
140
4.0
141
1.0
290
     0
  0
SCALE
  5
56
102
{ACAD_REACTORS
330
47
102
}
330
47
100
AcDbScale
 70
     0
300
8:1
140
8.0
141
1.0
290
     0
  0
SCALE
  5
57
102
{ACAD_REACTORS
330
47
102
}
330
47
100
AcDbScale
 70
     0
300
10:1
140
10.0
141
1.0
290
     0
  0
SCALE
  5
58
102
{ACAD_REACTORS
330
47
102
}
330
47
100
AcDbScale
 70
     0
300
100:1
140
100.0
141
1.0
290
     0
  0
SCALE
  5
59
102
{ACAD_REACTORS
330
47
102
}
330
47
100
AcDbScale
 70
     0
300
1/128" = 1'-0"
140
0.0078125
141
12.0
290
     0
  0
SCALE
  5
5A
102
{ACAD_REACTORS
330
47
102
}
330
47
100
AcDbScale
 70
     0
300
1/64" = 1'-0"
140
0.015625
141
12.0
290
     0
  0
SCALE
  5
5B
102
{ACAD_REACTORS
330
47
102
}
330
47
100
AcDbScale
 70
     0
300
1/32" = 1'-0"
140
0.03125
141
12.0
290
     0
  0
SCALE
  5
5C
102
{ACAD_REACTORS
330
47
102
}
330
47
100
AcDbScale
 70
     0
300
1/16" = 1'-0"
140
0.0625
141
12.0
290
     0
  0
SCALE
  5
5D
102
{ACAD_REACTORS
330
47
102
}
330
47
100
AcDbScale
 70
     0
300
3/32" = 1'-0"
140
0.09375
141
12.0
290
     0
  0
SCALE
  5
5E
102
{ACAD_REACTORS
330
47
102
}
330
47
100
AcDbScale
 70
     0
300
1/8" = 1'-0"
140
0.125
141
12.0
290
     0
  0
SCALE
  5
5F
102
{ACAD_REACTORS
330
47
102
}
330
47
100
AcDbScale
 70
     0
300
3/16" = 1'-0"
140
0.1875
141
12.0
290
     0
  0
SCALE
  5
60
102
{ACAD_REACTORS
330
47
102
}
330
47
100
AcDbScale
 70
     0
300
1/4" = 1'-0"
140
0.25
141
12.0
290
     0
  0
SCALE
  5
61
102
{ACAD_REACTORS
330
47
102
}
330
47
100
AcDbScale
 70
     0
300
3/8" = 1'-0"
140
0.375
141
12.0
290
     0
  0
SCALE
  5
62
102
{ACAD_REACTORS
330
47
102
}
330
47
100
AcDbScale
 70
     0
300
1/2" = 1'-0"
140
0.5
141
12.0
290
     0
  0
SCALE
  5
63
102
{ACAD_REACTORS
330
47
102
}
330
47
100
AcDbScale
 70
     0
300
3/4" = 1'-0"
140
0.75
141
12.0
290
     0
  0
SCALE
  5
64
102
{ACAD_REACTORS
330
47
102
}
330
47
100
AcDbScale
 70
     0
300
1" = 1'-0"
140
1.0
141
12.0
290
     0
  0
SCALE
  5
65
102
{ACAD_REACTORS
330
47
102
}
330
47
100
AcDbScale
 70
     0
300
1-1/2" = 1'-0"
140
1.5
141
12.0
290
     0
  0
SCALE
  5
66
102
{ACAD_REACTORS
330
47
102
}
330
47
100
AcDbScale
 70
     0
300
3" = 1'-0"
140
3.0
141
12.0
290
     0
  0
SCALE
  5
67
102
{ACAD_REACTORS
330
47
102
}
330
47
100
AcDbScale
 70
     0
300
6" = 1'-0"
140
6.0
141
12.0
290
     0
  0
SCALE
  5
68
102
{ACAD_REACTORS
330
47
102
}
330
47
100
AcDbScale
 70
     0
300
1'-0" = 1'-0"
140
12.0
141
12.0
290
     0
  0
ENDSEC
  0
EOF
