  0
SECTION
  2
HEADER
  9
$ACADVER
  1
AC1015
  9
$ACADMAINTVER
 70
     6
  9
$DWGCODEPAGE
  3
ANSI_1252
  9
$INSBASE
 10
0.0
 20
0.0
 30
0.0
  9
$EXTMIN
 10
0.0
 20
0.0
 30
0.0
  9
$EXTMAX
 10
450.0
 20
450.0
 30
0.0
  9
$LIMMIN
 10
0.0
 20
0.0
  9
$LIMMAX
 10
450.0
 20
450.0
  9
$ORTHOMODE
 70
     0
  9
$REGENMODE
 70
     1
  9
$FILLMODE
 70
     1
  9
$QTEXTMODE
 70
     0
  9
$MIRRTEXT
 70
     1
  9
$LTSCALE
 40
1.0
  9
$ATTMODE
 70
     1
  9
$TEXTSIZE
 40
5.0
  9
$TRACEWID
 40
1.0
  9
$TEXTSTYLE
  7
Standard
  9
$CLAYER
  8
0
  9
$CELTYPE
  6
ByLayer
  9
$CECOLOR
 62
   256
  9
$CELTSCALE
 40
1.0
  9
$DISPSILH
 70
     0
  9
$DIMSCALE
 40
1.0
  9
$DIMASZ
 40
6.0
  9
$DIMEXO
 40
1.0
  9
$DIMDLI
 40
3.75
  9
$DIMRND
 40
0.0
  9
$DIMDLE
 40
0.0
  9
$DIMEXE
 40
1.0
  9
$DIMTP
 40
0.0
  9
$DIMTM
 40
0.0
  9
$DIMTXT
 40
5.0
  9
$DIMCEN
 40
2.5
  9
$DIMTSZ
 40
0.0
  9
$DIMTOL
 70
     0
  9
$DIMLIM
 70
     0
  9
$DIMTIH
 70
     1
  9
$DIMTOH
 70
     1
  9
$DIMSE1
 70
     0
  9
$DIMSE2
 70
     0
  9
$DIMTAD
 70
     1
  9
$DIMZIN
 70
     0
  9
$DIMBLK
  1

  9
$DIMASO
 70
     1
  9
$DIMSHO
 70
     1
  9
$DIMPOST
  1

  9
$DIMAPOST
  1

  9
$DIMALT
 70
     0
  9
$DIMALTD
 70
     3
  9
$DIMALTF
 40
0.0393700787
  9
$DIMLFAC
 40
1.0
  9
$DIMTOFL
 70
     1
  9
$DIMTVP
 40
0.0
  9
$DIMTIX
 70
     0
  9
$DIMSOXD
 70
     0
  9
$DIMSAH
 70
     0
  9
$DIMBLK1
  1

  9
$DIMBLK2
  1

  9
$DIMSTYLE
  2
ISO-25
  9
$DIMCLRD
 70
     0
  9
$DIMCLRE
 70
     0
  9
$DIMCLRT
 70
     0
  9
$DIMTFAC
 40
1.0
  9
$DIMGAP
 40
1.524
  9
$DIMJUST
 70
     0
  9
$DIMSD1
 70
     0
  9
$DIMSD2
 70
     0
  9
$DIMTOLJ
 70
     0
  9
$DIMTZIN
 70
     0
  9
$DIMALTZ
 70
     0
  9
$DIMALTTZ
 70
     0
  9
$DIMUPT
 70
     0
  9
$DIMDEC
 70
     2
  9
$DIMTDEC
 70
     2
  9
$DIMALTU
 70
     2
  9
$DIMALTTD
 70
     3
  9
$DIMTXSTY
  7
Standard
  9
$DIMAUNIT
 70
     0
  9
$DIMADEC
 70
     2
  9
$DIMALTRND
 40
0.0
  9
$DIMAZIN
 70
     0
  9
$DIMDSEP
 70
    44
  9
$DIMATFIT
 70
     3
  9
$DIMFRAC
 70
     0
  9
$DIMLDRBLK
  1

  9
$DIMLUNIT
 70
     2
  9
$DIMLWD
 70
    -2
  9
$DIMLWE
 70
    -2
  9
$DIMTMOVE
 70
     0
  9
$LUNITS
 70
     2
  9
$LUPREC
 70
     2
  9
$SKETCHINC
 40
1.0
  9
$FILLETRAD
 40
10.0
  9
$AUNITS
 70
     0
  9
$AUPREC
 70
     2
  9
$MENU
  1
.
  9
$ELEVATION
 40
0.0
  9
$PELEVATION
 40
0.0
  9
$THICKNESS
 40
0.0
  9
$LIMCHECK
 70
     0
  9
$CHAMFERA
 40
0.0
  9
$CHAMFERB
 40
0.0
  9
$CHAMFERC
 40
0.0
  9
$CHAMFERD
 40
0.0
  9
$SKPOLY
 70
     0
  9
$TDCREATE
 40
2458568.40469228
  9
$TDUCREATE
 40
2458568.321358947
  9
$TDUPDATE
 40
2458568.404694236
  9
$TDUUPDATE
 40
2458568.321360903
  9
$TDINDWG
 40
0.0000000116
  9
$TDUSRTIMER
 40
0.0000000116
  9
$USRTIMER
 70
     1
  9
$ANGBASE
 50
0.0
  9
$ANGDIR
 70
     0
  9
$PDMODE
 70
     0
  9
$PDSIZE
 40
-1.0
  9
$PLINEWID
 40
0.0
  9
$SPLFRAME
 70
     0
  9
$SPLINETYPE
 70
     6
  9
$SPLINESEGS
 70
     8
  9
$HANDSEED
  5
214
  9
$SURFTAB1
 70
     6
  9
$SURFTAB2
 70
     6
  9
$SURFTYPE
 70
     6
  9
$SURFU
 70
     6
  9
$SURFV
 70
     6
  9
$UCSBASE
  2

  9
$UCSNAME
  2

  9
$UCSORG
 10
0.0
 20
0.0
 30
0.0
  9
$UCSXDIR
 10
1.0
 20
0.0
 30
0.0
  9
$UCSYDIR
 10
0.0
 20
1.0
 30
0.0
  9
$UCSORTHOREF
  2

  9
$UCSORTHOVIEW
 70
     0
  9
$UCSORGTOP
 10
0.0
 20
0.0
 30
0.0
  9
$UCSORGBOTTOM
 10
0.0
 20
0.0
 30
0.0
  9
$UCSORGLEFT
 10
0.0
 20
0.0
 30
0.0
  9
$UCSORGRIGHT
 10
0.0
 20
0.0
 30
0.0
  9
$UCSORGFRONT
 10
0.0
 20
0.0
 30
0.0
  9
$UCSORGBACK
 10
0.0
 20
0.0
 30
0.0
  9
$PUCSBASE
  2

  9
$PUCSNAME
  2

  9
$PUCSORG
 10
0.0
 20
0.0
 30
0.0
  9
$PUCSXDIR
 10
1.0
 20
0.0
 30
0.0
  9
$PUCSYDIR
 10
0.0
 20
1.0
 30
0.0
  9
$PUCSORTHOREF
  2

  9
$PUCSORTHOVIEW
 70
     0
  9
$PUCSORGTOP
 10
0.0
 20
0.0
 30
0.0
  9
$PUCSORGBOTTOM
 10
0.0
 20
0.0
 30
0.0
  9
$PUCSORGLEFT
 10
0.0
 20
0.0
 30
0.0
  9
$PUCSORGRIGHT
 10
0.0
 20
0.0
 30
0.0
  9
$PUCSORGFRONT
 10
0.0
 20
0.0
 30
0.0
  9
$PUCSORGBACK
 10
0.0
 20
0.0
 30
0.0
  9
$USERI1
 70
     0
  9
$USERI2
 70
     0
  9
$USERI3
 70
     0
  9
$USERI4
 70
     0
  9
$USERI5
 70
     0
  9
$USERR1
 40
0.0
  9
$USERR2
 40
0.0
  9
$USERR3
 40
0.0
  9
$USERR4
 40
0.0
  9
$USERR5
 40
0.0
  9
$WORLDVIEW
 70
     1
  9
$SHADEDGE
 70
     3
  9
$SHADEDIF
 70
    70
  9
$TILEMODE
 70
     1
  9
$MAXACTVP
 70
    64
  9
$PINSBASE
 10
0.0
 20
0.0
 30
0.0
  9
$PLIMCHECK
 70
     0
  9
$PEXTMIN
 10
1.0000000000E+20
 20
1.0000000000E+20
 30
1.0000000000E+20
  9
$PEXTMAX
 10
-1.0000000000E+20
 20
-1.0000000000E+20
 30
-1.0000000000E+20
  9
$PLIMMIN
 10
0.0
 20
0.0
  9
$PLIMMAX
 10
420.0
 20
297.0
  9
$UNITMODE
 70
     0
  9
$VISRETAIN
 70
     1
  9
$PLINEGEN
 70
     0
  9
$PSLTSCALE
 70
     1
  9
$TREEDEPTH
 70
  3020
  9
$CMLSTYLE
  2
Standard
  9
$CMLJUST
 70
     0
  9
$CMLSCALE
 40
20.0
  9
$PROXYGRAPHICS
 70
     1
  9
$MEASUREMENT
 70
     1
  9
$CELWEIGHT
370
    -1
  9
$ENDCAPS
280
     0
  9
$JOINSTYLE
280
     0
  9
$LWDISPLAY
290
     1
  9
$INSUNITS
 70
     4
  9
$HYPERLINKBASE
  1

  9
$STYLESHEET
  1

  9
$XEDIT
290
     1
  9
$CEPSNTYPE
380
     0
  9
$PSTYLEMODE
290
     1
  9
$FINGERPRINTGUID
  2
{3A75F179-115F-4D3E-8EAE-5319A166102C}
  9
$VERSIONGUID
  2
{FAEB1C32-E019-11D5-929B-00C0DF256EC4}
  9
$EXTNAMES
290
     1
  9
$PSVPSCALE
 40
0.0
  9
$OLESTARTUP
290
     0
  0
ENDSEC
  0
SECTION
  2
CLASSES
  0
CLASS
  1
ACDBDICTIONARYWDFLT
  2
AcDbDictionaryWithDefault
  3
ObjectDBX Classes
 90
        0
280
     0
281
     0
  0
CLASS
  1
VISUALSTYLE
  2
AcDbVisualStyle
  3
ObjectDBX Classes
 90
     4095
280
     0
281
     0
  0
CLASS
  1
MATERIAL
  2
AcDbMaterial
  3
ObjectDBX Classes
 90
     1153
280
     0
281
     0
  0
CLASS
  1
SCALE
  2
AcDbScale
  3
ObjectDBX Classes
 90
     1153
280
     0
281
     0
  0
CLASS
  1
TABLESTYLE
  2
AcDbTableStyle
  3
ObjectDBX Classes
 90
     4095
280
     0
281
     0
  0
CLASS
  1
MLEADERSTYLE
  2
AcDbMLeaderStyle
  3
ACDB_MLEADERSTYLE_CLASS
 90
     4095
280
     0
281
     0
  0
CLASS
  1
SUN
  2
AcDbSun
  3
SCENEOE
 90
     1153
280
     0
281
     0
  0
CLASS
  1
ACDBPLACEHOLDER
  2
AcDbPlaceHolder
  3
ObjectDBX Classes
 90
        0
280
     0
281
     0
  0
CLASS
  1
LAYOUT
  2
AcDbLayout
  3
ObjectDBX Classes
 90
        0
280
     0
281
     0
  0
ENDSEC
  0
SECTION
  2
TABLES
  0
TABLE
  2
VPORT
  5
8
330
0
100
AcDbSymbolTable
 70
     1
  0
VPORT
  5
29
330
8
100
AcDbSymbolTableRecord
100
AcDbViewportTableRecord
  2
*Active
 70
     0
 10
0.0
 20
0.0
 11
1.0
 21
1.0
 12
225.0
 22
225.0
 13
0.0
 23
0.0
 14
10.0
 24
10.0
 15
10.0
 25
10.0
 16
0.0
 26
0.0
 36
1.0
 17
0.0
 27
0.0
 37
0.0
 40
450.0
 41
1.0
 42
50.0
 43
0.0
 44
0.0
 50
0.0
 51
0.0
 71
     0
 72
  2000
 73
     1
 74
     3
 75
     0
 76
     0
 77
     0
 78
     0
281
     0
 65
     1
110
0.0
120
0.0
130
0.0
111
1.0
121
0.0
131
0.0
112
0.0
122
1.0
132
0.0
 79
     0
146
0.0
  0
ENDTAB
  0
TABLE
  2
LTYPE
  5
5
330
0
100
AcDbSymbolTable
 70
     6
  0
LTYPE
  5
14
330
5
100
AcDbSymbolTableRecord
100
AcDbLinetypeTableRecord
  2
ByBlock
 70
     0
  3

 72
    65
 73
     0
 40
0.0
  0
LTYPE
  5
15
330
5
100
AcDbSymbolTableRecord
100
AcDbLinetypeTableRecord
  2
ByLayer
 70
     0
  3

 72
    65
 73
     0
 40
0.0
  0
LTYPE
  5
16
330
5
100
AcDbSymbolTableRecord
100
AcDbLinetypeTableRecord
  2
Continuous
 70
     0
  3
Solid line
 72
    65
 73
     0
 40
0.0
  0
LTYPE
  5
6E
330
5
100
AcDbSymbolTableRecord
100
AcDbLinetypeTableRecord
  2
HIDDEN
 70
     0
  3
Hidden __ __ __ __ __ __ __ __ __ __ __ __ __ __
 72
    65
 73
     2
 40
1.905
 49
1.27
 74
     0
 49
-0.635
 74
     0
  0
LTYPE
  5
6F
330
5
100
AcDbSymbolTableRecord
100
AcDbLinetypeTableRecord
  2
PHANTOM
 70
     0
  3
Phantom ______  __  __  ______  __  __  ______
 72
    65
 73
     6
 40
12.7
 49
6.35
 74
     0
 49
-1.27
 74
     0
 49
1.27
 74
     0
 49
-1.27
 74
     0
 49
1.27
 74
     0
 49
-1.27
 74
     0
  0
LTYPE
  5
70
330
5
100
AcDbSymbolTableRecord
100
AcDbLinetypeTableRecord
  2
CENTER
 70
     0
  3
Center ____ _ ____ _ ____ _ ____ _ ____ _ ____
 72
    65
 73
     4
 40
10.16
 49
6.35
 74
     0
 49
-1.27
 74
     0
 49
1.27
 74
     0
 49
-1.27
 74
     0
  0
LTYPE
  5
71
330
5
100
AcDbSymbolTableRecord
100
AcDbLinetypeTableRecord
  2
CENTERX2
 70
     0
  3
Center (2x) ________  __  ________  __  _____
 72
    65
 73
     4
 40
20.32
 49
12.7
 74
     0
 49
-2.54
 74
     0
 49
2.54
 74
     0
 49
-2.54
 74
     0
  0
LTYPE
  5
72
330
5
100
AcDbSymbolTableRecord
100
AcDbLinetypeTableRecord
  2
DOT2
 70
     0
  3
Dot (.5x) ........................................
 72
    65
 73
     2
 40
0.635
 49
0.0
 74
     0
 49
-0.635
 74
     0
  0
ENDTAB
  0
TABLE
  2
LAYER
  5
2
330
0
100
AcDbSymbolTable
 70
     2
  0
LAYER
  5
10
330
2
100
AcDbSymbolTableRecord
100
AcDbLayerTableRecord
  2
0
 70
     0
 62
     7
  6
Continuous
370
    -3
390
F
  0
LAYER
  5
73
330
2
100
AcDbSymbolTableRecord
100
AcDbLayerTableRecord
  2
TABLE_BL1
 70
     0
 62
   179
  6
Continuous
370
    -3
390
F
  0
ENDTAB
  0
TABLE
  2
STYLE
  5
3
330
0
100
AcDbSymbolTable
 70
     1
  0
STYLE
  5
11
330
3
100
AcDbSymbolTableRecord
100
AcDbTextStyleTableRecord
  2
Standard
 70
     0
 40
0.0
 41
1.0
 50
0.0
 71
     0
 42
5.0
  3
txt
  4

  0
ENDTAB
  0
TABLE
  2
VIEW
  5
6
330
0
100
AcDbSymbolTable
 70
     0
  0
ENDTAB
  0
TABLE
  2
UCS
  5
7
330
0
100
AcDbSymbolTable
 70
     0
  0
ENDTAB
  0
TABLE
  2
APPID
  5
9
330
0
100
AcDbSymbolTable
 70
     1
  0
APPID
  5
12
330
9
100
AcDbSymbolTableRecord
100
AcDbRegAppTableRecord
  2
ACAD
 70
     0
  0
ENDTAB
  0
TABLE
  2
DIMSTYLE
  5
A
330
0
100
AcDbSymbolTable
 70
     1
100
AcDbDimStyleTable
  0
DIMSTYLE
105
27
330
A
100
AcDbSymbolTableRecord
100
AcDbDimStyleTableRecord
  2
ISO-25
 70
     0
 41
2.5
 42
0.625
 43
3.75
 44
1.25
 73
     0
 74
     0
 77
     1
 78
     8
140
2.5
141
2.5
143
0.0393700787
147
0.625
171
     3
172
     1
178
     0
271
     2
272
     2
274
     3
278
    44
283
     0
284
     8
340
11
  0
ENDTAB
  0
TABLE
  2
BLOCK_RECORD
  5
1
330
0
100
AcDbSymbolTable
 70
     1
  0
BLOCK_RECORD
  5
1F
330
1
100
AcDbSymbolTableRecord
100
AcDbBlockTableRecord
  2
*Model_Space
340
22
  0
BLOCK_RECORD
  5
1B
330
1
100
AcDbSymbolTableRecord
100
AcDbBlockTableRecord
  2
*Paper_Space
340
1E
  0
BLOCK_RECORD
  5
23
330
1
100
AcDbSymbolTableRecord
100
AcDbBlockTableRecord
  2
*Paper_Space0
340
26
  0
ENDTAB
  0
ENDSEC
  0
SECTION
  2
BLOCKS
  0
BLOCK
  5
20
330
1F
100
AcDbEntity
  8
0
100
AcDbBlockBegin
  2
*Model_Space
 70
     0
 10
0.0
 20
0.0
 30
0.0
  3
*Model_Space
  1

  0
ENDBLK
  5
21
330
1F
100
AcDbEntity
  8
0
100
AcDbBlockEnd
  0
BLOCK
  5
1C
330
1B
100
AcDbEntity
 67
     1
  8
0
100
AcDbBlockBegin
  2
*Paper_Space
 70
     0
 10
0.0
 20
0.0
 30
0.0
  3
*Paper_Space
  1

  0
ENDBLK
  5
1D
330
1B
100
AcDbEntity
 67
     1
  8
0
100
AcDbBlockEnd
  0
BLOCK
  5
24
330
23
100
AcDbEntity
  8
0
100
AcDbBlockBegin
  2
*Paper_Space0
 70
     0
 10
0.0
 20
0.0
 30
0.0
  3
*Paper_Space0
  1

  0
ENDBLK
  5
25
330
23
100
AcDbEntity
  8
0
100
AcDbBlockEnd
  0
ENDSEC
  0
SECTION
  2
ENTITIES
  0
SPLINE
  5
74
330
1F
100
AcDbEntity
  8
0
  6
Continuous
 62
     7
370
    25
100
AcDbSpline
210
0.0
220
0.0
230
1.0
 70
     8
 71
     3
 72
    18
 73
    14
 74
     0
 42
0.000000001
 43
0.00000001
 40
0.0
 40
0.0
 40
0.0
 40
0.0
 40
0.1181635233160537
 40
0.2417303032110781
 40
0.3519954956774414
 40
0.439343531590253
 40
0.554033129130352
 40
0.62499602253211
 40
0.7018579645720833
 40
0.7811807099309721
 40
0.8592624620952046
 40
0.9329153446340152
 40
1.0
 40
1.0
 40
1.0
 40
1.0
 10
217.8117327634549
 20
230.2526032000033
 30
0.0
 10
217.4605104973781
 20
229.1894423994816
 30
0.0
 10
216.7420056450292
 20
227.0145057061601
 30
0.0
 10
217.2776497332701
 20
223.633341510974
 30
0.0
 10
218.7558810414552
 20
220.9570645506526
 30
0.0
 10
220.916600410199
 20
218.9308578823502
 30
0.0
 10
223.2908851958763
 20
217.8256337145648
 30
0.0
 10
225.7426603388457
 20
217.4714054161127
 30
0.0
 10
227.8832748322677
 20
217.6593225857529
 30
0.0
 10
229.9809035704879
 20
218.382905039622
 30
0.0
 10
231.8033765065583
 20
219.5835996666682
 30
0.0
 10
233.2411862792764
 20
221.082032678349
 30
0.0
 10
233.8623361160702
 20
222.2504521558277
 30
0.0
 10
234.1584164891696
 20
222.8073967999963
 30
0.0
  0
SPLINE
  5
75
330
1F
100
AcDbEntity
  8
0
  6
Continuous
 62
     7
370
    25
100
AcDbSpline
210
0.0
220
0.0
230
1.0
 70
     8
 71
     3
 72
    18
 73
    14
 74
     0
 42
0.000000001
 43
0.00000001
 40
0.0
 40
0.0
 40
0.0
 40
0.0
 40
0.1181635233160537
 40
0.2417303032110781
 40
0.3519954956774414
 40
0.439343531590253
 40
0.554033129130352
 40
0.62499602253211
 40
0.7018579645720833
 40
0.7811807099309721
 40
0.8592624620952046
 40
0.9329153446340152
 40
1.0
 40
1.0
 40
1.0
 40
1.0
 10
234.1584164891696
 20
222.8073967999963
 30
0.0
 10
234.5096387552464
 20
223.8705576005181
 30
0.0
 10
235.2281436075953
 20
226.0454942938396
 30
0.0
 10
234.6924995193544
 20
229.4266584890257
 30
0.0
 10
233.2142682111692
 20
232.1029354493471
 30
0.0
 10
231.0535488424255
 20
234.1291421176495
 30
0.0
 10
228.6792640567482
 20
235.2343662854349
 30
0.0
 10
226.2274889137788
 20
235.588594583887
 30
0.0
 10
224.0868744203567
 20
235.4006774142468
 30
0.0
 10
221.9892456821366
 20
234.6770949603777
 30
0.0
 10
220.1667727460662
 20
233.4764003333314
 30
0.0
 10
218.728962973348
 20
231.9779673216507
 30
0.0
 10
218.1078131365543
 20
230.809547844172
 30
0.0
 10
217.8117327634549
 20
230.2526032000033
 30
0.0
  0
LWPOLYLINE
  5
76
330
1F
100
AcDbEntity
  8
0
  6
Continuous
 62
     7
370
    25
100
AcDbPolyline
 90
        3
 70
   128
 43
0.0
 10
235.4383936394
 20
243.4136396188
 10
234.3575230111
 20
243.974903031
 10
234.1349900011
 20
244.0799673933
  0
LWPOLYLINE
  5
77
330
1F
100
AcDbEntity
  8
0
  6
Continuous
 62
     7
370
    25
100
AcDbPolyline
 90
        3
 70
   128
 43
0.0
 10
227.2703597332
 20
245.8372669208
 10
226.7143105632
 20
245.8662534046
 10
225.6570543463
 20
245.8772187966
  0
LINE
  5
78
330
1F
100
AcDbEntity
  8
0
  6
Continuous
 62
     7
370
    25
100
AcDbLine
 10
218.6715497878
 20
244.444654687
 30
0.0
 11
217.2451691944
 21
243.7937347132
 31
0.0
  0
LINE
  5
79
330
1F
100
AcDbEntity
  8
0
  6
Continuous
 62
     7
370
    25
100
AcDbLine
 10
211.6280200202
 20
239.5029518667
 30
0.0
 11
210.6885548923
 21
238.3806951258
 31
0.0
  0
LWPOLYLINE
  5
7A
330
1F
100
AcDbEntity
  8
0
  6
Continuous
 62
     7
370
    25
100
AcDbPolyline
 90
        3
 70
   128
 43
0.0
 10
207.4395941813
 20
232.0515628818
 10
207.201622637
 20
231.1780605379
 10
207.0500778277
 20
230.5160247634
  0
LWPOLYLINE
  5
7B
330
1F
100
AcDbEntity
  8
0
  6
Continuous
 62
     7
370
    25
100
AcDbPolyline
 90
        3
 70
   128
 43
0.0
 10
206.8928668518
 20
223.3819690447
 10
206.9048883636
 20
223.3099060978
 10
207.2095351536
 20
221.8500821765
  0
LINE
  5
7C
330
1F
100
AcDbEntity
  8
0
  6
Continuous
 62
     7
370
    25
100
AcDbLine
 10
210.1428771634
 20
215.4193170282
 30
0.0
 11
211.027805904
 21
214.2539009365
 31
0.0
  0
LWPOLYLINE
  5
7D
330
1F
100
AcDbEntity
  8
0
  6
Continuous
 62
     7
370
    25
100
AcDbPolyline
 90
        3
 70
   128
 43
0.0
 10
216.4486704637
 20
209.6931500274
 10
217.6126262416
 20
209.085096969
 10
217.8849458937
 20
208.9569972742
  0
LWPOLYLINE
  5
7E
330
1F
100
AcDbEntity
  8
0
  6
Continuous
 62
     7
370
    25
100
AcDbPolyline
 90
        3
 70
   128
 43
0.0
 10
224.8008682868
 20
207.2162697005
 10
225.2558386894
 20
207.1937465954
 10
226.3760573182
 20
207.1839509445
  0
LINE
  5
7F
330
1F
100
AcDbEntity
  8
0
  6
Continuous
 62
     7
370
    25
100
AcDbLine
 10
233.2923540157
 20
208.6127972144
 30
0.0
 11
234.634882981
 21
209.2209471303
 31
0.0
  0
LINE
  5
80
330
1F
100
AcDbEntity
  8
0
  6
Continuous
 62
     7
370
    25
100
AcDbLine
 10
240.277236538
 20
213.4855914775
 30
0.0
 11
241.3146302346
 21
214.7220693442
 31
0.0
  0
LWPOLYLINE
  5
81
330
1F
100
AcDbEntity
  8
0
  6
Continuous
 62
     7
370
    25
100
AcDbPolyline
 90
        3
 70
   128
 43
0.0
 10
244.5305550713
 20
221.0084371182
 10
244.7685266156
 20
221.8819394621
 10
244.9320798982
 20
222.6014490153
  0
LWPOLYLINE
  5
82
330
1F
100
AcDbEntity
  8
0
  6
Continuous
 62
     7
370
    25
100
AcDbPolyline
 90
        3
 70
   128
 43
0.0
 10
245.0790127982
 20
229.6675233084
 10
245.065260889
 20
229.7500939022
 10
244.7874306012
 20
231.1009894039
  0
LINE
  5
83
330
1F
100
AcDbEntity
  8
0
  6
Continuous
 62
     7
370
    25
100
AcDbLine
 10
241.8831644822
 20
237.560559428
 30
0.0
 11
240.8565191794
 21
238.9099294233
 31
0.0
  0
SPLINE
  5
84
330
1F
100
AcDbEntity
  8
0
  6
Continuous
 62
     7
370
    25
100
AcDbSpline
210
0.0
220
0.0
230
1.0
 70
     8
 71
     3
 72
     9
 73
     5
 74
     0
 42
0.000000001
 43
0.00000001
 40
0.0
 40
0.0
 40
0.0
 40
0.0
 40
0.559994118766116
 40
1.0
 40
1.0
 40
1.0
 40
1.0
 10
242.4984688181734
 20
238.9410160395501
 30
0.0
 10
242.4271033440749
 20
238.8873798714887
 30
0.0
 10
242.2996636590729
 20
238.7915999940506
 30
0.0
 10
242.0998022719348
 20
238.6413894373977
 30
0.0
 10
242.0118620861626
 20
238.575295909047
 30
0.0
  0
SPLINE
  5
85
330
1F
100
AcDbEntity
  8
0
  6
Continuous
 62
     7
370
    25
100
AcDbSpline
210
0.0
220
0.0
230
1.0
 70
     8
 71
     3
 72
     9
 73
     5
 74
     0
 42
0.000000001
 43
0.00000001
 40
0.0
 40
0.0
 40
0.0
 40
0.0
 40
0.5600009189070838
 40
0.9999999999999999
 40
0.9999999999999999
 40
0.9999999999999999
 40
0.9999999999999999
 10
209.9582871664619
 20
214.4847040909527
 30
0.0
 10
209.8467341131771
 20
214.4008637405766
 30
0.0
 10
209.6475325591823
 20
214.2511490748583
 30
0.0
 10
209.5254129501907
 20
214.1593676868393
 30
0.0
 10
209.4716804344511
 20
214.1189839604495
 30
0.0
  0
SPLINE
  5
86
330
1F
100
AcDbEntity
  8
0
  6
Continuous
 62
     7
370
    25
100
AcDbSpline
210
0.0
220
0.0
230
1.0
 70
     8
 71
     3
 72
     9
 73
     5
 74
     0
 42
0.000000001
 43
0.00000001
 40
0.0
 40
0.0
 40
0.0
 40
0.0
 40
0.5599981285647453
 40
1.0
 40
1.0
 40
1.0
 40
1.0
 10
208.3622982967948
 20
213.2852015930413
 30
0.0
 10
208.6177268264214
 20
213.4771747000719
 30
0.0
 10
209.0738507250516
 20
213.8199849653894
 30
0.0
 10
209.350120997536
 20
214.0276228865555
 30
0.0
 10
209.4716804344511
 20
214.1189839604495
 30
0.0
  0
SPLINE
  5
87
330
1F
100
AcDbEntity
  8
0
  6
Continuous
 62
     7
370
    25
100
AcDbSpline
210
0.0
220
0.0
230
1.0
 70
     8
 71
     3
 72
     9
 73
     5
 74
     0
 42
0.000000001
 43
0.00000001
 40
0.0
 40
0.0
 40
0.0
 40
0.0
 40
0.5599992695871692
 40
1.0
 40
1.0
 40
1.0
 40
1.0
 10
242.4984688181734
 20
238.9410160395501
 30
0.0
 10
242.660750453772
 20
239.0629824196358
 30
0.0
 10
242.9505394667439
 20
239.2807798110067
 30
0.0
 10
243.4070055470752
 20
239.6238481064027
 30
0.0
 10
243.6078509558296
 20
239.7747984069584
 30
0.0
  0
SPLINE
  5
88
330
1F
100
AcDbEntity
  8
0
  6
Continuous
 62
     7
370
    25
100
AcDbSpline
210
0.0
220
0.0
230
1.0
 70
     8
 71
     3
 72
    11
 73
     7
 74
     0
 42
0.000000001
 43
0.00000001
 40
0.0
 40
0.0
 40
0.0
 40
0.0
 40
0.272339692838556
 40
0.5618923947927404
 40
0.787658066251753
 40
1.0
 40
1.0
 40
1.0
 40
1.0
 10
247.5687695909595
 20
242.7517170000075
 30
0.0
 10
247.5642670525267
 20
242.7483333021656
 30
0.0
 10
247.5549773963759
 20
242.7413520426076
 30
0.0
 10
247.4860685981187
 20
242.6895612376909
 30
0.0
 10
247.3983476402516
 20
242.6236325661975
 30
0.0
 10
247.3351616094437
 20
242.576144076687
 30
0.0
 10
247.3045366127348
 20
242.5531273621319
 30
0.0
  0
SPLINE
  5
89
330
1F
100
AcDbEntity
  8
0
  6
Continuous
 62
     7
370
    25
100
AcDbSpline
210
0.0
220
0.0
230
1.0
 70
     8
 71
     3
 72
    11
 73
     7
 74
     0
 42
0.000000001
 43
0.00000001
 40
0.0
 40
0.0
 40
0.0
 40
0.0
 40
0.2723409856336603
 40
0.5619003225227669
 40
0.7876549316701209
 40
1.0
 40
1.0
 40
1.0
 40
1.0
 10
204.6656126398897
 20
210.5068726378678
 30
0.0
 10
204.6264250615999
 20
210.4774207121306
 30
0.0
 10
204.5455723290275
 20
210.4166548067267
 30
0.0
 10
204.4595333539428
 20
210.3519888797026
 30
0.0
 10
204.4097350021042
 20
210.314564219216
 30
0.0
 10
204.4041073573653
 20
210.3103335752853
 30
0.0
 10
204.4013796616649
 20
210.3082829999922
 30
0.0
  0
LINE
  5
8A
330
1F
100
AcDbEntity
  8
0
  6
Continuous
 62
     7
370
    25
100
AcDbLine
 10
247.568769591
 20
242.751717
 30
0.0
 11
246.6437502075
 21
243.9144508827
 31
0.0
  0
LWPOLYLINE
  5
8B
330
1F
100
AcDbEntity
  8
0
  6
Continuous
 62
     7
370
    25
100
AcDbPolyline
 90
        3
 70
   128
 43
0.0
 10
239.4266195838
 20
249.9463384885
 10
237.9926761855
 20
250.7129995066
 10
237.0550075788
 20
251.1563388544
  0
LWPOLYLINE
  5
8C
330
1F
100
AcDbEntity
  8
0
  6
Continuous
 62
     7
370
    25
100
AcDbPolyline
 90
        3
 70
   128
 43
0.0
 10
227.9354013512
 20
253.4594679165
 10
225.8621483847
 20
253.5297194409
 10
225.2738754973
 20
253.5206315953
  0
LWPOLYLINE
  5
8D
330
1F
100
AcDbEntity
  8
0
  6
Continuous
 62
     7
370
    25
100
AcDbPolyline
 90
        3
 70
   128
 43
0.0
 10
216.0577543322
 20
251.6387304205
 10
213.7577712778
 20
250.6026619959
 10
213.6337694023
 20
250.5392743188
  0
LINE
  5
8E
330
1F
100
AcDbEntity
  8
0
  6
Continuous
 62
     7
370
    25
100
AcDbLine
 10
206.1463317145
 20
244.8445925403
 30
0.0
 11
204.4399978835
 21
242.8029751319
 31
0.0
  0
LWPOLYLINE
  5
8F
330
1F
100
AcDbEntity
  8
0
  6
Continuous
 62
     7
370
    25
100
AcDbPolyline
 90
        3
 70
   128
 43
0.0
 10
200.1644337792
 20
234.4226868737
 10
200.0843698401
 20
234.1558447953
 10
199.5131952931
 20
231.8440907548
  0
LWPOLYLINE
  5
90
330
1F
100
AcDbEntity
  8
0
  6
Continuous
 62
     7
370
    25
100
AcDbPolyline
 90
        3
 70
   128
 43
0.0
 10
199.2970632632
 20
222.4373187783
 10
199.4168872256
 20
221.7204891059
 10
199.8287981618
 20
219.8330428365
  0
LINE
  5
91
330
1F
100
AcDbEntity
  8
0
  6
Continuous
 62
     7
370
    25
100
AcDbLine
 10
203.7162149567
 20
211.2624546427
 30
0.0
 11
204.4013796617
 21
210.308283
 31
0.0
  0
LINE
  5
92
330
1F
100
AcDbEntity
  8
0
  6
Continuous
 62
     7
370
    25
100
AcDbLine
 10
204.4013796617
 20
210.308283
 30
0.0
 11
205.3263990451
 21
209.1455491173
 31
0.0
  0
LWPOLYLINE
  5
93
330
1F
100
AcDbEntity
  8
0
  6
Continuous
 62
     7
370
    25
100
AcDbPolyline
 90
        3
 70
   128
 43
0.0
 10
212.5435296689
 20
203.1136615115
 10
213.9774730672
 20
202.3470004934
 10
214.9151416738
 20
201.9036611456
  0
LWPOLYLINE
  5
94
330
1F
100
AcDbEntity
  8
0
  6
Continuous
 62
     7
370
    25
100
AcDbPolyline
 90
        3
 70
   128
 43
0.0
 10
224.0347479014
 20
199.6005320835
 10
226.1080008679
 20
199.5302805591
 10
226.6962737553
 20
199.5393684047
  0
LWPOLYLINE
  5
95
330
1F
100
AcDbEntity
  8
0
  6
Continuous
 62
     7
370
    25
100
AcDbPolyline
 90
        3
 70
   128
 43
0.0
 10
235.9123949204
 20
201.4212695795
 10
238.2123779748
 20
202.4573380041
 10
238.3363798503
 20
202.5207256812
  0
LINE
  5
96
330
1F
100
AcDbEntity
  8
0
  6
Continuous
 62
     7
370
    25
100
AcDbLine
 10
245.8238175381
 20
208.2154074597
 30
0.0
 11
247.5301513691
 21
210.2570248681
 31
0.0
  0
LWPOLYLINE
  5
97
330
1F
100
AcDbEntity
  8
0
  6
Continuous
 62
     7
370
    25
100
AcDbPolyline
 90
        3
 70
   128
 43
0.0
 10
251.8057154734
 20
218.6373131263
 10
251.8857794125
 20
218.9041552047
 10
252.4569539596
 20
221.2159092452
  0
LWPOLYLINE
  5
98
330
1F
100
AcDbEntity
  8
0
  6
Continuous
 62
     7
370
    25
100
AcDbPolyline
 90
        3
 70
   128
 43
0.0
 10
252.6730859895
 20
230.6226812217
 10
252.553262027
 20
231.3395108941
 10
252.1413510908
 20
233.2269571635
  0
LINE
  5
99
330
1F
100
AcDbEntity
  8
0
  6
Continuous
 62
     7
370
    25
100
AcDbLine
 10
248.2539342959
 20
241.7975453573
 30
0.0
 11
247.568769591
 21
242.751717
 31
0.0
  0
SPLINE
  5
9A
330
1F
100
AcDbEntity
  8
0
  6
Continuous
 62
     7
370
    25
100
AcDbSpline
210
0.0
220
0.0
230
1.0
 70
     8
 71
     3
 72
     9
 73
     5
 74
     0
 42
0.000000001
 43
0.00000001
 40
0.0
 40
0.0
 40
0.0
 40
0.0
 40
0.5600004266395799
 40
1.0
 40
1.0
 40
1.0
 40
1.0
 10
195.5009924490309
 20
203.3452199685572
 30
0.0
 10
195.3461313757681
 20
203.2274401304472
 30
0.0
 10
195.0695939556235
 20
203.0171191511995
 30
0.0
 10
194.7053306971066
 20
202.7400774886973
 30
0.0
 10
194.5450550187683
 20
202.6181792753933
 30
0.0
  0
SPLINE
  5
9B
330
1F
100
AcDbEntity
  8
0
  6
Continuous
 62
     7
370
    25
100
AcDbSpline
210
0.0
220
0.0
230
1.0
 70
     8
 71
     3
 72
     9
 73
     5
 74
     0
 42
0.000000001
 43
0.00000001
 40
0.0
 40
0.0
 40
0.0
 40
0.0
 40
0.5599969495743796
 40
1.0
 40
1.0
 40
1.0
 40
1.0
 10
257.4250942338562
 20
250.4418207246063
 30
0.0
 10
257.2202093688404
 20
250.2859957385051
 30
0.0
 10
256.854341545504
 20
250.0077353190158
 30
0.0
 10
256.5868527080348
 20
249.8042945780488
 30
0.0
 10
256.4691568035936
 20
249.7147800314425
 30
0.0
  0
ARC
  5
9C
330
1F
100
AcDbEntity
  8
0
  6
Continuous
 62
     7
370
    25
100
AcDbCircle
 10
225.9850746263
 20
226.53
 30
0.0
 40
38.29899805700012
100
AcDbArc
 50
37.2549368278
 51
217.2549368278
  0
ARC
  5
9D
330
1F
100
AcDbEntity
  8
0
  6
Continuous
 62
     7
370
    25
100
AcDbCircle
 10
225.9850746263
 20
226.53
 30
0.0
 40
39.50000000000016
100
AcDbArc
 50
37.2549368278
 51
217.2549368513
  0
ARC
  5
9E
330
1F
100
AcDbEntity
  8
0
  6
Continuous
 62
     7
370
    25
100
AcDbCircle
 10
225.9850746263
 20
226.53
 30
0.0
 40
38.29899805700012
100
AcDbArc
 50
217.2549368278
 51
37.2549368278
  0
ARC
  5
9F
330
1F
100
AcDbEntity
  8
0
  6
Continuous
 62
     7
370
    25
100
AcDbCircle
 10
225.9850746263
 20
226.53
 30
0.0
 40
39.50000000000016
100
AcDbArc
 50
217.2549368513
 51
37.2549368176
  0
SPLINE
  5
A0
330
1F
100
AcDbEntity
  8
0
  6
Continuous
 62
     7
370
    25
100
AcDbSpline
210
0.0
220
0.0
230
1.0
 70
     8
 71
     3
 72
    12
 73
     8
 74
     0
 42
0.000000001
 43
0.00000001
 40
0.0
 40
0.0
 40
0.0
 40
0.0
 40
0.3203753690485024
 40
0.5620062594652024
 40
0.7625117386896824
 40
0.8964642098849795
 40
1.0
 40
1.0
 40
1.0
 40
1.0
 10
244.0460307766056
 20
258.0291585910319
 30
0.0
 10
244.0868265822833
 20
258.1274229018754
 30
0.0
 10
244.1583910668406
 20
258.299799317516
 30
0.0
 10
244.124952343014
 20
258.5747217709172
 30
0.0
 10
244.0225705232487
 20
258.7811168686709
 30
0.0
 10
243.8897080134007
 20
258.9221165539063
 30
0.0
 10
243.7970157855312
 20
258.9766131462198
 30
0.0
 10
243.7566055227375
 20
259.0003715741633
 30
0.0
  0
LINE
  5
A1
330
1F
100
AcDbEntity
  8
0
  6
Continuous
 62
     7
370
    25
100
AcDbLine
 10
241.8442538251
 20
259.9760586309
 30
0.0
 11
243.7566055227
 21
259.0003715742
 31
0.0
  0
SPLINE
  5
A2
330
1F
100
AcDbEntity
  8
0
  6
Continuous
 62
     7
370
    25
100
AcDbSpline
210
0.0
220
0.0
230
1.0
 70
     8
 71
     3
 72
    12
 73
     8
 74
     0
 42
0.000000001
 43
0.00000001
 40
0.0
 40
0.0
 40
0.0
 40
0.0
 40
0.1369188886185294
 40
0.273287091157816
 40
0.4609285494046495
 40
0.7172995753232924
 40
1.0
 40
1.0
 40
1.0
 40
1.0
 10
241.8442538250542
 20
259.9760586309432
 30
0.0
 10
241.7867425055647
 20
259.9998913384158
 30
0.0
 10
241.6719511764026
 20
260.0474608985058
 30
0.0
 10
241.4719533187487
 20
260.0595407395875
 30
0.0
 10
241.2498799212586
 20
260.0113192521413
 30
0.0
 10
241.0271773038574
 20
259.8741902880936
 30
0.0
 10
240.9359092180695
 20
259.7208066223354
 30
0.0
 10
240.8880463112449
 20
259.6403689968585
 30
0.0
  0
SPLINE
  5
A3
330
1F
100
AcDbEntity
  8
0
  6
Continuous
 62
     7
370
    25
100
AcDbSpline
210
0.0
220
0.0
230
1.0
 70
     8
 71
     3
 72
    11
 73
     7
 74
     0
 42
0.000000001
 43
0.00000001
 40
0.0
 40
0.0
 40
0.0
 40
0.0
 40
0.2603295990035119
 40
0.5282090591189502
 40
0.7614183609650138
 40
1.0
 40
1.0
 40
1.0
 40
1.0
 10
234.0541139487481
 20
244.491338162422
 30
0.0
 10
234.7107296028605
 20
245.9468821204046
 30
0.0
 10
236.0430035286418
 20
248.9001825038232
 30
0.0
 10
237.8599641102771
 20
252.927908725743
 30
0.0
 10
239.50898743096
 20
256.5833575280969
 30
0.0
 10
240.4248835466813
 20
258.6136587501705
 30
0.0
 10
240.8880463112449
 20
259.6403689968585
 30
0.0
  0
SPLINE
  5
A4
330
1F
100
AcDbEntity
  8
0
  6
Continuous
 62
     7
370
    25
100
AcDbSpline
210
0.0
220
0.0
230
1.0
 70
     8
 71
     3
 72
    12
 73
     8
 74
     0
 42
0.000000001
 43
0.00000001
 40
0.0
 40
0.0
 40
0.0
 40
0.0
 40
0.2228997818442247
 40
0.4458336703499711
 40
0.6679317127572717
 40
0.8889149236807191
 40
1.0
 40
1.0
 40
1.0
 40
1.0
 10
234.0541139487481
 20
244.491338162422
 30
0.0
 10
234.028742339273
 20
244.4161786087949
 30
0.0
 10
233.9779952381257
 20
244.2658480011191
 30
0.0
 10
234.0022735719556
 20
244.0240155681554
 30
0.0
 10
234.1001065542951
 20
243.8061201311625
 30
0.0
 10
234.2376272125281
 20
243.658570944093
 30
0.0
 10
234.3398636184151
 20
243.5996645716816
 30
0.0
 10
234.3740642313218
 20
243.5799589294193
 30
0.0
  0
LINE
  5
A5
330
1F
100
AcDbEntity
  8
0
  6
Continuous
 62
     7
370
    25
100
AcDbLine
 10
234.8659087215
 20
243.329017787
 30
0.0
 11
234.3740642313
 21
243.5799589294
 31
0.0
  0
SPLINE
  5
A6
330
1F
100
AcDbEntity
  8
0
  6
Continuous
 62
     7
370
    25
100
AcDbSpline
210
0.0
220
0.0
230
1.0
 70
     8
 71
     3
 72
    12
 73
     8
 74
     0
 42
0.000000001
 43
0.00000001
 40
0.0
 40
0.0
 40
0.0
 40
0.0
 40
0.2201341754255886
 40
0.4402547830624917
 40
0.6607442165352343
 40
0.8821597549026683
 40
1.0
 40
1.0
 40
1.0
 40
1.0
 10
234.8659087214923
 20
243.3290177869795
 30
0.0
 10
234.9392752943689
 20
243.3002192684165
 30
0.0
 10
235.086003918234
 20
243.2426240062634
 30
0.0
 10
235.3267448703386
 20
243.2543473744113
 30
0.0
 10
235.5480278121588
 20
243.3395624887582
 30
0.0
 10
235.7040082217756
 20
243.4692219042986
 30
0.0
 10
235.7690107603313
 20
243.5699023816888
 30
0.0
 10
235.7915893439507
 20
243.6048736709355
 30
0.0
  0
SPLINE
  5
A7
330
1F
100
AcDbEntity
  8
0
  6
Continuous
 62
     7
370
    25
100
AcDbSpline
210
0.0
220
0.0
230
1.0
 70
     8
 71
     3
 72
    11
 73
     7
 74
     0
 42
0.000000001
 43
0.00000001
 40
0.0
 40
0.0
 40
0.0
 40
0.0
 40
0.2832269736311834
 40
0.5762688898015642
 40
0.7861907628592785
 40
1.0
 40
1.0
 40
1.0
 40
1.0
 10
244.0460307766056
 20
258.0291585910319
 30
0.0
 10
243.3767916832635
 20
256.8596921766575
 30
0.0
 10
242.015121696865
 20
254.4802326794511
 30
0.0
 10
239.8327378628731
 20
250.6666111334166
 30
0.0
 10
237.7350765376499
 20
247.0010322990614
 30
0.0
 10
236.4433685074372
 20
244.7438291715858
 30
0.0
 10
235.7915893439507
 20
243.6048736709355
 30
0.0
  0
SPLINE
  5
A8
330
1F
100
AcDbEntity
  8
0
  6
Continuous
 62
     7
370
    25
100
AcDbSpline
210
0.0
220
0.0
230
1.0
 70
     8
 71
     3
 72
    13
 73
     9
 74
     0
 42
0.000000001
 43
0.00000001
 40
0.0
 40
0.0
 40
0.0
 40
0.0
 40
0.3201755022591139
 40
0.4946703578154045
 40
0.6890186573758784
 40
0.838770389450206
 40
0.9672348696722292
 40
0.9999999999999999
 40
0.9999999999999999
 40
0.9999999999999999
 40
0.9999999999999999
 10
228.5904607046699
 20
262.7461174416541
 30
0.0
 10
228.5848228127447
 20
262.8525010233141
 30
0.0
 10
228.5761122836871
 20
263.0168633934334
 30
0.0
 10
228.4537300166261
 20
263.2286419326827
 30
0.0
 10
228.3121878630765
 20
263.3689974149083
 30
0.0
 10
228.1337672120661
 20
263.4611459335078
 30
0.0
 10
227.9956221830082
 20
263.4918445576199
 30
0.0
 10
227.923052986373
 20
263.4949419008654
 30
0.0
 10
227.9083054522356
 20
263.4955713438986
 30
0.0
  0
LINE
  5
A9
330
1F
100
AcDbEntity
  8
0
  6
Continuous
 62
     7
370
    25
100
AcDbLine
 10
225.7620007071
 20
263.5448941875
 30
0.0
 11
227.9083054522
 21
263.4955713439
 31
0.0
  0
SPLINE
  5
AA
330
1F
100
AcDbEntity
  8
0
  6
Continuous
 62
     7
370
    25
100
AcDbSpline
210
0.0
220
0.0
230
1.0
 70
     8
 71
     3
 72
    12
 73
     8
 74
     0
 42
0.000000001
 43
0.00000001
 40
0.0
 40
0.0
 40
0.0
 40
0.0
 40
0.1369190178377775
 40
0.27328694343273
 40
0.4609272627505105
 40
0.7172992255436254
 40
1.0
 40
1.0
 40
1.0
 40
1.0
 10
225.7620007071249
 20
263.5448941874503
 30
0.0
 10
225.6998435014144
 20
263.5414168413195
 30
0.0
 10
225.5757792696576
 20
263.5344761452035
 30
0.0
 10
225.3903502312111
 20
263.4585728134475
 30
0.0
 10
225.2111869946282
 20
263.3187820063292
 30
0.0
 10
225.0700394523967
 20
263.0985998732969
 30
0.0
 10
225.0543598916087
 20
262.920805956765
 30
0.0
 10
225.0461372090807
 20
262.8275671887396
 30
0.0
  0
SPLINE
  5
AB
330
1F
100
AcDbEntity
  8
0
  6
Continuous
 62
     7
370
    25
100
AcDbSpline
210
0.0
220
0.0
230
1.0
 70
     8
 71
     3
 72
    11
 73
     7
 74
     0
 42
0.000000001
 43
0.00000001
 40
0.0
 40
0.0
 40
0.0
 40
0.0
 40
0.2603296858348945
 40
0.5282090782827469
 40
0.7614184005420319
 40
1.0
 40
1.0
 40
1.0
 40
1.0
 10
225.4618953806652
 20
246.2136311370133
 30
0.0
 10
225.4219486396207
 20
247.8099262900099
 30
0.0
 10
225.3408966796806
 20
251.0488100489922
 30
0.0
 10
225.2303575409551
 20
255.4660152460903
 30
0.0
 10
225.1300354870098
 20
259.4749448599205
 30
0.0
 10
225.074314798646
 20
261.7015748766146
 30
0.0
 10
225.0461372090807
 20
262.8275671887396
 30
0.0
  0
SPLINE
  5
AC
330
1F
100
AcDbEntity
  8
0
  6
Continuous
 62
     7
370
    25
100
AcDbSpline
210
0.0
220
0.0
230
1.0
 70
     8
 71
     3
 72
    12
 73
     8
 74
     0
 42
0.000000001
 43
0.00000001
 40
0.0
 40
0.0
 40
0.0
 40
0.0
 40
0.2228988329588296
 40
0.4458331141230519
 40
0.6679318018357066
 40
0.888914606742074
 40
1.0
 40
1.0
 40
1.0
 40
1.0
 10
225.4618953806652
 20
246.2136311370133
 30
0.0
 10
225.4716468031086
 20
246.1349066606882
 30
0.0
 10
225.4911511987906
 20
245.9774451882712
 30
0.0
 10
225.6179518152386
 20
245.7700953228537
 30
0.0
 10
225.800637370286
 20
245.6162246638762
 30
0.0
 10
225.9885598372587
 20
245.5429589037305
 30
0.0
 10
226.1062300060242
 20
245.5342431124513
 30
0.0
 10
226.1455937181903
 20
245.5313274550436
 30
0.0
  0
LINE
  5
AD
330
1F
100
AcDbEntity
  8
0
  6
Continuous
 62
     7
370
    25
100
AcDbLine
 10
226.6976090973
 20
245.5186409789
 30
0.0
 11
226.1455937182
 21
245.531327455
 31
0.0
  0
SPLINE
  5
AE
330
1F
100
AcDbEntity
  8
0
  6
Continuous
 62
     7
370
    25
100
AcDbSpline
210
0.0
220
0.0
230
1.0
 70
     8
 71
     3
 72
    12
 73
     8
 74
     0
 42
0.000000001
 43
0.00000001
 40
0.0
 40
0.0
 40
0.0
 40
0.0
 40
0.2201337636117721
 40
0.4402535274865509
 40
0.6607425295807388
 40
0.8821601464512252
 40
1.0
 40
1.0
 40
1.0
 40
1.0
 10
226.6976090972616
 20
245.5186409789322
 30
0.0
 10
226.776205145557
 20
245.5245275125532
 30
0.0
 10
226.9333922437144
 20
245.5363002054324
 30
0.0
 10
227.1452060249568
 20
245.6513140697949
 30
0.0
 10
227.3076035124828
 20
245.8241010482987
 30
0.0
 10
227.3918772434607
 20
246.0085993835919
 30
0.0
 10
227.4067599314724
 20
246.1275134033243
 30
0.0
 10
227.4119293792477
 20
246.1688177573679
 30
0.0
  0
SPLINE
  5
AF
330
1F
100
AcDbEntity
  8
0
  6
Continuous
 62
     7
370
    25
100
AcDbSpline
210
0.0
220
0.0
230
1.0
 70
     8
 71
     3
 72
    11
 73
     7
 74
     0
 42
0.000000001
 43
0.00000001
 40
0.0
 40
0.0
 40
0.0
 40
0.0
 40
0.2832270345104443
 40
0.5762689663572381
 40
0.7861907429361378
 40
1.0
 40
1.0
 40
1.0
 40
1.0
 10
228.5904607046699
 20
262.7461174416541
 30
0.0
 10
228.4949097834647
 20
261.4020921552108
 30
0.0
 10
228.300496737081
 20
258.6674659783158
 30
0.0
 10
227.9889062327273
 20
254.2846109000351
 30
0.0
 10
227.6894112704782
 20
250.0718982507637
 30
0.0
 10
227.5049873363329
 20
247.4777777599247
 30
0.0
 10
227.4119293792477
 20
246.1688177573679
 30
0.0
  0
SPLINE
  5
B0
330
1F
100
AcDbEntity
  8
0
  6
Continuous
 62
     7
370
    25
100
AcDbSpline
210
0.0
220
0.0
230
1.0
 70
     8
 71
     3
 72
    13
 73
     9
 74
     0
 42
0.000000001
 43
0.00000001
 40
0.0
 40
0.0
 40
0.0
 40
0.0
 40
0.1923317617087634
 40
0.4540898967682881
 40
0.6566929463637915
 40
0.813110862761702
 40
0.9441974833544492
 40
1.0
 40
1.0
 40
1.0
 40
1.0
 10
212.6188624892688
 20
260.2900260972975
 30
0.0
 10
212.5908302827454
 20
260.3469608273783
 30
0.0
 10
212.5246470291148
 20
260.4813821287547
 30
0.0
 10
212.3534233245044
 20
260.6332284934547
 30
0.0
 10
212.137050532345
 20
260.7226132059624
 30
0.0
 10
211.9328822597472
 20
260.7390182734271
 30
0.0
 10
211.7802658471328
 20
260.7112398194309
 30
0.0
 10
211.7023499728623
 20
260.6789330747322
 30
0.0
 10
211.6790853683209
 20
260.669286726713
 30
0.0
  0
LINE
  5
B1
330
1F
100
AcDbEntity
  8
0
  6
Continuous
 62
     7
370
    25
100
AcDbLine
 10
209.7239310164
 20
259.7824813712
 30
0.0
 11
211.6790853683
 21
260.6692867267
 31
0.0
  0
SPLINE
  5
B2
330
1F
100
AcDbEntity
  8
0
  6
Continuous
 62
     7
370
    25
100
AcDbSpline
210
0.0
220
0.0
230
1.0
 70
     8
 71
     3
 72
    12
 73
     8
 74
     0
 42
0.000000001
 43
0.00000001
 40
0.0
 40
0.0
 40
0.0
 40
0.0
 40
0.1369191995021052
 40
0.2732873875899756
 40
0.4609283663168262
 40
0.7172983390430967
 40
0.9999999999999999
 40
0.9999999999999999
 40
0.9999999999999999
 40
0.9999999999999999
 10
209.7239310164308
 20
259.7824813711642
 30
0.0
 10
209.6694389931744
 20
259.7523778701487
 30
0.0
 10
209.5606742418874
 20
259.6922920152813
 30
0.0
 10
209.4265369779187
 20
259.5434548264759
 30
0.0
 10
209.325773818502
 20
259.3397680182508
 30
0.0
 10
209.2941350081779
 20
259.080153188745
 30
0.0
 10
209.3571504180511
 20
258.913162298048
 30
0.0
 10
209.3901971597528
 20
258.8255884039401
 30
0.0
  0
SPLINE
  5
B3
330
1F
100
AcDbEntity
  8
0
  6
Continuous
 62
     7
370
    25
100
AcDbSpline
210
0.0
220
0.0
230
1.0
 70
     8
 71
     3
 72
    11
 73
     7
 74
     0
 42
0.000000001
 43
0.00000001
 40
0.0
 40
0.0
 40
0.0
 40
0.0
 40
0.2603296006988583
 40
0.5282091002290401
 40
0.7614184109237858
 40
1.0
 40
1.0
 40
1.0
 40
1.0
 10
216.973299371109
 20
244.0373407590388
 30
0.0
 10
216.2447019949705
 20
245.4582199973217
 30
0.0
 10
214.7663769660601
 20
248.3411858297617
 30
0.0
 10
212.7502310893074
 20
252.2729894883586
 30
0.0
 10
210.9204354421626
 20
255.8413827212648
 30
0.0
 10
209.9041341249569
 20
257.8233303701888
 30
0.0
 10
209.3901971597528
 20
258.8255884039401
 30
0.0
  0
SPLINE
  5
B4
330
1F
100
AcDbEntity
  8
0
  6
Continuous
 62
     7
370
    25
100
AcDbSpline
210
0.0
220
0.0
230
1.0
 70
     8
 71
     3
 72
    12
 73
     8
 74
     0
 42
0.000000001
 43
0.00000001
 40
0.0
 40
0.0
 40
0.0
 40
0.0
 40
0.2229004763054206
 40
0.4458330410753624
 40
0.6679313843058342
 40
0.8889141558820214
 40
1.0
 40
1.0
 40
1.0
 40
1.0
 10
216.973299371109
 20
244.0373407590388
 30
0.0
 10
217.0162422955987
 20
243.9706425128021
 30
0.0
 10
217.102134326586
 20
243.8372364185354
 30
0.0
 10
217.306344349162
 20
243.7054383180256
 30
0.0
 10
217.5376994920954
 20
243.646070088797
 30
0.0
 10
217.7388011738603
 20
243.6615949991339
 30
0.0
 10
217.8485999118531
 20
243.7047985232454
 30
0.0
 10
217.8853305299139
 20
243.7192512589691
 30
0.0
  0
LINE
  5
B5
330
1F
100
AcDbEntity
  8
0
  6
Continuous
 62
     7
370
    25
100
AcDbLine
 10
218.3881832529
 20
243.9473321575
 30
0.0
 11
217.8853305299
 21
243.719251259
 31
0.0
  0
SPLINE
  5
B6
330
1F
100
AcDbEntity
  8
0
  6
Continuous
 62
     7
370
    25
100
AcDbSpline
210
0.0
220
0.0
230
1.0
 70
     8
 71
     3
 72
    12
 73
     8
 74
     0
 42
0.000000001
 43
0.00000001
 40
0.0
 40
0.0
 40
0.0
 40
0.0
 40
0.2201340717756722
 40
0.4402543537552065
 40
0.6607432836901808
 40
0.8821602644806018
 40
1.0
 40
1.0
 40
1.0
 40
1.0
 10
218.3881832529163
 20
243.9473321574925
 30
0.0
 10
218.4564420433898
 20
243.9867370086194
 30
0.0
 10
218.5929553484209
 20
244.0655442424464
 30
0.0
 10
218.7338891245638
 20
244.26107190055
 30
0.0
 10
218.8052344511897
 20
244.4872086685085
 30
0.0
 10
218.8011130306321
 20
244.6900005593905
 30
0.0
 10
218.7629269015578
 20
244.8035953466349
 30
0.0
 10
218.7496630717373
 20
244.8430521327255
 30
0.0
  0
SPLINE
  5
B7
330
1F
100
AcDbEntity
  8
0
  6
Continuous
 62
     7
370
    25
100
AcDbSpline
210
0.0
220
0.0
230
1.0
 70
     8
 71
     3
 72
    11
 73
     7
 74
     0
 42
0.000000001
 43
0.00000001
 40
0.0
 40
0.0
 40
0.0
 40
0.0
 40
0.2832269554021936
 40
0.5762688558753913
 40
0.7861907394143062
 40
1.0
 40
1.0
 40
1.0
 40
1.0
 10
212.6188624892688
 20
260.2900260972975
 30
0.0
 10
213.1159245272751
 20
259.037643993074
 30
0.0
 10
214.127273787921
 20
256.4894797433302
 30
0.0
 10
215.7481898215177
 20
252.4054703248931
 30
0.0
 10
217.3061828261024
 20
248.4800014261226
 30
0.0
 10
218.2655691355585
 20
246.0627606146722
 30
0.0
 10
218.7496630717373
 20
244.8430521327255
 30
0.0
  0
SPLINE
  5
B8
330
1F
100
AcDbEntity
  8
0
  6
Continuous
 62
     7
370
    25
100
AcDbSpline
210
0.0
220
0.0
230
1.0
 70
     8
 71
     3
 72
    12
 73
     8
 74
     0
 42
0.000000001
 43
0.00000001
 40
0.0
 40
0.0
 40
0.0
 40
0.0
 40
0.3203283080983883
 40
0.5619264300425453
 40
0.7389297024390107
 40
0.8801327939678616
 40
1.0
 40
1.0
 40
1.0
 40
1.0
 10
199.2946064342117
 20
251.1473515915869
 30
0.0
 10
199.2079250906066
 20
251.2090038761373
 30
0.0
 10
199.0558669155035
 20
251.317155567029
 30
0.0
 10
198.7884747530314
 20
251.3447156357129
 30
0.0
 10
198.5725871585376
 20
251.2965853269847
 30
0.0
 10
198.4030675221115
 20
251.2059244549583
 30
0.0
 10
198.3210158623193
 20
251.1205137436172
 30
0.0
 10
198.2833428550815
 20
251.0812984693049
 30
0.0
  0
LINE
  5
B9
330
1F
100
AcDbEntity
  8
0
  6
Continuous
 62
     7
370
    25
100
AcDbLine
 10
196.9065798689
 20
249.434003039
 30
0.0
 11
198.2833428551
 21
251.0812984693
 31
0.0
  0
SPLINE
  5
BA
330
1F
100
AcDbEntity
  8
0
  6
Continuous
 62
     7
370
    25
100
AcDbSpline
210
0.0
220
0.0
230
1.0
 70
     8
 71
     3
 72
    12
 73
     8
 74
     0
 42
0.000000001
 43
0.00000001
 40
0.0
 40
0.0
 40
0.0
 40
0.0
 40
0.1369189475719144
 40
0.2732869187577278
 40
0.4609277034664967
 40
0.717299641918103
 40
1.0
 40
1.0
 40
1.0
 40
1.0
 10
196.9065798688984
 20
249.4340030390022
 30
0.0
 10
196.8705458588835
 20
249.3832377397218
 30
0.0
 10
196.7986228435371
 20
249.2819114261166
 30
0.0
 10
196.7423464109326
 20
249.0896148785083
 30
0.0
 10
196.7399391024588
 20
248.8623804773795
 30
0.0
 10
196.8240762863178
 20
248.6147464154734
 30
0.0
 10
196.9533047809822
 20
248.4916356155319
 30
0.0
 10
197.0210748035764
 20
248.4270738351343
 30
0.0
  0
SPLINE
  5
BB
330
1F
100
AcDbEntity
  8
0
  6
Continuous
 62
     7
370
    25
100
AcDbSpline
210
0.0
220
0.0
230
1.0
 70
     8
 71
     3
 72
    11
 73
     7
 74
     0
 42
0.000000001
 43
0.00000001
 40
0.0
 40
0.0
 40
0.0
 40
0.0
 40
0.2603296216954226
 40
0.5282090879758334
 40
0.7614183543161984
 40
1.0
 40
1.0
 40
1.0
 40
1.0
 10
210.2695947755432
 20
238.3935054677723
 30
0.0
 10
208.9966548924801
 20
239.3575474283797
 30
0.0
 10
206.4138584734563
 20
241.3135896239105
 30
0.0
 10
202.8914283391603
 20
243.981249976788
 30
0.0
 10
199.6945697900611
 20
246.4023398104678
 30
0.0
 10
197.9189794687861
 20
247.7470582990112
 30
0.0
 10
197.0210748035765
 20
248.4270738351343
 30
0.0
  0
SPLINE
  5
BC
330
1F
100
AcDbEntity
  8
0
  6
Continuous
 62
     7
370
    25
100
AcDbSpline
210
0.0
220
0.0
230
1.0
 70
     8
 71
     3
 72
    12
 73
     8
 74
     0
 42
0.000000001
 43
0.00000001
 40
0.0
 40
0.0
 40
0.0
 40
0.0
 40
0.2228998802827181
 40
0.4458325796560926
 40
0.6679309333994904
 40
0.8889143754873812
 40
1.0
 40
1.0
 40
1.0
 40
1.0
 10
210.2695947755432
 20
238.3935054677723
 30
0.0
 10
210.3372242454776
 20
238.3520450311024
 30
0.0
 10
210.4724931429009
 20
238.2691180532557
 30
0.0
 10
210.7136648649515
 20
238.2389765122791
 30
0.0
 10
210.9478677232532
 20
238.2858681844989
 30
0.0
 10
211.12231859677
 20
238.3871099033961
 30
0.0
 10
211.202498568031
 20
238.4736749581566
 30
0.0
 10
211.2293208260393
 20
238.5026331904529
 30
0.0
  0
LINE
  5
BD
330
1F
100
AcDbEntity
  8
0
  6
Continuous
 62
     7
370
    25
100
AcDbLine
 10
211.5834143255
 20
238.9263067308
 30
0.0
 11
211.229320826
 21
238.5026331905
 31
0.0
  0
SPLINE
  5
BE
330
1F
100
AcDbEntity
  8
0
  6
Continuous
 62
     7
370
    25
100
AcDbSpline
210
0.0
220
0.0
230
1.0
 70
     8
 71
     3
 72
    12
 73
     8
 74
     0
 42
0.000000001
 43
0.00000001
 40
0.0
 40
0.0
 40
0.0
 40
0.0
 40
0.2201361246249986
 40
0.4402599558283452
 40
0.6607520575040988
 40
0.8834146743166837
 40
0.9999999999999999
 40
0.9999999999999999
 40
0.9999999999999999
 40
0.9999999999999999
 10
211.583414325521
 20
238.9263067308067
 30
0.0
 10
211.6278166670052
 20
238.9914251496111
 30
0.0
 10
211.7166188703412
 20
239.1216583507055
 30
0.0
 10
211.7587560923133
 20
239.3589721370267
 30
0.0
 10
211.7248647414955
 20
239.5941099107463
 30
0.0
 10
211.6329592454831
 20
239.7749798775489
 30
0.0
 10
211.5492322483784
 20
239.8607028619939
 30
0.0
 10
211.5204587821221
 20
239.8901622655986
 30
0.0
  0
SPLINE
  5
BF
330
1F
100
AcDbEntity
  8
0
  6
Continuous
 62
     7
370
    25
100
AcDbSpline
210
0.0
220
0.0
230
1.0
 70
     8
 71
     3
 72
    11
 73
     7
 74
     0
 42
0.000000001
 43
0.00000001
 40
0.0
 40
0.0
 40
0.0
 40
0.0
 40
0.2832269347526415
 40
0.5762688941154683
 40
0.7861907501928624
 40
1.0
 40
1.0
 40
1.0
 40
1.0
 10
199.2946064342117
 20
251.1473515915869
 30
0.0
 10
200.2858318627204
 20
250.2346612220356
 30
0.0
 10
202.3026329201649
 20
248.3776518581823
 30
0.0
 10
205.5350157954713
 20
245.4013770753316
 30
0.0
 10
208.6419140564871
 20
242.5406369486827
 30
0.0
 10
210.5550932443491
 20
240.7790409045174
 30
0.0
 10
211.5204587821221
 20
239.8901622655986
 30
0.0
  0
SPLINE
  5
C0
330
1F
100
AcDbEntity
  8
0
  6
Continuous
 62
     7
370
    25
100
AcDbSpline
210
0.0
220
0.0
230
1.0
 70
     8
 71
     3
 72
    12
 73
     8
 74
     0
 42
0.000000001
 43
0.00000001
 40
0.0
 40
0.0
 40
0.0
 40
0.0
 40
0.3203292781790874
 40
0.5619265598184748
 40
0.7389293344708927
 40
0.8801329979274832
 40
0.9999999999999999
 40
0.9999999999999999
 40
0.9999999999999999
 40
0.9999999999999999
 10
191.2567263711548
 20
237.1289072471855
 30
0.0
 10
191.1518782802278
 20
237.1468446977727
 30
0.0
 10
190.9679521421832
 20
237.1783108502193
 30
0.0
 10
190.7150835798191
 20
237.0871231144155
 30
0.0
 10
190.5414583291843
 20
236.9500903361196
 30
0.0
 10
190.4280607539049
 20
236.7948564830092
 30
0.0
 10
190.3911948853984
 20
236.682302250463
 30
0.0
 10
190.3742684293842
 20
236.6306245240567
 30
0.0
  0
LINE
  5
C1
330
1F
100
AcDbEntity
  8
0
  6
Continuous
 62
     7
370
    25
100
AcDbLine
 10
189.8485815395
 20
234.5491083252
 30
0.0
 11
190.3742684294
 21
236.6306245241
 31
0.0
  0
SPLINE
  5
C2
330
1F
100
AcDbEntity
  8
0
  6
Continuous
 62
     7
370
    25
100
AcDbSpline
210
0.0
220
0.0
230
1.0
 70
     8
 71
     3
 72
    12
 73
     8
 74
     0
 42
0.000000001
 43
0.00000001
 40
0.0
 40
0.0
 40
0.0
 40
0.0
 40
0.1369194666454695
 40
0.2732868840535101
 40
0.4609276357954512
 40
0.717299668104886
 40
1.0
 40
1.0
 40
1.0
 40
1.0
 10
189.8485815394974
 20
234.5491083252428
 30
0.0
 10
189.8381426673042
 20
234.4877354142308
 30
0.0
 10
189.8173070116842
 20
234.3652370432781
 30
0.0
 10
189.8500372349744
 20
234.1675664359585
 30
0.0
 10
189.9464597795465
 20
233.9617894347636
 30
0.0
 10
190.1297115930016
 20
233.7751857100568
 30
0.0
 10
190.2995583738398
 20
233.7203365646656
 30
0.0
 10
190.3886294234848
 20
233.691572575569
 30
0.0
  0
SPLINE
  5
C3
330
1F
100
AcDbEntity
  8
0
  6
Continuous
 62
     7
370
    25
100
AcDbSpline
210
0.0
220
0.0
230
1.0
 70
     8
 71
     3
 72
    11
 73
     7
 74
     0
 42
0.000000001
 43
0.00000001
 40
0.0
 40
0.0
 40
0.0
 40
0.0
 40
0.2603295787760104
 40
0.5282090678022414
 40
0.7614184543642685
 40
1.0
 40
1.0
 40
1.0
 40
1.0
 10
206.6785341371154
 20
230.3999579890816
 30
0.0
 10
205.1133731754645
 20
230.7162218714224
 30
0.0
 10
201.9376594651701
 20
231.3579217168882
 30
0.0
 10
197.6066050197928
 20
232.2330743114904
 30
0.0
 10
193.675862515498
 20
233.0273379341939
 30
0.0
 10
191.4926603036637
 20
233.4684866138389
 30
0.0
 10
190.3886294234848
 20
233.691572575569
 30
0.0
  0
SPLINE
  5
C4
330
1F
100
AcDbEntity
  8
0
  6
Continuous
 62
     7
370
    25
100
AcDbSpline
210
0.0
220
0.0
230
1.0
 70
     8
 71
     3
 72
    12
 73
     8
 74
     0
 42
0.000000001
 43
0.00000001
 40
0.0
 40
0.0
 40
0.0
 40
0.0
 40
0.222900557394595
 40
0.4458336070705163
 40
0.667932281199771
 40
0.8889147664254792
 40
1.0
 40
1.0
 40
1.0
 40
1.0
 10
206.6785341371155
 20
230.3999579890816
 30
0.0
 10
206.7574554027177
 20
230.3919468523875
 30
0.0
 10
206.9153094382989
 20
230.3759234112134
 30
0.0
 10
207.1456763959104
 20
230.4534061943668
 30
0.0
 10
207.3363400035793
 20
230.5972716803288
 30
0.0
 10
207.4495862514917
 20
230.7641789704859
 30
0.0
 10
207.4842668575538
 20
230.8769596006608
 30
0.0
 10
207.4958684165335
 20
230.9146876360474
 30
0.0
  0
LINE
  5
C5
330
1F
100
AcDbEntity
  8
0
  6
Continuous
 62
     7
370
    25
100
AcDbLine
 10
207.63107224
 20
231.4500402573
 30
0.0
 11
207.4958684165
 21
230.914687636
 31
0.0
  0
SPLINE
  5
C6
330
1F
100
AcDbEntity
  8
0
  6
Continuous
 62
     7
370
    25
100
AcDbSpline
210
0.0
220
0.0
230
1.0
 70
     8
 71
     3
 72
    12
 73
     8
 74
     0
 42
0.000000001
 43
0.00000001
 40
0.0
 40
0.0
 40
0.0
 40
0.0
 40
0.2200858151333108
 40
0.4401580156316524
 40
0.5885343691441187
 40
0.8110243869450017
 40
1.0
 40
1.0
 40
1.0
 40
1.0
 10
207.6310722399807
 20
231.4500402572749
 30
0.0
 10
207.6428487402284
 20
231.5279532323599
 30
0.0
 10
207.6664010122228
 20
231.6837743627885
 30
0.0
 10
207.6081453978116
 20
231.8908485914747
 30
0.0
 10
207.5008815046495
 20
232.0708547132345
 30
0.0
 10
207.3541032593111
 20
232.2123216428342
 30
0.0
 10
207.2184500560526
 20
232.2663257041031
 30
0.0
 10
207.1561480183458
 20
232.2911283846198
 30
0.0
  0
SPLINE
  5
C7
330
1F
100
AcDbEntity
  8
0
  6
Continuous
 62
     7
370
    25
100
AcDbSpline
210
0.0
220
0.0
230
1.0
 70
     8
 71
     3
 72
    11
 73
     7
 74
     0
 42
0.000000001
 43
0.00000001
 40
0.0
 40
0.0
 40
0.0
 40
0.0
 40
0.2832269250586902
 40
0.5762689008241885
 40
0.7861907656695666
 40
1.0
 40
1.0
 40
1.0
 40
1.0
 10
191.2567263711548
 20
237.1289072471855
 30
0.0
 10
192.5457908843574
 20
236.736678435929
 30
0.0
 10
195.1685916295931
 20
235.9386283709941
 30
0.0
 10
199.3722241356597
 20
234.6595732350743
 30
0.0
 10
203.4126718458323
 20
233.4301709178468
 30
0.0
 10
205.9007140761864
 20
232.6731243135043
 30
0.0
 10
207.1561480183458
 20
232.2911283846198
 30
0.0
  0
SPLINE
  5
C8
330
1F
100
AcDbEntity
  8
0
  6
Continuous
 62
     7
370
    25
100
AcDbSpline
210
0.0
220
0.0
230
1.0
 70
     8
 71
     3
 72
    12
 73
     8
 74
     0
 42
0.000000001
 43
0.00000001
 40
0.0
 40
0.0
 40
0.0
 40
0.0
 40
0.3203275689961667
 40
0.5619250712152428
 40
0.7389295731382667
 40
0.8801326156702439
 40
1.0
 40
1.0
 40
1.0
 40
1.0
 10
190.0972185898876
 20
221.0112194444237
 30
0.0
 10
189.9949719212731
 20
220.9818890511422
 30
0.0
 10
189.8156087564891
 20
220.9304370846907
 30
0.0
 10
189.6273515621039
 20
220.7385623425677
 30
0.0
 10
189.5303671027027
 20
220.5397691992787
 30
0.0
 10
189.4955612215729
 20
220.3507054326276
 30
0.0
 10
189.5111788206565
 20
220.2333022520279
 30
0.0
 10
189.5183494556999
 20
220.1793979766963
 30
0.0
  0
LINE
  5
C9
330
1F
100
AcDbEntity
  8
0
  6
Continuous
 62
     7
370
    25
100
AcDbLine
 10
189.9478568007
 20
218.0759295735
 30
0.0
 11
189.5183494557
 21
220.1793979767
 31
0.0
  0
SPLINE
  5
CA
330
1F
100
AcDbEntity
  8
0
  6
Continuous
 62
     7
370
    25
100
AcDbSpline
210
0.0
220
0.0
230
1.0
 70
     8
 71
     3
 72
    12
 73
     8
 74
     0
 42
0.000000001
 43
0.00000001
 40
0.0
 40
0.0
 40
0.0
 40
0.0
 40
0.1369189944677762
 40
0.2732875746800558
 40
0.4609293329325017
 40
0.7172992923938105
 40
1.0
 40
1.0
 40
1.0
 40
1.0
 10
189.9478568006611
 20
218.0759295734761
 30
0.0
 10
189.965079607134
 20
218.0161051147021
 30
0.0
 10
189.9994559844108
 20
217.8966966914336
 30
0.0
 10
190.1147166984966
 20
217.7328052407191
 30
0.0
 10
190.2908737809166
 20
217.5892424285087
 30
0.0
 10
190.5369392937902
 20
217.5006277930303
 30
0.0
 10
190.7137642674985
 20
217.5249036411726
 30
0.0
 10
190.8064952362633
 20
217.5376344385741
 30
0.0
  0
SPLINE
  5
CB
330
1F
100
AcDbEntity
  8
0
  6
Continuous
 62
     7
370
    25
100
AcDbSpline
210
0.0
220
0.0
230
1.0
 70
     8
 71
     3
 72
    11
 73
     7
 74
     0
 42
0.000000001
 43
0.00000001
 40
0.0
 40
0.0
 40
0.0
 40
0.0
 40
0.2603296370465128
 40
0.5282090541205525
 40
0.761418427419901
 40
1.0
 40
1.0
 40
1.0
 40
1.0
 10
206.9113722313499
 20
221.6399180616437
 30
0.0
 10
205.3639886739001
 20
221.2457637850297
 30
0.0
 10
202.2243461248798
 20
220.4460244238497
 30
0.0
 10
197.9424862307227
 20
219.355335858773
 30
0.0
 10
194.0563911371968
 20
218.365458734262
 30
0.0
 10
191.8979863266671
 20
217.8156626803106
 30
0.0
 10
190.8064952362633
 20
217.5376344385741
 30
0.0
  0
SPLINE
  5
CC
330
1F
100
AcDbEntity
  8
0
  6
Continuous
 62
     7
370
    25
100
AcDbSpline
210
0.0
220
0.0
230
1.0
 70
     8
 71
     3
 72
    12
 73
     8
 74
     0
 42
0.000000001
 43
0.00000001
 40
0.0
 40
0.0
 40
0.0
 40
0.0
 40
0.2228985695500421
 40
0.4458324561537744
 40
0.667931278695428
 40
0.8889143447391495
 40
1.0
 40
1.0
 40
1.0
 40
1.0
 10
206.9113722313499
 20
221.6399180616437
 30
0.0
 10
206.9859528450028
 20
221.6669428267614
 30
0.0
 10
207.135125889197
 20
221.7209966389223
 30
0.0
 10
207.3090607876253
 20
221.8907577796139
 30
0.0
 10
207.4184213670325
 20
222.1031024805662
 30
0.0
 10
207.448034509775
 20
222.3026164454769
 30
0.0
 10
207.4303472404161
 20
222.4192758574711
 30
0.0
 10
207.424430387125
 20
222.458301475942
 30
0.0
  0
LINE
  5
CD
330
1F
100
AcDbEntity
  8
0
  6
Continuous
 62
     7
370
    25
100
AcDbLine
 10
207.3139643539
 20
222.9992995418
 30
0.0
 11
207.4244303871
 21
222.4583014759
 31
0.0
  0
SPLINE
  5
CE
330
1F
100
AcDbEntity
  8
0
  6
Continuous
 62
     7
370
    25
100
AcDbSpline
210
0.0
220
0.0
230
1.0
 70
     8
 71
     3
 72
    13
 73
     9
 74
     0
 42
0.000000001
 43
0.00000001
 40
0.0
 40
0.0
 40
0.0
 40
0.0
 40
0.2200615732142004
 40
0.2941790330233369
 40
0.5152199004868661
 40
0.736229689253783
 40
0.9580125080268413
 40
1.0
 40
1.0
 40
1.0
 40
1.0
 10
207.3139643539047
 20
222.9992995417861
 30
0.0
 10
207.2911352591705
 20
223.0748192232825
 30
0.0
 10
207.260617250435
 20
223.1757741812624
 30
0.0
 10
207.1568281278584
 20
223.3269774421595
 30
0.0
 10
207.0211305975911
 20
223.4548767309258
 30
0.0
 10
206.8023266250184
 20
223.5507101423569
 30
0.0
 10
206.6279745099927
 20
223.5653709433392
 30
0.0
 10
206.5358097348259
 20
223.5530014916449
 30
0.0
 10
206.5211387593603
 20
223.5510324972866
 30
0.0
  0
SPLINE
  5
CF
330
1F
100
AcDbEntity
  8
0
  6
Continuous
 62
     7
370
    25
100
AcDbSpline
210
0.0
220
0.0
230
1.0
 70
     8
 71
     3
 72
    11
 73
     7
 74
     0
 42
0.000000001
 43
0.00000001
 40
0.0
 40
0.0
 40
0.0
 40
0.0
 40
0.2832270464758973
 40
0.5762689168575407
 40
0.786190747481182
 40
1.0
 40
1.0
 40
1.0
 40
1.0
 10
190.0972185898876
 20
221.0112194444237
 30
0.0
 10
191.4288085896226
 20
221.2171379070386
 30
0.0
 10
194.1381329157898
 20
221.636110638946
 30
0.0
 10
198.4804355643791
 20
222.3076095346035
 30
0.0
 10
202.6541708384313
 20
222.9530404211297
 30
0.0
 10
205.2242898002579
 20
223.3504863801807
 30
0.0
 10
206.5211387593603
 20
223.5510324972866
 30
0.0
  0
ARC
  5
D0
330
1F
100
AcDbEntity
  8
0
  6
Continuous
 62
     7
370
    25
100
AcDbCircle
 10
225.9850746263
 20
226.53
 30
0.0
 40
16.42261912900003
100
AcDbArc
 50
307.2549368278
 51
127.2549368278
  0
ARC
  5
D1
330
1F
100
AcDbEntity
  8
0
  6
Continuous
 62
     7
370
    25
100
AcDbCircle
 10
225.9850746263
 20
226.53
 30
0.0
 40
16.42261912900003
100
AcDbArc
 50
127.2549368278
 51
307.2549368278
  0
SPLINE
  5
D2
330
1F
100
AcDbEntity
  8
0
  6
Continuous
 62
     7
370
    25
100
AcDbSpline
210
0.0
220
0.0
230
1.0
 70
     8
 71
     3
 72
    12
 73
     8
 74
     0
 42
0.000000001
 43
0.00000001
 40
0.0
 40
0.0
 40
0.0
 40
0.0
 40
0.3203270980807402
 40
0.5619254453746787
 40
0.7389293063783429
 40
0.8801326305413927
 40
1.0
 40
1.0
 40
1.0
 40
1.0
 10
223.3796885479545
 20
190.3138825583456
 30
0.0
 10
223.3855317139306
 20
190.207673518254
 30
0.0
 10
223.3957819352298
 20
190.0213590836841
 30
0.0
 10
223.5409527588751
 20
189.7951219601289
 30
0.0
 10
223.7131836913081
 20
189.6563387234293
 30
0.0
 10
223.8897600092521
 20
189.5803298649993
 30
0.0
 10
224.0076952829022
 20
189.5694321888708
 30
0.0
 10
224.0618438003888
 20
189.5644286561011
 30
0.0
  0
LINE
  5
D3
330
1F
100
AcDbEntity
  8
0
  6
Continuous
 62
     7
370
    25
100
AcDbLine
 10
226.2081485455
 20
189.5151058125
 30
0.0
 11
224.0618438004
 21
189.5644286561
 31
0.0
  0
SPLINE
  5
D4
330
1F
100
AcDbEntity
  8
0
  6
Continuous
 62
     7
370
    25
100
AcDbSpline
210
0.0
220
0.0
230
1.0
 70
     8
 71
     3
 72
    12
 73
     8
 74
     0
 42
0.000000001
 43
0.00000001
 40
0.0
 40
0.0
 40
0.0
 40
0.0
 40
0.1369190178377775
 40
0.27328694343273
 40
0.4609272627505105
 40
0.7172992255436254
 40
1.0
 40
1.0
 40
1.0
 40
1.0
 10
226.2081485454995
 20
189.5151058125494
 30
0.0
 10
226.27030575121
 20
189.5185831586801
 30
0.0
 10
226.3943699829669
 20
189.5255238547962
 30
0.0
 10
226.5797990214134
 20
189.6014271865522
 30
0.0
 10
226.7589622579962
 20
189.7412179936705
 30
0.0
 10
226.9001098002277
 20
189.9614001267028
 30
0.0
 10
226.9157893610157
 20
190.1391940432347
 30
0.0
 10
226.9240120435437
 20
190.2324328112601
 30
0.0
  0
SPLINE
  5
D5
330
1F
100
AcDbEntity
  8
0
  6
Continuous
 62
     7
370
    25
100
AcDbSpline
210
0.0
220
0.0
230
1.0
 70
     8
 71
     3
 72
    11
 73
     7
 74
     0
 42
0.000000001
 43
0.00000001
 40
0.0
 40
0.0
 40
0.0
 40
0.0
 40
0.2603296858348945
 40
0.5282090782827469
 40
0.7614184005420319
 40
1.0
 40
1.0
 40
1.0
 40
1.0
 10
226.5082538719593
 20
206.8463688629864
 30
0.0
 10
226.5482006130038
 20
205.2500737099897
 30
0.0
 10
226.6292525729439
 20
202.0111899510075
 30
0.0
 10
226.7397917116693
 20
197.5939847539094
 30
0.0
 10
226.8401137656146
 20
193.5850551400792
 30
0.0
 10
226.8958344539785
 20
191.3584251233851
 30
0.0
 10
226.9240120435437
 20
190.2324328112601
 30
0.0
  0
SPLINE
  5
D6
330
1F
100
AcDbEntity
  8
0
  6
Continuous
 62
     7
370
    25
100
AcDbSpline
210
0.0
220
0.0
230
1.0
 70
     8
 71
     3
 72
    12
 73
     8
 74
     0
 42
0.000000001
 43
0.00000001
 40
0.0
 40
0.0
 40
0.0
 40
0.0
 40
0.2228388632393123
 40
0.4114693305912488
 40
0.6322892400760246
 40
0.8531345577724602
 40
1.0
 40
1.0
 40
1.0
 40
1.0
 10
226.5082538719593
 20
206.8463688629864
 30
0.0
 10
226.4985603727509
 20
206.9251214196289
 30
0.0
 10
226.4806614408844
 20
207.0705370858774
 30
0.0
 10
226.3669476942238
 20
207.2685906055794
 30
0.0
 10
226.2021036232816
 20
207.4232551606808
 30
0.0
 10
226.0070567429504
 20
207.5123144865055
 30
0.0
 10
225.876643292445
 20
207.5240037835981
 30
0.0
 10
225.8245555344342
 20
207.528672544956
 30
0.0
  0
LINE
  5
D7
330
1F
100
AcDbEntity
  8
0
  6
Continuous
 62
     7
370
    25
100
AcDbLine
 10
225.2725401554
 20
207.5413590211
 30
0.0
 11
225.8245555344
 21
207.528672545
 31
0.0
  0
SPLINE
  5
D8
330
1F
100
AcDbEntity
  8
0
  6
Continuous
 62
     7
370
    25
100
AcDbSpline
210
0.0
220
0.0
230
1.0
 70
     8
 71
     3
 72
    12
 73
     8
 74
     0
 42
0.000000001
 43
0.00000001
 40
0.0
 40
0.0
 40
0.0
 40
0.0
 40
0.2201337636117721
 40
0.4402535274865509
 40
0.6607425295807388
 40
0.8821601464512252
 40
1.0
 40
1.0
 40
1.0
 40
1.0
 10
225.2725401553629
 20
207.5413590210674
 30
0.0
 10
225.1939441070674
 20
207.5354724874464
 30
0.0
 10
225.03675700891
 20
207.5236997945673
 30
0.0
 10
224.8249432276676
 20
207.4086859302047
 30
0.0
 10
224.6625457401417
 20
207.2358989517009
 30
0.0
 10
224.5782720091638
 20
207.0514006164078
 30
0.0
 10
224.563389321152
 20
206.9324865966754
 30
0.0
 10
224.5582198733768
 20
206.8911822426317
 30
0.0
  0
SPLINE
  5
D9
330
1F
100
AcDbEntity
  8
0
  6
Continuous
 62
     7
370
    25
100
AcDbSpline
210
0.0
220
0.0
230
1.0
 70
     8
 71
     3
 72
    11
 73
     7
 74
     0
 42
0.000000001
 43
0.00000001
 40
0.0
 40
0.0
 40
0.0
 40
0.0
 40
0.2832270345104443
 40
0.5762689663572381
 40
0.7861907429361378
 40
1.0
 40
1.0
 40
1.0
 40
1.0
 10
223.3796885479545
 20
190.3138825583456
 30
0.0
 10
223.4752394691597
 20
191.6579078447889
 30
0.0
 10
223.6696525155435
 20
194.3925340216839
 30
0.0
 10
223.9812430198972
 20
198.7753890999647
 30
0.0
 10
224.2807379821462
 20
202.988101749236
 30
0.0
 10
224.4651619162915
 20
205.582222240075
 30
0.0
 10
224.5582198733767
 20
206.8911822426317
 30
0.0
  0
SPLINE
  5
DA
330
1F
100
AcDbEntity
  8
0
  6
Continuous
 62
     7
370
    25
100
AcDbSpline
210
0.0
220
0.0
230
1.0
 70
     8
 71
     3
 72
    12
 73
     8
 74
     0
 42
0.000000001
 43
0.00000001
 40
0.0
 40
0.0
 40
0.0
 40
0.0
 40
0.3203288091038962
 40
0.5619245834600002
 40
0.7389286061544649
 40
0.8801320045894309
 40
1.0
 40
1.0
 40
1.0
 40
1.0
 10
207.9241184760189
 20
195.0308414089678
 30
0.0
 10
207.8832996000282
 20
194.9326135268214
 30
0.0
 10
207.8116946452551
 20
194.760301014832
 30
0.0
 10
207.8443307284864
 20
194.4934844977083
 30
0.0
 10
207.939289839416
 20
194.2937167660214
 30
0.0
 10
208.0654021621199
 20
194.1486226703453
 30
0.0
 10
208.1669288791626
 20
194.0876317302812
 30
0.0
 10
208.213543729887
 20
194.0596284258364
 30
0.0
  0
LINE
  5
DB
330
1F
100
AcDbEntity
  8
0
  6
Continuous
 62
     7
370
    25
100
AcDbLine
 10
210.1258954276
 20
193.0839413691
 30
0.0
 11
208.2135437299
 21
194.0596284258
 31
0.0
  0
SPLINE
  5
DC
330
1F
100
AcDbEntity
  8
0
  6
Continuous
 62
     7
370
    25
100
AcDbSpline
210
0.0
220
0.0
230
1.0
 70
     8
 71
     3
 72
    12
 73
     8
 74
     0
 42
0.000000001
 43
0.00000001
 40
0.0
 40
0.0
 40
0.0
 40
0.0
 40
0.1369188886185294
 40
0.273287091157816
 40
0.4609285494046495
 40
0.7172995753232924
 40
1.0
 40
1.0
 40
1.0
 40
1.0
 10
210.1258954275703
 20
193.0839413690565
 30
0.0
 10
210.1834067470598
 20
193.0601086615839
 30
0.0
 10
210.2981980762219
 20
193.0125391014938
 30
0.0
 10
210.4981959338758
 20
193.0004592604122
 30
0.0
 10
210.7202693313658
 20
193.0486807478584
 30
0.0
 10
210.9429719487671
 20
193.185809711906
 30
0.0
 10
211.0342400345549
 20
193.3391933776643
 30
0.0
 10
211.0821029413795
 20
193.4196310031412
 30
0.0
  0
SPLINE
  5
DD
330
1F
100
AcDbEntity
  8
0
  6
Continuous
 62
     7
370
    25
100
AcDbSpline
210
0.0
220
0.0
230
1.0
 70
     8
 71
     3
 72
    11
 73
     7
 74
     0
 42
0.000000001
 43
0.00000001
 40
0.0
 40
0.0
 40
0.0
 40
0.0
 40
0.2603295990035119
 40
0.5282090591189502
 40
0.7614183609650138
 40
1.0
 40
1.0
 40
1.0
 40
1.0
 10
217.9160353038764
 20
208.5686618375777
 30
0.0
 10
217.259419649764
 20
207.1131178795951
 30
0.0
 10
215.9271457239827
 20
204.1598174961765
 30
0.0
 10
214.1101851423474
 20
200.1320912742567
 30
0.0
 10
212.4611618216644
 20
196.4766424719028
 30
0.0
 10
211.5452657059432
 20
194.4463412498291
 30
0.0
 10
211.0821029413795
 20
193.4196310031412
 30
0.0
  0
SPLINE
  5
DE
330
1F
100
AcDbEntity
  8
0
  6
Continuous
 62
     7
370
    25
100
AcDbSpline
210
0.0
220
0.0
230
1.0
 70
     8
 71
     3
 72
    13
 73
     9
 74
     0
 42
0.000000001
 43
0.00000001
 40
0.0
 40
0.0
 40
0.0
 40
0.0
 40
0.2228774150468623
 40
0.4457889333328258
 40
0.6678646893930154
 40
0.7058052588622039
 40
0.9258795580434306
 40
1.0
 40
1.0
 40
1.0
 40
1.0
 10
217.9160353038764
 20
208.5686618375777
 30
0.0
 10
217.9414075179749
 20
208.6438449951551
 30
0.0
 10
217.9921558284616
 20
208.7942228143432
 30
0.0
 10
217.9678684348595
 20
209.0357015620264
 30
0.0
 10
217.8969474160492
 20
209.1946830045725
 30
0.0
 10
217.7978390581744
 20
209.3328932051629
 30
0.0
 10
217.7103970586146
 20
209.4166807307771
 30
0.0
 10
217.6190893912429
 20
209.4672903163234
 30
0.0
 10
217.5960850213027
 20
209.4800410705803
 30
0.0
  0
LINE
  5
DF
330
1F
100
AcDbEntity
  8
0
  6
Continuous
 62
     7
370
    25
100
AcDbLine
 10
217.1042405311
 20
209.730982213
 30
0.0
 11
217.5960850213
 21
209.4800410706
 31
0.0
  0
SPLINE
  5
E0
330
1F
100
AcDbEntity
  8
0
  6
Continuous
 62
     7
370
    25
100
AcDbSpline
210
0.0
220
0.0
230
1.0
 70
     8
 71
     3
 72
    12
 73
     8
 74
     0
 42
0.000000001
 43
0.00000001
 40
0.0
 40
0.0
 40
0.0
 40
0.0
 40
0.2201341754255886
 40
0.4402547830624917
 40
0.6607442165352343
 40
0.8821597549026683
 40
1.0
 40
1.0
 40
1.0
 40
1.0
 10
217.1042405311322
 20
209.7309822130202
 30
0.0
 10
217.0308739582555
 20
209.7597807315832
 30
0.0
 10
216.8841453343904
 20
209.8173759937363
 30
0.0
 10
216.6434043822859
 20
209.8056526255884
 30
0.0
 10
216.4221214404656
 20
209.7204375112415
 30
0.0
 10
216.2661410308488
 20
209.590778095701
 30
0.0
 10
216.2011384922932
 20
209.4900976183109
 30
0.0
 10
216.1785599086737
 20
209.4551263290642
 30
0.0
  0
SPLINE
  5
E1
330
1F
100
AcDbEntity
  8
0
  6
Continuous
 62
     7
370
    25
100
AcDbSpline
210
0.0
220
0.0
230
1.0
 70
     8
 71
     3
 72
    11
 73
     7
 74
     0
 42
0.000000001
 43
0.00000001
 40
0.0
 40
0.0
 40
0.0
 40
0.0
 40
0.2832269736311834
 40
0.5762688898015642
 40
0.7861907628592785
 40
1.0
 40
1.0
 40
1.0
 40
1.0
 10
207.9241184760189
 20
195.0308414089678
 30
0.0
 10
208.593357569361
 20
196.2003078233422
 30
0.0
 10
209.9550275557594
 20
198.5797673205485
 30
0.0
 10
212.1374113897514
 20
202.3933888665831
 30
0.0
 10
214.2350727149745
 20
206.0589677009383
 30
0.0
 10
215.5267807451872
 20
208.3161708284138
 30
0.0
 10
216.1785599086737
 20
209.4551263290642
 30
0.0
  0
SPLINE
  5
E2
330
1F
100
AcDbEntity
  8
0
  6
Continuous
 62
     7
370
    25
100
AcDbSpline
210
0.0
220
0.0
230
1.0
 70
     8
 71
     3
 72
    12
 73
     8
 74
     0
 42
0.000000001
 43
0.00000001
 40
0.0
 40
0.0
 40
0.0
 40
0.0
 40
0.3203284609486982
 40
0.5619261863197799
 40
0.7389291288693557
 40
0.8801325074318171
 40
1.0
 40
1.0
 40
1.0
 40
1.0
 10
239.3512867633557
 20
192.7699739027022
 30
0.0
 10
239.4026337050653
 20
192.6768167664558
 30
0.0
 10
239.4927074720002
 20
192.5133987731113
 30
0.0
 10
239.72166305667
 20
192.3725530906784
 30
0.0
 10
239.9370533353271
 20
192.3222467834794
 30
0.0
 10
240.1291223387565
 20
192.3303741202458
 30
0.0
 10
240.2401067509267
 20
192.3717267293522
 30
0.0
 10
240.2910638843036
 20
192.3907132732867
 30
0.0
  0
LINE
  5
E3
330
1F
100
AcDbEntity
  8
0
  6
Continuous
 62
     7
370
    25
100
AcDbLine
 10
242.2462182362
 20
193.2775186288
 30
0.0
 11
240.2910638843
 21
192.3907132733
 31
0.0
  0
SPLINE
  5
E4
330
1F
100
AcDbEntity
  8
0
  6
Continuous
 62
     7
370
    25
100
AcDbSpline
210
0.0
220
0.0
230
1.0
 70
     8
 71
     3
 72
    12
 73
     8
 74
     0
 42
0.000000001
 43
0.00000001
 40
0.0
 40
0.0
 40
0.0
 40
0.0
 40
0.1369191995021052
 40
0.2732873875899756
 40
0.4609283663168262
 40
0.7172983390430967
 40
0.9999999999999999
 40
0.9999999999999999
 40
0.9999999999999999
 40
0.9999999999999999
 10
242.2462182361936
 20
193.2775186288355
 30
0.0
 10
242.3007102594501
 20
193.307622129851
 30
0.0
 10
242.409475010737
 20
193.3677079847184
 30
0.0
 10
242.5436122747057
 20
193.5165451735238
 30
0.0
 10
242.6443754341225
 20
193.7202319817489
 30
0.0
 10
242.6760142444465
 20
193.9798468112547
 30
0.0
 10
242.6129988345733
 20
194.1468377019518
 30
0.0
 10
242.5799520928717
 20
194.2344115960596
 30
0.0
  0
SPLINE
  5
E5
330
1F
100
AcDbEntity
  8
0
  6
Continuous
 62
     7
370
    25
100
AcDbSpline
210
0.0
220
0.0
230
1.0
 70
     8
 71
     3
 72
    11
 73
     7
 74
     0
 42
0.000000001
 43
0.00000001
 40
0.0
 40
0.0
 40
0.0
 40
0.0
 40
0.2603296006988583
 40
0.5282091002290401
 40
0.7614184109237858
 40
1.0
 40
1.0
 40
1.0
 40
1.0
 10
234.9968498815155
 20
209.0226592409609
 30
0.0
 10
235.725447257654
 20
207.601780002678
 30
0.0
 10
237.2037722865643
 20
204.718814170238
 30
0.0
 10
239.2199181633171
 20
200.7870105116411
 30
0.0
 10
241.0497138104619
 20
197.2186172787349
 30
0.0
 10
242.0660151276676
 20
195.2366696298109
 30
0.0
 10
242.5799520928717
 20
194.2344115960596
 30
0.0
  0
SPLINE
  5
E6
330
1F
100
AcDbEntity
  8
0
  6
Continuous
 62
     7
370
    25
100
AcDbSpline
210
0.0
220
0.0
230
1.0
 70
     8
 71
     3
 72
    12
 73
     8
 74
     0
 42
0.000000001
 43
0.00000001
 40
0.0
 40
0.0
 40
0.0
 40
0.0
 40
0.1165853157219492
 40
0.3388945257260323
 40
0.5612381924392061
 40
0.7827185817006875
 40
1.0
 40
1.0
 40
1.0
 40
1.0
 10
234.9968498815155
 20
209.0226592409609
 30
0.0
 10
234.9761449899189
 20
209.0582555994744
 30
0.0
 10
234.915959242045
 20
209.1617284164521
 30
0.0
 10
234.7658658056614
 20
209.298996815732
 30
0.0
 10
234.5472267325667
 20
209.3947158705429
 30
0.0
 10
234.3070245276219
 20
209.4166827819197
 30
0.0
 10
234.1584132520683
 20
209.3658980840177
 30
0.0
 10
234.0848187227106
 20
209.3407487410305
 30
0.0
  0
LINE
  5
E7
330
1F
100
AcDbEntity
  8
0
  6
Continuous
 62
     7
370
    25
100
AcDbLine
 10
233.5819659997
 20
209.1126678425
 30
0.0
 11
234.0848187227
 21
209.340748741
 31
0.0
  0
SPLINE
  5
E8
330
1F
100
AcDbEntity
  8
0
  6
Continuous
 62
     7
370
    25
100
AcDbSpline
210
0.0
220
0.0
230
1.0
 70
     8
 71
     3
 72
    12
 73
     8
 74
     0
 42
0.000000001
 43
0.00000001
 40
0.0
 40
0.0
 40
0.0
 40
0.0
 40
0.2201340717756722
 40
0.4402543537552065
 40
0.6607432836901808
 40
0.8821602644806018
 40
1.0
 40
1.0
 40
1.0
 40
1.0
 10
233.5819659997082
 20
209.1126678425072
 30
0.0
 10
233.5137072092346
 20
209.0732629913803
 30
0.0
 10
233.3771939042036
 20
208.9944557575533
 30
0.0
 10
233.2362601280607
 20
208.7989280994496
 30
0.0
 10
233.1649148014347
 20
208.5727913314912
 30
0.0
 10
233.1690362219923
 20
208.3699994406092
 30
0.0
 10
233.2072223510666
 20
208.2564046533648
 30
0.0
 10
233.2204861808872
 20
208.2169478672741
 30
0.0
  0
SPLINE
  5
E9
330
1F
100
AcDbEntity
  8
0
  6
Continuous
 62
     7
370
    25
100
AcDbSpline
210
0.0
220
0.0
230
1.0
 70
     8
 71
     3
 72
    11
 73
     7
 74
     0
 42
0.000000001
 43
0.00000001
 40
0.0
 40
0.0
 40
0.0
 40
0.0
 40
0.2832269554021936
 40
0.5762688558753913
 40
0.7861907394143062
 40
1.0
 40
1.0
 40
1.0
 40
1.0
 10
239.3512867633557
 20
192.7699739027022
 30
0.0
 10
238.8542247253494
 20
194.0223560069256
 30
0.0
 10
237.8428754647035
 20
196.5705202566695
 30
0.0
 10
236.2219594311067
 20
200.6545296751066
 30
0.0
 10
234.6639664265221
 20
204.5799985738771
 30
0.0
 10
233.704580117066
 20
206.9972393853274
 30
0.0
 10
233.2204861808872
 20
208.2169478672741
 30
0.0
  0
SPLINE
  5
EA
330
1F
100
AcDbEntity
  8
0
  6
Continuous
 62
     7
370
    25
100
AcDbSpline
210
0.0
220
0.0
230
1.0
 70
     8
 71
     3
 72
    12
 73
     8
 74
     0
 42
0.000000001
 43
0.00000001
 40
0.0
 40
0.0
 40
0.0
 40
0.0
 40
0.3203283080983883
 40
0.5619264300425453
 40
0.7389297024390107
 40
0.8801327939678616
 40
1.0
 40
1.0
 40
1.0
 40
1.0
 10
252.6755428184128
 20
201.9126484084128
 30
0.0
 10
252.7622241620178
 20
201.8509961238624
 30
0.0
 10
252.9142823371209
 20
201.7428444329707
 30
0.0
 10
253.181674499593
 20
201.7152843642868
 30
0.0
 10
253.3975620940869
 20
201.763414673015
 30
0.0
 10
253.5670817305129
 20
201.8540755450414
 30
0.0
 10
253.6491333903051
 20
201.9394862563825
 30
0.0
 10
253.6868063975429
 20
201.9787015306948
 30
0.0
  0
LINE
  5
EB
330
1F
100
AcDbEntity
  8
0
  6
Continuous
 62
     7
370
    25
100
AcDbLine
 10
255.0635693837
 20
203.625996961
 30
0.0
 11
253.6868063975
 21
201.9787015307
 31
0.0
  0
SPLINE
  5
EC
330
1F
100
AcDbEntity
  8
0
  6
Continuous
 62
     7
370
    25
100
AcDbSpline
210
0.0
220
0.0
230
1.0
 70
     8
 71
     3
 72
    13
 73
     9
 74
     0
 42
0.000000001
 43
0.00000001
 40
0.0
 40
0.0
 40
0.0
 40
0.0
 40
0.136824680900704
 40
0.2730987647544032
 40
0.4606103615569583
 40
0.7168057917191119
 40
0.8076446049640704
 40
1.0
 40
1.0
 40
1.0
 40
1.0
 10
255.0635693837261
 20
203.6259969609974
 30
0.0
 10
255.0996111167506
 20
203.6767701246798
 30
0.0
 10
255.1715495470382
 20
203.7781121354417
 30
0.0
 10
255.2276962987511
 20
203.9702766279712
 30
0.0
 10
255.2308718271806
 20
204.1982933135644
 30
0.0
 10
255.1657989672429
 20
204.3773709022681
 30
0.0
 10
255.0668826915872
 20
204.5290181245229
 30
0.0
 10
254.9967267883078
 20
204.590896328213
 30
0.0
 10
254.949074449048
 20
204.6329261648653
 30
0.0
  0
SPLINE
  5
ED
330
1F
100
AcDbEntity
  8
0
  6
Continuous
 62
     7
370
    25
100
AcDbSpline
210
0.0
220
0.0
230
1.0
 70
     8
 71
     3
 72
    11
 73
     7
 74
     0
 42
0.000000001
 43
0.00000001
 40
0.0
 40
0.0
 40
0.0
 40
0.0
 40
0.2603296216954226
 40
0.5282090879758334
 40
0.7614183543161984
 40
1.0
 40
1.0
 40
1.0
 40
1.0
 10
241.7005544770813
 20
214.6664945322273
 30
0.0
 10
242.9734943601443
 20
213.70245257162
 30
0.0
 10
245.5562907791682
 20
211.7464103760892
 30
0.0
 10
249.0787209134641
 20
209.0787500232117
 30
0.0
 10
252.2755794625633
 20
206.6576601895319
 30
0.0
 10
254.0511697838384
 20
205.3129417009885
 30
0.0
 10
254.949074449048
 20
204.6329261648653
 30
0.0
  0
SPLINE
  5
EE
330
1F
100
AcDbEntity
  8
0
  6
Continuous
 62
     7
370
    25
100
AcDbSpline
210
0.0
220
0.0
230
1.0
 70
     8
 71
     3
 72
    12
 73
     8
 74
     0
 42
0.000000001
 43
0.00000001
 40
0.0
 40
0.0
 40
0.0
 40
0.0
 40
0.2228998802827181
 40
0.4458325796560926
 40
0.6679309333994904
 40
0.8889143754873812
 40
1.0
 40
1.0
 40
1.0
 40
1.0
 10
241.7005544770813
 20
214.6664945322273
 30
0.0
 10
241.6329250071468
 20
214.7079549688973
 30
0.0
 10
241.4976561097236
 20
214.790881946744
 30
0.0
 10
241.2564843876729
 20
214.8210234877206
 30
0.0
 10
241.0222815293712
 20
214.7741318155008
 30
0.0
 10
240.8478306558544
 20
214.6728900966036
 30
0.0
 10
240.7676506845934
 20
214.5863250418431
 30
0.0
 10
240.7408284265852
 20
214.5573668095468
 30
0.0
  0
LINE
  5
EF
330
1F
100
AcDbEntity
  8
0
  6
Continuous
 62
     7
370
    25
100
AcDbLine
 10
240.3867349271
 20
214.1336932692
 30
0.0
 11
240.7408284266
 21
214.5573668095
 31
0.0
  0
SPLINE
  5
F0
330
1F
100
AcDbEntity
  8
0
  6
Continuous
 62
     7
370
    25
100
AcDbSpline
210
0.0
220
0.0
230
1.0
 70
     8
 71
     3
 72
    12
 73
     8
 74
     0
 42
0.000000001
 43
0.00000001
 40
0.0
 40
0.0
 40
0.0
 40
0.0
 40
0.2201333037184914
 40
0.4402543141728631
 40
0.6607435903804867
 40
0.8821600281083846
 40
1.0
 40
1.0
 40
1.0
 40
1.0
 10
240.3867349271035
 20
214.133693269193
 30
0.0
 10
240.3423327444069
 20
214.0685748369629
 30
0.0
 10
240.2535308586374
 20
213.9383416090179
 30
0.0
 10
240.2113912536904
 20
213.7010280241801
 30
0.0
 10
240.245228156378
 20
213.4663302575282
 30
0.0
 10
240.3369293741976
 20
213.2854093065481
 30
0.0
 10
240.4206205304274
 20
213.1996322183746
 30
0.0
 10
240.4496904705024
 20
213.1698377344011
 30
0.0
  0
SPLINE
  5
F1
330
1F
100
AcDbEntity
  8
0
  6
Continuous
 62
     7
370
    25
100
AcDbSpline
210
0.0
220
0.0
230
1.0
 70
     8
 71
     3
 72
    11
 73
     7
 74
     0
 42
0.000000001
 43
0.00000001
 40
0.0
 40
0.0
 40
0.0
 40
0.0
 40
0.2832269347526415
 40
0.5762688941154683
 40
0.7861907501928624
 40
1.0
 40
1.0
 40
1.0
 40
1.0
 10
252.6755428184128
 20
201.9126484084128
 30
0.0
 10
251.684317389904
 20
202.825338777964
 30
0.0
 10
249.6675163324595
 20
204.6823481418174
 30
0.0
 10
246.4351334571531
 20
207.6586229246681
 30
0.0
 10
243.3282351961374
 20
210.519363051317
 30
0.0
 10
241.4150560082754
 20
212.2809590954823
 30
0.0
 10
240.4496904705024
 20
213.1698377344011
 30
0.0
  0
SPLINE
  5
F2
330
1F
100
AcDbEntity
  8
0
  6
Continuous
 62
     7
370
    25
100
AcDbSpline
210
0.0
220
0.0
230
1.0
 70
     8
 71
     3
 72
    12
 73
     8
 74
     0
 42
0.000000001
 43
0.00000001
 40
0.0
 40
0.0
 40
0.0
 40
0.0
 40
0.3203292781790874
 40
0.5619265598184748
 40
0.7389293344708927
 40
0.8801329979274832
 40
0.9999999999999999
 40
0.9999999999999999
 40
0.9999999999999999
 40
0.9999999999999999
 10
260.7134228814697
 20
215.9310927528141
 30
0.0
 10
260.8182709723966
 20
215.913155302227
 30
0.0
 10
261.0021971104412
 20
215.8816891497804
 30
0.0
 10
261.2550656728054
 20
215.9728768855841
 30
0.0
 10
261.4286909234401
 20
216.1099096638801
 30
0.0
 10
261.5420884987195
 20
216.2651435169905
 30
0.0
 10
261.5789543672261
 20
216.3776977495367
 30
0.0
 10
261.5958808232402
 20
216.4293754759429
 30
0.0
  0
LINE
  5
F3
330
1F
100
AcDbEntity
  8
0
  6
Continuous
 62
     7
370
    25
100
AcDbLine
 10
262.1215677131
 20
218.5108916748
 30
0.0
 11
261.5958808232
 21
216.4293754759
 31
0.0
  0
SPLINE
  5
F4
330
1F
100
AcDbEntity
  8
0
  6
Continuous
 62
     7
370
    25
100
AcDbSpline
210
0.0
220
0.0
230
1.0
 70
     8
 71
     3
 72
    13
 73
     9
 74
     0
 42
0.000000001
 43
0.00000001
 40
0.0
 40
0.0
 40
0.0
 40
0.0
 40
0.1368514241037461
 40
0.2731510733125961
 40
0.4606985764172745
 40
0.5051828176051323
 40
0.7678002065259263
 40
1.0
 40
1.0
 40
1.0
 40
1.0
 10
262.1215677131271
 20
218.5108916747568
 30
0.0
 10
262.1320092652069
 20
218.5722800501574
 30
0.0
 10
262.1528502697949
 20
218.6948092875357
 30
0.0
 10
262.1200750475869
 20
218.8922202268717
 30
0.0
 10
262.059020461121
 20
219.0238558078682
 30
0.0
 10
261.9541213853881
 20
219.1716063804269
 30
0.0
 10
261.8113740163373
 20
219.2990661012471
 30
0.0
 10
261.6549322755722
 20
219.3462743173467
 30
0.0
 10
261.5815198291397
 20
219.3684274244307
 30
0.0
  0
SPLINE
  5
F5
330
1F
100
AcDbEntity
  8
0
  6
Continuous
 62
     7
370
    25
100
AcDbSpline
210
0.0
220
0.0
230
1.0
 70
     8
 71
     3
 72
    11
 73
     7
 74
     0
 42
0.000000001
 43
0.00000001
 40
0.0
 40
0.0
 40
0.0
 40
0.0
 40
0.2603295787760104
 40
0.5282090678022414
 40
0.7614184543642685
 40
1.0
 40
1.0
 40
1.0
 40
1.0
 10
245.291615115509
 20
222.6600420109181
 30
0.0
 10
246.85677607716
 20
222.3437781285773
 30
0.0
 10
250.0324897874544
 20
221.7020782831115
 30
0.0
 10
254.3635442328316
 20
220.8269256885092
 30
0.0
 10
258.2942867371265
 20
220.0326620658058
 30
0.0
 10
260.4774889489607
 20
219.5915133861608
 30
0.0
 10
261.5815198291397
 20
219.3684274244307
 30
0.0
  0
SPLINE
  5
F6
330
1F
100
AcDbEntity
  8
0
  6
Continuous
 62
     7
370
    25
100
AcDbSpline
210
0.0
220
0.0
230
1.0
 70
     8
 71
     3
 72
    12
 73
     8
 74
     0
 42
0.000000001
 43
0.00000001
 40
0.0
 40
0.0
 40
0.0
 40
0.0
 40
0.222900557394595
 40
0.4458336070705163
 40
0.667932281199771
 40
0.8889147664254792
 40
1.0
 40
1.0
 40
1.0
 40
1.0
 10
245.291615115509
 20
222.6600420109181
 30
0.0
 10
245.2126938499067
 20
222.6680531476122
 30
0.0
 10
245.0548398143255
 20
222.6840765887862
 30
0.0
 10
244.824472856714
 20
222.6065938056329
 30
0.0
 10
244.6338092490451
 20
222.4627283196708
 30
0.0
 10
244.5205630011328
 20
222.2958210295137
 30
0.0
 10
244.4858823950707
 20
222.1830403993389
 30
0.0
 10
244.474280836091
 20
222.1453123639522
 30
0.0
  0
LINE
  5
F7
330
1F
100
AcDbEntity
  8
0
  6
Continuous
 62
     7
370
    25
100
AcDbLine
 10
244.3390770126
 20
221.6099597427
 30
0.0
 11
244.4742808361
 21
222.145312364
 31
0.0
  0
SPLINE
  5
F8
330
1F
100
AcDbEntity
  8
0
  6
Continuous
 62
     7
370
    25
100
AcDbSpline
210
0.0
220
0.0
230
1.0
 70
     8
 71
     3
 72
    12
 73
     8
 74
     0
 42
0.000000001
 43
0.00000001
 40
0.0
 40
0.0
 40
0.0
 40
0.0
 40
0.2201335231326827
 40
0.440253428679152
 40
0.6607432095176268
 40
0.8821587784952137
 40
1.0
 40
1.0
 40
1.0
 40
1.0
 10
244.3390770126438
 20
221.6099597427247
 30
0.0
 10
244.3273266313835
 20
221.532024532723
 30
0.0
 10
244.3038265957484
 20
221.3761589338363
 30
0.0
 10
244.3688235978675
 20
221.1440622879655
 30
0.0
 10
244.5011429654443
 20
220.9472895145286
 30
0.0
 10
244.6622612037009
 20
220.8240720141153
 30
0.0
 10
244.7748822049118
 20
220.7831024416884
 30
0.0
 10
244.8140012342787
 20
220.7688716153799
 30
0.0
  0
SPLINE
  5
F9
330
1F
100
AcDbEntity
  8
0
  6
Continuous
 62
     7
370
    25
100
AcDbSpline
210
0.0
220
0.0
230
1.0
 70
     8
 71
     3
 72
    11
 73
     7
 74
     0
 42
0.000000001
 43
0.00000001
 40
0.0
 40
0.0
 40
0.0
 40
0.0
 40
0.2832269250586902
 40
0.5762689008241885
 40
0.7861907656695666
 40
1.0
 40
1.0
 40
1.0
 40
1.0
 10
260.7134228814697
 20
215.9310927528141
 30
0.0
 10
259.4243583682671
 20
216.3233215640707
 30
0.0
 10
256.8015576230313
 20
217.1213716290056
 30
0.0
 10
252.5979251169647
 20
218.4004267649254
 30
0.0
 10
248.5574774067922
 20
219.6298290821529
 30
0.0
 10
246.069435176438
 20
220.3868756864954
 30
0.0
 10
244.8140012342787
 20
220.7688716153799
 30
0.0
  0
SPLINE
  5
FA
330
1F
100
AcDbEntity
  8
0
  6
Continuous
 62
     7
370
    25
100
AcDbSpline
210
0.0
220
0.0
230
1.0
 70
     8
 71
     3
 72
    12
 73
     8
 74
     0
 42
0.000000001
 43
0.00000001
 40
0.0
 40
0.0
 40
0.0
 40
0.0
 40
0.3203275689961667
 40
0.5619250712152428
 40
0.7389295731382667
 40
0.8801326156702439
 40
1.0
 40
1.0
 40
1.0
 40
1.0
 10
261.8729306627368
 20
232.0487805555759
 30
0.0
 10
261.9751773313513
 20
232.0781109488574
 30
0.0
 10
262.1545404961353
 20
232.129562915309
 30
0.0
 10
262.3427976905206
 20
232.3214376574319
 30
0.0
 10
262.4397821499218
 20
232.520230800721
 30
0.0
 10
262.4745880310515
 20
232.709294567372
 30
0.0
 10
262.458970431968
 20
232.8266977479718
 30
0.0
 10
262.4517997969245
 20
232.8806020233033
 30
0.0
  0
LINE
  5
FB
330
1F
100
AcDbEntity
  8
0
  6
Continuous
 62
     7
370
    25
100
AcDbLine
 10
262.022292452
 20
234.9840704265
 30
0.0
 11
262.4517997969
 21
232.8806020233
 31
0.0
  0
SPLINE
  5
FC
330
1F
100
AcDbEntity
  8
0
  6
Continuous
 62
     7
370
    25
100
AcDbSpline
210
0.0
220
0.0
230
1.0
 70
     8
 71
     3
 72
    12
 73
     8
 74
     0
 42
0.000000001
 43
0.00000001
 40
0.0
 40
0.0
 40
0.0
 40
0.0
 40
0.1335482061129375
 40
0.237450806674641
 40
0.4314241399302954
 40
0.6784616930382061
 40
1.0
 40
1.0
 40
1.0
 40
1.0
 10
262.0222924519634
 20
234.9840704265235
 30
0.0
 10
262.0056879473648
 20
235.0424398597075
 30
0.0
 10
261.9761648775601
 20
235.1462216280898
 30
0.0
 10
261.8746094070436
 20
235.3042799905197
 30
0.0
 10
261.7131763449956
 20
235.4512762698675
 30
0.0
 10
261.4569942614214
 20
235.5584987663784
 30
0.0
 10
261.2696180929414
 20
235.5354180551123
 30
0.0
 10
261.1636540163612
 20
235.5223655614255
 30
0.0
  0
SPLINE
  5
FD
330
1F
100
AcDbEntity
  8
0
  6
Continuous
 62
     7
370
    25
100
AcDbSpline
210
0.0
220
0.0
230
1.0
 70
     8
 71
     3
 72
    11
 73
     7
 74
     0
 42
0.000000001
 43
0.00000001
 40
0.0
 40
0.0
 40
0.0
 40
0.0
 40
0.2603296370465128
 40
0.5282090541205525
 40
0.761418427419901
 40
1.0
 40
1.0
 40
1.0
 40
1.0
 10
245.0587770212746
 20
231.420081938356
 30
0.0
 10
246.6061605787243
 20
231.8142362149699
 30
0.0
 10
249.7458031277446
 20
232.61397557615
 30
0.0
 10
254.0276630219017
 20
233.7046641412267
 30
0.0
 10
257.9137581154276
 20
234.6945412657377
 30
0.0
 10
260.0721629259573
 20
235.244337319689
 30
0.0
 10
261.1636540163612
 20
235.5223655614255
 30
0.0
  0
SPLINE
  5
FE
330
1F
100
AcDbEntity
  8
0
  6
Continuous
 62
     7
370
    25
100
AcDbSpline
210
0.0
220
0.0
230
1.0
 70
     8
 71
     3
 72
    12
 73
     8
 74
     0
 42
0.000000001
 43
0.00000001
 40
0.0
 40
0.0
 40
0.0
 40
0.0
 40
0.2228985695500421
 40
0.4458324561537744
 40
0.667931278695428
 40
0.8889143447391495
 40
1.0
 40
1.0
 40
1.0
 40
1.0
 10
245.0587770212746
 20
231.420081938356
 30
0.0
 10
244.9841964076217
 20
231.3930571732383
 30
0.0
 10
244.8350233634274
 20
231.3390033610774
 30
0.0
 10
244.6610884649991
 20
231.1692422203858
 30
0.0
 10
244.551727885592
 20
230.9568975194335
 30
0.0
 10
244.5221147428494
 20
230.7573835545228
 30
0.0
 10
244.5398020122084
 20
230.6407241425285
 30
0.0
 10
244.5457188654995
 20
230.6016985240577
 30
0.0
  0
LINE
  5
FF
330
1F
100
AcDbEntity
  8
0
  6
Continuous
 62
     7
370
    25
100
AcDbLine
 10
244.6561848987
 20
230.0607004582
 30
0.0
 11
244.5457188655
 21
230.6016985241
 31
0.0
  0
SPLINE
  5
100
330
1F
100
AcDbEntity
  8
0
  6
Continuous
 62
     7
370
    25
100
AcDbSpline
210
0.0
220
0.0
230
1.0
 70
     8
 71
     3
 72
    12
 73
     8
 74
     0
 42
0.000000001
 43
0.00000001
 40
0.0
 40
0.0
 40
0.0
 40
0.0
 40
0.2201336013044353
 40
0.440254765346059
 40
0.6607439500896132
 40
0.8821600205252534
 40
1.0
 40
1.0
 40
1.0
 40
1.0
 10
244.6561848987198
 20
230.0607004582135
 30
0.0
 10
244.6794122559153
 20
229.985384573505
 30
0.0
 10
244.7258656579909
 20
229.8347570593378
 30
0.0
 10
244.8851323642782
 20
229.6538490300128
 30
0.0
 10
245.0897230820391
 20
229.5339716417544
 30
0.0
 10
245.288347692221
 20
229.4928646162188
 30
0.0
 10
245.4075914041447
 20
229.5048161566239
 30
0.0
 10
245.4490104932642
 20
229.508967502713
 30
0.0
  0
SPLINE
  5
101
330
1F
100
AcDbEntity
  8
0
  6
Continuous
 62
     7
370
    25
100
AcDbSpline
210
0.0
220
0.0
230
1.0
 70
     8
 71
     3
 72
    11
 73
     7
 74
     0
 42
0.000000001
 43
0.00000001
 40
0.0
 40
0.0
 40
0.0
 40
0.0
 40
0.2832270464758973
 40
0.5762689168575407
 40
0.786190747481182
 40
1.0
 40
1.0
 40
1.0
 40
1.0
 10
261.8729306627368
 20
232.0487805555759
 30
0.0
 10
260.5413406630018
 20
231.842862092961
 30
0.0
 10
257.8320163368346
 20
231.4238893610537
 30
0.0
 10
253.4897136882453
 20
230.7523904653962
 30
0.0
 10
249.3159784141932
 20
230.10695957887
 30
0.0
 10
246.7458594523665
 20
229.709513619819
 30
0.0
 10
245.4490104932642
 20
229.508967502713
 30
0.0
  0
SPLINE
  5
102
330
1F
100
AcDbEntity
  8
0
  6
Continuous
 62
     7
370
    25
100
AcDbSpline
210
0.0
220
0.0
230
1.0
 70
     8
 71
     3
 72
    12
 73
     8
 74
     0
 42
0.000000001
 43
0.00000001
 40
0.0
 40
0.0
 40
0.0
 40
0.0
 40
0.1369201175818117
 40
0.2732876774022232
 40
0.4609284444689878
 40
0.717298851750094
 40
1.0
 40
1.0
 40
1.0
 40
1.0
 10
197.1847472954845
 20
203.2771831291912
 30
0.0
 10
197.2262220778447
 20
203.2307558235535
 30
0.0
 10
197.3090042660444
 20
203.1380885753077
 30
0.0
 10
197.4839588215626
 20
203.0404358781295
 30
0.0
 10
197.7049592645191
 20
202.9875215329342
 30
0.0
 10
197.965105793343
 20
203.0144458965542
 30
0.0
 10
198.1138870060068
 20
203.1130397426376
 30
0.0
 10
198.1919111926412
 20
203.1647445547579
 30
0.0
  0
SPLINE
  5
103
330
1F
100
AcDbEntity
  8
0
  6
Continuous
 62
     7
370
    25
100
AcDbSpline
210
0.0
220
0.0
230
1.0
 70
     8
 71
     3
 72
    11
 73
     7
 74
     0
 42
0.000000001
 43
0.00000001
 40
0.0
 40
0.0
 40
0.0
 40
0.0
 40
0.2603296173147539
 40
0.5282090562527663
 40
0.761418388165742
 40
1.0
 40
1.0
 40
1.0
 40
1.0
 10
210.9219890330291
 20
213.84841892004
 30
0.0
 10
209.6988618569527
 20
212.821913789884
 30
0.0
 10
207.2171355823303
 20
210.7391338448623
 30
0.0
 10
203.8325451215891
 20
207.8986282142534
 30
0.0
 10
200.7607861106851
 20
205.32066704877
 30
0.0
 10
199.0546786429488
 20
203.8888201958701
 30
0.0
 10
198.1919111926412
 20
203.1647445547579
 30
0.0
  0
SPLINE
  5
104
330
1F
100
AcDbEntity
  8
0
  6
Continuous
 62
     7
370
    25
100
AcDbSpline
210
0.0
220
0.0
230
1.0
 70
     8
 71
     3
 72
    12
 73
     8
 74
     0
 42
0.000000001
 43
0.00000001
 40
0.0
 40
0.0
 40
0.0
 40
0.0
 40
0.2228991606308157
 40
0.4458326327247144
 40
0.6679309003127816
 40
0.8889142496550945
 40
1.0
 40
1.0
 40
1.0
 40
1.0
 10
210.921989033029
 20
213.84841892004
 30
0.0
 10
210.9774585287265
 20
213.9051268051061
 30
0.0
 10
211.088406058689
 20
214.0185513044347
 30
0.0
 10
211.1714595509316
 20
214.2469683495019
 30
0.0
 10
211.1778571464275
 20
214.4857338781032
 30
0.0
 10
211.1179726804114
 20
214.6783388627504
 30
0.0
 10
211.0514199432001
 20
214.775771133924
 30
0.0
 10
211.0291563216901
 20
214.8083647626637
 30
0.0
  0
SPLINE
  5
105
330
1F
100
AcDbEntity
  8
0
  6
Continuous
 62
     7
370
    25
100
AcDbSpline
210
0.0
220
0.0
230
1.0
 70
    24
 71
     3
 72
     9
 73
     5
 74
     0
 42
0.000000001
 43
0.00000001
 40
0.0
 40
0.0
 40
0.0
 40
0.0
 40
0.5
 40
1.0
 40
1.0
 40
1.0
 40
1.0
 10
210.6948990617251
 20
215.2478577482699
 30
0.0
 10
210.7506086050526
 20
215.1746089173355
 30
0.0
 10
210.8620276917076
 20
215.0281112554668
 30
0.0
 10
210.9734467783626
 20
214.881613593598
 30
0.0
 10
211.0291563216901
 20
214.8083647626637
 30
0.0
  0
SPLINE
  5
106
330
1F
100
AcDbEntity
  8
0
  6
Continuous
 62
     7
370
    25
100
AcDbSpline
210
0.0
220
0.0
230
1.0
 70
     8
 71
     3
 72
    12
 73
     8
 74
     0
 42
0.000000001
 43
0.00000001
 40
0.0
 40
0.0
 40
0.0
 40
0.0
 40
0.2201341523155131
 40
0.4402536905349553
 40
0.6607430013328079
 40
0.882160669325361
 40
1.0
 40
1.0
 40
1.0
 40
1.0
 10
210.6948990617251
 20
215.2478577482699
 30
0.0
 10
210.6412932093771
 20
215.3056369043422
 30
0.0
 10
210.5340850634251
 20
215.4211913806887
 30
0.0
 10
210.3120987524377
 20
215.5150820572264
 30
0.0
 10
210.0757557898499
 20
215.5343189742343
 30
0.0
 10
209.8789649806835
 20
215.4851753552613
 30
0.0
 10
209.7767154837979
 20
215.4226691159797
 30
0.0
 10
209.7411995996094
 20
215.4009578663109
 30
0.0
  0
SPLINE
  5
107
330
1F
100
AcDbEntity
  8
0
  6
Continuous
 62
     7
370
    25
100
AcDbSpline
210
0.0
220
0.0
230
1.0
 70
     8
 71
     3
 72
    11
 73
     7
 74
     0
 42
0.000000001
 43
0.00000001
 40
0.0
 40
0.0
 40
0.0
 40
0.0
 40
0.283226982762929
 40
0.5762688976290387
 40
0.7861907849690158
 40
1.0
 40
1.0
 40
1.0
 40
1.0
 10
196.0457435120201
 20
205.9865942138432
 30
0.0
 10
197.1561195136717
 20
206.7498750614977
 30
0.0
 10
199.4153504251599
 20
208.3028874488358
 30
0.0
 10
203.0362775402627
 20
210.7919421309882
 30
0.0
 10
206.5166415057947
 20
213.1843709551208
 30
0.0
 10
208.6597931127696
 20
214.6575904359014
 30
0.0
 10
209.7411995996094
 20
215.4009578663109
 30
0.0
  0
SPLINE
  5
108
330
1F
100
AcDbEntity
  8
0
  6
Continuous
 62
     7
370
    25
100
AcDbSpline
210
0.0
220
0.0
230
1.0
 70
     8
 71
     3
 72
    12
 73
     8
 74
     0
 42
0.000000001
 43
0.00000001
 40
0.0
 40
0.0
 40
0.0
 40
0.0
 40
0.3203285895025623
 40
0.5619260351473013
 40
0.7389284431476176
 40
0.8801317173006723
 40
1.0
 40
1.0
 40
1.0
 40
1.0
 10
196.0457435120201
 20
205.9865942138432
 30
0.0
 10
195.9663479561183
 20
205.9158047903579
 30
0.0
 10
195.8270708781482
 20
205.7916247409554
 30
0.0
 10
195.7407062303217
 20
205.5370689749288
 30
0.0
 10
195.7395865530232
 20
205.315885150613
 30
0.0
 10
195.7902524579515
 20
205.1304410463678
 30
0.0
 10
195.8552635532251
 20
205.0314401802137
 30
0.0
 10
195.8851127196407
 20
204.9859849649666
 30
0.0
  0
LINE
  5
109
330
1F
100
AcDbEntity
  8
0
  6
Continuous
 62
     7
370
    25
100
AcDbLine
 10
195.8851127196
 20
204.985984965
 30
0.0
 11
196.5349300076
 21
204.1315840471
 31
0.0
  0
LINE
  5
10A
330
1F
100
AcDbEntity
  8
0
  6
Continuous
 62
     7
370
    25
100
AcDbLine
 10
197.1847472955
 20
203.2771831292
 30
0.0
 11
196.5349300076
 21
204.1315840471
 31
0.0
  0
SPLINE
  5
10B
330
1F
100
AcDbEntity
  8
0
  6
Continuous
 62
     7
370
    25
100
AcDbSpline
210
0.0
220
0.0
230
1.0
 70
     8
 71
     3
 72
    12
 73
     8
 74
     0
 42
0.000000001
 43
0.00000001
 40
0.0
 40
0.0
 40
0.0
 40
0.0
 40
0.2201341523155131
 40
0.4402536905349553
 40
0.6607430013328079
 40
0.882160669325361
 40
1.0
 40
1.0
 40
1.0
 40
1.0
 10
241.2752501908994
 20
237.8121422517298
 30
0.0
 10
241.3288560432473
 20
237.7543630956575
 30
0.0
 10
241.4360641891993
 20
237.638808619311
 30
0.0
 10
241.6580505001867
 20
237.5449179427733
 30
0.0
 10
241.8943934627745
 20
237.5256810257654
 30
0.0
 10
242.091184271941
 20
237.5748246447384
 30
0.0
 10
242.1934337688266
 20
237.63733088402
 30
0.0
 10
242.2289496530151
 20
237.6590421336888
 30
0.0
  0
SPLINE
  5
10C
330
1F
100
AcDbEntity
  8
0
  6
Continuous
 62
     7
370
    25
100
AcDbSpline
210
0.0
220
0.0
230
1.0
 70
     8
 71
     3
 72
    11
 73
     7
 74
     0
 42
0.000000001
 43
0.00000001
 40
0.0
 40
0.0
 40
0.0
 40
0.0
 40
0.283226982762929
 40
0.5762688976290387
 40
0.7861907849690158
 40
1.0
 40
1.0
 40
1.0
 40
1.0
 10
255.9244057406044
 20
247.0734057861565
 30
0.0
 10
254.8140297389527
 20
246.310124938502
 30
0.0
 10
252.5547988274645
 20
244.7571125511639
 30
0.0
 10
248.9338717123617
 20
242.2680578690114
 30
0.0
 10
245.4535077468298
 20
239.8756290448789
 30
0.0
 10
243.3103561398548
 20
238.4024095640983
 30
0.0
 10
242.2289496530151
 20
237.6590421336888
 30
0.0
  0
SPLINE
  5
10D
330
1F
100
AcDbEntity
  8
0
  6
Continuous
 62
     7
370
    25
100
AcDbSpline
210
0.0
220
0.0
230
1.0
 70
     8
 71
     3
 72
    12
 73
     8
 74
     0
 42
0.000000001
 43
0.00000001
 40
0.0
 40
0.0
 40
0.0
 40
0.0
 40
0.3203285895025623
 40
0.5619260351473013
 40
0.7389284431476176
 40
0.8801317173006723
 40
1.0
 40
1.0
 40
1.0
 40
1.0
 10
255.9244057406044
 20
247.0734057861565
 30
0.0
 10
256.0038012965061
 20
247.1441952096418
 30
0.0
 10
256.1430783744763
 20
247.2683752590443
 30
0.0
 10
256.2294430223027
 20
247.5229310250708
 30
0.0
 10
256.2305626996013
 20
247.7441148493867
 30
0.0
 10
256.179896794673
 20
247.9295589536319
 30
0.0
 10
256.1148856993993
 20
248.028559819786
 30
0.0
 10
256.0850365329837
 20
248.0740150350331
 30
0.0
  0
LINE
  5
10E
330
1F
100
AcDbEntity
  8
0
  6
Continuous
 62
     7
370
    25
100
AcDbLine
 10
255.4352192451
 20
248.9284159529
 30
0.0
 11
256.085036533
 21
248.074015035
 31
0.0
  0
LINE
  5
10F
330
1F
100
AcDbEntity
  8
0
  6
Continuous
 62
     7
370
    25
100
AcDbLine
 10
255.4352192451
 20
248.9284159529
 30
0.0
 11
254.7854019571
 21
249.7828168708
 31
0.0
  0
SPLINE
  5
110
330
1F
100
AcDbEntity
  8
0
  6
Continuous
 62
     7
370
    25
100
AcDbSpline
210
0.0
220
0.0
230
1.0
 70
     8
 71
     3
 72
    12
 73
     8
 74
     0
 42
0.000000001
 43
0.00000001
 40
0.0
 40
0.0
 40
0.0
 40
0.0
 40
0.1369201175818117
 40
0.2732876774022232
 40
0.4609284444689878
 40
0.717298851750094
 40
1.0
 40
1.0
 40
1.0
 40
1.0
 10
254.78540195714
 20
249.7828168708084
 30
0.0
 10
254.7439271747797
 20
249.8292441764462
 30
0.0
 10
254.66114498658
 20
249.921911424692
 30
0.0
 10
254.4861904310619
 20
250.0195641218702
 30
0.0
 10
254.2651899881053
 20
250.0724784670655
 30
0.0
 10
254.0050434592814
 20
250.0455541034455
 30
0.0
 10
253.8562622466177
 20
249.9469602573621
 30
0.0
 10
253.7782380599832
 20
249.8952554452418
 30
0.0
  0
SPLINE
  5
111
330
1F
100
AcDbEntity
  8
0
  6
Continuous
 62
     7
370
    25
100
AcDbSpline
210
0.0
220
0.0
230
1.0
 70
     8
 71
     3
 72
    11
 73
     7
 74
     0
 42
0.000000001
 43
0.00000001
 40
0.0
 40
0.0
 40
0.0
 40
0.0
 40
0.2603296173147539
 40
0.5282090562527663
 40
0.761418388165742
 40
1.0
 40
1.0
 40
1.0
 40
1.0
 10
241.0481602195954
 20
239.2115810799597
 30
0.0
 10
242.2712873956718
 20
240.2380862101157
 30
0.0
 10
244.7530136702941
 20
242.3208661551374
 30
0.0
 10
248.1376041310353
 20
245.1613717857462
 30
0.0
 10
251.2093631419394
 20
247.7393329512296
 30
0.0
 10
252.9154706096757
 20
249.1711798041296
 30
0.0
 10
253.7782380599832
 20
249.8952554452418
 30
0.0
  0
SPLINE
  5
112
330
1F
100
AcDbEntity
  8
0
  6
Continuous
 62
     7
370
    25
100
AcDbSpline
210
0.0
220
0.0
230
1.0
 70
     8
 71
     3
 72
    12
 73
     8
 74
     0
 42
0.000000001
 43
0.00000001
 40
0.0
 40
0.0
 40
0.0
 40
0.0
 40
0.2228991606308157
 40
0.4458326327247144
 40
0.6679309003127816
 40
0.8889142496550945
 40
1.0
 40
1.0
 40
1.0
 40
1.0
 10
241.0481602195954
 20
239.2115810799597
 30
0.0
 10
240.992690723898
 20
239.1548731948935
 30
0.0
 10
240.8817431939354
 20
239.041448695565
 30
0.0
 10
240.7986897016929
 20
238.8130316504978
 30
0.0
 10
240.7922921061969
 20
238.5742661218965
 30
0.0
 10
240.8521765722131
 20
238.3816611372493
 30
0.0
 10
240.9187293094243
 20
238.2842288660757
 30
0.0
 10
240.9409929309344
 20
238.251635237336
 30
0.0
  0
SPLINE
  5
113
330
1F
100
AcDbEntity
  8
0
  6
Continuous
 62
     7
370
    25
100
AcDbSpline
210
0.0
220
0.0
230
1.0
 70
    24
 71
     3
 72
     9
 73
     5
 74
     0
 42
0.000000001
 43
0.00000001
 40
0.0
 40
0.0
 40
0.0
 40
0.0
 40
0.5
 40
1.0
 40
1.0
 40
1.0
 40
1.0
 10
241.2752501908994
 20
237.8121422517298
 30
0.0
 10
241.2195406475718
 20
237.8853910826642
 30
0.0
 10
241.1081215609169
 20
238.0318887445329
 30
0.0
 10
240.9967024742619
 20
238.1783864064016
 30
0.0
 10
240.9409929309344
 20
238.251635237336
 30
0.0
  0
SPLINE
  5
114
330
1F
100
AcDbEntity
  8
0
  6
Continuous
 62
     7
370
    25
100
AcDbSpline
210
0.0
220
0.0
230
1.0
 70
     8
 71
     3
 72
    19
 73
    15
 74
     0
 42
0.000000001
 43
0.00000001
 40
0.0
 40
0.0
 40
0.0
 40
0.0
 40
0.09031842120612
 40
0.2045631897397996
 40
0.2714198817013478
 40
0.3439361486341456
 40
0.420785497816728
 40
0.4999999981285508
 40
0.5792144975588137
 40
0.6560638273207778
 40
0.728580107800717
 40
0.7954368063731944
 40
0.9096815782682484
 40
1.0
 40
1.0
 40
1.0
 40
1.0
 10
218.5226331707394
 20
229.9288186623899
 30
0.0
 10
218.9026123355418
 20
230.6075906574986
 30
0.0
 10
219.7632313427015
 20
232.1449488461298
 30
0.0
 10
221.6553873139687
 20
233.6212889588009
 30
0.0
 10
223.6650862062933
 20
234.4640379231089
 30
0.0
 10
225.505064727439
 20
234.7914557983647
 30
0.0
 10
227.4768456212204
 20
234.6769834350745
 30
0.0
 10
229.419129213307
 20
234.0698054182884
 30
0.0
 10
231.152101190401
 20
233.003063528264
 30
0.0
 10
232.5327297551877
 20
231.5906584853143
 30
0.0
 10
233.4934756596234
 20
229.9876330268889
 30
0.0
 10
234.1768505661979
 20
227.9183056923584
 30
0.0
 10
234.3050774849124
 20
225.5217680894049
 30
0.0
 10
233.7101760390523
 20
223.8633871150789
 30
0.0
 10
233.4475160818851
 20
223.1311813376097
 30
0.0
  0
SPLINE
  5
115
330
1F
100
AcDbEntity
  8
0
  6
Continuous
 62
     7
370
    25
100
AcDbSpline
210
0.0
220
0.0
230
1.0
 70
     8
 71
     3
 72
    19
 73
    15
 74
     0
 42
0.000000001
 43
0.00000001
 40
0.0
 40
0.0
 40
0.0
 40
0.0
 40
0.09031842120612
 40
0.2045631897397996
 40
0.2714198817013478
 40
0.3439361486341456
 40
0.420785497816728
 40
0.4999999981285508
 40
0.5792144975588137
 40
0.6560638273207778
 40
0.728580107800717
 40
0.7954368063731944
 40
0.9096815782682484
 40
1.0
 40
1.0
 40
1.0
 40
1.0
 10
233.4475160818851
 20
223.1311813376097
 30
0.0
 10
233.0675369170827
 20
222.4524093425011
 30
0.0
 10
232.2069179099229
 20
220.9150511538699
 30
0.0
 10
230.3147619386557
 20
219.4387110411988
 30
0.0
 10
228.3050630463311
 20
218.5959620768908
 30
0.0
 10
226.4650845251855
 20
218.268544201635
 30
0.0
 10
224.493303631404
 20
218.3830165649252
 30
0.0
 10
222.5510200393174
 20
218.9901945817113
 30
0.0
 10
220.8180480622235
 20
220.0569364717357
 30
0.0
 10
219.4374194974368
 20
221.4693415146854
 30
0.0
 10
218.476673593001
 20
223.0723669731107
 30
0.0
 10
217.7932986864265
 20
225.1416943076412
 30
0.0
 10
217.665071767712
 20
227.5382319105948
 30
0.0
 10
218.2599732135721
 20
229.1966128849208
 30
0.0
 10
218.5226331707394
 20
229.9288186623899
 30
0.0
  0
SPLINE
  5
116
330
1F
100
AcDbEntity
  8
0
  6
Continuous
 62
     7
370
    25
100
AcDbSpline
210
0.0
220
0.0
230
1.0
 70
     8
 71
     3
 72
     9
 73
     5
 74
     0
 42
0.000000001
 43
0.00000001
 40
0.0
 40
0.0
 40
0.0
 40
0.0
 40
0.7733293181462425
 40
1.0
 40
1.0
 40
1.0
 40
1.0
 10
234.1565687451815
 20
222.8082384827731
 30
0.0
 10
234.1716323251775
 20
222.8013778356511
 30
0.0
 10
234.1911111935491
 20
222.7925062631384
 30
0.0
 10
234.1644579891779
 20
222.8046452480169
 30
0.0
 10
234.1584164891696
 20
222.8073967999963
 30
0.0
  0
ARC
  5
117
330
1F
100
AcDbEntity
  8
0
  6
Continuous
 62
     7
370
    25
100
AcDbCircle
 10
225.9850746263
 20
226.53
 30
0.0
 40
8.911311196000035
100
AcDbArc
 50
157.3074712684
 51
213.6929108093
  0
SPLINE
  5
118
330
1F
100
AcDbEntity
  8
0
  6
Continuous
 62
     7
370
    25
100
AcDbSpline
210
0.0
220
0.0
230
1.0
 70
     8
 71
     3
 72
     9
 73
     5
 74
     0
 42
0.000000001
 43
0.00000001
 40
0.0
 40
0.0
 40
0.0
 40
0.0
 40
0.2266589868209619
 40
1.0
 40
1.0
 40
1.0
 40
1.0
 10
217.8117327634549
 20
230.2526032000033
 30
0.0
 10
217.8056913172138
 20
230.2553547300726
 30
0.0
 10
217.7790369748214
 20
230.2674942446262
 30
0.0
 10
217.7985163261502
 20
230.2586223129936
 30
0.0
 10
217.8135805074429
 20
230.2517612843959
 30
0.0
  0
ARC
  5
119
330
1F
100
AcDbEntity
  8
0
  6
Continuous
 62
     7
370
    25
100
AcDbCircle
 10
225.9850746263
 20
226.53
 30
0.0
 40
8.911311196000026
100
AcDbArc
 50
337.3074712698
 51
33.6929108129
  0
CIRCLE
  5
11A
330
1F
100
AcDbEntity
  8
0
  6
Continuous
 62
     7
370
    25
100
AcDbCircle
 10
225.9850746263
 20
226.53
 30
0.0
 40
56.99999999999998
  0
SPLINE
  5
11B
330
1F
100
AcDbEntity
  8
0
  6
Continuous
 62
     7
370
    25
100
AcDbSpline
210
0.0
220
0.0
230
1.0
 70
     8
 71
     3
 72
    35
 73
    31
 74
     0
 42
0.000000001
 43
0.00000001
 40
0.0
 40
0.0
 40
0.0
 40
0.0
 40
0.0282546081109752
 40
0.0583834425243898
 40
0.09034953943059
 40
0.1258616475560833
 40
0.1640104776914321
 40
0.2048405307776347
 40
0.2374624715033399
 40
0.2716127026583346
 40
0.3071914441560142
 40
0.3440550124855949
 40
0.3820151235164543
 40
0.420841361453843
 40
0.4602672728648818
 40
0.5000000013313759
 40
0.5397327330568056
 40
0.5791586416661694
 40
0.6179848832264704
 40
0.6559450094916255
 40
0.6928085771396489
 40
0.7283872952178988
 40
0.7625375241189254
 40
0.7951594888263893
 40
0.8359928465644375
 40
0.874141598430734
 40
0.9096504645041465
 40
0.941619845917777
 40
0.971747027970225
 40
1.0
 40
1.0
 40
1.0
 40
1.0
 10
269.9929347504234
 20
221.8843683513997
 30
0.0
 10
270.0968559828331
 20
223.1897269697324
 30
0.0
 10
270.3115919039836
 20
225.8870331779023
 30
0.0
 10
270.160798386894
 20
230.0782148147234
 30
0.0
 10
269.587043486557
 20
234.568517174783
 30
0.0
 10
268.4465604681314
 20
239.3371464656678
 30
0.0
 10
266.6240945633952
 20
244.3299500059464
 30
0.0
 10
264.256859798658
 20
248.9417454201786
 30
0.0
 10
261.4813266461011
 20
253.0909230310913
 30
0.0
 10
258.4417543001563
 20
256.7406866166469
 30
0.0
 10
254.8792176871496
 20
260.1733285937197
 30
0.0
 10
250.8088612845062
 20
263.2872141744069
 30
0.0
 10
246.2711808921063
 20
265.9795718137264
 30
0.0
 10
241.3330849425816
 20
268.1545306594692
 30
0.0
 10
236.086331704322
 20
269.7313754134912
 30
0.0
 10
230.6427884755536
 20
270.652316079395
 30
0.0
 10
225.1269378730666
 20
270.8882887753512
 30
0.0
 10
219.6665856761118
 20
270.4417290245936
 30
0.0
 10
214.3832009898174
 20
269.3457852536878
 30
0.0
 10
209.3833725708307
 20
267.6602410997795
 30
0.0
 10
204.7525554002666
 20
265.4648800967361
 30
0.0
 10
200.5518036279168
 20
262.8517646126163
 30
0.0
 10
196.8171599999632
 20
259.9171083979468
 30
0.0
 10
193.23633485322
 20
256.4388188496866
 30
0.0
 10
189.9582788774001
 20
252.4228026466411
 30
0.0
 10
187.1334964309378
 20
247.9205729115428
 30
0.0
 10
185.0225115864775
 20
243.49516642189
 30
0.0
 10
183.5238330071497
 20
239.2237117160099
 30
0.0
 10
182.5013391669177
 20
235.1563743305589
 30
0.0
 10
182.1481431083466
 20
232.4738395824303
 30
0.0
 10
181.9772145022011
 20
231.1756316485999
 30
0.0
  0
SPLINE
  5
11C
330
1F
100
AcDbEntity
  8
0
  6
Continuous
 62
     7
370
    25
100
AcDbSpline
210
0.0
220
0.0
230
1.0
 70
     8
 71
     3
 72
    35
 73
    31
 74
     0
 42
0.000000001
 43
0.00000001
 40
0.0
 40
0.0
 40
0.0
 40
0.0
 40
0.0282546081109752
 40
0.0583834425243898
 40
0.09034953943059
 40
0.1258616475560833
 40
0.1640104776914321
 40
0.2048405307776347
 40
0.2374624715033399
 40
0.2716127026583346
 40
0.3071914441560142
 40
0.3440550124855949
 40
0.3820151235164543
 40
0.420841361453843
 40
0.4602672728648818
 40
0.5000000013313759
 40
0.5397327330568056
 40
0.5791586416661694
 40
0.6179848832264704
 40
0.6559450094916255
 40
0.6928085771396489
 40
0.7283872952178988
 40
0.7625375241189254
 40
0.7951594888263893
 40
0.8359928465644375
 40
0.874141598430734
 40
0.9096504645041465
 40
0.941619845917777
 40
0.971747027970225
 40
1.0
 40
1.0
 40
1.0
 40
1.0
 10
181.9772145022011
 20
231.1756316485999
 30
0.0
 10
181.8732932697913
 20
229.8702730302673
 30
0.0
 10
181.6585573486408
 20
227.1729668220974
 30
0.0
 10
181.8093508657304
 20
222.9817851852763
 30
0.0
 10
182.3831057660674
 20
218.4914828252167
 30
0.0
 10
183.5235887844931
 20
213.7228535343319
 30
0.0
 10
185.3460546892293
 20
208.7300499940533
 30
0.0
 10
187.7132894539664
 20
204.1182545798211
 30
0.0
 10
190.4888226065234
 20
199.9690769689084
 30
0.0
 10
193.5283949524682
 20
196.3193133833527
 30
0.0
 10
197.0909315654748
 20
192.88667140628
 30
0.0
 10
201.1612879681183
 20
189.7727858255928
 30
0.0
 10
205.6989683605182
 20
187.0804281862733
 30
0.0
 10
210.6370643100429
 20
184.9054693405305
 30
0.0
 10
215.8838175483024
 20
183.3286245865085
 30
0.0
 10
221.3273607770708
 20
182.4076839206047
 30
0.0
 10
226.8432113795579
 20
182.1717112246485
 30
0.0
 10
232.3035635765126
 20
182.6182709754061
 30
0.0
 10
237.586948262807
 20
183.7142147463119
 30
0.0
 10
242.5867766817938
 20
185.3997589002202
 30
0.0
 10
247.2175938523578
 20
187.5951199032636
 30
0.0
 10
251.4183456247077
 20
190.2082353873835
 30
0.0
 10
255.1529892526612
 20
193.1428916020528
 30
0.0
 10
258.7338143994044
 20
196.6211811503131
 30
0.0
 10
262.0118703752242
 20
200.6371973533585
 30
0.0
 10
264.8366528216866
 20
205.1394270884569
 30
0.0
 10
266.9476376661469
 20
209.5648335781097
 30
0.0
 10
268.4463162454747
 20
213.8362882839897
 30
0.0
 10
269.4688100857068
 20
217.9036256694407
 30
0.0
 10
269.8220061442779
 20
220.5861604175694
 30
0.0
 10
269.9929347504234
 20
221.8843683513997
 30
0.0
  0
SPLINE
  5
11D
330
1F
100
AcDbEntity
  8
0
  6
Continuous
 62
     7
370
    25
100
AcDbSpline
210
0.0
220
0.0
230
1.0
 70
     8
 71
     3
 72
    11
 73
     7
 74
     0
 42
0.000000001
 43
0.00000001
 40
0.0
 40
0.0
 40
0.0
 40
0.0
 40
0.2706994956762156
 40
0.5623160750829352
 40
0.7892989730289162
 40
1.0
 40
1.0
 40
1.0
 40
1.0
 10
181.9772145022011
 20
231.1756316485999
 30
0.0
 10
182.5154690409284
 20
231.1188114328795
 30
0.0
 10
183.6335693124366
 20
231.0007804753061
 30
0.0
 10
184.9171907013453
 20
230.8652770304379
 30
0.0
 10
185.6868008746655
 20
230.7840333650782
 30
0.0
 10
185.7991945264194
 20
230.7721689383726
 30
0.0
 10
185.8533008266544
 20
230.7664574037491
 30
0.0
  0
ARC
  5
11E
330
1F
100
AcDbEntity
  8
0
  6
Continuous
 62
     7
370
    25
100
AcDbCircle
 10
225.9850746263
 20
226.53
 30
0.0
 40
40.35476230894862
100
AcDbArc
 50
173.973964907
 51
353.973964907
  0
SPLINE
  5
11F
330
1F
100
AcDbEntity
  8
0
  6
Continuous
 62
     7
370
    25
100
AcDbSpline
210
0.0
220
0.0
230
1.0
 70
     8
 71
     3
 72
    11
 73
     7
 74
     0
 42
0.000000001
 43
0.00000001
 40
0.0
 40
0.0
 40
0.0
 40
0.0
 40
0.2706995770771695
 40
0.5623161796376386
 40
0.7892981849467179
 40
1.0
 40
1.0
 40
1.0
 40
1.0
 10
266.11684842597
 20
222.2935425962506
 30
0.0
 10
266.2011156478765
 20
222.2846471290867
 30
0.0
 10
266.3761614414558
 20
222.2661688397384
 30
0.0
 10
267.425060246988
 20
222.1554425621339
 30
0.0
 10
268.7069489118634
 20
222.0201216519527
 30
0.0
 10
269.5750359946255
 20
221.9284832504099
 30
0.0
 10
269.9929347504234
 20
221.8843683513997
 30
0.0
  0
ARC
  5
120
330
1F
100
AcDbEntity
  8
0
  6
Continuous
 62
     7
370
    25
100
AcDbCircle
 10
225.9850746263
 20
226.53
 30
0.0
 40
40.35476230894862
100
AcDbArc
 50
353.973964907
 51
173.973964907
  0
CIRCLE
  5
121
330
1F
100
AcDbEntity
  8
0
  6
Continuous
 62
     7
370
    25
100
AcDbCircle
 10
225.9850746263
 20
226.53
 30
0.0
 40
39.93812333099999
  0
ARC
  5
122
330
1F
100
AcDbEntity
  8
0
  6
Continuous
 62
     7
370
    25
100
AcDbCircle
 10
190.9850746263
 20
106.53
 30
0.0
 40
54.8802047138885
100
AcDbArc
 50
180.0
 51
270.0
  0
LINE
  5
123
330
1F
100
AcDbEntity
  8
0
  6
Continuous
 62
     7
370
    25
100
AcDbLine
 10
190.9850744773
 20
51.6497934151
 30
0.0
 11
190.9850744773
 21
50.1555049706
 31
0.0
  0
ARC
  5
124
330
1F
100
AcDbEntity
  8
0
  6
Continuous
 62
     7
370
    25
100
AcDbCircle
 10
190.9850746263
 20
106.53
 30
0.0
 40
56.37449676102611
100
AcDbArc
 50
180.0
 51
270.0
  0
LINE
  5
125
330
1F
100
AcDbEntity
  8
0
  6
Continuous
 62
     7
370
    25
100
AcDbLine
 10
136.1048689355
 20
106.5300026822
 30
0.0
 11
134.6105804909
 21
106.5300026822
 31
0.0
  0
LINE
  5
126
330
1F
100
AcDbEntity
  8
0
  6
Continuous
 62
     7
370
    25
100
AcDbLine
 10
136.1048689355
 20
346.5299973178
 30
0.0
 11
136.1048689355
 21
106.5300026822
 31
0.0
  0
LINE
  5
127
330
1F
100
AcDbEntity
  8
0
  6
Continuous
 62
     7
370
    25
100
AcDbLine
 10
134.6105804909
 20
106.5300026822
 30
0.0
 11
134.6105804909
 21
346.5299973178
 31
0.0
  0
LINE
  5
128
330
1F
100
AcDbEntity
  8
0
  6
Continuous
 62
     7
370
    25
100
AcDbLine
 10
134.6105804909
 20
346.5299973178
 30
0.0
 11
136.1048689355
 21
346.5299973178
 31
0.0
  0
LINE
  5
129
330
1F
100
AcDbEntity
  8
0
  6
Continuous
 62
     7
370
    25
100
AcDbLine
 10
315.8652803172
 20
106.5300026822
 30
0.0
 11
315.8652803172
 21
346.5299973178
 31
0.0
  0
LINE
  5
12A
330
1F
100
AcDbEntity
  8
0
  6
Continuous
 62
     7
370
    25
100
AcDbLine
 10
317.3595687617
 20
346.5299973178
 30
0.0
 11
315.8652803172
 21
346.5299973178
 31
0.0
  0
LINE
  5
12B
330
1F
100
AcDbEntity
  8
0
  6
Continuous
 62
     7
370
    25
100
AcDbLine
 10
317.3595687617
 20
346.5299973178
 30
0.0
 11
317.3595687617
 21
106.5300026822
 31
0.0
  0
LINE
  5
12C
330
1F
100
AcDbEntity
  8
0
  6
Continuous
 62
     7
370
    25
100
AcDbLine
 10
315.8652803172
 20
106.5300026822
 30
0.0
 11
317.3595687617
 21
106.5300026822
 31
0.0
  0
ARC
  5
12D
330
1F
100
AcDbEntity
  8
0
  6
Continuous
 62
     7
370
    25
100
AcDbCircle
 10
260.9850746263
 20
106.53
 30
0.0
 40
54.88020471388849
100
AcDbArc
 50
270.0
 51
0.0
  0
ARC
  5
12E
330
1F
100
AcDbEntity
  8
0
  6
Continuous
 62
     7
370
    25
100
AcDbCircle
 10
260.9850746263
 20
106.53
 30
0.0
 40
56.37449676102609
100
AcDbArc
 50
270.0
 51
0.0
  0
LINE
  5
12F
330
1F
100
AcDbEntity
  8
0
  6
Continuous
 62
     7
370
    25
100
AcDbLine
 10
260.9850747753
 20
51.6497934151
 30
0.0
 11
260.9850747753
 21
50.1555049706
 31
0.0
  0
LINE
  5
130
330
1F
100
AcDbEntity
  8
0
  6
Continuous
 62
     7
370
    25
100
AcDbLine
 10
190.9850744773
 20
51.6497934151
 30
0.0
 11
260.9850747753
 21
51.6497934151
 31
0.0
  0
LINE
  5
131
330
1F
100
AcDbEntity
  8
0
  6
Continuous
 62
     7
370
    25
100
AcDbLine
 10
260.9850747753
 20
50.1555049706
 30
0.0
 11
190.9850744773
 21
50.1555049706
 31
0.0
  0
LINE
  5
132
330
1F
100
AcDbEntity
  8
0
  6
Continuous
 62
     7
370
    25
100
AcDbLine
 10
190.9850744773
 20
402.9044950294
 30
0.0
 11
260.9850747753
 21
402.9044950294
 31
0.0
  0
ARC
  5
133
330
1F
100
AcDbEntity
  8
0
  6
Continuous
 62
     7
370
    25
100
AcDbCircle
 10
190.9850746263
 20
346.53
 30
0.0
 40
56.37449676102614
100
AcDbArc
 50
90.0
 51
180.0
  0
ARC
  5
134
330
1F
100
AcDbEntity
  8
0
  6
Continuous
 62
     7
370
    25
100
AcDbCircle
 10
260.9850746263
 20
346.53
 30
0.0
 40
56.37449676102614
100
AcDbArc
 50
0.0
 51
90.0
  0
LINE
  5
135
330
1F
100
AcDbEntity
  8
0
  6
Continuous
 62
     7
370
    25
100
AcDbLine
 10
190.9850744773
 20
41.2620449352
 30
0.0
 11
260.9850747753
 21
41.2620449352
 31
0.0
  0
ARC
  5
136
330
1F
100
AcDbEntity
  8
0
  6
Continuous
 62
     7
370
    25
100
AcDbCircle
 10
190.9850746263
 20
106.53
 30
0.0
 40
65.26794919243113
100
AcDbArc
 50
180.0
 51
270.0
  0
LINE
  5
137
330
1F
100
AcDbEntity
  8
0
  6
Continuous
 62
     7
370
    25
100
AcDbLine
 10
125.7171279062
 20
346.5299973178
 30
0.0
 11
125.7171279062
 21
106.5300026822
 31
0.0
  0
ARC
  5
138
330
1F
100
AcDbEntity
  8
0
  6
Continuous
 62
     7
370
    25
100
AcDbCircle
 10
190.9850746263
 20
346.53
 30
0.0
 40
65.26794919243113
100
AcDbArc
 50
90.0
 51
180.0
  0
LINE
  5
139
330
1F
100
AcDbEntity
  8
0
  6
Continuous
 62
     7
370
    25
100
AcDbLine
 10
260.9850747753
 20
411.7979550648
 30
0.0
 11
190.9850744773
 21
411.7979550648
 31
0.0
  0
ARC
  5
13A
330
1F
100
AcDbEntity
  8
0
  6
Continuous
 62
     7
370
    25
100
AcDbCircle
 10
260.9850746263
 20
346.53
 30
0.0
 40
65.2679491924311
100
AcDbArc
 50
0.0
 51
90.0
  0
LINE
  5
13B
330
1F
100
AcDbEntity
  8
0
  6
Continuous
 62
     7
370
    25
100
AcDbLine
 10
326.2530213464
 20
106.5300026822
 30
0.0
 11
326.2530213464
 21
346.5299973178
 31
0.0
  0
ARC
  5
13C
330
1F
100
AcDbEntity
  8
0
  6
Continuous
 62
     7
370
    25
100
AcDbCircle
 10
260.9850746263
 20
106.53
 30
0.0
 40
65.26794919243112
100
AcDbArc
 50
270.0
 51
0.0
  0
LINE
  5
13D
330
1F
100
AcDbEntity
  8
0
  6
Continuous
 62
     7
370
    25
100
AcDbLine
 10
260.9850747753
 20
402.9044950294
 30
0.0
 11
260.9850747753
 21
401.4102065849
 31
0.0
  0
LINE
  5
13E
330
1F
100
AcDbEntity
  8
0
  6
Continuous
 62
     7
370
    25
100
AcDbLine
 10
260.9850747753
 20
401.4102065849
 30
0.0
 11
190.9850744773
 21
401.4102065849
 31
0.0
  0
LINE
  5
13F
330
1F
100
AcDbEntity
  8
0
  6
Continuous
 62
     7
370
    25
100
AcDbLine
 10
190.9850744773
 20
402.9044950294
 30
0.0
 11
190.9850744773
 21
401.4102065849
 31
0.0
  0
ARC
  5
140
330
1F
100
AcDbEntity
  8
0
  6
Continuous
 62
     7
370
    25
100
AcDbCircle
 10
190.9850746263
 20
346.53
 30
0.0
 40
54.88020471388859
100
AcDbArc
 50
90.0
 51
180.0
  0
ARC
  5
141
330
1F
100
AcDbEntity
  8
0
  6
Continuous
 62
     7
370
    25
100
AcDbCircle
 10
190.9850746263
 20
346.53
 30
0.0
 40
66.26794919243115
100
AcDbArc
 50
90.0
 51
180.0
  0
LINE
  5
142
330
1F
100
AcDbEntity
  8
0
  6
Continuous
 62
     7
370
    25
100
AcDbLine
 10
190.9850744773
 20
412.7979421902
 30
0.0
 11
190.9850744773
 21
411.7979550648
 31
0.0
  0
LINE
  5
143
330
1F
100
AcDbEntity
  8
0
  6
Continuous
 62
     7
370
    25
100
AcDbLine
 10
124.7171258796
 20
346.5299973178
 30
0.0
 11
125.7171279062
 21
346.5299973178
 31
0.0
  0
LINE
  5
144
330
1F
100
AcDbEntity
  8
0
  6
Continuous
 62
     7
370
    25
100
AcDbLine
 10
260.9850747753
 20
41.2620449352
 30
0.0
 11
260.9850747753
 21
40.2620578098
 31
0.0
  0
LINE
  5
145
330
1F
100
AcDbEntity
  8
0
  6
Continuous
 62
     7
370
    25
100
AcDbLine
 10
260.9850747753
 20
40.2620578098
 30
0.0
 11
190.9850744773
 21
40.2620578098
 31
0.0
  0
LINE
  5
146
330
1F
100
AcDbEntity
  8
0
  6
Continuous
 62
     7
370
    25
100
AcDbLine
 10
190.9850744773
 20
41.2620449352
 30
0.0
 11
190.9850744773
 21
40.2620578098
 31
0.0
  0
LINE
  5
147
330
1F
100
AcDbEntity
  8
0
  6
Continuous
 62
     7
370
    25
100
AcDbLine
 10
190.9850744773
 20
412.7979421902
 30
0.0
 11
260.9850747753
 21
412.7979421902
 31
0.0
  0
LINE
  5
148
330
1F
100
AcDbEntity
  8
0
  6
Continuous
 62
     7
370
    25
100
AcDbLine
 10
260.9850747753
 20
412.7979421902
 30
0.0
 11
260.9850747753
 21
411.7979550648
 31
0.0
  0
LINE
  5
149
330
1F
100
AcDbEntity
  8
0
  6
Continuous
 62
     7
370
    25
100
AcDbLine
 10
326.2530213464
 20
106.5300026822
 30
0.0
 11
327.253023373
 21
106.5300026822
 31
0.0
  0
ARC
  5
14A
330
1F
100
AcDbEntity
  8
0
  6
Continuous
 62
     7
370
    25
100
AcDbCircle
 10
260.9850746263
 20
106.53
 30
0.0
 40
66.26794919243112
100
AcDbArc
 50
270.0
 51
0.0
  0
ARC
  5
14B
330
1F
100
AcDbEntity
  8
0
  6
Continuous
 62
     7
370
    25
100
AcDbCircle
 10
260.9850746263
 20
346.53
 30
0.0
 40
66.2679491924311
100
AcDbArc
 50
0.0
 51
90.0
  0
LINE
  5
14C
330
1F
100
AcDbEntity
  8
0
  6
Continuous
 62
     7
370
    25
100
AcDbLine
 10
327.253023373
 20
346.5299973178
 30
0.0
 11
326.2530213464
 21
346.5299973178
 31
0.0
  0
LINE
  5
14D
330
1F
100
AcDbEntity
  8
0
  6
Continuous
 62
     7
370
    25
100
AcDbLine
 10
125.7171279062
 20
106.5300026822
 30
0.0
 11
124.7171258796
 21
106.5300026822
 31
0.0
  0
LINE
  5
14E
330
1F
100
AcDbEntity
  8
0
  6
Continuous
 62
     7
370
    25
100
AcDbLine
 10
124.7171258796
 20
106.5300026822
 30
0.0
 11
124.7171258796
 21
346.5299973178
 31
0.0
  0
ARC
  5
14F
330
1F
100
AcDbEntity
  8
0
  6
Continuous
 62
     7
370
    25
100
AcDbCircle
 10
190.9850746263
 20
106.53
 30
0.0
 40
66.26794919243115
100
AcDbArc
 50
180.0
 51
270.0
  0
LINE
  5
150
330
1F
100
AcDbEntity
  8
0
  6
Continuous
 62
     7
370
    25
100
AcDbLine
 10
327.253023373
 20
346.5299973178
 30
0.0
 11
327.253023373
 21
106.5300026822
 31
0.0
  0
ARC
  5
151
330
1F
100
AcDbEntity
  8
0
  6
Continuous
 62
     7
370
    25
100
AcDbCircle
 10
260.9850746263
 20
346.53
 30
0.0
 40
54.88020471388853
100
AcDbArc
 50
0.0
 51
90.0
  0
LINE
  5
152
330
1F
100
AcDbEntity
  8
0
  6
Continuous
 62
     7
370
    25
100
AcDbLine
 10
331.9850733746
 20
346.5299973178
 30
0.0
 11
331.9850733746
 21
106.5300026822
 31
0.0
  0
LINE
  5
153
330
1F
100
AcDbEntity
  8
0
  6
Continuous
 62
     7
370
    25
100
AcDbLine
 10
327.253023373
 20
106.5300026822
 30
0.0
 11
331.9850733746
 21
106.5300026822
 31
0.0
  0
LINE
  5
154
330
1F
100
AcDbEntity
  8
0
  6
Continuous
 62
     7
370
    25
100
AcDbLine
 10
331.9850733746
 20
346.5299973178
 30
0.0
 11
327.253023373
 21
346.5299973178
 31
0.0
  0
ARC
  5
155
330
1F
100
AcDbEntity
  8
0
  6
Continuous
 62
     7
370
    25
100
AcDbCircle
 10
260.9850746263
 20
346.53
 30
0.0
 40
71.0
100
AcDbArc
 50
0.0
 51
90.0
  0
LINE
  5
156
330
1F
100
AcDbEntity
  8
0
  6
Continuous
 62
     7
370
    25
100
AcDbLine
 10
260.9850747753
 20
417.5299996424
 30
0.0
 11
260.9850747753
 21
412.7979421902
 31
0.0
  0
ARC
  5
157
330
1F
100
AcDbEntity
  8
0
  6
Continuous
 62
     7
370
    25
100
AcDbCircle
 10
260.9850746263
 20
106.53
 30
0.0
 40
70.99999999999997
100
AcDbArc
 50
270.0
 51
0.0
  0
LINE
  5
158
330
1F
100
AcDbEntity
  8
0
  6
Continuous
 62
     7
370
    25
100
AcDbLine
 10
260.9850747753
 20
40.2620578098
 30
0.0
 11
260.9850747753
 21
35.5300003576
 31
0.0
  0
ARC
  5
159
330
1F
100
AcDbEntity
  8
0
  6
Continuous
 62
     7
370
    25
100
AcDbCircle
 10
190.9850746263
 20
346.53
 30
0.0
 40
71.0
100
AcDbArc
 50
90.0
 51
180.0
  0
LINE
  5
15A
330
1F
100
AcDbEntity
  8
0
  6
Continuous
 62
     7
370
    25
100
AcDbLine
 10
190.9850744773
 20
417.5299996424
 30
0.0
 11
190.9850744773
 21
412.7979421902
 31
0.0
  0
LINE
  5
15B
330
1F
100
AcDbEntity
  8
0
  6
Continuous
 62
     7
370
    25
100
AcDbLine
 10
119.985075878
 20
346.5299973178
 30
0.0
 11
124.7171258796
 21
346.5299973178
 31
0.0
  0
LINE
  5
15C
330
1F
100
AcDbEntity
  8
0
  6
Continuous
 62
     7
370
    25
100
AcDbLine
 10
119.985075878
 20
106.5300026822
 30
0.0
 11
119.985075878
 21
346.5299973178
 31
0.0
  0
LINE
  5
15D
330
1F
100
AcDbEntity
  8
0
  6
Continuous
 62
     7
370
    25
100
AcDbLine
 10
124.7171258796
 20
106.5300026822
 30
0.0
 11
119.985075878
 21
106.5300026822
 31
0.0
  0
ARC
  5
15E
330
1F
100
AcDbEntity
  8
0
  6
Continuous
 62
     7
370
    25
100
AcDbCircle
 10
190.9850746263
 20
106.53
 30
0.0
 40
70.99999999999997
100
AcDbArc
 50
180.0
 51
270.0
  0
LINE
  5
15F
330
1F
100
AcDbEntity
  8
0
  6
Continuous
 62
     7
370
    25
100
AcDbLine
 10
190.9850744773
 20
40.2620578098
 30
0.0
 11
190.9850744773
 21
35.5300003576
 31
0.0
  0
LINE
  5
160
330
1F
100
AcDbEntity
  8
0
  6
Continuous
 62
     7
370
    25
100
AcDbLine
 10
260.9850747753
 20
35.5300003576
 30
0.0
 11
190.9850744773
 21
35.5300003576
 31
0.0
  0
LINE
  5
161
330
1F
100
AcDbEntity
  8
0
  6
Continuous
 62
     7
370
    25
100
AcDbLine
 10
190.9850744773
 20
417.5299996424
 30
0.0
 11
260.9850747753
 21
417.5299996424
 31
0.0
  0
LINE
  5
162
330
1F
100
AcDbEntity
  8
0
  6
Continuous
 62
     7
370
    25
100
AcDbLine
 10
190.9850744773
 20
401.201292305
 30
0.0
 11
260.9850747753
 21
401.201292305
 31
0.0
  0
LINE
  5
163
330
1F
100
AcDbEntity
  8
0
  6
Continuous
 62
     7
370
    25
100
AcDbLine
 10
190.9850744773
 20
401.4102065849
 30
0.0
 11
190.9850744773
 21
401.201292305
 31
0.0
  0
LINE
  5
164
330
1F
100
AcDbEntity
  8
0
  6
Continuous
 62
     7
370
    25
100
AcDbLine
 10
260.9850747753
 20
401.4102065849
 30
0.0
 11
260.9850747753
 21
401.201292305
 31
0.0
  0
ARC
  5
165
330
1F
100
AcDbEntity
  8
0
  6
Continuous
 62
     7
370
    25
100
AcDbCircle
 10
190.9850746263
 20
346.53
 30
0.0
 40
54.67129158923171
100
AcDbArc
 50
90.0
 51
180.0
  0
LINE
  5
166
330
1F
100
AcDbEntity
  8
0
  6
Continuous
 62
     7
370
    25
100
AcDbLine
 10
136.1048689355
 20
346.5299973178
 30
0.0
 11
136.3137832154
 21
346.5299973178
 31
0.0
  0
ARC
  5
167
330
1F
100
AcDbEntity
  8
0
  6
Continuous
 62
     7
370
    25
100
AcDbCircle
 10
260.9850746263
 20
346.53
 30
0.0
 40
54.67129158923171
100
AcDbArc
 50
0.0
 51
90.0
  0
LINE
  5
168
330
1F
100
AcDbEntity
  8
0
  6
Continuous
 62
     7
370
    25
100
AcDbLine
 10
315.8652803172
 20
346.5299973178
 30
0.0
 11
315.6563660372
 21
346.5299973178
 31
0.0
  0
LINE
  5
169
330
1F
100
AcDbEntity
  8
0
  6
Continuous
 62
     7
370
    25
100
AcDbLine
 10
315.6563660372
 20
346.5299973178
 30
0.0
 11
315.6563660372
 21
106.5300026822
 31
0.0
  0
LINE
  5
16A
330
1F
100
AcDbEntity
  8
0
  6
Continuous
 62
     7
370
    25
100
AcDbLine
 10
315.8652803172
 20
106.5300026822
 30
0.0
 11
315.6563660372
 21
106.5300026822
 31
0.0
  0
ARC
  5
16B
330
1F
100
AcDbEntity
  8
0
  6
Continuous
 62
     7
370
    25
100
AcDbCircle
 10
260.9850746263
 20
106.53
 30
0.0
 40
54.67129158923167
100
AcDbArc
 50
270.0
 51
0.0
  0
LINE
  5
16C
330
1F
100
AcDbEntity
  8
0
  6
Continuous
 62
     7
370
    25
100
AcDbLine
 10
260.9850747753
 20
51.6497934151
 30
0.0
 11
260.9850747753
 21
51.858707695
 31
0.0
  0
LINE
  5
16D
330
1F
100
AcDbEntity
  8
0
  6
Continuous
 62
     7
370
    25
100
AcDbLine
 10
136.3137832154
 20
106.5300026822
 30
0.0
 11
136.3137832154
 21
346.5299973178
 31
0.0
  0
LINE
  5
16E
330
1F
100
AcDbEntity
  8
0
  6
Continuous
 62
     7
370
    25
100
AcDbLine
 10
136.1048689355
 20
106.5300026822
 30
0.0
 11
136.3137832154
 21
106.5300026822
 31
0.0
  0
ARC
  5
16F
330
1F
100
AcDbEntity
  8
0
  6
Continuous
 62
     7
370
    25
100
AcDbCircle
 10
190.9850746263
 20
106.53
 30
0.0
 40
54.67129158923167
100
AcDbArc
 50
180.0
 51
270.0
  0
LINE
  5
170
330
1F
100
AcDbEntity
  8
0
  6
Continuous
 62
     7
370
    25
100
AcDbLine
 10
190.9850744773
 20
51.6497934151
 30
0.0
 11
190.9850744773
 21
51.858707695
 31
0.0
  0
LINE
  5
171
330
1F
100
AcDbEntity
  8
0
  6
Continuous
 62
     7
370
    25
100
AcDbLine
 10
260.9850747753
 20
51.858707695
 30
0.0
 11
190.9850744773
 21
51.858707695
 31
0.0
  0
ARC
  5
172
330
1F
100
AcDbEntity
  8
0
  6
Continuous
 62
     7
370
    25
100
AcDbCircle
 10
260.9850746263
 20
106.53
 30
0.0
 40
53.40145421243203
100
AcDbArc
 50
270.0
 51
0.0
  0
LINE
  5
173
330
1F
100
AcDbEntity
  8
0
  6
Continuous
 62
     7
370
    25
100
AcDbLine
 10
314.3865263332
 20
106.5300026822
 30
0.0
 11
315.6563660372
 21
106.5300026822
 31
0.0
  0
LINE
  5
174
330
1F
100
AcDbEntity
  8
0
  6
Continuous
 62
     7
370
    25
100
AcDbLine
 10
260.9850747753
 20
53.1285399485
 30
0.0
 11
260.9850747753
 21
51.858707695
 31
0.0
  0
LINE
  5
175
330
1F
100
AcDbEntity
  8
0
  6
Continuous
 62
     7
370
    25
100
AcDbLine
 10
314.3865263332
 20
106.5300026822
 30
0.0
 11
314.3865263332
 21
346.5299973178
 31
0.0
  0
LINE
  5
176
330
1F
100
AcDbEntity
  8
0
  6
Continuous
 62
     7
370
    25
100
AcDbLine
 10
315.6563660372
 20
346.5299973178
 30
0.0
 11
314.3865263332
 21
346.5299973178
 31
0.0
  0
LINE
  5
177
330
1F
100
AcDbEntity
  8
0
  6
Continuous
 62
     7
370
    25
100
AcDbLine
 10
190.9850744773
 20
53.1285399485
 30
0.0
 11
260.9850747753
 21
53.1285399485
 31
0.0
  0
LINE
  5
178
330
1F
100
AcDbEntity
  8
0
  6
Continuous
 62
     7
370
    25
100
AcDbLine
 10
190.9850744773
 20
53.1285399485
 30
0.0
 11
190.9850744773
 21
51.858707695
 31
0.0
  0
ARC
  5
179
330
1F
100
AcDbEntity
  8
0
  6
Continuous
 62
     7
370
    25
100
AcDbCircle
 10
260.9850746263
 20
346.53
 30
0.0
 40
53.40145421243204
100
AcDbArc
 50
360.0
 51
90.0
  0
LINE
  5
17A
330
1F
100
AcDbEntity
  8
0
  6
Continuous
 62
     7
370
    25
100
AcDbLine
 10
260.9850747753
 20
401.201292305
 30
0.0
 11
260.9850747753
 21
399.9314600515
 31
0.0
  0
LINE
  5
17B
330
1F
100
AcDbEntity
  8
0
  6
Continuous
 62
     7
370
    25
100
AcDbLine
 10
260.9850747753
 20
399.9314600515
 30
0.0
 11
190.9850744773
 21
399.9314600515
 31
0.0
  0
LINE
  5
17C
330
1F
100
AcDbEntity
  8
0
  6
Continuous
 62
     7
370
    25
100
AcDbLine
 10
190.9850744773
 20
401.201292305
 30
0.0
 11
190.9850744773
 21
399.9314600515
 31
0.0
  0
LINE
  5
17D
330
1F
100
AcDbEntity
  8
0
  6
Continuous
 62
     7
370
    25
100
AcDbLine
 10
137.5836229194
 20
346.5299973178
 30
0.0
 11
137.5836229194
 21
106.5300026822
 31
0.0
  0
LINE
  5
17E
330
1F
100
AcDbEntity
  8
0
  6
Continuous
 62
     7
370
    25
100
AcDbLine
 10
137.5836229194
 20
106.5300026822
 30
0.0
 11
136.3137832154
 21
106.5300026822
 31
0.0
  0
LINE
  5
17F
330
1F
100
AcDbEntity
  8
0
  6
Continuous
 62
     7
370
    25
100
AcDbLine
 10
136.3137832154
 20
346.5299973178
 30
0.0
 11
137.5836229194
 21
346.5299973178
 31
0.0
  0
ARC
  5
180
330
1F
100
AcDbEntity
  8
0
  6
Continuous
 62
     7
370
    25
100
AcDbCircle
 10
190.9850746263
 20
106.53
 30
0.0
 40
53.40145421243199
100
AcDbArc
 50
180.0
 51
270.0
  0
ARC
  5
181
330
1F
100
AcDbEntity
  8
0
  6
Continuous
 62
     7
370
    25
100
AcDbCircle
 10
190.9850746263
 20
346.53
 30
0.0
 40
53.40145421243201
100
AcDbArc
 50
90.0
 51
180.0
  0
ARC
  5
182
330
1F
100
AcDbEntity
  8
0
  6
Continuous
 62
     7
370
    25
100
AcDbCircle
 10
260.9850746263
 20
346.53
 30
0.0
 40
49.99999999999994
100
AcDbArc
 50
0.0
 51
90.0
  0
LINE
  5
183
330
1F
100
AcDbEntity
  8
0
  6
Continuous
 62
     7
370
    25
100
AcDbLine
 10
260.9850747753
 20
399.9314600515
 30
0.0
 11
260.9850747753
 21
396.5300017881
 31
0.0
  0
LINE
  5
184
330
1F
100
AcDbEntity
  8
0
  6
Continuous
 62
     7
370
    25
100
AcDbLine
 10
314.3865263332
 20
346.5299973178
 30
0.0
 11
310.9850755204
 21
346.5299973178
 31
0.0
  0
LINE
  5
185
330
1F
100
AcDbEntity
  8
0
  6
Continuous
 62
     7
370
    25
100
AcDbLine
 10
260.9850747753
 20
396.5300017881
 30
0.0
 11
190.9850744773
 21
396.5300017881
 31
0.0
  0
LINE
  5
186
330
1F
100
AcDbEntity
  8
0
  6
Continuous
 62
     7
370
    25
100
AcDbLine
 10
190.9850744773
 20
399.9314600515
 30
0.0
 11
190.9850744773
 21
396.5300017881
 31
0.0
  0
ARC
  5
187
330
1F
100
AcDbEntity
  8
0
  6
Continuous
 62
     7
370
    25
100
AcDbCircle
 10
260.9850746263
 20
106.53
 30
0.0
 40
49.99999999999994
100
AcDbArc
 50
270.0
 51
0.0
  0
LINE
  5
188
330
1F
100
AcDbEntity
  8
0
  6
Continuous
 62
     7
370
    25
100
AcDbLine
 10
310.9850755204
 20
106.5300026822
 30
0.0
 11
314.3865263332
 21
106.5300026822
 31
0.0
  0
LINE
  5
189
330
1F
100
AcDbEntity
  8
0
  6
Continuous
 62
     7
370
    25
100
AcDbLine
 10
260.9850747753
 20
56.5299982119
 30
0.0
 11
260.9850747753
 21
53.1285399485
 31
0.0
  0
LINE
  5
18A
330
1F
100
AcDbEntity
  8
0
  6
Continuous
 62
     7
370
    25
100
AcDbLine
 10
190.9850744773
 20
56.5299982119
 30
0.0
 11
260.9850747753
 21
56.5299982119
 31
0.0
  0
LINE
  5
18B
330
1F
100
AcDbEntity
  8
0
  6
Continuous
 62
     7
370
    25
100
AcDbLine
 10
190.9850744773
 20
56.5299982119
 30
0.0
 11
190.9850744773
 21
53.1285399485
 31
0.0
  0
LINE
  5
18C
330
1F
100
AcDbEntity
  8
0
  6
Continuous
 62
     7
370
    25
100
AcDbLine
 10
310.9850755204
 20
106.5300026822
 30
0.0
 11
310.9850755204
 21
346.5299973178
 31
0.0
  0
ARC
  5
18D
330
1F
100
AcDbEntity
  8
0
  6
Continuous
 62
     7
370
    25
100
AcDbCircle
 10
190.9850746263
 20
346.53
 30
0.0
 40
49.99999999999994
100
AcDbArc
 50
90.0
 51
180.0
  0
LINE
  5
18E
330
1F
100
AcDbEntity
  8
0
  6
Continuous
 62
     7
370
    25
100
AcDbLine
 10
137.5836229194
 20
346.5299973178
 30
0.0
 11
140.9850737322
 21
346.5299973178
 31
0.0
  0
ARC
  5
18F
330
1F
100
AcDbEntity
  8
0
  6
Continuous
 62
     7
370
    25
100
AcDbCircle
 10
190.9850746263
 20
106.53
 30
0.0
 40
49.99999999999994
100
AcDbArc
 50
180.0
 51
270.0
  0
LINE
  5
190
330
1F
100
AcDbEntity
  8
0
  6
Continuous
 62
     7
370
    25
100
AcDbLine
 10
140.9850737322
 20
106.5300026822
 30
0.0
 11
137.5836229194
 21
106.5300026822
 31
0.0
  0
LINE
  5
191
330
1F
100
AcDbEntity
  8
0
  6
Continuous
 62
     7
370
    25
100
AcDbLine
 10
140.9850737322
 20
346.5299973178
 30
0.0
 11
140.9850737322
 21
106.5300026822
 31
0.0
  0
LINE
  5
192
330
1F
100
AcDbEntity
  8
0
  6
Continuous
 62
     7
370
    25
100
AcDbLine
 10
140.9850737322
 20
346.5299973178
 30
0.0
 11
145.257050382
 21
346.5299973178
 31
0.0
  0
SPLINE
  5
193
330
1F
100
AcDbEntity
  8
0
  6
Continuous
 62
     7
370
    25
100
AcDbSpline
210
0.0
220
0.0
230
1.0
 70
     8
 71
     3
 72
    25
 73
    21
 74
     0
 42
0.000000001
 43
0.00000001
 40
0.0
 40
0.0
 40
0.0
 40
0.0
 40
0.0314012993362682
 40
0.0642157928234163
 40
0.0984437549546319
 40
0.1340854275657561
 40
0.171141024813743
 40
0.2096107372420224
 40
0.2494947351264649
 40
0.2871925030598564
 40
0.3705165471834488
 40
0.4994668784560438
 40
0.5761016449609193
 40
0.6487153227829534
 40
0.7173085398970661
 40
0.7818820415750874
 40
0.8424367215062929
 40
0.8989736639591999
 40
0.9514942020376247
 40
1.0
 40
1.0
 40
1.0
 40
1.0
 10
146.0767645028826
 20
262.0945972583494
 30
0.0
 10
146.0690682665652
 20
262.9790563599919
 30
0.0
 10
146.0533294300415
 20
264.7877790444786
 30
0.0
 10
146.0277939681662
 20
267.5598692696801
 30
0.0
 10
146.0002371051606
 20
270.4508601174222
 30
0.0
 10
145.970554626697
 20
273.4606926930696
 30
0.0
 10
145.9388197001388
 20
276.5893958262928
 30
0.0
 10
145.9049609987968
 20
279.8369147689003
 30
0.0
 10
145.8704003214465
 20
283.1021409362714
 30
0.0
 10
145.8202894804062
 20
287.6279554463452
 30
0.0
 10
145.7429684687179
 20
294.6589856131743
 30
0.0
 10
145.6537546076693
 20
302.7847276839309
 30
0.0
 10
145.569983861267
 20
310.610049031497
 30
0.0
 10
145.5073712832813
 20
316.7391864636568
 30
0.0
 10
145.4508322123577
 20
322.5303104886481
 30
0.0
 10
145.4003713368482
 20
327.9834920874985
 30
0.0
 10
145.355827842982
 20
333.0987025144526
 30
0.0
 10
145.3172430144186
 20
337.8759960214977
 30
0.0
 10
145.2841231975878
 20
342.3152144166324
 30
0.0
 10
145.2658328585957
 20
345.1627919458618
 30
0.0
 10
145.2570511139281
 20
346.5299999999996
 30
0.0
  0
SPLINE
  5
194
330
1F
100
AcDbEntity
  8
0
  6
Continuous
 62
     7
370
    25
100
AcDbSpline
210
0.0
220
0.0
230
1.0
 70
     8
 71
     3
 72
    42
 73
    38
 74
     0
 42
0.000000001
 43
0.00000001
 40
0.0
 40
0.0
 40
0.0
 40
0.0
 40
0.0123759712413521
 40
0.0251188828850528
 40
0.0382301801699402
 40
0.0517111898564305
 40
0.0655631324704634
 40
0.0797871330518133
 40
0.0943842306138038
 40
0.1093553864900336
 40
0.1247014917172937
 40
0.1555222558041524
 40
0.1973611752322775
 40
0.2502203342989427
 40
0.2799435200536295
 40
0.3073465855240223
 40
0.3324312479577062
 40
0.3551997491852161
 40
0.375655092580133
 40
0.4199151215913857
 40
0.4613863876066845
 40
0.5001338650961765
 40
0.559243083412126
 40
0.6245824745898768
 40
0.6799954206721889
 40
0.7499531411821622
 40
0.7777219420561395
 40
0.8027449832083403
 40
0.8250224080621855
 40
0.844554420524774
 40
0.8613413245478702
 40
0.8753836023423734
 40
0.9027106755346622
 40
0.9288297069271017
 40
0.9537463906930901
 40
0.9774672868885844
 40
1.0
 40
1.0
 40
1.0
 40
1.0
 10
146.0769621003276
 20
190.9621774919325
 30
0.0
 10
146.0796377155626
 20
191.2574402407831
 30
0.0
 10
146.0850682764796
 20
191.8567201085252
 30
0.0
 10
146.0951031379617
 20
192.7678808601773
 30
0.0
 10
146.1066555030915
 20
193.7046048389506
 30
0.0
 10
146.1198694788862
 20
194.6668288463449
 30
0.0
 10
146.1347122182354
 20
195.6545716728785
 30
0.0
 10
146.1512031759655
 20
196.6678270407718
 30
0.0
 10
146.1693408735531
 20
197.706603605948
 30
0.0
 10
146.1891589599815
 20
198.7708747096772
 30
0.0
 10
146.2175952593089
 20
200.2181747076469
 30
0.0
 10
146.2625350993763
 20
202.2973846423976
 30
0.0
 10
146.3302871849959
 20
205.2590029614581
 30
0.0
 10
146.4005202900421
 20
208.1916512245545
 30
0.0
 10
146.4624693179291
 20
210.7846970977091
 30
0.0
 10
146.5066315216631
 20
212.7256527515922
 30
0.0
 10
146.5451255261514
 20
214.504684740239
 30
0.0
 10
146.5778168711434
 20
216.1219136195882
 30
0.0
 10
146.6159729764041
 20
218.1967074232087
 30
0.0
 10
146.6537478031287
 20
220.7225932015479
 30
0.0
 10
146.6825659683792
 20
223.6928836012832
 30
0.0
 10
146.6945685550679
 20
227.0243768330471
 30
0.0
 10
146.6730277911411
 20
230.9266582564233
 30
0.0
 10
146.6133796102483
 20
235.2091928435403
 30
0.0
 10
146.5221846202389
 20
239.7250665827751
 30
0.0
 10
146.4374964987429
 20
243.3378447727737
 30
0.0
 10
146.3678096109808
 20
246.2307595651391
 30
0.0
 10
146.3262180003749
 20
248.0010015892349
 30
0.0
 10
146.2898245023472
 20
249.5776012059126
 30
0.0
 10
146.2586853863534
 20
250.9606930204271
 30
0.0
 10
146.2326901771966
 20
252.1502062486011
 30
0.0
 10
146.2039951658306
 20
253.5252352174648
 30
0.0
 10
146.1732764997899
 20
255.123554206275
 30
0.0
 10
146.1411395772327
 20
256.9826934560444
 30
0.0
 10
146.1144723820553
 20
258.7595942441912
 30
0.0
 10
146.0927048347521
 20
260.4539878054463
 30
0.0
 10
146.0822822325684
 20
261.5573098340346
 30
0.0
 10
146.0772048016738
 20
262.0947995372646
 30
0.0
  0
SPLINE
  5
195
330
1F
100
AcDbEntity
  8
0
  6
Continuous
 62
     7
370
    25
100
AcDbSpline
210
0.0
220
0.0
230
1.0
 70
     8
 71
     3
 72
    32
 73
    28
 74
     0
 42
0.000000001
 43
0.00000001
 40
0.0
 40
0.0
 40
0.0
 40
0.0
 40
0.0272265760406193
 40
0.0557633679009775
 40
0.0856107347322805
 40
0.1167689903660282
 40
0.1492384106227536
 40
0.1830192392060126
 40
0.2181116924976868
 40
0.2545159634913186
 40
0.2922322250427935
 40
0.3312606325756663
 40
0.3716013263472838
 40
0.4132544333585085
 40
0.4562200689722272
 40
0.5004983382923034
 40
0.5834312976221712
 40
0.6498948106190183
 40
0.6998888780112631
 40
0.7334135016098255
 40
0.7504686884844162
 40
0.7968548806889866
 40
0.8413216039505869
 40
0.883869135939005
 40
0.9244977936732589
 40
0.9632079413166287
 40
1.0
 40
1.0
 40
1.0
 40
1.0
 10
145.2570511139282
 20
106.5300000000002
 30
0.0
 10
145.2618878544929
 20
107.2974281371358
 30
0.0
 10
145.2717940925432
 20
108.8692151104522
 30
0.0
 10
145.2884980349662
 20
111.281694235329
 30
0.0
 10
145.3069785294304
 20
113.8045218590992
 30
0.0
 10
145.327370509766
 20
116.4376509476981
 30
0.0
 10
145.3496519720112
 20
119.1810953282649
 30
0.0
 10
145.373847274263
 20
122.0348513361415
 30
0.0
 10
145.3999690053091
 20
124.9989202446027
 30
0.0
 10
145.4280346270983
 20
128.0733018444872
 30
0.0
 10
145.4580615057591
 20
131.2579964330556
 30
0.0
 10
145.4900692697133
 20
134.5530036581872
 30
0.0
 10
145.5240754362995
 20
137.9583252050657
 30
0.0
 10
145.5601111905439
 20
141.4739548140539
 30
0.0
 10
145.5981600135633
 20
145.0999172229941
 30
0.0
 10
145.6497088508469
 20
149.8864196640835
 30
0.0
 10
145.7092321455829
 20
155.333527561474
 30
0.0
 10
145.7707215440546
 20
160.9415423521586
 30
0.0
 10
145.8171862877706
 20
165.1599389280204
 30
0.0
 10
145.8484108645362
 20
167.9887137895122
 30
0.0
 10
145.8783351861254
 20
170.716169136165
 30
0.0
 10
145.9103536089041
 20
173.7522355421518
 30
0.0
 10
145.9492660034829
 20
177.5060172160102
 30
0.0
 10
145.9852897604088
 20
181.0985449246498
 30
0.0
 10
146.0184697924007
 20
184.5297667262487
 30
0.0
 10
146.0489081797001
 20
187.7996241228512
 30
0.0
 10
146.0674583441312
 20
189.9261428680588
 30
0.0
 10
146.0764977983609
 20
190.9623907642645
 30
0.0
  0
LINE
  5
196
330
1F
100
AcDbEntity
  8
0
  6
Continuous
 62
     7
370
    25
100
AcDbLine
 10
140.9850737322
 20
106.5300026822
 30
0.0
 11
145.2547779549
 21
106.5300026822
 31
0.0
  0
LINE
  5
197
330
1F
100
AcDbEntity
  8
0
  6
Continuous
 62
     7
370
    25
100
AcDbLine
 10
310.9850755204
 20
346.5299973178
 30
0.0
 11
306.7153712977
 21
346.5299973178
 31
0.0
  0
SPLINE
  5
198
330
1F
100
AcDbEntity
  8
0
  6
Continuous
 62
     7
370
    25
100
AcDbSpline
210
0.0
220
0.0
230
1.0
 70
     8
 71
     3
 72
   103
 73
    99
 74
     0
 42
0.000000001
 43
0.00000001
 40
0.0
 40
0.0
 40
0.0
 40
0.0
 40
0.0094504019197965
 40
0.0189213476213918
 40
0.0284128320334708
 40
0.0379248500265169
 40
0.0474573964128382
 40
0.0570104659465878
 40
0.0665840533237891
 40
0.0761781531823523
 40
0.08579276010209
 40
0.0954278686047362
 40
0.1050834731539558
 40
0.1147595681553548
 40
0.1244561479564925
 40
0.1341732068468828
 40
0.1439107390580044
 40
0.1536687387632977
 40
0.1634472000781698
 40
0.1732461170599903
 40
0.1830654837080892
 40
0.1929052939637499
 40
0.2027655417102036
 40
0.2126462207726187
 40
0.2225473249180884
 40
0.2324688478556211
 40
0.2424107832361208
 40
0.2523731246523725
 40
0.2623558656390242
 40
0.2723589996725624
 40
0.2823825201712926
 40
0.2924264204953143
 40
0.3024906939464931
 40
0.3125753337684327
 40
0.3226803331464467
 40
0.3328056852075238
 40
0.3429513830202961
 40
0.3531174195950036
 40
0.3633037878834552
 40
0.3735104807789907
 40
0.3837374911164408
 40
0.3939848116720808
 40
0.4042524351635913
 40
0.4145403542500097
 40
0.424848561531679
 40
0.435177049550204
 40
0.4455258107883971
 40
0.4558948376702236
 40
0.4662841225607502
 40
0.4766936577660861
 40
0.4871234355333264
 40
0.4975734480504905
 40
0.5080436874464629
 40
0.5185341457909284
 40
0.5290448150943072
 40
0.53957568730769
 40
0.5501267543227675
 40
0.5606980079717632
 40
0.5712894400273605
 40
0.5819010422026286
 40
0.5925328061509526
 40
0.6031847234659504
 40
0.6138567856814011
 40
0.6245489842711617
 40
0.6352613106490884
 40
0.6459937561689524
 40
0.6567463121243567
 40
0.6675189697486511
 40
0.6783117202148429
 40
0.6891245546355096
 40
0.699957464062709
 40
0.7108104394878866
 40
0.7216834718417806
 40
0.7325765519943311
 40
0.7434896707545794
 40
0.7544228188705718
 40
0.7653759870292611
 40
0.7763491658564035
 40
0.787342345916459
 40
0.798355517712484
 40
0.8093886716860279
 40
0.8204417982170262
 40
0.8315148876236921
 40
0.8426079301624051
 40
0.8537209160276023
 40
0.864853835351663
 40
0.8760066782047955
 40
0.8871794345949227
 40
0.8983720944675623
 40
0.9095846477057106
 40
0.9208170841297214
 40
0.932069393497185
 40
0.9433415655028037
 40
0.9546335897782702
 40
0.9659454558921406
 40
0.9772771533497063
 40
0.988628671592867
 40
1.0
 40
1.0
 40
1.0
 40
1.0
 10
260.985074626312
 20
392.3643038312606
 30
0.0
 10
261.2117603778416
 20
392.3635337750025
 30
0.0
 10
261.6656246623357
 20
392.3619919884973
 30
0.0
 10
262.3470230971903
 20
392.3467980299465
 30
0.0
 10
263.0296053236033
 20
392.3221023843157
 30
0.0
 10
263.7132168130921
 20
392.2869186306636
 30
0.0
 10
264.3976998441613
 20
392.2414375562166
 30
0.0
 10
265.0828951959072
 20
392.1855364049345
 30
0.0
 10
265.7686417281744
 20
392.1191796817354
 30
0.0
 10
266.4547765312482
 20
392.0423114703077
 30
0.0
 10
267.141134923856
 20
391.9548844404919
 30
0.0
 10
267.8275504933633
 20
391.8568521112404
 30
0.0
 10
268.5138551260534
 20
391.7481709906823
 30
0.0
 10
269.1998790415049
 20
391.6288000608195
 30
0.0
 10
269.8854508273089
 20
391.4987009756907
 30
0.0
 10
270.5703974751391
 20
391.3578380673891
 30
0.0
 10
271.2545444179116
 20
391.2061784033492
 30
0.0
 10
271.9377155681066
 20
391.043691829431
 30
0.0
 10
272.6197333572406
 20
390.8703510163762
 30
0.0
 10
273.3004187764937
 20
390.6861315048741
 30
0.0
 10
273.9795914184941
 20
390.4910117504878
 30
0.0
 10
274.657069520264
 20
390.284973168073
 30
0.0
 10
275.3326700073251
 20
390.06800017575
 30
0.0
 10
276.0062085389672
 20
389.8400802383836
 30
0.0
 10
276.6774995546791
 20
389.6012039105477
 30
0.0
 10
277.3463563217429
 20
389.3513648789443
 30
0.0
 10
278.0125909839886
 20
389.0905600042544
 30
0.0
 10
278.6760146117111
 20
388.8187893623884
 30
0.0
 10
279.3364372527452
 20
388.5360562851098
 30
0.0
 10
279.9936679846971
 20
388.2423674000063
 30
0.0
 10
280.6475149683297
 20
387.9377326697758
 30
0.0
 10
281.2977855020987
 20
387.6221654308039
 30
0.0
 10
281.9442860778324
 20
387.295682430997
 30
0.0
 10
282.5868224375549
 20
386.9583038668515
 30
0.0
 10
283.2251996314437
 20
386.6100534197209
 30
0.0
 10
283.8592220769165
 20
386.250958291258
 30
0.0
 10
284.4886936188418
 20
385.8810492379992
 30
0.0
 10
285.1134175908635
 20
385.5003606050623
 30
0.0
 10
285.7331968778342
 20
385.1089303589309
 30
0.0
 10
286.3478339793464
 20
384.7068001192902
 30
0.0
 10
286.9571310743511
 20
384.2940151898883
 30
0.0
 10
287.5608900868586
 20
383.8706245883932
 30
0.0
 10
288.1589127527045
 20
383.4366810752138
 30
0.0
 10
288.7510006873731
 20
382.9922411812542
 30
0.0
 10
289.3369554548643
 20
382.5373652345742
 30
0.0
 10
289.9165786375933
 20
382.0721173859237
 30
0.0
 10
290.4896719073047
 20
381.5965656331202
 30
0.0
 10
291.0560370969911
 20
381.1107818442413
 30
0.0
 10
291.615476273799
 20
380.6148417796015
 30
0.0
 10
292.1677918129047
 20
380.1088251124814
 30
0.0
 10
292.712786472346
 20
379.5928154485825
 30
0.0
 10
293.2502634687891
 20
379.0669003441743
 30
0.0
 10
293.7800265542155
 20
378.5311713229065
 30
0.0
 10
294.3018800935057
 20
377.9857238912546
 30
0.0
 10
294.8156291429052
 20
377.4306575525722
 30
0.0
 10
295.3210795293438
 20
376.8660758197148
 30
0.0
 10
295.8180379305974
 20
376.2920862262137
 30
0.0
 10
296.3063119562589
 20
375.7088003359632
 30
0.0
 10
296.7857102295021
 20
375.1163337513983
 30
0.0
 10
297.2560424696129
 20
374.5148061201289
 30
0.0
 10
297.7171195752604
 20
373.9043411400074
 30
0.0
 10
298.1687537084866
 20
373.285066562597
 30
0.0
 10
298.6107583793829
 20
372.6571141950143
 30
0.0
 10
299.0429485314303
 20
372.0206199001204
 30
0.0
 10
299.4651406274737
 20
371.37572359503
 30
0.0
 10
299.8771527363006
 20
370.7225692479149
 30
0.0
 10
300.2788046197924
 20
370.061304873071
 30
0.0
 10
300.6699178206251
 20
369.3920825242286
 30
0.0
 10
301.0503157504769
 20
368.7150582860739
 30
0.0
 10
301.4198237787189
 20
368.0303922639608
 30
0.0
 10
301.7782693215524
 20
367.3382485717869
 30
0.0
 10
302.1254819315582
 20
366.6387953180071
 30
0.0
 10
302.4612933876243
 20
365.9322045897655
 30
0.0
 10
302.7855377852155
 20
365.2186524351177
 30
0.0
 10
303.098051626948
 20
364.4983188433227
 30
0.0
 10
303.3986739134326
 20
363.7713877231824
 30
0.0
 10
303.6872462343486
 20
363.0380468794066
 30
0.0
 10
303.9636128597058
 20
362.2984879869823
 30
0.0
 10
304.2276208312617
 20
361.552906563527
 30
0.0
 10
304.4791200540438
 20
360.801501939606
 30
0.0
 10
304.7179633879477
 20
360.0444772269963
 30
0.0
 10
304.944006739351
 20
359.282039284876
 30
0.0
 10
305.1571091527383
 20
358.5143986839238
 30
0.0
 10
305.3571329021711
 20
357.7417696683115
 30
0.0
 10
305.5439435830102
 20
356.9643701155716
 30
0.0
 10
305.7174102021472
 20
356.1824214943315
 30
0.0
 10
305.8774052730656
 20
355.3961488198751
 30
0.0
 10
306.0238048918432
 20
354.6057806076122
 30
0.0
 10
306.1564888832903
 20
353.8115488240907
 30
0.0
 10
306.2753406832034
 20
353.0136888368581
 30
0.0
 10
306.3802482064275
 20
352.2124393582337
 30
0.0
 10
306.4711010241568
 20
351.408042401411
 30
0.0
 10
306.5478013498001
 20
350.6007431799322
 30
0.0
 10
306.610223351693
 20
349.7907902085242
 30
0.0
 10
306.6583658197706
 20
348.9784346398853
 30
0.0
 10
306.6917813196451
 20
348.1639324498599
 30
0.0
 10
306.7117126337282
 20
347.3475359536897
 30
0.0
 10
306.7126360353611
 20
346.8026703256017
 30
0.0
 10
306.7130981386961
 20
346.5299999999993
 30
0.0
  0
LINE
  5
199
330
1F
100
AcDbEntity
  8
0
  6
Continuous
 62
     7
370
    25
100
AcDbLine
 10
260.9850747753
 20
396.5300017881
 30
0.0
 11
260.9850747753
 21
392.3643076706
 31
0.0
  0
SPLINE
  5
19A
330
1F
100
AcDbEntity
  8
0
  6
Continuous
 62
     7
370
    25
100
AcDbSpline
210
0.0
220
0.0
230
1.0
 70
     8
 71
     3
 72
   103
 73
    99
 74
     0
 42
0.000000001
 43
0.00000001
 40
0.0
 40
0.0
 40
0.0
 40
0.0
 40
0.0094502503145216
 40
0.0189210476041982
 40
0.0284123867979081
 40
0.0379242627663204
 40
0.0474566703219165
 40
0.0570096042190123
 40
0.0665830591537804
 40
0.0761770297642728
 40
0.0857915106304303
 40
0.0954264962741057
 40
0.105081981159069
 40
0.114757959691023
 40
0.1244544262176115
 40
0.1341713750284233
 40
0.1439088003549994
 40
0.153666696370832
 40
0.1634450571913701
 40
0.1732438768740154
 40
0.1830631494181158
 40
0.1929028687649639
 40
0.2027630287977919
 40
0.2126436233417535
 40
0.2225446461639204
 40
0.232466090973268
 40
0.2424079514206551
 40
0.2523702210988141
 40
0.2623528935423264
 40
0.2723559622276038
 40
0.2823794205728658
 40
0.2924232619381175
 40
0.3024874796251144
 40
0.3125720668773452
 40
0.3226770168799957
 40
0.3328023227599171
 40
0.3429479775855928
 40
0.3531139743671041
 40
0.3633003060560918
 40
0.3735069655457165
 40
0.3837339456706202
 40
0.3939812392068777
 40
0.4042488388719609
 40
0.4145367373246867
 40
0.4248449271651685
 40
0.4351734009347701
 40
0.4455221511160549
 40
0.4558911701327266
 40
0.466280450349581
 40
0.4766899840724482
 40
0.4871197635481309
 40
0.4975697809643482
 40
0.5080400284496749
 40
0.5185304980734727
 40
0.5290411818458317
 40
0.5395720717175017
 40
0.5501231595798229
 40
0.560694437264656
 40
0.5712858965443148
 40
0.5818975291314871
 40
0.5925293266791661
 40
0.6031812807805695
 40
0.6138533829690659
 40
0.6245456247180905
 40
0.635257997441068
 40
0.6459904924913291
 40
0.656743101162028
 40
0.667515814686051
 40
0.6783086242359352
 40
0.6891215209237791
 40
0.6999544958011481
 40
0.7108075398589873
 40
0.7216806440275263
 40
0.7325737991761826
 40
0.7434869961134684
 40
0.7544202255868899
 40
0.7653734782828495
 40
0.7763467448265443
 40
0.7873400157818629
 40
0.7983532816512819
 40
0.8093865328757625
 40
0.8204397598346395
 40
0.8315129528455163
 40
0.8426061021641539
 40
0.8537191979843582
 40
0.8648522304378709
 40
0.8760051895942501
 40
0.8871780654607605
 40
0.8983708479822499
 40
0.9095835270410353
 40
0.9208160924567813
 40
0.9320685339863802
 40
0.9433408413238243
 40
0.9546330041000893
 40
0.9659450118829997
 40
0.9772768541771095
 40
0.9886285204235696
 40
1.0
 40
1.0
 40
1.0
 40
1.0
 10
190.9850746263122
 20
60.69569616873907
 30
0.0
 10
190.7583925102139
 20
60.69646618133643
 30
0.0
 10
190.3045354199816
 20
60.69800788071214
 30
0.0
 10
189.6231476536584
 20
60.71320130537431
 30
0.0
 10
188.9405758513446
 20
60.73789613267305
 30
0.0
 10
188.2569745348162
 20
60.77307876437027
 30
0.0
 10
187.5725014191971
 20
60.81855843062867
 30
0.0
 10
186.8873157192624
 20
60.87445789543502
 30
0.0
 10
186.2015785693131
 20
60.94081266451429
 30
0.0
 10
185.5154528734822
 20
61.0176786643074
 30
0.0
 10
184.8291033077403
 20
61.10510323542637
 30
0.0
 10
184.1426962797038
 20
61.20313286946721
 30
0.0
 10
183.4563998983609
 20
61.3118110689965
 30
0.0
 10
182.7703839396977
 20
61.43117886283175
 30
0.0
 10
182.0848198119868
 20
61.56127460787644
 30
0.0
 10
181.3998805197208
 20
61.70213398309208
 30
0.0
 10
180.7157406264574
 20
61.85378993220597
 30
0.0
 10
180.032576216501
 20
62.01627262061795
 30
0.0
 10
179.3505648554356
 20
62.18960938893819
 30
0.0
 10
178.6698855495002
 20
62.37382470791125
 30
0.0
 10
177.9907187038086
 20
62.56894013348391
 30
0.0
 10
177.3132460794068
 20
62.7749742623771
 30
0.0
 10
176.637650749171
 20
62.99194268810679
 30
0.0
 10
175.9641170525414
 20
63.21985795749319
 30
0.0
 10
175.2928305490946
 20
63.45872952769099
 30
0.0
 10
174.6239779709523
 20
63.70856372375791
 30
0.0
 10
173.9577471740288
 20
63.96936369679873
 30
0.0
 10
173.2943270881158
 20
64.241129382703
 30
0.0
 10
172.6339076658109
 20
64.52385746151424
 30
0.0
 10
171.9766798302864
 20
64.81754131744802
 30
0.0
 10
171.3228354219059
 20
65.12217099959739
 30
0.0
 10
170.6725671436907
 20
65.43773318334713
 30
0.0
 10
170.0260685056398
 20
65.76421113252867
 30
0.0
 10
169.383533767908
 20
66.10158466234309
 30
0.0
 10
168.7451578828497
 20
66.44983010308411
 30
0.0
 10
168.111136435931
 20
66.80892026468536
 30
0.0
 10
167.481665585521
 20
67.17882440212722
 30
0.0
 10
166.8569420015657
 20
67.55950818172765
 30
0.0
 10
166.237162803155
 20
67.95093364834928
 30
0.0
 10
165.6225254949914
 20
68.35305919355322
 30
0.0
 10
165.0132279027685
 20
68.76583952472603
 30
0.0
 10
164.4094681074719
 20
69.18922563521501
 30
0.0
 10
163.8114443786091
 20
69.62316477549501
 30
0.0
 10
163.2193551063865
 20
70.06760042540466
 30
0.0
 10
162.6333987328384
 20
70.52247226747546
 30
0.0
 10
162.0537736819275
 20
70.98771616138768
 30
0.0
 10
161.4806782886257
 20
71.46326411958093
 30
0.0
 10
160.9143107269945
 20
71.94904428405283
 30
0.0
 10
160.354868937275
 20
72.44498090437129
 30
0.0
 10
159.8025505520084
 20
72.95099431693441
 30
0.0
 10
159.2575528212019
 20
73.46700092550718
 30
0.0
 10
158.7200725365554
 20
73.99291318306133
 30
0.0
 10
158.1903059547728
 20
74.52863957495565
 30
0.0
 10
157.6684487199711
 20
75.07408460347698
 30
0.0
 10
157.1546957852123
 20
75.62914877378188
 30
0.0
 10
156.6492413331753
 20
76.19372858125864
 30
0.0
 10
156.1522786959919
 20
76.76771650034564
 30
0.0
 10
155.6640002742682
 20
77.35100097483364
 30
0.0
 10
155.1845974553136
 20
77.94346640967758
 30
0.0
 10
154.7142605306056
 20
78.5449931643534
 30
0.0
 10
154.2531786125094
 20
79.15545754778
 30
0.0
 10
153.801539550283
 20
79.77473181484218
 30
0.0
 10
153.3595298453915
 20
80.40268416453745
 30
0.0
 10
152.92733456616
 20
81.0391787397762
 30
0.0
 10
152.5051372617908
 20
81.68407562886307
 30
0.0
 10
152.0931198757777
 20
82.33723086868523
 30
0.0
 10
151.6914626587429
 20
82.99849644963459
 30
0.0
 10
151.3003440807306
 20
83.66772032229078
 30
0.0
 10
150.9199407429883
 20
84.34474640588985
 30
0.0
 10
150.5504272892662
 20
85.02941459860396
 30
0.0
 10
150.1919763166705
 20
85.72156078965817
 30
0.0
 10
149.8447582861041
 20
86.42101687330734
 30
0.0
 10
149.5089414323278
 20
87.12761076469761
 30
0.0
 10
149.1846916736802
 20
87.8411664176367
 30
0.0
 10
148.8721725214914
 20
88.56150384429314
 30
0.0
 10
148.5715449892288
 20
89.2884391368512
 30
0.0
 10
148.2829675014117
 20
90.02178449113809
 30
0.0
 10
148.0065958023364
 20
90.7613482322489
 30
0.0
 10
147.7425828646478
 20
91.50693484218606
 30
0.0
 10
147.4910787978033
 20
92.25834498953652
 30
0.0
 10
147.2522307564633
 20
93.01537556120235
 30
0.0
 10
147.026182848863
 20
93.77781969620516
 30
0.0
 10
146.8130760451744
 20
94.54546682158232
 30
0.0
 10
146.6130480860231
 20
95.31810269038884
 30
0.0
 10
146.4262333907515
 20
96.09550942182594
 30
0.0
 10
146.2527629671745
 20
96.87746554350244
 30
0.0
 10
146.0927643165015
 20
97.66374603586931
 30
0.0
 10
145.9463613573226
 20
98.4541223787472
 30
0.0
 10
145.8136742794526
 20
99.24836260031039
 30
0.0
 10
145.6948196616679
 20
100.0462313272239
 30
0.0
 10
145.5899096036098
 20
100.8474898408678
 30
0.0
 10
145.4990545485401
 20
101.6518961212332
 30
0.0
 10
145.4223522971924
 20
102.4592049474474
 30
0.0
 10
145.3599286960541
 20
103.2691677969332
 30
0.0
 10
145.3117849668475
 20
104.0815335086345
 30
0.0
 10
145.2783685669852
 20
104.8960460977915
 30
0.0
 10
145.2584366931668
 20
105.7124532398802
 30
0.0
 10
145.2575132420739
 20
106.2573260469476
 30
0.0
 10
145.2570511139283
 20
106.5300000000002
 30
0.0
  0
LINE
  5
19B
330
1F
100
AcDbEntity
  8
0
  6
Continuous
 62
     7
370
    25
100
AcDbLine
 10
190.9850744773
 20
56.5299982119
 30
0.0
 11
190.9850744773
 21
60.6956923294
 31
0.0
  0
LINE
  5
19C
330
1F
100
AcDbEntity
  8
0
  6
Continuous
 62
     7
370
    25
100
AcDbLine
 10
260.9850747753
 20
56.5299982119
 30
0.0
 11
260.9850747753
 21
60.6956923294
 31
0.0
  0
SPLINE
  5
19D
330
1F
100
AcDbEntity
  8
0
  6
Continuous
 62
     7
370
    25
100
AcDbSpline
210
0.0
220
0.0
230
1.0
 70
     8
 71
     3
 72
   126
 73
   122
 74
     0
 42
0.000000001
 43
0.00000001
 40
0.0
 40
0.0
 40
0.0
 40
0.0
 40
0.0091751583298485
 40
0.0183374237147838
 40
0.02748679056877
 40
0.0366232533327016
 40
0.0457468064743561
 40
0.0548574444883518
 40
0.0639551618961026
 40
0.0730399532457755
 40
0.0821118131122462
 40
0.0911707360970593
 40
0.1002167168283817
 40
0.1092497499609643
 40
0.1182698301760988
 40
0.127276952181577
 40
0.1362711107116504
 40
0.1452523005269888
 40
0.154220516414642
 40
0.1631757531879987
 40
0.1721180056867479
 40
0.1810472687768412
 40
0.1899635373504521
 40
0.198866806325941
 40
0.207757070647815
 40
0.216634325286693
 40
0.2254985652392679
 40
0.2343497855282687
 40
0.2431879812024284
 40
0.2520131473364454
 40
0.2608252790309495
 40
0.2696243714124669
 40
0.2784104196333869
 40
0.2871834188719263
 40
0.2959433643320978
 40
0.3046902512436762
 40
0.3134240748621654
 40
0.322144830468767
 40
0.3308525133703479
 40
0.3395471188994101
 40
0.3482286424140582
 40
0.3568970792979702
 40
0.3655524249603668
 40
0.3741946748359818
 40
0.3828238243850343
 40
0.3914398690931967
 40
0.40004280447157
 40
0.4086326260566543
 40
0.4172093294103207
 40
0.4257729101197855
 40
0.4343233637975827
 40
0.4428606860815391
 40
0.4513848726347466
 40
0.4598959191455389
 40
0.468393821327466
 40
0.4768785749192694
 40
0.4853501756848591
 40
0.4938086194132887
 40
0.5022539019187346
 40
0.5106860190404707
 40
0.5191049666428487
 40
0.5275107406152754
 40
0.5359033368721908
 40
0.5442827513530493
 40
0.5526489800222979
 40
0.5610020188693567
 40
0.5693418639085993
 40
0.5776685111793353
 40
0.5859819567457898
 40
0.5942821966970874
 40
0.6025692271472332
 40
0.6108430442350974
 40
0.6191036441243972
 40
0.627351023003682
 40
0.6355851770863165
 40
0.6438061026104674
 40
0.6520137958390875
 40
0.6602082530599019
 40
0.6683894705853949
 40
0.6765574447527959
 40
0.6847121719240676
 40
0.6928536484858937
 40
0.7009818708496671
 40
0.7090968354514787
 40
0.7171985387521069
 40
0.7252869772370077
 40
0.7333621474163048
 40
0.7414240458247798
 40
0.7494726690218656
 40
0.7575080135916358
 40
0.7655300761427991
 40
0.7735388533086909
 40
0.7815343417472675
 40
0.7895165381411003
 40
0.7974854391973695
 40
0.8054410416478587
 40
0.8133833422489527
 40
0.8213123377816314
 40
0.829228025051467
 40
0.8371304008886215
 40
0.8450194621478441
 40
0.8528952057084696
 40
0.860757628474417
 40
0.8686067273741891
 40
0.876442499360872
 40
0.8842649414121362
 40
0.892074050530236
 40
0.8998698237420134
 40
0.9076522580988982
 40
0.9154213506769118
 40
0.9231770985766695
 40
0.9309194989233857
 40
0.9386485488668764
 40
0.9463642455815663
 40
0.9540665862664921
 40
0.9617555681453104
 40
0.9694311884663034
 40
0.9770934445023867
 40
0.9847423335511167
 40
0.9923778529346996
 40
1.0
 40
1.0
 40
1.0
 40
1.0
 10
306.7130981386961
 20
106.5300000000001
 30
0.0
 10
306.7129451410452
 20
106.3099921278894
 30
0.0
 10
306.7126393607359
 20
105.8702855390278
 30
0.0
 10
306.7000999593254
 20
105.2112797347908
 30
0.0
 10
306.6787643152569
 20
104.5534415724224
 30
0.0
 10
306.6478105947552
 20
103.8969036047617
 30
0.0
 10
306.6075172352748
 20
103.2418014671643
 30
0.0
 10
306.5578708360748
 20
102.5882683680903
 30
0.0
 10
306.4989383467849
 20
101.9364365333722
 30
0.0
 10
306.4307675133266
 20
101.286436791976
 30
0.0
 10
306.3534134588432
 20
100.6383986594748
 30
0.0
 10
306.2669315383793
 20
99.99245028922721
 30
0.0
 10
306.1713792110666
 20
99.3487184597075
 30
0.0
 10
306.066815501037
 20
98.70732855294837
 30
0.0
 10
305.953301102883
 20
98.06840453613542
 30
0.0
 10
305.8308983146232
 20
97.43206894313386
 30
0.0
 10
305.6996710166481
 20
96.79844285680197
 30
0.0
 10
305.5596846382392
 20
96.16764589186432
 30
0.0
 10
305.4110061272954
 20
95.53979617839914
 30
0.0
 10
305.2537039191009
 20
94.91501034592342
 30
0.0
 10
305.0878479052589
 20
94.29340350807597
 30
0.0
 10
304.913509402505
 20
93.6750892478957
 30
0.0
 10
304.7307611214929
 20
93.06017960369037
 30
0.0
 10
304.5396771355333
 20
92.44878505549455
 30
0.0
 10
304.3403328493123
 20
91.84101451211151
 30
0.0
 10
304.1328049675882
 20
91.23697529873745
 30
0.0
 10
303.9171714638841
 20
90.63677314516144
 30
0.0
 10
303.6935115491805
 20
90.04051217454129
 30
0.0
 10
303.4619056406195
 20
89.44829489274738
 30
0.0
 10
303.2224353302328
 20
88.86022217827238
 30
0.0
 10
302.9751833536958
 20
88.27639327270306
 30
0.0
 10
302.7202335591246
 20
87.69690577174816
 30
0.0
 10
302.4576708759184
 20
87.12185561681923
 30
0.0
 10
302.1875812836617
 20
86.55133708715898
 30
0.0
 10
301.910051781089
 20
85.985442792513
 30
0.0
 10
301.6251703551254
 20
85.42426366633995
 30
0.0
 10
301.3330259500104
 20
84.86788895955411
 30
0.0
 10
301.0337084365091
 20
84.31640623479828
 30
0.0
 10
300.7273085812262
 20
83.7699013612369
 30
0.0
 10
300.413918016022
 20
83.22845850987056
 30
0.0
 10
300.0936292075476
 20
82.69216014935954
 30
0.0
 10
299.7665354268969
 20
82.16108704235772
 30
0.0
 10
299.4327307193918
 20
81.63531824234607
 30
0.0
 10
299.0923098745024
 20
81.11493109096254
 30
0.0
 10
298.7453683959099
 20
80.60000121582358
 30
0.0
 10
298.3920024717223
 20
80.09060252882877
 30
0.0
 10
298.0323089448462
 20
79.58680722494493
 30
0.0
 10
297.6663852835239
 20
79.08868578146317
 30
0.0
 10
297.2943295520395
 20
78.5963069577234
 30
0.0
 10
296.9162403816044
 20
78.1097377952985
 30
0.0
 10
296.5322169414247
 20
77.62904361863443
 30
0.0
 10
296.1423589099584
 20
77.15428803613914
 30
0.0
 10
295.746766446369
 20
76.68553294171274
 30
0.0
 10
295.3455401621781
 20
76.2228385167158
 30
0.0
 10
294.9387810931281
 20
75.76626323236596
 30
0.0
 10
294.5265906712542
 20
75.31586385255873
 30
0.0
 10
294.1090706971762
 20
74.87169543710631
 30
0.0
 10
293.686323312612
 20
74.43381134538602
 30
0.0
 10
293.2584509731203
 20
74.00226324039339
 30
0.0
 10
292.8255564210742
 20
73.5771010931942
 30
0.0
 10
292.3877426588759
 20
73.15837318776555
 30
0.0
 10
291.9451129224093
 20
72.7461261262245
 30
0.0
 10
291.4977706547425
 20
72.34040483443287
 30
0.0
 10
291.0458194800812
 20
71.94125256797335
 30
0.0
 10
290.5893631779751
 20
71.54871091849336
 30
0.0
 10
290.1285056577869
 20
71.16281982040276
 30
0.0
 10
289.6633509334209
 20
70.7836175579282
 30
0.0
 10
289.1940030983218
 20
70.41114077250776
 30
0.0
 10
288.7205663007421
 20
70.04542447052728
 30
0.0
 10
288.2431447192848
 20
69.68650203138613
 30
0.0
 10
287.7618425387215
 20
69.3344052158899
 30
0.0
 10
287.2767639260948
 20
68.98916417495846
 30
0.0
 10
286.7880130071
 20
68.65080745864813
 30
0.0
 10
286.2956938427574
 20
68.31936202547745
 30
0.0
 10
285.7999104063715
 20
67.99485325205067
 30
0.0
 10
285.3007665607828
 20
67.67730494297405
 30
0.0
 10
284.7983660359162
 20
67.36673934105436
 30
0.0
 10
284.2928124066236
 20
67.06317713777848
 30
0.0
 10
283.784209070828
 20
66.76663748406172
 30
0.0
 10
283.2726592279689
 20
66.47713800126232
 30
0.0
 10
282.7582658577498
 20
66.19469479245419
 30
0.0
 10
282.2411316991942
 20
65.91932245394916
 30
0.0
 10
281.7213592300057
 20
65.65103408706655
 30
0.0
 10
281.1990506462389
 20
65.3898413101405
 30
0.0
 10
280.6743078422815
 20
65.1357542707563
 30
0.0
 10
280.1472323911457
 20
64.88878165821727
 30
0.0
 10
279.6179255250764
 20
64.64893071622488
 30
0.0
 10
279.0864881164712
 20
64.41620725577383
 30
0.0
 10
278.5530206591168
 20
64.19061566825468
 30
0.0
 10
278.0176232497432
 20
63.97215893875089
 30
0.0
 10
277.4803955698929
 20
63.76083865953516
 30
0.0
 10
276.9414368681109
 20
63.55665504374641
 30
0.0
 10
276.4008459424515
 20
63.35960693925247
 30
0.0
 10
275.8587211233059
 20
63.16969184268295
 30
0.0
 10
275.3151602565484
 20
62.98690591363331
 30
0.0
 10
274.7702606870039
 20
62.81124398902768
 30
0.0
 10
274.2241192422352
 20
62.64269959763968
 30
0.0
 10
273.6768322166505
 20
62.48126497476181
 30
0.0
 10
273.1284953559319
 20
62.32693107701959
 30
0.0
 10
272.5792038417846
 20
62.1796875973202
 30
0.0
 10
272.0290522770058
 20
62.03952297993656
 30
0.0
 10
271.4781346708736
 20
61.90642443571484
 30
0.0
 10
270.9265444248565
 20
61.78037795740254
 30
0.0
 10
270.3743743186413
 20
61.66136833508923
 30
0.0
 10
269.8217164964798
 20
61.54937917176073
 30
0.0
 10
269.2686624538543
 20
61.44439289894074
 30
0.0
 10
268.7153030244595
 20
61.34639079247922
 30
0.0
 10
268.1617283675019
 20
61.25535298825527
 30
0.0
 10
267.6080279553149
 20
61.17125849861521
 30
0.0
 10
267.0542905612866
 20
61.09408522648322
 30
0.0
 10
266.5006042481106
 20
61.02380998850413
 30
0.0
 10
265.9470563563135
 20
60.96040850491535
 30
0.0
 10
265.3937334932308
 20
60.90385551359329
 30
0.0
 10
264.840721521779
 20
60.85412442216673
 30
0.0
 10
264.2881055514557
 20
60.81118867990087
 30
0.0
 10
263.7359699224976
 20
60.77501674821031
 30
0.0
 10
263.1843982169627
 20
60.74559089953196
 30
0.0
 10
262.6334731710328
 20
60.72283731942061
 30
0.0
 10
262.0832769564412
 20
60.70688636563273
 30
0.0
 10
261.5338900893393
 20
60.69710388731936
 30
0.0
 10
261.1679061938995
 20
60.69616513401449
 30
0.0
 10
260.9850746263122
 20
60.6956961687391
 30
0.0
  0
LINE
  5
19E
330
1F
100
AcDbEntity
  8
0
  6
Continuous
 62
     7
370
    25
100
AcDbLine
 10
310.9850755204
 20
106.5300026822
 30
0.0
 11
306.7130988706
 21
106.5300026822
 31
0.0
  0
SPLINE
  5
19F
330
1F
100
AcDbEntity
  8
0
  6
Continuous
 62
     7
370
    25
100
AcDbSpline
210
0.0
220
0.0
230
1.0
 70
     8
 71
     3
 72
     9
 73
     5
 74
     0
 42
0.000000001
 43
0.00000001
 40
0.0
 40
0.0
 40
0.0
 40
0.0
 40
0.5
 40
1.0
 40
1.0
 40
1.0
 40
1.0
 10
190.9850746263128
 20
392.3643038312607
 30
0.0
 10
202.6517412929793
 20
392.3457288146868
 30
0.0
 10
225.9850746263124
 20
392.3262674352484
 30
0.0
 10
249.3184079596455
 20
392.3457288146869
 30
0.0
 10
260.985074626312
 20
392.3643038312607
 30
0.0
  0
LINE
  5
1A0
330
1F
100
AcDbEntity
  8
0
  6
Continuous
 62
     7
370
    25
100
AcDbLine
 10
190.9850744773
 20
396.5300017881
 30
0.0
 11
190.9850744773
 21
392.3643076706
 31
0.0
  0
SPLINE
  5
1A1
330
1F
100
AcDbEntity
  8
0
  6
Continuous
 62
     7
370
    25
100
AcDbSpline
210
0.0
220
0.0
230
1.0
 70
     8
 71
     3
 72
    20
 73
    16
 74
     0
 42
0.000000001
 43
0.00000001
 40
0.0
 40
0.0
 40
0.0
 40
0.0
 40
0.076926391949224
 40
0.1538511264146388
 40
0.2307745047303682
 40
0.3076968282464738
 40
0.384618398325415
 40
0.4615395163385068
 40
0.5384604836623776
 40
0.6153816016754272
 40
0.6923031717542841
 40
0.7692254952702636
 40
0.8461488735858246
 40
0.9230736080510288
 40
1.0
 40
1.0
 40
1.0
 40
1.0
 10
260.9850746263118
 20
60.6956961687391
 30
0.0
 10
259.1902113181718
 20
60.69842770301997
 30
0.0
 10
255.6005233746645
 20
60.70389071272714
 30
0.0
 10
250.2158896812819
 20
60.71042042375052
 30
0.0
 10
244.8312658302583
 20
60.71572714578857
 30
0.0
 10
239.4466393406429
 20
60.7196891433317
 30
0.0
 10
234.0620135580775
 20
60.72233648301914
 30
0.0
 10
228.6773875821438
 20
60.72365940024196
 30
0.0
 10
223.2927616704196
 20
60.72365940024202
 30
0.0
 10
217.9081356944889
 20
60.72233648301914
 30
0.0
 10
212.5235099119293
 20
60.71968914333176
 30
0.0
 10
207.1388834223228
 20
60.71572714578852
 30
0.0
 10
201.754259571311
 20
60.71042042375052
 30
0.0
 10
196.3696258779431
 20
60.70389071272714
 30
0.0
 10
192.7799379344467
 20
60.69842770301997
 30
0.0
 10
190.9850746263125
 20
60.6956961687391
 30
0.0
  0
SPLINE
  5
1A2
330
1F
100
AcDbEntity
  8
0
  6
Continuous
 62
     7
370
    25
100
AcDbSpline
210
0.0
220
0.0
230
1.0
 70
     8
 71
     3
 72
   126
 73
   122
 74
     0
 42
0.000000001
 43
0.00000001
 40
0.0
 40
0.0
 40
0.0
 40
0.0
 40
0.009175029208071
 40
0.0183371676483048
 40
0.0274864097350877
 40
0.0366227499097331
 40
0.0457461826404305
 40
0.0548567024222084
 40
0.0639543037768842
 40
0.0730389812530256
 40
0.0821107294259048
 40
0.0911695428974556
 40
0.1002154162962327
 40
0.1092483442773688
 40
0.1182683215225342
 40
0.1272753427398936
 40
0.1362694026640666
 40
0.1452504960560886
 40
0.1542186177033688
 40
0.1631737624196523
 40
0.1721159250449784
 40
0.1810451004456442
 40
0.1899612835141686
 40
0.1988644691692462
 40
0.2077546523557204
 40
0.216631828044537
 40
0.2254959912327157
 40
0.2343471369433031
 40
0.2431852602253486
 40
0.2520103561538627
 40
0.2608224198297812
 40
0.2696214463799318
 40
0.2784074309570028
 40
0.2871803687395039
 40
0.2959402549317374
 40
0.3046870847637621
 40
0.3134208534913621
 40
0.3221415563960146
 40
0.3308491887848583
 40
0.3395437459906613
 40
0.3482252233717909
 40
0.3568936163121822
 40
0.3655489202213112
 40
0.374191130534159
 40
0.3828202427111899
 40
0.3914362522383162
 40
0.4000391546268744
 40
0.4086289454135955
 40
0.4172056201605782
 40
0.4257691744552606
 40
0.4343196039103949
 40
0.4428569041640205
 40
0.4513810708794387
 40
0.4598920997451872
 40
0.4683899864750166
 40
0.4768747268078623
 40
0.485346316507827
 40
0.4938047513641506
 40
0.5022500271911902
 40
0.5106821398283988
 40
0.5191010851402992
 40
0.5275068590164672
 40
0.5358994573715081
 40
0.5442788761450345
 40
0.552645111301649
 40
0.5609981588309207
 40
0.5693380147473719
 40
0.5776646750904503
 40
0.5859781359245202
 40
0.594278393338837
 40
0.6025654434475343
 40
0.610839282389606
 40
0.6190999063288868
 40
0.6273473114540399
 40
0.6355814939785412
 40
0.6438024501406613
 40
0.6520101762034524
 40
0.6602046684547369
 40
0.668385923207089
 40
0.676553936797826
 40
0.6847087055889911
 40
0.6928502259673458
 40
0.7009784943443563
 40
0.7090935071561801
 40
0.7171952608636605
 40
0.725283751952312
 40
0.733358976932311
 40
0.74142093233849
 40
0.7494696147303257
 40
0.7575050206919325
 40
0.7655271468320543
 40
0.7735359897840564
 40
0.7815315462059224
 40
0.7895138127802432
 40
0.7974827862142165
 40
0.8054384632396382
 40
0.8133808406128988
 40
0.8213099151149812
 40
0.829225683551455
 40
0.8371281427524743
 40
0.845017289572777
 40
0.8528931208916801
 40
0.8607556336130816
 40
0.8686048246654576
 40
0.8764406910018621
 40
0.8842632295999298
 40
0.892072437461874
 40
0.8998683116144905
 40
0.9076508491091585
 40
0.9154200470218428
 40
0.9231759024530986
 40
0.9309184125280737
 40
0.9386475743965157
 40
0.9463633852327713
 40
0.9540658422357979
 40
0.9617549426291662
 40
0.9694306836610681
 40
0.9770930626043226
 40
0.9847420767563878
 40
0.9923777234393617
 40
1.0
 40
1.0
 40
1.0
 40
1.0
 10
145.2570511139282
 20
346.5299999999997
 30
0.0
 10
145.2572040965605
 20
346.7500047737651
 30
0.0
 10
145.2575098468869
 20
347.1897052181422
 30
0.0
 10
145.2700488675449
 20
347.8487018885664
 30
0.0
 10
145.2913838933804
 20
348.5065310842351
 30
0.0
 10
145.3223367417691
 20
349.1630602575804
 30
0.0
 10
145.362628989245
 20
349.8181537783913
 30
0.0
 10
145.4122740426016
 20
350.4716784430926
 30
0.0
 10
145.4712049604452
 20
351.1235020305127
 30
0.0
 10
145.5393740045913
 20
351.7734937161125
 30
0.0
 10
145.6167260598378
 20
352.4215239885147
 30
0.0
 10
145.703205779091
 20
353.0674646983253
 30
0.0
 10
145.7987557112247
 20
353.7111890708039
 30
0.0
 10
145.903316840148
 20
354.3525717274214
 30
0.0
 10
146.0168284793438
 20
354.9914887042659
 30
0.0
 10
146.1392283388944
 20
355.6278174705178
 30
0.0
 10
146.2704525465334
 20
356.2614369461359
 30
0.0
 10
146.41043568112
 20
356.8922275189863
 30
0.0
 10
146.5591108029062
 20
357.5200710613557
 30
0.0
 10
146.7164094847657
 20
358.1448509458673
 30
0.0
 10
146.8822618432534
 20
358.7664520607997
 30
0.0
 10
147.0565965697871
 20
359.3847608248093
 30
0.0
 10
147.2393409618584
 20
359.9996652010638
 30
0.0
 10
147.4304209542862
 20
360.6110547107856
 30
0.0
 10
147.6297611504956
 20
361.2188204462112
 30
0.0
 10
147.8372848538144
 20
361.8228550829701
 30
0.0
 10
148.0529140987778
 20
362.423052891885
 30
0.0
 10
148.2765696824297
 20
363.0193097501996
 30
0.0
 10
148.5081711956137
 20
363.6115231522355
 30
0.0
 10
148.7476370542413
 20
364.1995922194859
 30
0.0
 10
148.9948845305343
 20
364.7834177101446
 30
0.0
 10
149.24982978422
 20
365.3629020280829
 30
0.0
 10
149.5123878936889
 20
365.9379492312678
 30
0.0
 10
149.7824728870849
 20
366.5084650396394
 30
0.0
 10
150.0599977733387
 20
367.0743568424394
 30
0.0
 10
150.3448745731208
 20
367.6355337050053
 30
0.0
 10
150.6370143497172
 20
368.1919063750289
 30
0.0
 10
150.9363272398099
 20
368.743387288288
 30
0.0
 10
151.242722484164
 20
369.2898905738542
 30
0.0
 10
151.5561084582029
 20
369.8313320587832
 30
0.0
 10
151.8763927024745
 20
370.3676292722924
 30
0.0
 10
152.2034819529916
 20
370.8987014494316
 30
0.0
 10
152.5372821714458
 20
371.4244695342518
 30
0.0
 10
152.8776985752831
 20
371.944856182478
 30
0.0
 10
153.2246356676374
 20
372.4597857636919
 30
0.0
 10
153.5779972671123
 20
372.96918436303
 30
0.0
 10
153.9376865374056
 20
373.4729797824025
 30
0.0
 10
154.3036060167703
 20
373.9711015412399
 30
0.0
 10
154.675657647304
 20
374.4634808767721
 30
0.0
 10
155.0537428040621
 20
374.9500507438469
 30
0.0
 10
155.437762323987
 20
375.4307458142936
 30
0.0
 10
155.827616534648
 20
375.9055024758383
 30
0.0
 10
156.2232052827862
 20
376.374258830576
 30
0.0
 10
156.6244279626584
 20
376.8369546930066
 30
0.0
 10
157.0311835441722
 20
377.2935315876423
 30
0.0
 10
157.443370600813
 20
377.7439327461886
 30
0.0
 10
157.8608873373484
 20
378.1881031043113
 30
0.0
 10
158.2836316173131
 20
378.6259892979904
 30
0.0
 10
158.7115009902655
 20
379.0575396594704
 30
0.0
 10
159.1443927188097
 20
379.4827042128132
 30
0.0
 10
159.5822038053821
 20
379.9014346690594
 30
0.0
 10
160.0248310187945
 20
380.313684421004
 30
0.0
 10
160.4721709205306
 20
380.719408537596
 30
0.0
 10
160.9241198907929
 20
381.1185637579637
 30
0.0
 10
161.3805741542917
 20
381.511108485078
 30
0.0
 10
161.8414298057781
 20
381.8970027790546
 30
0.0
 10
162.3065828353113
 20
382.2762083501067
 30
0.0
 10
162.7759291532602
 20
382.6486885511523
 30
0.0
 10
163.2493646150348
 20
383.0144083700816
 30
0.0
 10
163.7267850455421
 20
383.373334421696
 30
0.0
 10
164.2080862633667
 20
383.7254349393183
 30
0.0
 10
164.6931641046693
 20
384.0706797660883
 30
0.0
 10
165.1819144468019
 20
384.4090403459451
 30
0.0
 10
165.6742332316364
 20
384.7404897143044
 30
0.0
 10
166.1700164886049
 20
385.0650024884384
 30
0.0
 10
166.6691603574457
 20
385.3825548575652
 30
0.0
 10
167.1715611106569
 20
385.6931245726503
 30
0.0
 10
167.6771151756517
 20
385.9966909359349
 30
0.0
 10
168.1857191566145
 20
386.2932347901877
 30
0.0
 10
168.6972698560556
 20
386.5827385076965
 30
0.0
 10
169.2116642960631
 20
386.8651859789974
 30
0.0
 10
169.7287997392473
 20
387.1405626013573
 30
0.0
 10
170.2485737093807
 20
387.408855267007
 30
0.0
 10
170.7708840117266
 20
387.6700523511383
 30
0.0
 10
171.295628753058
 20
387.9241436996699
 30
0.0
 10
171.8227063613655
 20
388.1711206167859
 30
0.0
 10
172.3520156052504
 20
388.410975852258
 30
0.0
 10
172.8834556130049
 20
388.6437035885526
 30
0.0
 10
173.416925891375
 20
388.8692994277349
 30
0.0
 10
173.9523263440089
 20
389.0877603781715
 30
0.0
 10
174.4895572895865
 20
389.2990848410407
 30
0.0
 10
175.0285194796313
 20
389.5032725966558
 30
0.0
 10
175.5691141160035
 20
389.700324790609
 30
0.0
 10
176.111242868074
 20
389.8902439197382
 30
0.0
 10
176.6548078895781
 20
390.0730338179293
 30
0.0
 10
177.19971183515
 20
390.2486996417547
 30
0.0
 10
177.7458578765356
 20
390.4172478559559
 30
0.0
 10
178.2931497184865
 20
390.578686218777
 30
0.0
 10
178.8414916143322
 20
390.7330237671561
 30
0.0
 10
179.3907883812329
 20
390.8802708017747
 30
0.0
 10
179.9409454151104
 20
391.0204388719818
 30
0.0
 10
180.4918687052619
 20
391.1535407605856
 30
0.0
 10
181.0434648486508
 20
391.2795904685308
 30
0.0
 10
181.5956410638807
 20
391.3986031994589
 30
0.0
 10
182.1483052048497
 20
391.5105953441579
 30
0.0
 10
182.7013657740873
 20
391.6155844649226
 30
0.0
 10
183.2547319357722
 20
391.7135892797705
 30
0.0
 10
183.8083135284365
 20
391.8046296467391
 30
0.0
 10
184.3620210773507
 20
391.8887265474531
 30
0.0
 10
184.9157658065983
 20
391.9659020730141
 30
0.0
 10
185.4694596508263
 20
392.0361794008618
 30
0.0
 10
186.0230152667199
 20
392.0995828049043
 30
0.0
 10
186.5763460440274
 20
392.1561375414716
 30
0.0
 10
187.1293661167914
 20
392.2058701972162
 30
0.0
 10
187.6819903723491
 20
392.2488073171872
 30
0.0
 10
188.2341344671766
 20
392.2849804344806
 30
0.0
 10
188.7857148158101
 20
392.3144072707742
 30
0.0
 10
189.3366486785397
 20
392.3371616364668
 30
0.0
 10
189.8868538800025
 20
392.3531131631648
 30
0.0
 10
190.4362499002507
 20
392.3628960163434
 30
0.0
 10
190.8022399534886
 20
392.363834833842
 30
0.0
 10
190.9850746263128
 20
392.3643038312606
 30
0.0
  0
SPLINE
  5
1A3
330
1F
100
AcDbEntity
  8
0
  6
Continuous
 62
     7
370
    25
100
AcDbSpline
210
0.0
220
0.0
230
1.0
 70
     8
 71
     3
 72
    25
 73
    21
 74
     0
 42
0.000000001
 43
0.00000001
 40
0.0
 40
0.0
 40
0.0
 40
0.0
 40
0.0314167636262302
 40
0.0642433133203148
 40
0.0984799227401768
 40
0.1341268330690625
 40
0.1711842579539589
 40
0.209652387540406
 40
0.2495313917949556
 40
0.2871160184955233
 40
0.3704394832816418
 40
0.4995017968526417
 40
0.5761266245921046
 40
0.6487319589539838
 40
0.7173184269090342
 40
0.7818867725002646
 40
0.8424378878934097
 40
0.8989728554398504
 40
0.9514930057898429
 40
1.0
 40
1.0
 40
1.0
 40
1.0
 10
305.8936514572094
 20
190.9623904094086
 30
0.0
 10
305.9013509190848
 20
190.0775286603543
 30
0.0
 10
305.9170953460902
 20
188.2680981516628
 30
0.0
 10
305.9426355155214
 20
185.4950912799717
 30
0.0
 10
305.9701929060569
 20
182.6034753878268
 30
0.0
 10
305.9998715554908
 20
179.5933092833426
 30
0.0
 10
306.0315982821731
 20
176.464564096983
 30
0.0
 10
306.0654449232032
 20
173.217294853216
 30
0.0
 10
306.0999570708896
 20
169.9555522287382
 30
0.0
 10
306.1500169285771
 20
165.4332383029639
 30
0.0
 10
306.227307031784
 20
158.4025023609575
 30
0.0
 10
306.3165169574912
 20
150.2741897759712
 30
0.0
 10
306.4002818157861
 20
142.4465055533369
 30
0.0
 10
306.4628629394949
 20
136.3182876821832
 30
0.0
 10
306.51937561554
 20
130.527938365835
 30
0.0
 10
306.5698151422186
 20
125.075386725478
 30
0.0
 10
306.6143421387743
 20
119.9606614706237
 30
0.0
 10
306.6529153647904
 20
115.1837084183372
 30
0.0
 10
306.6860279173814
 20
110.7446855827127
 30
0.0
 10
306.7043168993125
 20
107.8971910029343
 30
0.0
 10
306.7130981386962
 20
106.5300000000001
 30
0.0
  0
SPLINE
  5
1A4
330
1F
100
AcDbEntity
  8
0
  6
Continuous
 62
     7
370
    25
100
AcDbSpline
210
0.0
220
0.0
230
1.0
 70
     8
 71
     3
 72
    42
 73
    38
 74
     0
 42
0.000000001
 43
0.00000001
 40
0.0
 40
0.0
 40
0.0
 40
0.0
 40
0.0123702037939321
 40
0.0251064598754522
 40
0.0382102098071258
 40
0.0516827771866776
 40
0.0655253798158109
 40
0.0797391403852796
 40
0.0943250958812534
 40
0.1092842058868974
 40
0.1246173599269874
 40
0.1554402018084222
 40
0.1972495796990388
 40
0.2500475832940109
 40
0.2797721325525302
 40
0.3071697472592734
 40
0.332242132140625
 40
0.3549915146533045
 40
0.3754208821141799
 40
0.4196743681011428
 40
0.461139029594886
 40
0.4998797205681604
 40
0.5589990386017297
 40
0.6243482548032613
 40
0.6798118452766795
 40
0.7497803740273064
 40
0.777585568432785
 40
0.8026363551464076
 40
0.8249328769594115
 40
0.8444753370375038
 40
0.8612640385306428
 40
0.8752994630250097
 40
0.9026491973583213
 40
0.92878796098922
 40
0.9537214586520538
 40
0.9774562641656869
 40
0.9999999999999999
 40
0.9999999999999999
 40
0.9999999999999999
 40
0.9999999999999999
 10
305.8929444509378
 20
262.0947995357798
 30
0.0
 10
305.8902701616864
 20
261.7996743330829
 30
0.0
 10
305.8848424470824
 20
261.2006907445197
 30
0.0
 10
305.8748149615331
 20
260.2900046582213
 30
0.0
 10
305.8632725519732
 20
259.3538176632037
 30
0.0
 10
305.8500713702059
 20
258.3921928468441
 30
0.0
 10
305.8352442071642
 20
257.4051114577884
 30
0.0
 10
305.8187716580568
 20
256.392579755517
 30
0.0
 10
305.8006551807034
 20
255.3545891327654
 30
0.0
 10
305.780861298804
 20
254.2911660777781
 30
0.0
 10
305.7524470497307
 20
252.84439672089
 30
0.0
 10
305.7075471482285
 20
250.7661195846547
 30
0.0
 10
305.6398650255993
 20
247.8065658621733
 30
0.0
 10
305.5697013735557
 20
244.8760006045264
 30
0.0
 10
305.5077996589175
 20
242.2844812921495
 30
0.0
 10
305.4636454501504
 20
240.34391370188
 30
0.0
 10
305.425162616919
 20
238.5657616256597
 30
0.0
 10
305.392484974461
 20
236.9499052754705
 30
0.0
 10
305.3543271610639
 20
234.876358517766
 30
0.0
 10
305.3165287309488
 20
232.3514315588421
 30
0.0
 10
305.2876568143726
 20
229.381645893428
 30
0.0
 10
305.2755672798544
 20
226.0502481561318
 30
0.0
 10
305.2970128012018
 20
222.1476225309264
 30
0.0
 10
305.3566186481222
 20
217.8633597419781
 30
0.0
 10
305.4478037608259
 20
213.345751040896
 30
0.0
 10
305.5325509033217
 20
209.7306674006875
 30
0.0
 10
305.6022978578482
 20
206.83600720333
 30
0.0
 10
305.6439465000478
 20
205.0638153975416
 30
0.0
 10
305.6803824835044
 20
203.4858778611951
 30
0.0
 10
305.711549254697
 20
202.1020593364567
 30
0.0
 10
305.7375578240371
 20
200.9124310457104
 30
0.0
 10
305.7662736512846
 20
199.5369993405064
 30
0.0
 10
305.7970206850279
 20
197.9378512766136
 30
0.0
 10
305.8291952664195
 20
196.0773200098162
 30
0.0
 10
305.8558904953163
 20
194.2992283316448
 30
0.0
 10
305.8776778133824
 20
192.6038457841543
 30
0.0
 10
305.8881068452695
 20
191.4999295310003
 30
0.0
 10
305.8931871553445
 20
190.9621771371381
 30
0.0
  0
SPLINE
  5
1A5
330
1F
100
AcDbEntity
  8
0
  6
Continuous
 62
     7
370
    25
100
AcDbSpline
210
0.0
220
0.0
230
1.0
 70
     8
 71
     3
 72
    32
 73
    28
 74
     0
 42
0.000000001
 43
0.00000001
 40
0.0
 40
0.0
 40
0.0
 40
0.0
 40
0.0272256991636109
 40
0.0557621307701697
 40
0.0856096546837977
 40
0.1167685853420127
 40
0.1492391990843152
 40
0.1830217400617088
 40
0.2181164250442701
 40
0.2545234473642723
 40
0.2922429801747441
 40
0.3312751791611976
 40
0.3716201848129728
 40
0.413278124337278
 40
0.4562491132812594
 40
0.5005332569139463
 40
0.5833854584433351
 40
0.649808766319803
 40
0.6998031812923139
 40
0.73336870521849
 40
0.7505053453111418
 40
0.7968970363774961
 40
0.8413646142666783
 40
0.8839083571727447
 40
0.9245285828168737
 40
0.963225656299249
 40
1.0
 40
1.0
 40
1.0
 40
1.0
 10
306.7130981386962
 20
346.5299999999993
 30
0.0
 10
306.7082612495619
 20
345.7625680478635
 30
0.0
 10
306.6983546079434
 20
344.1907575090398
 30
0.0
 10
306.6816483608578
 20
341.7782197890877
 30
0.0
 10
306.6631641464069
 20
339.255286263734
 30
0.0
 10
306.6427668842492
 20
336.6220040188961
 30
0.0
 10
306.6204786031544
 20
333.8783592112105
 30
0.0
 10
306.5962749173065
 20
331.0243555092771
 30
0.0
 10
306.5701432231039
 20
328.0599916380683
 30
0.0
 10
306.5420660375952
 20
324.9852678068124
 30
0.0
 10
306.5120259731494
 20
321.8001837177646
 30
0.0
 10
306.4800033770015
 20
318.5047397233137
 30
0.0
 10
306.4459807080593
 20
315.0989341363418
 30
0.0
 10
306.409926746093
 20
311.5827732233538
 30
0.0
 10
306.371858010802
 20
307.9562322187213
 30
0.0
 10
306.3203091975315
 20
303.1715188439989
 30
0.0
 10
306.2607971706101
 20
297.7274584337916
 30
0.0
 10
306.1993210762009
 20
292.1226404494819
 30
0.0
 10
306.1528389845417
 20
287.9040666596825
 30
0.0
 10
306.1215655335417
 20
285.0717408633543
 30
0.0
 10
306.0915939412169
 20
282.3405913063452
 30
0.0
 10
306.0595367551105
 20
279.3019475411359
 30
0.0
 10
306.0206117416828
 20
275.5479592314998
 30
0.0
 10
305.9845803833583
 20
271.9556222931606
 30
0.0
 10
305.9513988833704
 20
268.5249880626675
 30
0.0
 10
305.9209646304145
 20
265.2561153306249
 30
0.0
 10
305.9024205655347
 20
263.1303847230556
 30
0.0
 10
305.8933847498451
 20
262.0945972568115
 30
0.0
  0
SPLINE
  5
1A6
330
1F
100
AcDbEntity
  8
0
  6
Continuous
 62
     7
370
    25
100
AcDbSpline
210
0.0
220
0.0
230
1.0
 70
     8
 71
     3
 72
     9
 73
     5
 74
     0
 42
0.000000001
 43
0.00000001
 40
0.0
 40
0.0
 40
0.0
 40
0.0
 40
0.5
 40
1.0
 40
1.0
 40
1.0
 40
1.0
 10
261.2291058040802
 20
373.5358946528308
 30
0.0
 10
249.4810954114909
 20
373.5364402983922
 30
0.0
 10
225.9850746263124
 20
373.5385146348426
 30
0.0
 10
202.4890538411338
 20
373.5364402983922
 30
0.0
 10
190.7410434485445
 20
373.5358946528308
 30
0.0
  0
SPLINE
  5
1A7
330
1F
100
AcDbEntity
  8
0
  6
Continuous
 62
     7
370
    25
100
AcDbSpline
210
0.0
220
0.0
230
1.0
 70
     8
 71
     3
 72
    22
 73
    18
 74
     0
 42
0.000000001
 43
0.00000001
 40
0.0
 40
0.0
 40
0.0
 40
0.0
 40
0.125
 40
0.125
 40
0.25
 40
0.25
 40
0.375
 40
0.375
 40
0.5
 40
0.5
 40
0.625
 40
0.625
 40
0.75
 40
0.75
 40
0.875
 40
0.875
 40
1.0
 40
1.0
 40
1.0
 40
1.0
 10
190.7410434485445
 20
373.5358946528309
 30
0.0
 10
190.7433536054938
 20
374.6055402790911
 30
0.0
 10
190.7467876692216
 20
375.7025904654993
 30
0.0
 10
190.7561183665737
 20
377.9076495368504
 30
0.0
 10
190.7620171533783
 20
379.0154824181957
 30
0.0
 10
190.7762949279523
 20
381.1880737421355
 30
0.0
 10
190.7846746507108
 20
382.2525510048806
 30
0.0
 10
190.8036826342035
 20
384.2813060799356
 30
0.0
 10
190.8143096089697
 20
385.2452718910824
 30
0.0
 10
190.837337705994
 20
387.0220220479259
 30
0.0
 10
190.8497357267913
 20
387.8345670980831
 30
0.0
 10
190.8756563090162
 20
389.2723093241743
 30
0.0
 10
190.8891749681029
 20
389.8974181934016
 30
0.0
 10
190.9166215673365
 20
390.944102332329
 30
0.0
 10
190.9305460877742
 20
391.3657516402769
 30
0.0
 10
190.9581381870873
 20
392.0094987337054
 30
0.0
 10
190.9718037122435
 20
392.2317801967819
 30
0.0
 10
190.9850746263128
 20
392.3643038312607
 30
0.0
  0
SPLINE
  5
1A8
330
1F
100
AcDbEntity
  8
0
  6
Continuous
 62
     7
370
    25
100
AcDbSpline
210
0.0
220
0.0
230
1.0
 70
     8
 71
     3
 72
    14
 73
    10
 74
     0
 42
0.000000001
 43
0.00000001
 40
0.0
 40
0.0
 40
0.0
 40
0.0
 40
0.25
 40
0.25
 40
0.5
 40
0.5
 40
0.75
 40
0.75
 40
1.0
 40
1.0
 40
1.0
 40
1.0
 10
261.2291058040801
 20
373.5358946528308
 30
0.0
 10
261.2240879432811
 20
375.859257512871
 30
0.0
 10
261.214069012987
 20
378.1611844714834
 30
0.0
 10
261.1852271463209
 20
382.4468862545361
 30
0.0
 10
261.1664112965969
 20
384.4296080521264
 30
0.0
 10
261.1222398936887
 20
387.8376858868817
 30
0.0
 10
261.0968951937267
 20
389.2622045355284
 30
0.0
 10
261.042718691132
 20
391.3818475123695
 30
0.0
 10
261.0139002000444
 20
392.0764510294855
 30
0.0
 10
260.985074626312
 20
392.3643038312606
 30
0.0
  0
SPLINE
  5
1A9
330
1F
100
AcDbEntity
  8
0
  6
Continuous
 62
     7
370
    25
100
AcDbSpline
210
0.0
220
0.0
230
1.0
 70
     8
 71
     3
 72
    44
 73
    40
 74
     0
 42
0.000000001
 43
0.00000001
 40
0.0
 40
0.0
 40
0.0
 40
0.0
 40
0.0130050695640849
 40
0.0259936106606584
 40
0.0389704848006556
 40
0.0519406042897873
 40
0.0649089257237547
 40
0.0778804432824732
 40
0.0908601818602943
 40
0.1038531900713314
 40
0.1168645331704234
 40
0.1298992859313237
 40
0.1429625255239647
 40
0.1560593244324793
 40
0.1691947434548828
 40
0.1823738248238755
 40
0.1956015854864206
 40
0.208883010577332
 40
0.2222230471193423
 40
0.2356265979790154
 40
0.2490985161044249
 40
0.311450615104757
 40
0.3735444648962629
 40
0.4358191477298616
 40
0.4987005073886082
 40
0.5614577373597867
 40
0.6238797281237283
 40
0.6863239712297514
 40
0.7491389197917256
 40
0.7743487734440472
 40
0.7994745645243698
 40
0.8245372288020691
 40
0.849557919157628
 40
0.8745579571623106
 40
0.8995587827524302
 40
0.924581902618574
 40
0.9496488379650977
 40
0.9747810723110585
 40
1.0
 40
1.0
 40
1.0
 40
1.0
 10
287.3443459813342
 20
347.4634421128255
 30
0.0
 10
287.3438174202263
 20
347.6410095971316
 30
0.0
 10
287.3427609697721
 20
347.995918890796
 30
0.0
 10
287.3276144468831
 20
348.527848220908
 30
0.0
 10
287.3024525818734
 20
349.0589047452673
 30
0.0
 10
287.2662475130407
 20
349.5890696573541
 30
0.0
 10
287.2191959659128
 20
350.1183170630576
 30
0.0
 10
287.16116807341
 20
350.6466199548165
 30
0.0
 10
287.0921226468585
 20
351.1739486033114
 30
0.0
 10
287.0119959603799
 20
351.70027098
 30
0.0
 10
286.9207315755566
 20
352.2255526362019
 30
0.0
 10
286.818272361299
 20
352.749756728882
 30
0.0
 10
286.7045626558584
 20
353.2728440062743
 30
0.0
 10
286.5795476990555
 20
353.7947728101855
 30
0.0
 10
286.4431738308932
 20
354.3154990543778
 30
0.0
 10
286.2953883621879
 20
354.8349762847568
 30
0.0
 10
286.1361399945321
 20
355.3531554372015
 30
0.0
 10
285.9653773652577
 20
355.8699857311237
 30
0.0
 10
285.7830545861404
 20
356.3854113003818
 30
0.0
 10
285.589110523921
 20
356.8993838399433
 30
0.0
 10
285.1353326298029
 20
358.0305655974285
 30
0.0
 10
284.3317129924783
 20
359.7383239269242
 30
0.0
 10
283.0213186779732
 20
361.9316629514125
 30
0.0
 10
281.4952079865729
 20
363.9903785440191
 30
0.0
 10
279.7674332339766
 20
365.895382616941
 30
0.0
 10
277.8622932594649
 20
367.6263048969847
 30
0.0
 10
275.8003647298025
 20
369.1577048386497
 30
0.0
 10
273.5965862746937
 20
370.4783072837353
 30
0.0
 10
271.7338005454215
 20
371.3583963178489
 30
0.0
 10
270.2936974516861
 20
371.9230063230827
 30
0.0
 10
269.3200005558598
 20
372.2614525394311
 30
0.0
 10
268.3362555269438
 20
372.5606320492979
 30
0.0
 10
267.3431423943084
 20
372.8203815709556
 30
0.0
 10
266.3413796213945
 20
373.0405559373087
 30
0.0
 10
265.3316751400234
 20
373.220936286831
 30
0.0
 10
264.3147390008488
 20
373.3616415213221
 30
0.0
 10
263.2912805814815
 20
373.461571546815
 30
0.0
 10
262.2620060821301
 20
373.5242389946106
 30
0.0
 10
261.5738008748048
 20
373.5320049763346
 30
0.0
 10
261.2291058040802
 20
373.535894652831
 30
0.0
  0
SPLINE
  5
1AA
330
1F
100
AcDbEntity
  8
0
  6
Continuous
 62
     7
370
    25
100
AcDbSpline
210
0.0
220
0.0
230
1.0
 70
     8
 71
     3
 72
    22
 73
    18
 74
     0
 42
0.000000001
 43
0.00000001
 40
0.0
 40
0.0
 40
0.0
 40
0.0
 40
0.125
 40
0.125
 40
0.25
 40
0.25
 40
0.375
 40
0.375
 40
0.5
 40
0.5
 40
0.625
 40
0.625
 40
0.75
 40
0.75
 40
0.875
 40
0.875
 40
1.0
 40
1.0
 40
1.0
 40
1.0
 10
287.3443459813342
 20
347.4634421128255
 30
0.0
 10
288.4314321267908
 20
347.4558142507397
 30
0.0
 10
289.5499049825833
 20
347.4437902708281
 30
0.0
 10
291.8043619695275
 20
347.4100058773628
 30
0.0
 10
292.940163180988
 20
347.3882360491145
 30
0.0
 10
295.1724486087236
 20
347.3348058636425
 30
0.0
 10
296.2686274605388
 20
347.3031419192264
 30
0.0
 10
298.3608147931425
 20
347.2307926785235
 30
0.0
 10
299.3564774733374
 20
347.1901124126078
 30
0.0
 10
301.1928984436661
 20
347.1016094126904
 30
0.0
 10
302.0333890750604
 20
347.0537995780196
 30
0.0
 10
303.5205172432263
 20
346.9536501571481
 30
0.0
 10
304.1670561631246
 20
346.9013269584756
 30
0.0
 10
305.2489034221427
 20
346.7950384903051
 30
0.0
 10
305.6842952601081
 20
346.741087500413
 30
0.0
 10
306.3482367713897
 20
346.6342249364429
 30
0.0
 10
306.5769908267491
 20
346.5813217427201
 30
0.0
 10
306.7130981386962
 20
346.5299999999993
 30
0.0
  0
SPLINE
  5
1AB
330
1F
100
AcDbEntity
  8
0
  6
Continuous
 62
     7
370
    25
100
AcDbSpline
210
0.0
220
0.0
230
1.0
 70
     8
 71
     3
 72
    22
 73
    18
 74
     0
 42
0.000000001
 43
0.00000001
 40
0.0
 40
0.0
 40
0.0
 40
0.0
 40
0.125
 40
0.125
 40
0.25
 40
0.25
 40
0.375
 40
0.375
 40
0.5
 40
0.5
 40
0.625
 40
0.625
 40
0.75
 40
0.75
 40
0.875
 40
0.875
 40
1.0
 40
1.0
 40
1.0
 40
1.0
 10
145.2570511139282
 20
106.5300000000002
 30
0.0
 10
145.3931584258753
 20
106.4786782572794
 30
0.0
 10
145.6219124812347
 20
106.4257750635567
 30
0.0
 10
146.2858539925163
 20
106.3189124995866
 30
0.0
 10
146.7212458304816
 20
106.2649615096944
 30
0.0
 10
147.8030930894997
 20
106.1586730415239
 30
0.0
 10
148.449632009398
 20
106.1063498428515
 30
0.0
 10
149.936760177564
 20
106.00620042198
 30
0.0
 10
150.7772508089583
 20
105.9583905873092
 30
0.0
 10
152.613671779287
 20
105.8698875873919
 30
0.0
 10
153.6093344594819
 20
105.8292073214761
 30
0.0
 10
155.7015217920856
 20
105.7568580807733
 30
0.0
 10
156.7977006439008
 20
105.7251941363571
 30
0.0
 10
159.0299860716364
 20
105.6717639508851
 30
0.0
 10
160.1657872830969
 20
105.649994122637
 30
0.0
 10
162.4202442700411
 20
105.6162097291717
 30
0.0
 10
163.5387171258336
 20
105.6041857492601
 30
0.0
 10
164.6258032712902
 20
105.5965578871742
 30
0.0
  0
SPLINE
  5
1AC
330
1F
100
AcDbEntity
  8
0
  6
Continuous
 62
     7
370
    25
100
AcDbSpline
210
0.0
220
0.0
230
1.0
 70
     8
 71
     3
 72
    44
 73
    40
 74
     0
 42
0.000000001
 43
0.00000001
 40
0.0
 40
0.0
 40
0.0
 40
0.0
 40
0.0130050695728399
 40
0.0259936106772174
 40
0.0389704848240653
 40
0.0519406043190884
 40
0.064908925757981
 40
0.0778804433206573
 40
0.0908601819014644
 40
0.1038531901145128
 40
0.1168645332146411
 40
0.1298992859756006
 40
0.1429625255673209
 40
0.1560593244739409
 40
0.1691947434934726
 40
0.1823738248586219
 40
0.1956015855163487
 40
0.2088830106014751
 40
0.2222230471367358
 40
0.2356265979886991
 40
0.2490985161054471
 40
0.3114506151166167
 40
0.3735444649120073
 40
0.4358191477416298
 40
0.4987005073878083
 40
0.5614577373488792
 40
0.6238797281093668
 40
0.686323971218985
 40
0.7491389197918386
 40
0.7743487734438089
 40
0.7994745645238653
 40
0.8245372288013813
 40
0.8495579191568392
 40
0.8745579571614923
 40
0.8995587827516529
 40
0.924581902617906
 40
0.949648837964601
 40
0.9747810723107846
 40
1.0
 40
1.0
 40
1.0
 40
1.0
 10
164.6258032712902
 20
105.5965578871741
 30
0.0
 10
164.6263318324086
 20
105.4189904027486
 30
0.0
 10
164.6273882828839
 20
105.0640811088584
 30
0.0
 10
164.6425348058027
 20
104.5321517784278
 30
0.0
 10
164.6676966708411
 20
104.0010952537892
 30
0.0
 10
164.7039017397005
 20
103.4709303414629
 30
0.0
 10
164.7509532868525
 20
102.9416829355592
 30
0.0
 10
164.808981179377
 20
102.41338004364
 30
0.0
 10
164.8780266059468
 20
101.8860513950245
 30
0.0
 10
164.9581532924404
 20
101.3597290182551
 30
0.0
 10
165.0494176772746
 20
100.8344473620123
 30
0.0
 10
165.1518768915387
 20
100.3102432693314
 30
0.0
 10
165.2655865969808
 20
99.78715599197812
 30
0.0
 10
165.39060155378
 20
99.26522718814617
 30
0.0
 10
165.5269754219327
 20
98.7445009440732
 30
0.0
 10
165.6747608906223
 20
98.22502371385366
 30
0.0
 10
165.8340092582551
 20
97.7068445616086
 30
0.0
 10
166.0047718874996
 20
97.19001426792634
 30
0.0
 10
166.1870946665796
 20
96.67458869894851
 30
0.0
 10
166.3810387287513
 20
96.16061615970672
 30
0.0
 10
166.8348166230246
 20
95.02943440236538
 30
0.0
 10
167.6384362605982
 20
93.3216760729019
 30
0.0
 10
168.9488305752428
 20
91.12833704833498
 30
0.0
 10
170.4749412664791
 20
89.06962145583064
 30
0.0
 10
172.2027160186679
 20
87.16461738303688
 30
0.0
 10
174.1078559928075
 20
85.4336951031118
 30
0.0
 10
176.1697845223436
 20
83.90229516150214
 30
0.0
 10
178.3735629775967
 20
82.58169271636459
 30
0.0
 10
180.2363487070591
 20
81.70160368220333
 30
0.0
 10
181.67645180093
 20
81.13699367693373
 30
0.0
 10
182.6501486967488
 20
80.7985474605989
 30
0.0
 10
183.6338937256592
 20
80.49936795074159
 30
0.0
 10
184.6270068582909
 20
80.23961842908928
 30
0.0
 10
185.6287696312033
 20
80.01944406273803
 30
0.0
 10
186.6384741125751
 20
79.83906371321365
 30
0.0
 10
187.6554102517527
 20
79.6983584787169
 30
0.0
 10
188.6788686711254
 20
79.59842845321461
 30
0.0
 10
189.7081431704846
 20
79.53576100540639
 30
0.0
 10
190.3963483778161
 20
79.52799502367097
 30
0.0
 10
190.7410434485443
 20
79.52410534716888
 30
0.0
  0
SPLINE
  5
1AD
330
1F
100
AcDbEntity
  8
0
  6
Continuous
 62
     7
370
    25
100
AcDbSpline
210
0.0
220
0.0
230
1.0
 70
     8
 71
     3
 72
    22
 73
    18
 74
     0
 42
0.000000001
 43
0.00000001
 40
0.0
 40
0.0
 40
0.0
 40
0.0
 40
0.125
 40
0.125
 40
0.25
 40
0.25
 40
0.375
 40
0.375
 40
0.5
 40
0.5
 40
0.625
 40
0.625
 40
0.75
 40
0.75
 40
0.875
 40
0.875
 40
1.0
 40
1.0
 40
1.0
 40
1.0
 10
190.9850746263125
 20
60.69569616873913
 30
0.0
 10
190.9718037122433
 20
60.82821980321781
 30
0.0
 10
190.9581381870871
 20
61.05050126629433
 30
0.0
 10
190.930546087774
 20
61.69424835972287
 30
0.0
 10
190.9166215673363
 20
62.11589766767081
 30
0.0
 10
190.8891749681026
 20
63.16258180659828
 30
0.0
 10
190.8756563090159
 20
63.7876906758254
 30
0.0
 10
190.8497357267911
 20
65.22543290191679
 30
0.0
 10
190.8373377059938
 20
66.03797795207394
 30
0.0
 10
190.8143096089695
 20
67.8147281089174
 30
0.0
 10
190.8036826342032
 20
68.77869392006414
 30
0.0
 10
190.7846746507105
 20
70.80744899511932
 30
0.0
 10
190.7762949279521
 20
71.87192625786429
 30
0.0
 10
190.7620171533781
 20
74.04451758180406
 30
0.0
 10
190.7561183665735
 20
75.15235046314942
 30
0.0
 10
190.7467876692214
 20
77.35740953450058
 30
0.0
 10
190.7433536054936
 20
78.45445972090873
 30
0.0
 10
190.7410434485443
 20
79.52410534716888
 30
0.0
  0
SPLINE
  5
1AE
330
1F
100
AcDbEntity
  8
0
  6
Continuous
 62
     7
370
    25
100
AcDbSpline
210
0.0
220
0.0
230
1.0
 70
     8
 71
     3
 72
    22
 73
    18
 74
     0
 42
0.000000001
 43
0.00000001
 40
0.0
 40
0.0
 40
0.0
 40
0.0
 40
0.125
 40
0.125
 40
0.25
 40
0.25
 40
0.375
 40
0.375
 40
0.5
 40
0.5
 40
0.625
 40
0.625
 40
0.75
 40
0.75
 40
0.875
 40
0.875
 40
1.0
 40
1.0
 40
1.0
 40
1.0
 10
260.9850746263118
 20
60.6956961687391
 30
0.0
 10
260.998345540381
 20
60.82821980321781
 30
0.0
 10
261.0120110655372
 20
61.05050126629427
 30
0.0
 10
261.0396031648503
 20
61.69424835972284
 30
0.0
 10
261.053527685288
 20
62.11589766767067
 30
0.0
 10
261.0809742845217
 20
63.16258180659812
 30
0.0
 10
261.0944929436084
 20
63.78769067582535
 30
0.0
 10
261.1204135258332
 20
65.22543290191668
 30
0.0
 10
261.1328115466304
 20
66.03797795207386
 30
0.0
 10
261.1558396436548
 20
67.81472810891731
 30
0.0
 10
261.166466618421
 20
68.77869392006409
 30
0.0
 10
261.1854746019137
 20
70.80744899511923
 30
0.0
 10
261.1938543246721
 20
71.87192625786426
 30
0.0
 10
261.208132099246
 20
74.044517581804
 30
0.0
 10
261.2140308860507
 20
75.15235046314945
 30
0.0
 10
261.2233615834028
 20
77.35740953450058
 30
0.0
 10
261.2267956471306
 20
78.45445972090873
 30
0.0
 10
261.2291058040798
 20
79.52410534716888
 30
0.0
  0
SPLINE
  5
1AF
330
1F
100
AcDbEntity
  8
0
  6
Continuous
 62
     7
370
    25
100
AcDbSpline
210
0.0
220
0.0
230
1.0
 70
     8
 71
     3
 72
    45
 73
    41
 74
     0
 42
0.000000001
 43
0.00000001
 40
0.0
 40
0.0
 40
0.0
 40
0.0
 40
0.0126496010122533
 40
0.0252749347435241
 40
0.0378786824985814
 40
0.0504635342132097
 40
0.063032186877854
 40
0.0755873429353251
 40
0.0881317086574828
 40
0.1006679925059826
 40
0.1131989034822951
 40
0.1257271494723048
 40
0.1382554355908366
 40
0.1507864625314773
 40
0.1633229249270292
 40
0.1758675097258546
 40
0.1884228945892852
 40
0.2009917463150959
 40
0.213576719291893
 40
0.2261804539890248
 40
0.238805575486399
 40
0.2514546920483166
 40
0.3142213047939732
 40
0.3766293398275701
 40
0.4390268355628198
 40
0.5017705995240125
 40
0.564645578825103
 40
0.6269248044995474
 40
0.6890344186549732
 40
0.7514135758596363
 40
0.7768938606767188
 40
0.8021450890418794
 40
0.8272008117319529
 40
0.8520950837590515
 40
0.8768623084504941
 40
0.901537072178871
 40
0.9261539728707392
 40
0.9507474457611955
 40
0.9753515900363736
 40
1.0
 40
1.0
 40
1.0
 40
1.0
 10
261.22910580408
 20
79.52410534716877
 30
0.0
 10
261.4019932351949
 20
79.52509068509195
 30
0.0
 10
261.7474364262626
 20
79.5270594706437
 30
0.0
 10
262.2649483383621
 20
79.54283412829149
 30
0.0
 10
262.7811831503373
 20
79.56798521641382
 30
0.0
 10
263.2960526190406
 20
79.60341545966337
 30
0.0
 10
263.8094678920841
 20
79.64886579955154
 30
0.0
 10
264.3213402018189
 20
79.70438695902918
 30
0.0
 10
264.8315806850205
 20
79.76994605287294
 30
0.0
 10
265.3401004363418
 20
79.84553178157216
 30
0.0
 10
265.8468104993202
 20
79.93112628978352
 30
0.0
 10
266.3516218739949
 20
80.02671269392094
 30
0.0
 10
266.8544455205791
 20
80.1322730650122
 30
0.0
 10
267.3551923624431
 20
80.24778896560834
 30
0.0
 10
267.8537732958958
 20
80.37324130664588
 30
0.0
 10
268.3500991735195
 20
80.50861037237378
 30
0.0
 10
268.8440808866463
 20
80.65387585320829
 30
0.0
 10
269.3356290772894
 20
80.80901667886212
 30
0.0
 10
269.8246552352468
 20
80.9740116439689
 30
0.0
 10
270.3110676156501
 20
81.14883705831757
 30
0.0
 10
270.7947865303323
 20
81.33347552985649
 30
0.0
 10
271.9104378329178
 20
81.78448565908022
 30
0.0
 10
273.616092419
 20
82.59211047446769
 30
0.0
 10
275.8174428365355
 20
83.91377781401977
 30
0.0
 10
277.8773433508422
 20
85.44621052308352
 30
0.0
 10
279.7808196900081
 20
87.17804581772448
 30
0.0
 10
281.5071590173188
 20
89.08407793430723
 30
0.0
 10
283.0318330859491
 20
91.14408559311002
 30
0.0
 10
284.3409082756161
 20
93.33901236446864
 30
0.0
 10
285.213276977576
 20
95.19655054920986
 30
0.0
 10
285.7743315761221
 20
96.63637050274885
 30
0.0
 10
286.1119654015329
 20
97.61520272671453
 30
0.0
 10
286.4081085895235
 20
98.59894387982757
 30
0.0
 10
286.6631326594902
 20
99.58726691439566
 30
0.0
 10
286.8774044190213
 20
100.5798472227202
 30
0.0
 10
287.0512309738617
 20
101.5763983288213
 30
0.0
 10
287.1852470346514
 20
102.5766639728732
 30
0.0
 10
287.2789231121658
 20
103.5804146385033
 30
0.0
 10
287.3361393518709
 20
104.5874694090918
 30
0.0
 10
287.341608799626
 20
105.2599935843158
 30
0.0
 10
287.3443459813342
 20
105.596557887174
 30
0.0
  0
SPLINE
  5
1B0
330
1F
100
AcDbEntity
  8
0
  6
Continuous
 62
     7
370
    25
100
AcDbSpline
210
0.0
220
0.0
230
1.0
 70
     8
 71
     3
 72
    22
 73
    18
 74
     0
 42
0.000000001
 43
0.00000001
 40
0.0
 40
0.0
 40
0.0
 40
0.0
 40
0.125
 40
0.125
 40
0.25
 40
0.25
 40
0.375
 40
0.375
 40
0.5
 40
0.5
 40
0.625
 40
0.625
 40
0.75
 40
0.75
 40
0.875
 40
0.875
 40
1.0
 40
1.0
 40
1.0
 40
1.0
 10
287.3443459813342
 20
105.5965578871742
 30
0.0
 10
288.4314321267908
 20
105.60418574926
 30
0.0
 10
289.5499049825833
 20
105.6162097291716
 30
0.0
 10
291.8043619695275
 20
105.6499941226369
 30
0.0
 10
292.940163180988
 20
105.6717639508851
 30
0.0
 10
295.1724486087236
 20
105.7251941363571
 30
0.0
 10
296.2686274605387
 20
105.7568580807732
 30
0.0
 10
298.3608147931425
 20
105.8292073214761
 30
0.0
 10
299.3564774733374
 20
105.8698875873918
 30
0.0
 10
301.1928984436661
 20
105.9583905873091
 30
0.0
 10
302.0333890750603
 20
106.00620042198
 30
0.0
 10
303.5205172432263
 20
106.1063498428514
 30
0.0
 10
304.1670561631246
 20
106.1586730415239
 30
0.0
 10
305.2489034221427
 20
106.2649615096943
 30
0.0
 10
305.684295260108
 20
106.3189124995865
 30
0.0
 10
306.3482367713897
 20
106.4257750635566
 30
0.0
 10
306.576990826749
 20
106.4786782572793
 30
0.0
 10
306.7130981386962
 20
106.5300000000001
 30
0.0
  0
SPLINE
  5
1B1
330
1F
100
AcDbEntity
  8
0
  6
Continuous
 62
     7
370
    25
100
AcDbSpline
210
0.0
220
0.0
230
1.0
 70
     8
 71
     3
 72
    45
 73
    41
 74
     0
 42
0.000000001
 43
0.00000001
 40
0.0
 40
0.0
 40
0.0
 40
0.0
 40
0.012649601007397
 40
0.0252749347343015
 40
0.0378786824854894
 40
0.0504635341967478
 40
0.0630321868585257
 40
0.0755873429136403
 40
0.088131708633957
 40
0.1006679924811327
 40
0.113198903456641
 40
0.1257271494463664
 40
0.1382554355651381
 40
0.150786462506546
 40
0.1633229249033871
 40
0.1758675097040301
 40
0.1884228945698042
 40
0.2009917462984856
 40
0.2135767192786744
 40
0.2261804539797225
 40
0.2388055754815304
 40
0.2514546920483994
 40
0.3142213047600187
 40
0.3766293397823355
 40
0.4390268355286747
 40
0.5017705995224202
 40
0.5646455788079162
 40
0.6269248044770742
 40
0.6890344186381326
 40
0.7514135758597594
 40
0.7768938606911888
 40
0.8021450890674732
 40
0.8272008117654441
 40
0.8520950837972202
 40
0.8768623084901346
 40
0.9015370722167996
 40
0.9261539729038039
 40
0.9507474457862839
 40
0.9753515900504236
 40
1.0
 40
1.0
 40
1.0
 40
1.0
 10
190.7410434485446
 20
373.535894652831
 30
0.0
 10
190.5681560174957
 20
373.5349093149243
 30
0.0
 10
190.2227128265532
 20
373.5329405294056
 30
0.0
 10
189.7052009146304
 20
373.5171658718025
 30
0.0
 10
189.1889661028112
 20
373.4920147837214
 30
0.0
 10
188.6740966342429
 20
373.4565845405085
 30
0.0
 10
188.1606813613136
 20
373.4111342006524
 30
0.0
 10
187.6488090516719
 20
373.3556130412021
 30
0.0
 10
187.1385685685425
 20
373.290053947381
 30
0.0
 10
186.6300488172727
 20
373.2144682186989
 30
0.0
 10
186.1233387543248
 20
373.1288737104995
 30
0.0
 10
185.6185273796598
 20
373.0332873063682
 30
0.0
 10
185.1157037330644
 20
372.9277269352775
 30
0.0
 10
184.6149568911686
 20
372.8122110346757
 30
0.0
 10
184.1163759576633
 20
372.6867586936263
 30
0.0
 10
183.6200500799665
 20
372.5513896278802
 30
0.0
 10
183.1260683667458
 20
372.4061241470207
 30
0.0
 10
182.6345201759885
 20
372.2509833213351
 30
0.0
 10
182.1454940178964
 20
372.0859883561893
 30
0.0
 10
181.6590816373382
 20
371.9111629417946
 30
0.0
 10
181.1753627224814
 20
371.7265244702012
 30
0.0
 10
180.0597114201886
 20
371.2755143411464
 30
0.0
 10
178.3540568345992
 20
370.4678895259979
 30
0.0
 10
176.1527064174825
 20
369.1462221866482
 30
0.0
 10
174.0928059028008
 20
367.6137894773539
 30
0.0
 10
172.1893295630883
 20
365.8819541827468
 30
0.0
 10
170.462990235342
 20
363.9759220663285
 30
0.0
 10
168.9383161667714
 20
361.915914407723
 30
0.0
 10
167.6292409770423
 20
359.7209876361159
 30
0.0
 10
166.7568722750237
 20
357.8634494508379
 30
0.0
 10
166.1958176763709
 20
356.4236294967163
 30
0.0
 10
165.858183850849
 20
355.4447972723052
 30
0.0
 10
165.5620406627877
 20
354.4610561188737
 30
0.0
 10
165.3070165927843
 20
353.4727330841152
 30
0.0
 10
165.0927448332483
 20
352.4801527757277
 30
0.0
 10
164.9189182784322
 20
351.4836016696914
 30
0.0
 10
164.7849022176921
 20
350.4833360258312
 30
0.0
 10
164.6912261402513
 20
349.4795853605201
 30
0.0
 10
164.6340099006383
 20
348.4725305903763
 30
0.0
 10
164.6285404529599
 20
347.800006415493
 30
0.0
 10
164.6258032712903
 20
347.4634421128258
 30
0.0
  0
SPLINE
  5
1B2
330
1F
100
AcDbEntity
  8
0
  6
Continuous
 62
     7
370
    25
100
AcDbSpline
210
0.0
220
0.0
230
1.0
 70
     8
 71
     3
 72
    22
 73
    18
 74
     0
 42
0.000000001
 43
0.00000001
 40
0.0
 40
0.0
 40
0.0
 40
0.0
 40
0.125
 40
0.125
 40
0.25
 40
0.25
 40
0.375
 40
0.375
 40
0.5
 40
0.5
 40
0.625
 40
0.625
 40
0.75
 40
0.75
 40
0.875
 40
0.875
 40
1.0
 40
1.0
 40
1.0
 40
1.0
 10
145.2570511139282
 20
346.5299999999997
 30
0.0
 10
145.3931584258754
 20
346.5813217427205
 30
0.0
 10
145.6219124812348
 20
346.6342249364433
 30
0.0
 10
146.2858539925165
 20
346.7410875004133
 30
0.0
 10
146.7212458304817
 20
346.7950384903055
 30
0.0
 10
147.8030930894998
 20
346.901326958476
 30
0.0
 10
148.4496320093982
 20
346.9536501571484
 30
0.0
 10
149.9367601775641
 20
347.0537995780198
 30
0.0
 10
150.7772508089583
 20
347.1016094126908
 30
0.0
 10
152.613671779287
 20
347.1901124126081
 30
0.0
 10
153.6093344594819
 20
347.2307926785239
 30
0.0
 10
155.7015217920857
 20
347.3031419192267
 30
0.0
 10
156.7977006439009
 20
347.3348058636428
 30
0.0
 10
159.0299860716365
 20
347.3882360491148
 30
0.0
 10
160.165787283097
 20
347.4100058773631
 30
0.0
 10
162.4202442700412
 20
347.4437902708283
 30
0.0
 10
163.5387171258337
 20
347.4558142507399
 30
0.0
 10
164.6258032712903
 20
347.4634421128257
 30
0.0
  0
SPLINE
  5
1B3
330
1F
100
AcDbEntity
  8
0
  6
Continuous
 62
     7
370
    25
100
AcDbSpline
210
0.0
220
0.0
230
1.0
 70
     8
 71
     3
 72
    18
 73
    14
 74
     0
 42
0.000000001
 43
0.00000001
 40
0.0
 40
0.0
 40
0.0
 40
0.0
 40
0.0721328501101247
 40
0.1437721355799328
 40
0.2150695945921846
 40
0.2861809520588242
 40
0.3572652066393521
 40
0.4284838534755728
 40
0.5000000671403438
 40
0.6249491820881513
 40
0.749361398185488
 40
0.8740996701882557
 40
0.9999999999999999
 40
0.9999999999999999
 40
0.9999999999999999
 40
0.9999999999999999
 10
190.7410434485445
 20
79.52410534716877
 30
0.0
 10
192.4358047387805
 20
79.52435901019078
 30
0.0
 10
195.8137310181862
 20
79.52486460056093
 30
0.0
 10
200.8669075959356
 20
79.52756657791515
 30
0.0
 10
205.89615393507
 20
79.52919124913882
 30
0.0
 10
210.9124243462787
 20
79.52911436582832
 30
0.0
 10
215.9268896374975
 20
79.52720856034045
 30
0.0
 10
220.9508991794708
 20
79.52437694997819
 30
0.0
 10
227.2405666141401
 20
79.52205691143843
 30
0.0
 10
234.780107158637
 20
79.52677113857312
 30
0.0
 10
243.5700945926214
 20
79.53026393618023
 30
0.0
 10
252.3822837947238
 20
79.52666667890182
 30
0.0
 10
258.271064243933
 20
79.52496175930283
 30
0.0
 10
261.2291058040798
 20
79.52410534716888
 30
0.0
  0
SPLINE
  5
1B4
330
1F
100
AcDbEntity
  8
0
  6
Continuous
 62
     7
370
    25
100
AcDbSpline
210
0.0
220
0.0
230
1.0
 70
     8
 71
     3
 72
    27
 73
    23
 74
     0
 42
0.000000001
 43
0.00000001
 40
0.0
 40
0.0
 40
0.0
 40
0.0
 40
0.0459759800284222
 40
0.0926494579588626
 40
0.1401202105531524
 40
0.1884743045785725
 40
0.2377849097004067
 40
0.2881132467345358
 40
0.3395096275898092
 40
0.3920145540669914
 40
0.4456598532425913
 40
0.5004698364895469
 40
0.5454525467728337
 40
0.5915151357415099
 40
0.6386710832531941
 40
0.6869309641017968
 40
0.736302857325753
 40
0.7867927435637465
 40
0.838404893458687
 40
0.891142250243503
 40
0.9450068096295603
 40
1.0
 40
1.0
 40
1.0
 40
1.0
 10
289.9725259242884
 20
262.5227587301171
 30
0.0
 10
289.9249709537577
 20
263.8249524004747
 30
0.0
 10
289.8291395600563
 20
266.4490952168216
 30
0.0
 10
289.6768555316996
 20
270.4172328486469
 30
0.0
 10
289.5170438216577
 20
274.4523257355439
 30
0.0
 10
289.3491201523732
 20
278.5616659968765
 30
0.0
 10
289.1735808473402
 20
282.7515193952286
 30
0.0
 10
288.9912595701434
 20
287.027149425952
 30
0.0
 10
288.8037525934409
 20
291.392930404937
 30
0.0
 10
288.6135048010557
 20
295.8524411856237
 30
0.0
 10
288.4239127217609
 20
300.4085612112873
 30
0.0
 10
288.2519255669577
 20
304.7519138226646
 30
0.0
 10
288.0997972384524
 20
308.8808870137137
 30
0.0
 10
287.9650102924135
 20
312.7933810291879
 30
0.0
 10
287.8372666081612
 20
316.7988581206453
 30
0.0
 10
287.7180574573852
 20
320.8982468963097
 30
0.0
 10
287.6094419392976
 20
325.0922684680581
 30
0.0
 10
287.5141091377828
 20
329.3814604317547
 30
0.0
 10
287.4350823335405
 20
333.7662019882247
 30
0.0
 10
287.3769657195202
 20
338.2467257754023
 30
0.0
 10
287.3411844237406
 20
342.8231618547364
 30
0.0
 10
287.3432848697014
 20
345.9060277006311
 30
0.0
 10
287.3443459813342
 20
347.4634421128253
 30
0.0
  0
SPLINE
  5
1B5
330
1F
100
AcDbEntity
  8
0
  6
Continuous
 62
     7
370
    25
100
AcDbSpline
210
0.0
220
0.0
230
1.0
 70
     8
 71
     3
 72
    22
 73
    18
 74
     0
 42
0.000000001
 43
0.00000001
 40
0.0
 40
0.0
 40
0.0
 40
0.0
 40
0.125
 40
0.125
 40
0.25
 40
0.25
 40
0.375
 40
0.375
 40
0.5
 40
0.5
 40
0.625
 40
0.625
 40
0.75
 40
0.75
 40
0.875
 40
0.875
 40
1.0
 40
1.0
 40
1.0
 40
1.0
 10
289.9723881362544
 20
262.5226812247412
 30
0.0
 10
290.8694869412892
 20
262.5141045149927
 30
0.0
 10
291.7896720640115
 20
262.5038628133077
 30
0.0
 10
293.6399056607793
 20
262.479981781598
 30
0.0
 10
294.5698099550369
 20
262.4663404712333
 30
0.0
 10
296.3947664149514
 20
262.4359081880685
 30
0.0
 10
297.2895887758235
 20
262.4191176384504
 30
0.0
 10
298.9970607023278
 20
262.3829843612677
 30
0.0
 10
299.8094549358431
 20
262.3636448846087
 30
0.0
 10
301.3096941379849
 20
262.3233062133539
 30
0.0
 10
301.9973419144815
 20
262.3023123208916
 30
0.0
 10
303.2177699285296
 20
262.2597197568882
 30
0.0
 10
303.7504748822973
 20
262.2381267240947
 30
0.0
 10
304.6470498641427
 20
262.1953820352259
 30
0.0
 10
305.0109768017797
 20
262.1742346048031
 30
0.0
 10
305.5726377601536
 20
262.1332642305355
 30
0.0
 10
305.7705193576539
 20
262.1134431756923
 30
0.0
 10
305.8932980353336
 20
262.0945972568115
 30
0.0
  0
SPLINE
  5
1B6
330
1F
100
AcDbEntity
  8
0
  6
Continuous
 62
     7
370
    25
100
AcDbSpline
210
0.0
220
0.0
230
1.0
 70
     8
 71
     3
 72
    22
 73
    18
 74
     0
 42
0.000000001
 43
0.00000001
 40
0.0
 40
0.0
 40
0.0
 40
0.0
 40
0.125
 40
0.125
 40
0.25
 40
0.25
 40
0.375
 40
0.375
 40
0.5
 40
0.5
 40
0.625
 40
0.625
 40
0.75
 40
0.75
 40
0.875
 40
0.875
 40
1.0
 40
1.0
 40
1.0
 40
1.0
 10
146.0770009499904
 20
190.966698123019
 30
0.0
 10
146.1997771218178
 20
190.9432751826576
 30
0.0
 10
146.3976653445445
 20
190.9191615695828
 30
0.0
 10
146.9593621627809
 20
190.8704758722696
 30
0.0
 10
147.3233183857865
 20
190.8459073487682
 30
0.0
 10
148.2199762624165
 20
190.7974685388164
 30
0.0
 10
148.7527348504169
 20
190.7736041458054
 30
0.0
 10
149.9732922028406
 20
190.7278180859281
 30
0.0
 10
150.6610156630387
 20
190.7059031363975
 30
0.0
 10
152.1614219548883
 20
190.6651521522508
 30
0.0
 10
152.9739075314562
 20
190.6463214750761
 30
0.0
 10
154.6815687133195
 20
190.6125772185869
 30
0.0
 10
155.5764889076811
 20
190.5976659041495
 30
0.0
 10
157.4016378915911
 20
190.5721805318136
 30
0.0
 10
158.3316368150469
 20
190.5616052772953
 30
0.0
 10
160.1820484809465
 20
190.5447781897507
 30
0.0
 10
161.1023170189315
 20
190.5385227030178
 30
0.0
 10
161.9994911261577
 20
190.5342438282922
 30
0.0
  0
SPLINE
  5
1B7
330
1F
100
AcDbEntity
  8
0
  6
Continuous
 62
     7
370
    25
100
AcDbSpline
210
0.0
220
0.0
230
1.0
 70
     8
 71
     3
 72
    27
 73
    23
 74
     0
 42
0.000000001
 43
0.00000001
 40
0.0
 40
0.0
 40
0.0
 40
0.0
 40
0.0459775704097916
 40
0.0926530123866319
 40
0.1401261305675576
 40
0.1884830146817287
 40
0.2377968529447983
 40
0.2881288808402926
 40
0.3395294215830861
 40
0.3920389854092876
 40
0.4456894054085705
 40
0.5005049969462204
 40
0.5454838813441363
 40
0.591542716242045
 40
0.6386949794253907
 40
0.6869512444927857
 40
0.7363195899027685
 40
0.7868059960550323
 40
0.8384147334060305
 40
0.8911487447512915
 40
0.9450100247938896
 40
1.0
 40
1.0
 40
1.0
 40
1.0
 10
161.9993486061026
 20
190.534163653436
 30
0.0
 10
162.0469049597062
 20
189.2319730286333
 30
0.0
 10
162.1427395020762
 20
186.6078264498939
 30
0.0
 10
162.294996011919
 20
182.6396665164297
 30
0.0
 10
162.4547613087101
 20
178.6045190269451
 30
0.0
 10
162.622619860827
 20
174.4950901387873
 30
0.0
 10
162.7980787571012
 20
170.3051128310067
 30
0.0
 10
162.9803065912834
 20
166.0293226305404
 30
0.0
 10
163.167709353089
 20
161.6633445283753
 30
0.0
 10
163.3578441121928
 20
157.203599218012
 30
0.0
 10
163.5473159264295
 20
152.6472070070942
 30
0.0
 10
163.7191758460323
 20
148.3038142657258
 30
0.0
 10
163.8711727500921
 20
144.1750447604154
 30
0.0
 10
164.0058275525147
 20
140.2630100332614
 30
0.0
 10
164.1334414377032
 20
136.2579900300148
 30
0.0
 10
164.252525897059
 20
132.159056384537
 30
0.0
 10
164.3610249999971
 20
127.9654881654218
 30
0.0
 10
164.4562532026315
 20
123.6767479007509
 30
0.0
 10
164.5351908597736
 20
119.2924564675793
 30
0.0
 10
164.5932387353874
 20
114.8123812582851
 30
0.0
 10
164.6289732684315
 20
110.2363922120225
 30
0.0
 10
164.6268672163285
 20
107.1538238682438
 30
0.0
 10
164.6258032712902
 20
105.5965578871742
 30
0.0
  0
SPLINE
  5
1B8
330
1F
100
AcDbEntity
  8
0
  6
Continuous
 62
     7
370
    25
100
AcDbSpline
210
0.0
220
0.0
230
1.0
 70
     8
 71
     3
 72
    31
 73
    27
 74
     0
 42
0.000000001
 43
0.00000001
 40
0.0
 40
0.0
 40
0.0
 40
0.0
 40
0.0306879781155044
 40
0.0610275998669912
 40
0.091019075334917
 40
0.120662636072769
 40
0.1499585553837567
 40
0.1789071684786991
 40
0.2075088925588187
 40
0.2357642468693895
 40
0.2636738727721341
 40
0.2912385538858682
 40
0.3184592363461187
 40
0.3453370492351809
 40
0.3718733252342947
 40
0.3980696215491372
 40
0.4239277411585798
 40
0.4494497544344397
 40
0.474638021176614
 40
0.499495213103291
 40
0.5902029261656851
 40
0.6777211090943073
 40
0.7621982596216219
 40
0.8438527129448273
 40
0.9229868586393126
 40
1.0
 40
1.0
 40
1.0
 40
1.0
 10
287.3443459813342
 20
105.5965578871742
 30
0.0
 10
287.3429380801293
 20
106.4656075086413
 30
0.0
 10
287.3401382595919
 20
108.1938416843773
 30
0.0
 10
287.3487202295535
 20
110.7714432226775
 30
0.0
 10
287.3655488411573
 20
113.3194550073434
 30
0.0
 10
287.3907014087201
 20
115.8378787177302
 30
0.0
 10
287.4231086224463
 20
118.3267191230984
 30
0.0
 10
287.46207710941
 20
120.785993929211
 30
0.0
 10
287.5068880312639
 20
123.2157319364535
 30
0.0
 10
287.5569021864879
 20
125.6159744200557
 30
0.0
 10
287.6115317015482
 20
127.9867758035231
 30
0.0
 10
287.6702467517453
 20
130.328204656187
 30
0.0
 10
287.7325729843492
 20
132.6403447393921
 30
0.0
 10
287.7980912661995
 20
134.9232961710645
 30
0.0
 10
287.8664368222592
 20
137.1771766806253
 30
0.0
 10
287.9372980519221
 20
139.4021229754625
 30
0.0
 10
288.0104166909826
 20
141.5982921391036
 30
0.0
 10
288.0855824672835
 20
143.7658633282306
 30
0.0
 10
288.1626474897253
 20
145.9050387695121
 30
0.0
 10
288.3114143646254
 20
149.889388278221
 30
0.0
 10
288.5445460729237
 20
155.6377020787134
 30
0.0
 10
288.8627587086416
 20
163.0734465922576
 30
0.0
 10
289.1707929351828
 20
170.2534994404658
 30
0.0
 10
289.4595868802731
 20
177.197214781818
 30
0.0
 10
289.7276320519719
 20
183.930658732443
 30
0.0
 10
289.8904817885205
 20
188.3530186047181
 30
0.0
 10
289.9708006337461
 20
190.5341632945456
 30
0.0
  0
SPLINE
  5
1B9
330
1F
100
AcDbEntity
  8
0
  6
Continuous
 62
     7
370
    25
100
AcDbSpline
210
0.0
220
0.0
230
1.0
 70
     8
 71
     3
 72
    22
 73
    18
 74
     0
 42
0.000000001
 43
0.00000001
 40
0.0
 40
0.0
 40
0.0
 40
0.0
 40
0.125
 40
0.125
 40
0.25
 40
0.25
 40
0.375
 40
0.375
 40
0.5
 40
0.5
 40
0.625
 40
0.625
 40
0.75
 40
0.75
 40
0.875
 40
0.875
 40
1.0
 40
1.0
 40
1.0
 40
1.0
 10
289.9706705227096
 20
190.5307213637354
 30
0.0
 10
290.8678679796161
 20
190.5349747074912
 30
0.0
 10
291.7881576490936
 20
190.5412012280291
 30
0.0
 10
293.6386046145026
 20
190.5579636775778
 30
0.0
 10
294.5686176789227
 20
190.5685032573267
 30
0.0
 10
296.3937865298911
 20
190.5939114165769
 30
0.0
 10
297.2887124360963
 20
190.6087811949307
 30
0.0
 10
298.9963769773391
 20
190.6424380655507
 30
0.0
 10
299.8088602104697
 20
190.6612229009617
 30
0.0
 10
301.3092560138197
 20
190.7018799916743
 30
0.0
 10
301.9969713596083
 20
190.7237469014295
 30
0.0
 10
303.2175102404303
 20
190.7694370209764
 30
0.0
 10
303.7502585091109
 20
190.7932535254228
 30
0.0
 10
304.6468972672812
 20
190.8415989180857
 30
0.0
 10
305.0108447189118
 20
190.8661219212631
 30
0.0
 10
305.5725284340731
 20
190.9147207109415
 30
0.0
 10
305.7704123337843
 20
190.9387929397406
 30
0.0
 10
305.8931871553424
 20
190.9621771371381
 30
0.0
  0
SPLINE
  5
1BA
330
1F
100
AcDbEntity
  8
0
  6
Continuous
 62
     7
370
    25
100
AcDbSpline
210
0.0
220
0.0
230
1.0
 70
     8
 71
     3
 72
    31
 73
    27
 74
     0
 42
0.000000001
 43
0.00000001
 40
0.0
 40
0.0
 40
0.0
 40
0.0
 40
0.03068975746821
 40
0.061031177908853
 40
0.0910244718654414
 40
0.1206698712379436
 40
0.1499676495784839
 40
0.1789181422676525
 40
0.2075217666151769
 40
0.2357790419309076
 40
0.2636906096140439
 40
0.2912572533101167
 40
0.3184799191864821
 40
0.345359736377812
 40
0.3718980376532789
 40
0.398096380356657
 40
0.4239565676693016
 40
0.4494806702437462
 40
0.4746710482523128
 40
0.4995303738904326
 40
0.590229012192961
 40
0.6777394662393258
 40
0.7622102055182916
 40
0.8438595170911036
 40
0.9229897164085714
 40
1.0
 40
1.0
 40
1.0
 40
1.0
 10
164.6258032712903
 20
347.4634421128256
 30
0.0
 10
164.627210393214
 20
346.5943100810551
 30
0.0
 10
164.6300086658479
 20
344.865910900572
 30
0.0
 10
164.6214118187821
 20
342.2880615857225
 30
0.0
 10
164.6045602293234
 20
339.73980152941
 30
0.0
 10
164.5793764891775
 20
337.2211290612942
 30
0.0
 10
164.5469309673512
 20
334.7320394211785
 30
0.0
 10
164.5079177488873
 20
332.2725149064869
 30
0.0
 10
164.4630564332237
 20
329.8425267160608
 30
0.0
 10
164.4129869277025
 20
327.4420335696222
 30
0.0
 10
164.3582977842178
 20
325.0709810344567
 30
0.0
 10
164.299519471412
 20
322.7293005277114
 30
0.0
 10
164.2371269537969
 20
320.4169082699743
 30
0.0
 10
164.1715399441575
 20
318.1337041203438
 30
0.0
 10
164.1031237653108
 20
315.8795703210624
 30
0.0
 10
164.0321905354703
 20
313.6543701304163
 30
0.0
 10
163.9589990027482
 20
311.4579464240825
 30
0.0
 10
163.8837599055542
 20
309.2901199966214
 30
0.0
 10
163.8066215283071
 20
307.1506885664116
 30
0.0
 10
163.6577350230791
 20
303.1663331135822
 30
0.0
 10
163.4244419690264
 20
297.4182291762828
 30
0.0
 10
163.1060399942689
 20
289.9828759953205
 30
0.0
 10
162.7978421370015
 20
282.8031113685842
 30
0.0
 10
162.5089221477812
 20
275.8595840290973
 30
0.0
 10
162.24079263637
 20
269.126233227862
 30
0.0
 10
162.0779427611691
 20
264.7039029383747
 30
0.0
 10
161.9976233280636
 20
262.5227587316726
 30
0.0
  0
SPLINE
  5
1BB
330
1F
100
AcDbEntity
  8
0
  6
Continuous
 62
     7
370
    25
100
AcDbSpline
210
0.0
220
0.0
230
1.0
 70
     8
 71
     3
 72
    22
 73
    18
 74
     0
 42
0.000000001
 43
0.00000001
 40
0.0
 40
0.0
 40
0.0
 40
0.0
 40
0.125
 40
0.125
 40
0.25
 40
0.25
 40
0.375
 40
0.375
 40
0.5
 40
0.5
 40
0.625
 40
0.625
 40
0.75
 40
0.75
 40
0.875
 40
0.875
 40
1.0
 40
1.0
 40
1.0
 40
1.0
 10
146.0768512173953
 20
262.0945972583495
 30
0.0
 10
146.1996298950922
 20
262.1134431772206
 30
0.0
 10
146.3975114926061
 20
262.1332642320548
 30
0.0
 10
146.9591724509966
 20
262.1742346063064
 30
0.0
 10
147.3230993886366
 20
262.1953820367222
 30
0.0
 10
148.2196743704761
 20
262.2381267255798
 30
0.0
 10
148.7523793242347
 20
262.259719758369
 30
0.0
 10
149.9728073382531
 20
262.3023123223671
 30
0.0
 10
150.6604551147291
 20
262.3233062148283
 30
0.0
 10
152.1606943168214
 20
262.3636448860845
 30
0.0
 10
152.9730885503079
 20
262.3829843627458
 30
0.0
 10
154.680560476751
 20
262.4191176399365
 30
0.0
 10
155.5753828375909
 20
262.4359081895602
 30
0.0
 10
157.4003392974429
 20
262.4663404727391
 30
0.0
 10
158.3302435916702
 20
262.4799817831124
 30
0.0
 10
160.1804771883837
 20
262.5038628148413
 30
0.0
 10
161.1006623110822
 20
262.5141045165369
 30
0.0
 10
161.9977611160975
 20
262.5226812262968
 30
0.0
  0
SPLINE
  5
1BC
330
1F
100
AcDbEntity
  8
0
  6
Continuous
 62
     7
370
    25
100
AcDbSpline
210
0.0
220
0.0
230
1.0
 70
     8
 71
     3
 72
    14
 73
    10
 74
     0
 42
0.000000001
 43
0.00000001
 40
0.0
 40
0.0
 40
0.0
 40
0.0
 40
0.25
 40
0.25
 40
0.5
 40
0.5
 40
0.75
 40
0.75
 40
1.0
 40
1.0
 40
1.0
 40
1.0
 10
289.9706579723027
 20
190.5342435502266
 30
0.0
 10
293.0447635054076
 20
195.9987331235271
 30
0.0
 10
295.4148283003018
 20
201.8587731473971
 30
0.0
 10
298.5928189834459
 20
213.9890435367722
 30
0.0
 10
299.4005173627456
 20
220.2584055092086
 30
0.0
 10
299.4008187052889
 20
232.7980659675581
 30
0.0
 10
298.5934216469596
 20
239.0674667526058
 30
0.0
 10
295.4160139763385
 20
251.1978898695535
 30
0.0
 10
293.0462308312596
 20
257.0580437974512
 30
0.0
 10
289.9723879377137
 20
262.5226811130627
 30
0.0
  0
SPLINE
  5
1BD
330
1F
100
AcDbEntity
  8
0
  6
Continuous
 62
     7
370
    25
100
AcDbSpline
210
0.0
220
0.0
230
1.0
 70
     8
 71
     3
 72
    14
 73
    10
 74
     0
 42
0.000000001
 43
0.00000001
 40
0.0
 40
0.0
 40
0.0
 40
0.0
 40
0.2500000000000001
 40
0.2500000000000001
 40
0.5000000000000001
 40
0.5000000000000001
 40
0.7500000000000001
 40
0.7500000000000001
 40
1.0
 40
1.0
 40
1.0
 40
1.0
 10
161.99776131551
 20
262.5226811141279
 30
0.0
 10
158.9239184348581
 20
257.0580438216523
 30
0.0
 10
156.5541352966835
 20
251.1978899202333
 30
0.0
 10
153.3767276261542
 20
239.0674668580209
 30
0.0
 10
152.5693305610085
 20
232.7980661012111
 30
0.0
 10
152.5696318761982
 20
220.2584056958331
 30
0.0
 10
153.3773302349627
 20
213.9890437481114
 30
0.0
 10
156.5553208650938
 20
201.8587733996076
 30
0.0
 10
158.9253856275178
 20
195.9987333918765
 30
0.0
 10
161.9994911238884
 20
190.5342438283004
 30
0.0
  0
ARC
  5
1BE
330
1F
100
AcDbEntity
  8
0
  6
Continuous
 62
     7
370
    25
100
AcDbCircle
 10
225.9850746263
 20
226.53
 30
0.0
 40
73.41559342890372
100
AcDbArc
 50
29.3576293208
 51
150.6423706783
  0
ARC
  5
1BF
330
1F
100
AcDbEntity
  8
0
  6
Continuous
 62
     7
370
    25
100
AcDbCircle
 10
225.9850746263
 20
226.53
 30
0.0
 40
73.41559342890368
100
AcDbArc
 50
209.3603828394
 51
330.6396169116
  0
CIRCLE
  5
1C0
330
1F
100
AcDbEntity
  8
0
  6
Continuous
 62
     7
370
    25
100
AcDbCircle
 10
225.9850746263
 20
226.53
 30
0.0
 40
58.98236190979497
  0
CIRCLE
  5
1C1
330
1F
100
AcDbEntity
  8
0
  6
Continuous
 62
     7
370
    25
100
AcDbCircle
 10
225.9850746263
 20
226.53
 30
0.0
 40
57.49999999999994
  0
LINE
  5
1C2
330
1F
100
AcDbEntity
  8
0
  6
Continuous
 62
     8
370
    25
100
AcDbLine
 10
242.0118620862
 20
238.575295909
 30
0.0
 11
242.5273230542
 21
237.8570059228
 31
0.0
  0
LWPOLYLINE
  5
1C3
330
1F
100
AcDbEntity
  8
0
  6
Continuous
 62
     8
370
    25
100
AcDbPolyline
 90
        3
 70
   128
 43
0.0
 10
245.447563218
 20
231.3423411834
 10
245.4838847984
 20
231.1929924327
 10
245.8020525296
 20
229.568829891
  0
LINE
  5
1C4
330
1F
100
AcDbEntity
  8
0
  6
Continuous
 62
     8
370
    25
100
AcDbLine
 10
245.6414291878
 20
222.5835089485
 30
0.0
 11
245.2102659513
 21
220.8432549524
 31
0.0
  0
LWPOLYLINE
  5
1C5
330
1F
100
AcDbEntity
  8
0
  6
Continuous
 62
     8
370
    25
100
AcDbPolyline
 90
        3
 70
   128
 43
0.0
 10
241.9890111555
 20
214.4543588075
 10
241.0391785447
 20
213.2891159418
 10
240.7090377305
 20
212.9229431885
  0
LWPOLYLINE
  5
1C6
330
1F
100
AcDbEntity
  8
0
  6
Continuous
 62
     8
370
    25
100
AcDbPolyline
 90
        3
 70
   128
 43
0.0
 10
234.9971981962
 20
208.6211008865
 10
234.5176862795
 20
208.3877393889
 10
233.3548206147
 20
207.8850561666
  0
LINE
  5
1C7
330
1F
100
AcDbEntity
  8
0
  6
Continuous
 62
     8
370
    25
100
AcDbLine
 10
226.5118908612
 20
206.4883051354
 30
0.0
 11
224.7273797179
 21
206.5208697605
 31
0.0
  0
LINE
  5
1C8
330
1F
100
AcDbEntity
  8
0
  6
Continuous
 62
     8
370
    25
100
AcDbLine
 10
217.7702032272
 20
208.2416707563
 30
0.0
 11
216.1617094893
 21
209.0529141861
 31
0.0
  0
LINE
  5
1C9
330
1F
100
AcDbEntity
  8
0
  6
Continuous
 62
     8
370
    25
100
AcDbLine
 10
210.6504190956
 20
213.615070461
 30
0.0
 11
209.9582871665
 21
214.484704091
 31
0.0
  0
LINE
  5
1CA
330
1F
100
AcDbEntity
  8
0
  6
Continuous
 62
     8
370
    25
100
AcDbLine
 10
209.9582871665
 20
214.484704091
 30
0.0
 11
209.4428261984
 21
215.2029940772
 31
0.0
  0
LWPOLYLINE
  5
1CB
330
1F
100
AcDbEntity
  8
0
  6
Continuous
 62
     8
370
    25
100
AcDbPolyline
 90
        3
 70
   128
 43
0.0
 10
206.5643912424
 20
221.5516328725
 10
206.4862644542
 20
221.8670075673
 10
206.1680967231
 20
223.491170109
  0
LINE
  5
1CC
330
1F
100
AcDbEntity
  8
0
  6
Continuous
 62
     8
370
    25
100
AcDbLine
 10
206.3287200649
 20
230.4764910515
 30
0.0
 11
206.7623177786
 21
232.2249714199
 31
0.0
  0
LWPOLYLINE
  5
1CD
330
1F
100
AcDbEntity
  8
0
  6
Continuous
 62
     8
370
    25
100
AcDbPolyline
 90
        3
 70
   128
 43
0.0
 10
209.9811380972
 20
238.6056411925
 10
210.9309707079
 20
239.7708840582
 10
211.2611115221
 20
240.1370568115
  0
LWPOLYLINE
  5
1CE
330
1F
100
AcDbEntity
  8
0
  6
Continuous
 62
     8
370
    25
100
AcDbPolyline
 90
        3
 70
   128
 43
0.0
 10
216.807564931
 20
244.3547131407
 10
217.4524629731
 20
244.6722606111
 10
218.6153286379
 20
245.1749438334
  0
LINE
  5
1CF
330
1F
100
AcDbEntity
  8
0
  6
Continuous
 62
     8
370
    25
100
AcDbLine
 10
225.4582583914
 20
246.5716948646
 30
0.0
 11
227.2427695347
 21
246.5391302395
 31
0.0
  0
LINE
  5
1D0
330
1F
100
AcDbEntity
  8
0
  6
Continuous
 62
     8
370
    25
100
AcDbLine
 10
234.1999460254
 20
244.8183292437
 30
0.0
 11
235.8084397633
 21
244.0070858139
 31
0.0
  0
LINE
  5
1D1
330
1F
100
AcDbEntity
  8
0
  6
Continuous
 62
     8
370
    25
100
AcDbLine
 10
241.3197301571
 20
239.444929539
 30
0.0
 11
242.0118620862
 21
238.575295909
 31
0.0
  0
LINE
  5
1D2
330
1F
100
AcDbEntity
  8
0
  6
Continuous
 62
     8
370
    25
100
AcDbLine
 10
209.4716804345
 20
214.1189839604
 30
0.0
 11
210.1853640992
 21
213.2223084483
 31
0.0
  0
LINE
  5
1D3
330
1F
100
AcDbEntity
  8
0
  6
Continuous
 62
     8
370
    25
100
AcDbLine
 10
215.6967373807
 20
208.6169993418
 30
0.0
 11
217.5155880172
 21
207.6887352306
 31
0.0
  0
LWPOLYLINE
  5
1D4
330
1F
100
AcDbEntity
  8
0
  6
Continuous
 62
     8
370
    25
100
AcDbPolyline
 90
        3
 70
   128
 43
0.0
 10
224.4948855145
 20
205.9264847922
 10
225.7786788318
 20
205.8736955661
 10
226.5283528609
 20
205.8798106301
  0
LWPOLYLINE
  5
1D5
330
1F
100
AcDbEntity
  8
0
  6
Continuous
 62
     8
370
    25
100
AcDbPolyline
 90
        3
 70
   128
 43
0.0
 10
233.5771333669
 20
207.3183854955
 10
233.6992148552
 20
207.367078765
 10
235.4412490744
 20
208.1641008991
  0
LWPOLYLINE
  5
1D6
330
1F
100
AcDbEntity
  8
0
  6
Continuous
 62
     8
370
    25
100
AcDbPolyline
 90
        3
 70
   128
 43
0.0
 10
241.1570420731
 20
212.5108385372
 10
242.2471756358
 20
213.7914946216
 10
242.4739936609
 20
214.0864873219
  0
LWPOLYLINE
  5
1D7
330
1F
100
AcDbEntity
  8
0
  6
Continuous
 62
     8
370
    25
100
AcDbPolyline
 90
        3
 70
   128
 43
0.0
 10
245.7392907013
 20
220.4887716945
 10
245.8841132243
 20
220.984392232
 10
246.2381182481
 20
222.4630940619
  0
LINE
  5
1D8
330
1F
100
AcDbEntity
  8
0
  6
Continuous
 62
     8
370
    25
100
AcDbLine
 10
246.4035695661
 20
229.6621777496
 30
0.0
 11
245.9959129114
 21
231.6575547594
 31
0.0
  0
LINE
  5
1D9
330
1F
100
AcDbEntity
  8
0
  6
Continuous
 62
     8
370
    25
100
AcDbLine
 10
243.0283112694
 20
238.2027706045
 30
0.0
 11
242.4984688182
 21
238.9410160396
 31
0.0
  0
LINE
  5
1DA
330
1F
100
AcDbEntity
  8
0
  6
Continuous
 62
     8
370
    25
100
AcDbLine
 10
242.4984688182
 20
238.9410160396
 30
0.0
 11
241.7847851534
 21
239.8376915517
 31
0.0
  0
LINE
  5
1DB
330
1F
100
AcDbEntity
  8
0
  6
Continuous
 62
     8
370
    25
100
AcDbLine
 10
236.2734118719
 20
244.4430006582
 30
0.0
 11
234.4545612354
 21
245.3712647694
 31
0.0
  0
LWPOLYLINE
  5
1DC
330
1F
100
AcDbEntity
  8
0
  6
Continuous
 62
     8
370
    25
100
AcDbPolyline
 90
        3
 70
   128
 43
0.0
 10
227.4752637381
 20
247.1335152078
 10
226.1914704208
 20
247.1863044339
 10
225.4417963918
 20
247.1801893699
  0
LWPOLYLINE
  5
1DD
330
1F
100
AcDbEntity
  8
0
  6
Continuous
 62
     8
370
    25
100
AcDbPolyline
 90
        3
 70
   128
 43
0.0
 10
218.3930158858
 20
245.7416145045
 10
218.2709343974
 20
245.692921235
 10
216.5289001782
 20
244.8958991009
  0
LWPOLYLINE
  5
1DE
330
1F
100
AcDbEntity
  8
0
  6
Continuous
 62
     8
370
    25
100
AcDbPolyline
 90
        3
 70
   128
 43
0.0
 10
210.8131071795
 20
240.5491614628
 10
209.7229736168
 20
239.2685053784
 10
209.4961555917
 20
238.9735126781
  0
LWPOLYLINE
  5
1DF
330
1F
100
AcDbEntity
  8
0
  6
Continuous
 62
     8
370
    25
100
AcDbPolyline
 90
        3
 70
   128
 43
0.0
 10
206.2308585514
 20
232.5712283055
 10
206.0860360284
 20
232.075607768
 10
205.7320310045
 20
230.5969059381
  0
LINE
  5
1E0
330
1F
100
AcDbEntity
  8
0
  6
Continuous
 62
     8
370
    25
100
AcDbLine
 10
205.5665796865
 20
223.3978222504
 30
0.0
 11
205.9742363412
 21
221.4024452406
 31
0.0
  0
LINE
  5
1E1
330
1F
100
AcDbEntity
  8
0
  6
Continuous
 62
     8
370
    25
100
AcDbLine
 10
208.9418379832
 20
214.8572293955
 30
0.0
 11
209.4716804345
 21
214.1189839604
 31
0.0
  0
LINE
  5
1E2
330
1F
100
AcDbEntity
  8
0
  6
Continuous
 62
     8
370
    25
100
AcDbLine
 10
243.6078509558
 20
239.774798407
 30
0.0
 11
242.8479383011
 21
240.7296741295
 31
0.0
  0
LINE
  5
1E3
330
1F
100
AcDbEntity
  8
0
  6
Continuous
 62
     8
370
    25
100
AcDbLine
 10
236.9638487939
 20
245.6468356687
 30
0.0
 11
235.0224100296
 21
246.6375468212
 31
0.0
  0
LWPOLYLINE
  5
1E4
330
1F
100
AcDbEntity
  8
0
  6
Continuous
 62
     8
370
    25
100
AcDbPolyline
 90
        3
 70
   128
 43
0.0
 10
227.5759569379
 20
248.5176337796
 10
226.2053362569
 20
248.5740104604
 10
225.4084966039
 20
248.5675694335
  0
LWPOLYLINE
  5
1E5
330
1F
100
AcDbEntity
  8
0
  6
Continuous
 62
     8
370
    25
100
AcDbPolyline
 90
        3
 70
   128
 43
0.0
 10
217.8761160244
 20
247.0295535314
 10
217.7526925002
 20
246.9803014684
 10
215.9002360199
 20
246.1331369269
  0
LWPOLYLINE
  5
1E6
330
1F
100
AcDbEntity
  8
0
  6
Continuous
 62
     8
370
    25
100
AcDbPolyline
 90
        3
 70
   128
 43
0.0
 10
209.7902244199
 20
241.4870619687
 10
208.6304726322
 20
240.124288379
 10
208.3898840715
 20
239.8114217359
  0
LWPOLYLINE
  5
1E7
330
1F
100
AcDbEntity
  8
0
  6
Continuous
 62
     8
370
    25
100
AcDbPolyline
 90
        3
 70
   128
 43
0.0
 10
204.9051935096
 20
232.9817832361
 10
204.7492044289
 20
232.4481661345
 10
204.3697072435
 20
230.861602715
  0
LINE
  5
1E8
330
1F
100
AcDbEntity
  8
0
  6
Continuous
 62
     8
370
    25
100
AcDbLine
 10
204.1942050923
 20
223.191596233
 30
0.0
 11
204.6286447216
 21
221.0628454487
 31
0.0
  0
LINE
  5
1E9
330
1F
100
AcDbEntity
  8
0
  6
Continuous
 62
     8
370
    25
100
AcDbLine
 10
207.8006735314
 20
214.0674780968
 30
0.0
 11
208.3622982968
 21
213.285201593
 31
0.0
  0
LINE
  5
1EA
330
1F
100
AcDbEntity
  8
0
  6
Continuous
 62
     8
370
    25
100
AcDbLine
 10
208.3622982968
 20
213.285201593
 30
0.0
 11
209.1222109516
 21
212.3303258705
 31
0.0
  0
LINE
  5
1EB
330
1F
100
AcDbEntity
  8
0
  6
Continuous
 62
     8
370
    25
100
AcDbLine
 10
215.0063004587
 20
207.4131643313
 30
0.0
 11
216.947739223
 21
206.4224531788
 31
0.0
  0
LWPOLYLINE
  5
1EC
330
1F
100
AcDbEntity
  8
0
  6
Continuous
 62
     8
370
    25
100
AcDbPolyline
 90
        3
 70
   128
 43
0.0
 10
224.3941923147
 20
204.5423662204
 10
225.7648129957
 20
204.4859895396
 10
226.5616526488
 20
204.4924305665
  0
LWPOLYLINE
  5
1ED
330
1F
100
AcDbEntity
  8
0
  6
Continuous
 62
     8
370
    25
100
AcDbPolyline
 90
        3
 70
   128
 43
0.0
 10
234.0940332283
 20
206.0304464686
 10
234.2174567525
 20
206.0796985316
 10
236.0699132327
 20
206.9268630731
  0
LWPOLYLINE
  5
1EE
330
1F
100
AcDbEntity
  8
0
  6
Continuous
 62
     8
370
    25
100
AcDbPolyline
 90
        3
 70
   128
 43
0.0
 10
242.1799248327
 20
211.5729380313
 10
243.3396766205
 20
212.935711621
 10
243.5802651812
 20
213.2485782641
  0
LWPOLYLINE
  5
1EF
330
1F
100
AcDbEntity
  8
0
  6
Continuous
 62
     8
370
    25
100
AcDbPolyline
 90
        3
 70
   128
 43
0.0
 10
247.0649557431
 20
220.0782167639
 10
247.2209448237
 20
220.6118338655
 10
247.6004420091
 20
222.198397285
  0
LINE
  5
1F0
330
1F
100
AcDbEntity
  8
0
  6
Continuous
 62
     8
370
    25
100
AcDbLine
 10
247.7759441603
 20
229.868403767
 30
0.0
 11
247.341504531
 21
231.9971545513
 31
0.0
  0
LINE
  5
1F1
330
1F
100
AcDbEntity
  8
0
  6
Continuous
 62
     8
370
    25
100
AcDbLine
 10
244.1694757212
 20
238.9925219032
 30
0.0
 11
243.6078509558
 21
239.774798407
 31
0.0
  0
LINE
  5
1F2
330
1F
100
AcDbEntity
  8
0
  6
Continuous
 62
     8
370
    25
100
AcDbLine
 10
247.3045366127
 20
242.5531273621
 30
0.0
 11
247.9830553998
 21
241.6080938566
 31
0.0
  0
LWPOLYLINE
  5
1F3
330
1F
100
AcDbEntity
  8
0
  6
Continuous
 62
     8
370
    25
100
AcDbPolyline
 90
        3
 70
   128
 43
0.0
 10
251.8204899747
 20
233.147506966
 10
252.2280087937
 20
231.2806317496
 10
252.3466518391
 20
230.5707073684
  0
LWPOLYLINE
  5
1F4
330
1F
100
AcDbEntity
  8
0
  6
Continuous
 62
     8
370
    25
100
AcDbPolyline
 90
        3
 70
   128
 43
0.0
 10
252.1330921222
 20
221.2820229034
 10
251.5686957408
 20
218.9975123766
 10
251.4894644041
 20
218.7334512274
  0
LINE
  5
1F5
330
1F
100
AcDbEntity
  8
0
  6
Continuous
 62
     8
370
    25
100
AcDbLine
 10
247.266132595
 20
210.455903216
 30
0.0
 11
245.5817910154
 21
208.4405342031
 31
0.0
  0
LWPOLYLINE
  5
1F6
330
1F
100
AcDbEntity
  8
0
  6
Continuous
 62
     8
370
    25
100
AcDbPolyline
 90
        3
 70
   128
 43
0.0
 10
238.1835107003
 20
202.8137979943
 10
238.06268836
 20
202.7520419943
 10
235.7940191645
 20
201.7299061555
  0
LWPOLYLINE
  5
1F7
330
1F
100
AcDbEntity
  8
0
  6
Continuous
 62
     8
370
    25
100
AcDbPolyline
 90
        3
 70
   128
 43
0.0
 10
226.6843542815
 20
199.8697103846
 10
226.106495967
 20
199.860816254
 10
224.0643971376
 20
199.9297918665
  0
LWPOLYLINE
  5
1F8
330
1F
100
AcDbEntity
  8
0
  6
Continuous
 62
     8
370
    25
100
AcDbPolyline
 90
        3
 70
   128
 43
0.0
 10
215.0466183443
 20
202.2069612432
 10
214.1244730223
 20
202.6430530387
 10
212.7146657799
 20
203.3965544689
  0
LINE
  5
1F9
330
1F
100
AcDbEntity
  8
0
  6
Continuous
 62
     8
370
    25
100
AcDbLine
 10
205.5771650989
 20
209.360921188
 30
0.0
 11
204.6656126399
 21
210.5068726379
 31
0.0
  0
LINE
  5
1FA
330
1F
100
AcDbEntity
  8
0
  6
Continuous
 62
     8
370
    25
100
AcDbLine
 10
204.6656126399
 20
210.5068726379
 30
0.0
 11
203.9870938529
 21
211.4519061434
 31
0.0
  0
LWPOLYLINE
  5
1FB
330
1F
100
AcDbEntity
  8
0
  6
Continuous
 62
     8
370
    25
100
AcDbPolyline
 90
        3
 70
   128
 43
0.0
 10
200.1496592779
 20
219.912493034
 10
199.7421404589
 20
221.7793682504
 10
199.6234974135
 20
222.4892926316
  0
LWPOLYLINE
  5
1FC
330
1F
100
AcDbEntity
  8
0
  6
Continuous
 62
     8
370
    25
100
AcDbPolyline
 90
        3
 70
   128
 43
0.0
 10
199.8370571304
 20
231.7779770966
 10
200.4014535118
 20
234.0624876234
 10
200.4806848485
 20
234.3265487726
  0
LINE
  5
1FD
330
1F
100
AcDbEntity
  8
0
  6
Continuous
 62
     8
370
    25
100
AcDbLine
 10
204.7040166576
 20
242.604096784
 30
0.0
 11
206.3883582373
 21
244.6194657969
 31
0.0
  0
LWPOLYLINE
  5
1FE
330
1F
100
AcDbEntity
  8
0
  6
Continuous
 62
     8
370
    25
100
AcDbPolyline
 90
        3
 70
   128
 43
0.0
 10
213.7866385524
 20
250.2462020057
 10
213.9074608926
 20
250.3079580057
 10
216.1761300881
 20
251.3300938445
  0
LWPOLYLINE
  5
1FF
330
1F
100
AcDbEntity
  8
0
  6
Continuous
 62
     8
370
    25
100
AcDbPolyline
 90
        3
 70
   128
 43
0.0
 10
225.2857949711
 20
253.1902896154
 10
225.8636532856
 20
253.199183746
 10
227.905752115
 20
253.1302081335
  0
LWPOLYLINE
  5
200
330
1F
100
AcDbEntity
  8
0
  6
Continuous
 62
     8
370
    25
100
AcDbPolyline
 90
        3
 70
   128
 43
0.0
 10
236.9235309083
 20
250.8530387568
 10
237.8456762303
 20
250.4169469613
 10
239.2554834728
 20
249.6634455311
  0
LINE
  5
201
330
1F
100
AcDbEntity
  8
0
  6
Continuous
 62
     8
370
    25
100
AcDbLine
 10
246.3929841537
 20
243.699078812
 30
0.0
 11
247.3045366127
 21
242.5531273621
 31
0.0
  0
SPLINE
  5
202
330
1F
100
AcDbEntity
  8
0
  6
Continuous
 62
     8
370
    25
100
AcDbSpline
210
0.0
220
0.0
230
1.0
 70
     8
 71
     3
 72
     9
 73
     5
 74
     0
 42
0.000000001
 43
0.00000001
 40
0.0
 40
0.0
 40
0.0
 40
0.0
 40
0.4794751308375143
 40
0.9999999999999999
 40
0.9999999999999999
 40
0.9999999999999999
 40
0.9999999999999999
 10
220.57541573982
 20
233.6427908304332
 30
0.0
 10
219.8569970391908
 20
234.5873904444282
 30
0.0
 10
218.3586530075112
 20
236.5574605340802
 30
0.0
 10
216.8360092107405
 20
238.5594799141247
 30
0.0
 10
216.0434352476454
 20
239.6015807899831
 30
0.0
  0
SPLINE
  5
203
330
1F
100
AcDbEntity
  8
0
  6
Continuous
 62
     8
370
    25
100
AcDbSpline
210
0.0
220
0.0
230
1.0
 70
     8
 71
     3
 72
     9
 73
     5
 74
     0
 42
0.000000001
 43
0.00000001
 40
0.0
 40
0.0
 40
0.0
 40
0.0
 40
0.6626737799202334
 40
1.0
 40
1.0
 40
1.0
 40
1.0
 10
235.9267140049791
 20
213.4584192100166
 30
0.0
 10
234.9175669536406
 20
214.7852772962041
 30
0.0
 10
233.3947255769077
 20
216.7875567380544
 30
0.0
 10
231.899210096785
 20
218.753907499767
 30
0.0
 10
231.3947335128045
 20
219.4172091695665
 30
0.0
  0
SPLINE
  5
204
330
1F
100
AcDbEntity
  8
0
  6
Continuous
 62
     8
370
    25
100
AcDbSpline
210
0.0
220
0.0
230
1.0
 70
     8
 71
     3
 72
    12
 73
     8
 74
     0
 42
0.000000001
 43
0.00000001
 40
0.0
 40
0.0
 40
0.0
 40
0.0
 40
0.3049375591142517
 40
0.5250474454007196
 40
0.7557912590597892
 40
0.9865321300568445
 40
1.0
 40
1.0
 40
1.0
 40
1.0
 10
233.4475160818851
 20
223.1311813376097
 30
0.0
 10
233.5477931180225
 20
223.0855094061712
 30
0.0
 10
233.7204520774806
 20
223.0068705825447
 30
0.0
 10
233.9338200518789
 20
222.9096916090351
 30
0.0
 10
234.0745890417199
 20
222.8455762378829
 30
0.0
 10
234.1498852276287
 20
222.8112830464051
 30
0.0
 10
234.1562194207129
 20
222.8083976116397
 30
0.0
 10
234.1565687451815
 20
222.8082384827731
 30
0.0
  0
SPLINE
  5
205
330
1F
100
AcDbEntity
  8
0
  6
Continuous
 62
     8
370
    25
100
AcDbSpline
210
0.0
220
0.0
230
1.0
 70
     8
 71
     3
 72
    12
 73
     8
 74
     0
 42
0.000000001
 43
0.00000001
 40
0.0
 40
0.0
 40
0.0
 40
0.0
 40
0.0134542679887316
 40
0.2441983203589174
 40
0.47494531543169
 40
0.6950582365150493
 40
1.0
 40
1.0
 40
1.0
 40
1.0
 10
217.8135805074429
 20
230.2517612843959
 30
0.0
 10
217.8139299093138
 20
230.2516022003353
 30
0.0
 10
217.8202716404334
 20
230.2487147849505
 30
0.0
 10
217.8955577928285
 20
230.2144242845715
 30
0.0
 10
218.0363298057299
 20
230.1503082602503
 30
0.0
 10
218.2496969585444
 20
230.0531294642539
 30
0.0
 10
218.422356055023
 20
229.9744906110224
 30
0.0
 10
218.5226331707394
 20
229.9288186623899
 30
0.0
  0
LWPOLYLINE
  5
206
330
1F
100
AcDbEntity
  8
0
  6
Continuous
 62
     8
370
    25
100
AcDbPolyline
 90
        3
 70
   128
 43
0.0
 10
223.7832697351
 20
195.9281315941
 10
226.08192289
 20
195.8491759288
 10
226.7806686936
 20
195.8593403834
  0
LWPOLYLINE
  5
207
330
1F
100
AcDbEntity
  8
0
  6
Continuous
 62
     8
370
    25
100
AcDbPolyline
 90
        3
 70
   128
 43
0.0
 10
237.2790474687
 20
198.0033734727
 10
238.955514716
 20
198.7255042332
 10
240.0078738351
 20
199.2411123502
  0
LWPOLYLINE
  5
208
330
1F
100
AcDbEntity
  8
0
  6
Continuous
 62
     8
370
    25
100
AcDbPolyline
 90
        3
 70
   128
 43
0.0
 10
248.5369054843
 20
205.7276623237
 10
249.4315320868
 20
206.7414702761
 10
250.4591273386
 20
208.0274851906
  0
LWPOLYLINE
  5
209
330
1F
100
AcDbEntity
  8
0
  6
Continuous
 62
     8
370
    25
100
AcDbPolyline
 90
        3
 70
   128
 43
0.0
 10
255.328720646
 20
217.5704933617
 10
255.5734908451
 20
218.4153286654
 10
256.0636589546
 20
220.4801164481
  0
LWPOLYLINE
  5
20A
330
1F
100
AcDbEntity
  8
0
  6
Continuous
 62
     8
370
    25
100
AcDbPolyline
 90
        3
 70
   128
 43
0.0
 10
256.3105451186
 20
231.1870519917
 10
256.2460566182
 20
231.589177056
 10
255.7089256365
 20
234.1336145911
  0
LINE
  5
20B
330
1F
100
AcDbEntity
  8
0
  6
Continuous
 62
     8
370
    25
100
AcDbLine
 10
251.2879634518
 20
243.8818341035
 30
0.0
 11
249.4641302396
 21
246.2798407215
 31
0.0
  0
LWPOLYLINE
  5
20C
330
1F
100
AcDbEntity
  8
0
  6
Continuous
 62
     8
370
    25
100
AcDbPolyline
 90
        3
 70
   128
 43
0.0
 10
241.2545394395
 20
253.1413840044
 10
238.7797210608
 20
254.4158263046
 10
238.5689636935
 20
254.5115662652
  0
LWPOLYLINE
  5
20D
330
1F
100
AcDbEntity
  8
0
  6
Continuous
 62
     8
370
    25
100
AcDbPolyline
 90
        3
 70
   128
 43
0.0
 10
228.1957831942
 20
257.1312257934
 10
225.8882263627
 20
257.2108240712
 10
225.1827919167
 20
257.2004845279
  0
LWPOLYLINE
  5
20E
330
1F
100
AcDbEntity
  8
0
  6
Continuous
 62
     8
370
    25
100
AcDbPolyline
 90
        3
 70
   128
 43
0.0
 10
214.6971469987
 20
255.0590200263
 10
213.0146345366
 20
254.3344957668
 10
211.9565068055
 20
253.8159223187
  0
LWPOLYLINE
  5
20F
330
1F
100
AcDbEntity
  8
0
  6
Continuous
 62
     8
370
    25
100
AcDbPolyline
 90
        3
 70
   128
 43
0.0
 10
203.4338286389
 20
247.3329709756
 10
202.5386171658
 20
246.3185297239
 10
201.5083173532
 20
245.028936668
  0
LWPOLYLINE
  5
210
330
1F
100
AcDbEntity
  8
0
  6
Continuous
 62
     8
370
    25
100
AcDbPolyline
 90
        3
 70
   128
 43
0.0
 10
196.6404078771
 20
235.4861585337
 10
196.3966584076
 20
234.6446713346
 10
195.9063561876
 20
232.5792134653
  0
LWPOLYLINE
  5
211
330
1F
100
AcDbEntity
  8
0
  6
Continuous
 62
     8
370
    25
100
AcDbPolyline
 90
        3
 70
   128
 43
0.0
 10
195.6605242808
 20
221.8669610012
 10
195.7240926344
 20
221.470822944
 10
196.2600110341
 20
218.9311281691
  0
LINE
  5
212
330
1F
100
AcDbEntity
  8
0
  6
Continuous
 62
     8
370
    25
100
AcDbLine
 10
200.6860433389
 20
209.1725444335
 30
0.0
 11
202.5004664678
 21
206.7867604929
 31
0.0
  0
LWPOLYLINE
  5
213
330
1F
100
AcDbEntity
  8
0
  6
Continuous
 62
     8
370
    25
100
AcDbPolyline
 90
        3
 70
   128
 43
0.0
 10
210.7206296418
 20
199.9157363462
 10
213.1904281918
 20
198.6441736954
 10
213.3937554676
 20
198.5517771828
  0
ENDSEC
  0
SECTION
  2
OBJECTS
  0
DICTIONARY
  5
C
330
0
100
AcDbDictionary
281
     1
  3
ACAD_GROUP
350
D
  3
ACAD_LAYOUT
350
1A
  3
ACAD_MLINESTYLE
350
17
  3
ACAD_PLOTSETTINGS
350
19
  3
ACAD_PLOTSTYLENAME
350
E
  3
ACAD_SCALELIST
350
47
  0
DICTIONARY
  5
D
102
{ACAD_REACTORS
330
C
102
}
330
C
100
AcDbDictionary
281
     1
  0
DICTIONARY
  5
1A
102
{ACAD_REACTORS
330
C
102
}
330
C
100
AcDbDictionary
281
     1
  3
Layout1
350
1E
  3
Layout2
350
26
  3
Model
350
22
  0
DICTIONARY
  5
17
102
{ACAD_REACTORS
330
C
102
}
330
C
100
AcDbDictionary
281
     1
  3
Standard
350
18
  0
DICTIONARY
  5
19
102
{ACAD_REACTORS
330
C
102
}
330
C
100
AcDbDictionary
281
     1
  0
ACDBDICTIONARYWDFLT
  5
E
102
{ACAD_REACTORS
330
C
102
}
330
C
100
AcDbDictionary
281
     1
  3
Normal
350
F
100
AcDbDictionaryWithDefault
340
F
  0
DICTIONARY
  5
47
102
{ACAD_REACTORS
330
C
102
}
330
C
100
AcDbDictionary
281
     1
  3
A0
350
48
  3
A1
350
49
  3
A2
350
4A
  3
A3
350
4B
  3
A4
350
4C
  3
A5
350
4D
  3
A6
350
4E
  3
A7
350
4F
  3
A8
350
50
  3
A9
350
51
  3
B0
350
52
  3
B1
350
53
  3
B2
350
54
  3
B3
350
55
  3
B4
350
56
  3
B5
350
57
  3
B6
350
58
  3
B7
350
59
  3
B8
350
5A
  3
B9
350
5B
  3
C0
350
5C
  3
C1
350
5D
  3
C2
350
5E
  3
C3
350
5F
  3
C4
350
60
  3
C5
350
61
  3
C6
350
62
  3
C7
350
63
  3
C8
350
64
  3
C9
350
65
  3
D0
350
66
  3
D1
350
67
  3
D2
350
68
  0
LAYOUT
  5
1E
102
{ACAD_REACTORS
330
1A
102
}
330
1A
100
AcDbPlotSettings
  1

  2
none_device
  4

  6

 40
0.0
 41
0.0
 42
0.0
 43
0.0
 44
0.0
 45
0.0
 46
0.0
 47
0.0
 48
0.0
 49
0.0
140
0.0
141
0.0
142
1.0
143
1.0
 70
   688
 72
     1
 73
     0
 74
     5
  7

 75
    16
147
1.0
148
0.0
149
0.0
100
AcDbLayout
  1
Layout1
 70
     1
 71
     1
 10
0.0
 20
0.0
 11
420.0
 21
297.0
 12
0.0
 22
0.0
 32
0.0
 14
1.0000000000E+20
 24
1.0000000000E+20
 34
1.0000000000E+20
 15
-1.0000000000E+20
 25
-1.0000000000E+20
 35
-1.0000000000E+20
146
0.0
 13
0.0
 23
0.0
 33
0.0
 16
1.0
 26
0.0
 36
0.0
 17
0.0
 27
1.0
 37
0.0
 76
     0
330
1B
  0
LAYOUT
  5
26
102
{ACAD_REACTORS
330
1A
102
}
330
1A
100
AcDbPlotSettings
  1

  2
none_device
  4

  6

 40
0.0
 41
0.0
 42
0.0
 43
0.0
 44
0.0
 45
0.0
 46
0.0
 47
0.0
 48
0.0
 49
0.0
140
0.0
141
0.0
142
1.0
143
1.0
 70
   688
 72
     1
 73
     0
 74
     5
  7

 75
    16
147
1.0
148
0.0
149
0.0
100
AcDbLayout
  1
Layout2
 70
     1
 71
     2
 10
0.0
 20
0.0
 11
0.0
 21
0.0
 12
0.0
 22
0.0
 32
0.0
 14
0.0
 24
0.0
 34
0.0
 15
0.0
 25
0.0
 35
0.0
146
0.0
 13
0.0
 23
0.0
 33
0.0
 16
1.0
 26
0.0
 36
0.0
 17
0.0
 27
1.0
 37
0.0
 76
     0
330
23
  0
LAYOUT
  5
22
102
{ACAD_REACTORS
330
1A
102
}
330
1A
100
AcDbPlotSettings
  1

  2
none_device
  4
Letter_(8.50_x_11.00_Inches)
  6

 40
6.35
 41
6.35
 42
6.35000508
 43
6.35000508
 44
215.9
 45
279.4
 46
0.0
 47
0.0
 48
0.0
 49
0.0
140
0.0
141
0.0
142
1.0
143
1.0
 70
  1712
 72
     1
 73
     0
 74
     0
  7

 75
     0
147
1.0
148
0.0
149
0.0
100
AcDbLayout
  1
Model
 70
     1
 71
     0
 10
0.0
 20
0.0
 11
450.0
 21
450.0
 12
0.0
 22
0.0
 32
0.0
 14
0.0
 24
0.0
 34
0.0
 15
450.0
 25
450.0
 35
0.0
146
0.0
 13
0.0
 23
0.0
 33
0.0
 16
1.0
 26
0.0
 36
0.0
 17
0.0
 27
1.0
 37
0.0
 76
     0
330
1F
331
29
  0
MLINESTYLE
  5
18
102
{ACAD_REACTORS
330
17
102
}
330
17
100
AcDbMlineStyle
  2
Standard
 70
     0
  3

 62
   256
 51
90.0
 52
90.0
 71
     2
 49
0.5
 62
   256
  6
BYLAYER
 49
-0.5
 62
   256
  6
BYLAYER
  0
ACDBPLACEHOLDER
  5
F
102
{ACAD_REACTORS
330
E
102
}
330
E
  0
SCALE
  5
48
102
{ACAD_REACTORS
330
47
102
}
330
47
100
AcDbScale
 70
     0
300
1:1
140
1.0
141
1.0
290
     1
  0
SCALE
  5
49
102
{ACAD_REACTORS
330
47
102
}
330
47
100
AcDbScale
 70
     0
300
1:2
140
1.0
141
2.0
290
     0
  0
SCALE
  5
4A
102
{ACAD_REACTORS
330
47
102
}
330
47
100
AcDbScale
 70
     0
300
1:4
140
1.0
141
4.0
290
     0
  0
SCALE
  5
4B
102
{ACAD_REACTORS
330
47
102
}
330
47
100
AcDbScale
 70
     0
300
1:5
140
1.0
141
5.0
290
     0
  0
SCALE
  5
4C
102
{ACAD_REACTORS
330
47
102
}
330
47
100
AcDbScale
 70
     0
300
1:8
140
1.0
141
8.0
290
     0
  0
SCALE
  5
4D
102
{ACAD_REACTORS
330
47
102
}
330
47
100
AcDbScale
 70
     0
300
1:10
140
1.0
141
10.0
290
     0
  0
SCALE
  5
4E
102
{ACAD_REACTORS
330
47
102
}
330
47
100
AcDbScale
 70
     0
300
1:16
140
1.0
141
16.0
290
     0
  0
SCALE
  5
4F
102
{ACAD_REACTORS
330
47
102
}
330
47
100
AcDbScale
 70
     0
300
1:20
140
1.0
141
20.0
290
     0
  0
SCALE
  5
50
102
{ACAD_REACTORS
330
47
102
}
330
47
100
AcDbScale
 70
     0
300
1:30
140
1.0
141
30.0
290
     0
  0
SCALE
  5
51
102
{ACAD_REACTORS
330
47
102
}
330
47
100
AcDbScale
 70
     0
300
1:40
140
1.0
141
40.0
290
     0
  0
SCALE
  5
52
102
{ACAD_REACTORS
330
47
102
}
330
47
100
AcDbScale
 70
     0
300
1:50
140
1.0
141
50.0
290
     0
  0
SCALE
  5
53
102
{ACAD_REACTORS
330
47
102
}
330
47
100
AcDbScale
 70
     0
300
1:100
140
1.0
141
100.0
290
     0
  0
SCALE
  5
54
102
{ACAD_REACTORS
330
47
102
}
330
47
100
AcDbScale
 70
     0
300
2:1
140
2.0
141
1.0
290
     0
  0
SCALE
  5
55
102
{ACAD_REACTORS
330
47
102
}
330
47
100
AcDbScale
 70
     0
300
4:1
140
4.0
141
1.0
290
     0
  0
SCALE
  5
56
102
{ACAD_REACTORS
330
47
102
}
330
47
100
AcDbScale
 70
     0
300
8:1
140
8.0
141
1.0
290
     0
  0
SCALE
  5
57
102
{ACAD_REACTORS
330
47
102
}
330
47
100
AcDbScale
 70
     0
300
10:1
140
10.0
141
1.0
290
     0
  0
SCALE
  5
58
102
{ACAD_REACTORS
330
47
102
}
330
47
100
AcDbScale
 70
     0
300
100:1
140
100.0
141
1.0
290
     0
  0
SCALE
  5
59
102
{ACAD_REACTORS
330
47
102
}
330
47
100
AcDbScale
 70
     0
300
1/128" = 1'-0"
140
0.0078125
141
12.0
290
     0
  0
SCALE
  5
5A
102
{ACAD_REACTORS
330
47
102
}
330
47
100
AcDbScale
 70
     0
300
1/64" = 1'-0"
140
0.015625
141
12.0
290
     0
  0
SCALE
  5
5B
102
{ACAD_REACTORS
330
47
102
}
330
47
100
AcDbScale
 70
     0
300
1/32" = 1'-0"
140
0.03125
141
12.0
290
     0
  0
SCALE
  5
5C
102
{ACAD_REACTORS
330
47
102
}
330
47
100
AcDbScale
 70
     0
300
1/16" = 1'-0"
140
0.0625
141
12.0
290
     0
  0
SCALE
  5
5D
102
{ACAD_REACTORS
330
47
102
}
330
47
100
AcDbScale
 70
     0
300
3/32" = 1'-0"
140
0.09375
141
12.0
290
     0
  0
SCALE
  5
5E
102
{ACAD_REACTORS
330
47
102
}
330
47
100
AcDbScale
 70
     0
300
1/8" = 1'-0"
140
0.125
141
12.0
290
     0
  0
SCALE
  5
5F
102
{ACAD_REACTORS
330
47
102
}
330
47
100
AcDbScale
 70
     0
300
3/16" = 1'-0"
140
0.1875
141
12.0
290
     0
  0
SCALE
  5
60
102
{ACAD_REACTORS
330
47
102
}
330
47
100
AcDbScale
 70
     0
300
1/4" = 1'-0"
140
0.25
141
12.0
290
     0
  0
SCALE
  5
61
102
{ACAD_REACTORS
330
47
102
}
330
47
100
AcDbScale
 70
     0
300
3/8" = 1'-0"
140
0.375
141
12.0
290
     0
  0
SCALE
  5
62
102
{ACAD_REACTORS
330
47
102
}
330
47
100
AcDbScale
 70
     0
300
1/2" = 1'-0"
140
0.5
141
12.0
290
     0
  0
SCALE
  5
63
102
{ACAD_REACTORS
330
47
102
}
330
47
100
AcDbScale
 70
     0
300
3/4" = 1'-0"
140
0.75
141
12.0
290
     0
  0
SCALE
  5
64
102
{ACAD_REACTORS
330
47
102
}
330
47
100
AcDbScale
 70
     0
300
1" = 1'-0"
140
1.0
141
12.0
290
     0
  0
SCALE
  5
65
102
{ACAD_REACTORS
330
47
102
}
330
47
100
AcDbScale
 70
     0
300
1-1/2" = 1'-0"
140
1.5
141
12.0
290
     0
  0
SCALE
  5
66
102
{ACAD_REACTORS
330
47
102
}
330
47
100
AcDbScale
 70
     0
300
3" = 1'-0"
140
3.0
141
12.0
290
     0
  0
SCALE
  5
67
102
{ACAD_REACTORS
330
47
102
}
330
47
100
AcDbScale
 70
     0
300
6" = 1'-0"
140
6.0
141
12.0
290
     0
  0
SCALE
  5
68
102
{ACAD_REACTORS
330
47
102
}
330
47
100
AcDbScale
 70
     0
300
1'-0" = 1'-0"
140
12.0
141
12.0
290
     0
  0
ENDSEC
  0
EOF
