  0
SECTION
  2
HEADER
  9
$ACADVER
  1
AC1015
  9
$ACADMAINTVER
 70
     6
  9
$DWGCODEPAGE
  3
ANSI_1252
  9
$INSBASE
 10
0.0
 20
0.0
 30
0.0
  9
$EXTMIN
 10
0.0
 20
0.0
 30
0.0
  9
$EXTMAX
 10
650.0
 20
650.0
 30
0.0
  9
$LIMMIN
 10
0.0
 20
0.0
  9
$LIMMAX
 10
650.0
 20
650.0
  9
$ORTHOMODE
 70
     0
  9
$REGENMODE
 70
     1
  9
$FILLMODE
 70
     1
  9
$QTEXTMODE
 70
     0
  9
$MIRRTEXT
 70
     1
  9
$LTSCALE
 40
1.0
  9
$ATTMODE
 70
     1
  9
$TEXTSIZE
 40
5.0
  9
$TRACEWID
 40
1.0
  9
$TEXTSTYLE
  7
Standard
  9
$CLAYER
  8
0
  9
$CELTYPE
  6
ByLayer
  9
$CECOLOR
 62
   256
  9
$CELTSCALE
 40
1.0
  9
$DISPSILH
 70
     0
  9
$DIMSCALE
 40
1.0
  9
$DIMASZ
 40
6.0
  9
$DIMEXO
 40
1.0
  9
$DIMDLI
 40
3.75
  9
$DIMRND
 40
0.0
  9
$DIMDLE
 40
0.0
  9
$DIMEXE
 40
1.0
  9
$DIMTP
 40
0.0
  9
$DIMTM
 40
0.0
  9
$DIMTXT
 40
5.0
  9
$DIMCEN
 40
2.5
  9
$DIMTSZ
 40
0.0
  9
$DIMTOL
 70
     0
  9
$DIMLIM
 70
     0
  9
$DIMTIH
 70
     1
  9
$DIMTOH
 70
     1
  9
$DIMSE1
 70
     0
  9
$DIMSE2
 70
     0
  9
$DIMTAD
 70
     1
  9
$DIMZIN
 70
     0
  9
$DIMBLK
  1

  9
$DIMASO
 70
     1
  9
$DIMSHO
 70
     1
  9
$DIMPOST
  1

  9
$DIMAPOST
  1

  9
$DIMALT
 70
     0
  9
$DIMALTD
 70
     3
  9
$DIMALTF
 40
0.0393700787
  9
$DIMLFAC
 40
1.0
  9
$DIMTOFL
 70
     1
  9
$DIMTVP
 40
0.0
  9
$DIMTIX
 70
     0
  9
$DIMSOXD
 70
     0
  9
$DIMSAH
 70
     0
  9
$DIMBLK1
  1

  9
$DIMBLK2
  1

  9
$DIMSTYLE
  2
ISO-25
  9
$DIMCLRD
 70
     0
  9
$DIMCLRE
 70
     0
  9
$DIMCLRT
 70
     0
  9
$DIMTFAC
 40
1.0
  9
$DIMGAP
 40
1.524
  9
$DIMJUST
 70
     0
  9
$DIMSD1
 70
     0
  9
$DIMSD2
 70
     0
  9
$DIMTOLJ
 70
     0
  9
$DIMTZIN
 70
     0
  9
$DIMALTZ
 70
     0
  9
$DIMALTTZ
 70
     0
  9
$DIMUPT
 70
     0
  9
$DIMDEC
 70
     2
  9
$DIMTDEC
 70
     2
  9
$DIMALTU
 70
     2
  9
$DIMALTTD
 70
     3
  9
$DIMTXSTY
  7
Standard
  9
$DIMAUNIT
 70
     0
  9
$DIMADEC
 70
     2
  9
$DIMALTRND
 40
0.0
  9
$DIMAZIN
 70
     0
  9
$DIMDSEP
 70
    44
  9
$DIMATFIT
 70
     3
  9
$DIMFRAC
 70
     0
  9
$DIMLDRBLK
  1

  9
$DIMLUNIT
 70
     2
  9
$DIMLWD
 70
    -2
  9
$DIMLWE
 70
    -2
  9
$DIMTMOVE
 70
     0
  9
$LUNITS
 70
     2
  9
$LUPREC
 70
     2
  9
$SKETCHINC
 40
1.0
  9
$FILLETRAD
 40
10.0
  9
$AUNITS
 70
     0
  9
$AUPREC
 70
     2
  9
$MENU
  1
.
  9
$ELEVATION
 40
0.0
  9
$PELEVATION
 40
0.0
  9
$THICKNESS
 40
0.0
  9
$LIMCHECK
 70
     0
  9
$CHAMFERA
 40
0.0
  9
$CHAMFERB
 40
0.0
  9
$CHAMFERC
 40
0.0
  9
$CHAMFERD
 40
0.0
  9
$SKPOLY
 70
     0
  9
$TDCREATE
 40
2458568.419710324
  9
$TDUCREATE
 40
2458568.336376991
  9
$TDUPDATE
 40
2458568.41971191
  9
$TDUUPDATE
 40
2458568.336378576
  9
$TDINDWG
 40
0.0000000116
  9
$TDUSRTIMER
 40
0.0000000116
  9
$USRTIMER
 70
     1
  9
$ANGBASE
 50
0.0
  9
$ANGDIR
 70
     0
  9
$PDMODE
 70
     0
  9
$PDSIZE
 40
-1.0
  9
$PLINEWID
 40
0.0
  9
$SPLFRAME
 70
     0
  9
$SPLINETYPE
 70
     6
  9
$SPLINESEGS
 70
     8
  9
$HANDSEED
  5
1F3
  9
$SURFTAB1
 70
     6
  9
$SURFTAB2
 70
     6
  9
$SURFTYPE
 70
     6
  9
$SURFU
 70
     6
  9
$SURFV
 70
     6
  9
$UCSBASE
  2

  9
$UCSNAME
  2

  9
$UCSORG
 10
0.0
 20
0.0
 30
0.0
  9
$UCSXDIR
 10
1.0
 20
0.0
 30
0.0
  9
$UCSYDIR
 10
0.0
 20
1.0
 30
0.0
  9
$UCSORTHOREF
  2

  9
$UCSORTHOVIEW
 70
     0
  9
$UCSORGTOP
 10
0.0
 20
0.0
 30
0.0
  9
$UCSORGBOTTOM
 10
0.0
 20
0.0
 30
0.0
  9
$UCSORGLEFT
 10
0.0
 20
0.0
 30
0.0
  9
$UCSORGRIGHT
 10
0.0
 20
0.0
 30
0.0
  9
$UCSORGFRONT
 10
0.0
 20
0.0
 30
0.0
  9
$UCSORGBACK
 10
0.0
 20
0.0
 30
0.0
  9
$PUCSBASE
  2

  9
$PUCSNAME
  2

  9
$PUCSORG
 10
0.0
 20
0.0
 30
0.0
  9
$PUCSXDIR
 10
1.0
 20
0.0
 30
0.0
  9
$PUCSYDIR
 10
0.0
 20
1.0
 30
0.0
  9
$PUCSORTHOREF
  2

  9
$PUCSORTHOVIEW
 70
     0
  9
$PUCSORGTOP
 10
0.0
 20
0.0
 30
0.0
  9
$PUCSORGBOTTOM
 10
0.0
 20
0.0
 30
0.0
  9
$PUCSORGLEFT
 10
0.0
 20
0.0
 30
0.0
  9
$PUCSORGRIGHT
 10
0.0
 20
0.0
 30
0.0
  9
$PUCSORGFRONT
 10
0.0
 20
0.0
 30
0.0
  9
$PUCSORGBACK
 10
0.0
 20
0.0
 30
0.0
  9
$USERI1
 70
     0
  9
$USERI2
 70
     0
  9
$USERI3
 70
     0
  9
$USERI4
 70
     0
  9
$USERI5
 70
     0
  9
$USERR1
 40
0.0
  9
$USERR2
 40
0.0
  9
$USERR3
 40
0.0
  9
$USERR4
 40
0.0
  9
$USERR5
 40
0.0
  9
$WORLDVIEW
 70
     1
  9
$SHADEDGE
 70
     3
  9
$SHADEDIF
 70
    70
  9
$TILEMODE
 70
     1
  9
$MAXACTVP
 70
    64
  9
$PINSBASE
 10
0.0
 20
0.0
 30
0.0
  9
$PLIMCHECK
 70
     0
  9
$PEXTMIN
 10
1.0000000000E+20
 20
1.0000000000E+20
 30
1.0000000000E+20
  9
$PEXTMAX
 10
-1.0000000000E+20
 20
-1.0000000000E+20
 30
-1.0000000000E+20
  9
$PLIMMIN
 10
0.0
 20
0.0
  9
$PLIMMAX
 10
420.0
 20
297.0
  9
$UNITMODE
 70
     0
  9
$VISRETAIN
 70
     1
  9
$PLINEGEN
 70
     0
  9
$PSLTSCALE
 70
     1
  9
$TREEDEPTH
 70
  3020
  9
$CMLSTYLE
  2
Standard
  9
$CMLJUST
 70
     0
  9
$CMLSCALE
 40
20.0
  9
$PROXYGRAPHICS
 70
     1
  9
$MEASUREMENT
 70
     1
  9
$CELWEIGHT
370
    -1
  9
$ENDCAPS
280
     0
  9
$JOINSTYLE
280
     0
  9
$LWDISPLAY
290
     1
  9
$INSUNITS
 70
     4
  9
$HYPERLINKBASE
  1

  9
$STYLESHEET
  1

  9
$XEDIT
290
     1
  9
$CEPSNTYPE
380
     0
  9
$PSTYLEMODE
290
     1
  9
$FINGERPRINTGUID
  2
{A2938667-B41A-4CC9-8A3B-37249C299EF6}
  9
$VERSIONGUID
  2
{FAEB1C32-E019-11D5-929B-00C0DF256EC4}
  9
$EXTNAMES
290
     1
  9
$PSVPSCALE
 40
0.0
  9
$OLESTARTUP
290
     0
  0
ENDSEC
  0
SECTION
  2
CLASSES
  0
CLASS
  1
ACDBDICTIONARYWDFLT
  2
AcDbDictionaryWithDefault
  3
ObjectDBX Classes
 90
        0
280
     0
281
     0
  0
CLASS
  1
VISUALSTYLE
  2
AcDbVisualStyle
  3
ObjectDBX Classes
 90
     4095
280
     0
281
     0
  0
CLASS
  1
MATERIAL
  2
AcDbMaterial
  3
ObjectDBX Classes
 90
     1153
280
     0
281
     0
  0
CLASS
  1
SCALE
  2
AcDbScale
  3
ObjectDBX Classes
 90
     1153
280
     0
281
     0
  0
CLASS
  1
TABLESTYLE
  2
AcDbTableStyle
  3
ObjectDBX Classes
 90
     4095
280
     0
281
     0
  0
CLASS
  1
MLEADERSTYLE
  2
AcDbMLeaderStyle
  3
ACDB_MLEADERSTYLE_CLASS
 90
     4095
280
     0
281
     0
  0
CLASS
  1
SUN
  2
AcDbSun
  3
SCENEOE
 90
     1153
280
     0
281
     0
  0
CLASS
  1
ACDBPLACEHOLDER
  2
AcDbPlaceHolder
  3
ObjectDBX Classes
 90
        0
280
     0
281
     0
  0
CLASS
  1
LAYOUT
  2
AcDbLayout
  3
ObjectDBX Classes
 90
        0
280
     0
281
     0
  0
ENDSEC
  0
SECTION
  2
TABLES
  0
TABLE
  2
VPORT
  5
8
330
0
100
AcDbSymbolTable
 70
     1
  0
VPORT
  5
29
330
8
100
AcDbSymbolTableRecord
100
AcDbViewportTableRecord
  2
*Active
 70
     0
 10
0.0
 20
0.0
 11
1.0
 21
1.0
 12
325.0
 22
325.0
 13
0.0
 23
0.0
 14
10.0
 24
10.0
 15
10.0
 25
10.0
 16
0.0
 26
0.0
 36
1.0
 17
0.0
 27
0.0
 37
0.0
 40
650.0
 41
1.0
 42
50.0
 43
0.0
 44
0.0
 50
0.0
 51
0.0
 71
     0
 72
  2000
 73
     1
 74
     3
 75
     0
 76
     0
 77
     0
 78
     0
281
     0
 65
     1
110
0.0
120
0.0
130
0.0
111
1.0
121
0.0
131
0.0
112
0.0
122
1.0
132
0.0
 79
     0
146
0.0
  0
ENDTAB
  0
TABLE
  2
LTYPE
  5
5
330
0
100
AcDbSymbolTable
 70
     6
  0
LTYPE
  5
14
330
5
100
AcDbSymbolTableRecord
100
AcDbLinetypeTableRecord
  2
ByBlock
 70
     0
  3

 72
    65
 73
     0
 40
0.0
  0
LTYPE
  5
15
330
5
100
AcDbSymbolTableRecord
100
AcDbLinetypeTableRecord
  2
ByLayer
 70
     0
  3

 72
    65
 73
     0
 40
0.0
  0
LTYPE
  5
16
330
5
100
AcDbSymbolTableRecord
100
AcDbLinetypeTableRecord
  2
Continuous
 70
     0
  3
Solid line
 72
    65
 73
     0
 40
0.0
  0
LTYPE
  5
6E
330
5
100
AcDbSymbolTableRecord
100
AcDbLinetypeTableRecord
  2
HIDDEN
 70
     0
  3
Hidden __ __ __ __ __ __ __ __ __ __ __ __ __ __
 72
    65
 73
     2
 40
1.905
 49
1.27
 74
     0
 49
-0.635
 74
     0
  0
LTYPE
  5
6F
330
5
100
AcDbSymbolTableRecord
100
AcDbLinetypeTableRecord
  2
PHANTOM
 70
     0
  3
Phantom ______  __  __  ______  __  __  ______
 72
    65
 73
     6
 40
12.7
 49
6.35
 74
     0
 49
-1.27
 74
     0
 49
1.27
 74
     0
 49
-1.27
 74
     0
 49
1.27
 74
     0
 49
-1.27
 74
     0
  0
LTYPE
  5
70
330
5
100
AcDbSymbolTableRecord
100
AcDbLinetypeTableRecord
  2
CENTER
 70
     0
  3
Center ____ _ ____ _ ____ _ ____ _ ____ _ ____
 72
    65
 73
     4
 40
10.16
 49
6.35
 74
     0
 49
-1.27
 74
     0
 49
1.27
 74
     0
 49
-1.27
 74
     0
  0
LTYPE
  5
71
330
5
100
AcDbSymbolTableRecord
100
AcDbLinetypeTableRecord
  2
CENTERX2
 70
     0
  3
Center (2x) ________  __  ________  __  _____
 72
    65
 73
     4
 40
20.32
 49
12.7
 74
     0
 49
-2.54
 74
     0
 49
2.54
 74
     0
 49
-2.54
 74
     0
  0
LTYPE
  5
72
330
5
100
AcDbSymbolTableRecord
100
AcDbLinetypeTableRecord
  2
DOT2
 70
     0
  3
Dot (.5x) ........................................
 72
    65
 73
     2
 40
0.635
 49
0.0
 74
     0
 49
-0.635
 74
     0
  0
ENDTAB
  0
TABLE
  2
LAYER
  5
2
330
0
100
AcDbSymbolTable
 70
     2
  0
LAYER
  5
10
330
2
100
AcDbSymbolTableRecord
100
AcDbLayerTableRecord
  2
0
 70
     0
 62
     7
  6
Continuous
370
    -3
390
F
  0
LAYER
  5
73
330
2
100
AcDbSymbolTableRecord
100
AcDbLayerTableRecord
  2
TABLE_BL1
 70
     0
 62
   179
  6
Continuous
370
    -3
390
F
  0
ENDTAB
  0
TABLE
  2
STYLE
  5
3
330
0
100
AcDbSymbolTable
 70
     1
  0
STYLE
  5
11
330
3
100
AcDbSymbolTableRecord
100
AcDbTextStyleTableRecord
  2
Standard
 70
     0
 40
0.0
 41
1.0
 50
0.0
 71
     0
 42
5.0
  3
txt
  4

  0
ENDTAB
  0
TABLE
  2
VIEW
  5
6
330
0
100
AcDbSymbolTable
 70
     0
  0
ENDTAB
  0
TABLE
  2
UCS
  5
7
330
0
100
AcDbSymbolTable
 70
     0
  0
ENDTAB
  0
TABLE
  2
APPID
  5
9
330
0
100
AcDbSymbolTable
 70
     1
  0
APPID
  5
12
330
9
100
AcDbSymbolTableRecord
100
AcDbRegAppTableRecord
  2
ACAD
 70
     0
  0
ENDTAB
  0
TABLE
  2
DIMSTYLE
  5
A
330
0
100
AcDbSymbolTable
 70
     1
100
AcDbDimStyleTable
  0
DIMSTYLE
105
27
330
A
100
AcDbSymbolTableRecord
100
AcDbDimStyleTableRecord
  2
ISO-25
 70
     0
 41
2.5
 42
0.625
 43
3.75
 44
1.25
 73
     0
 74
     0
 77
     1
 78
     8
140
2.5
141
2.5
143
0.0393700787
147
0.625
171
     3
172
     1
178
     0
271
     2
272
     2
274
     3
278
    44
283
     0
284
     8
340
11
  0
ENDTAB
  0
TABLE
  2
BLOCK_RECORD
  5
1
330
0
100
AcDbSymbolTable
 70
     1
  0
BLOCK_RECORD
  5
1F
330
1
100
AcDbSymbolTableRecord
100
AcDbBlockTableRecord
  2
*Model_Space
340
22
  0
BLOCK_RECORD
  5
1B
330
1
100
AcDbSymbolTableRecord
100
AcDbBlockTableRecord
  2
*Paper_Space
340
1E
  0
BLOCK_RECORD
  5
23
330
1
100
AcDbSymbolTableRecord
100
AcDbBlockTableRecord
  2
*Paper_Space0
340
26
  0
ENDTAB
  0
ENDSEC
  0
SECTION
  2
BLOCKS
  0
BLOCK
  5
20
330
1F
100
AcDbEntity
  8
0
100
AcDbBlockBegin
  2
*Model_Space
 70
     0
 10
0.0
 20
0.0
 30
0.0
  3
*Model_Space
  1

  0
ENDBLK
  5
21
330
1F
100
AcDbEntity
  8
0
100
AcDbBlockEnd
  0
BLOCK
  5
1C
330
1B
100
AcDbEntity
 67
     1
  8
0
100
AcDbBlockBegin
  2
*Paper_Space
 70
     0
 10
0.0
 20
0.0
 30
0.0
  3
*Paper_Space
  1

  0
ENDBLK
  5
1D
330
1B
100
AcDbEntity
 67
     1
  8
0
100
AcDbBlockEnd
  0
BLOCK
  5
24
330
23
100
AcDbEntity
  8
0
100
AcDbBlockBegin
  2
*Paper_Space0
 70
     0
 10
0.0
 20
0.0
 30
0.0
  3
*Paper_Space0
  1

  0
ENDBLK
  5
25
330
23
100
AcDbEntity
  8
0
100
AcDbBlockEnd
  0
ENDSEC
  0
SECTION
  2
ENTITIES
  0
SPLINE
  5
74
330
1F
100
AcDbEntity
  8
0
  6
Continuous
 62
     7
370
    25
100
AcDbSpline
210
0.0
220
0.0
230
1.0
 70
     8
 71
     3
 72
    18
 73
    14
 74
     0
 42
0.000000001
 43
0.00000001
 40
0.0
 40
0.0
 40
0.0
 40
0.0
 40
0.1181635139670262
 40
0.2417302888342776
 40
0.3519954886980156
 40
0.4393435186770617
 40
0.5540331161815136
 40
0.6249960116228768
 40
0.701857952453938
 40
0.7811806993452346
 40
0.8592624491691464
 40
0.9329153330256955
 40
1.0
 40
1.0
 40
1.0
 40
1.0
 10
306.072180132246
 20
315.7600657795629
 30
0.0
 10
305.7209581120645
 20
314.6969050229469
 30
0.0
 10
305.0024537486351
 20
312.5219683767178
 30
0.0
 10
305.5380968738315
 20
309.1408040778826
 30
0.0
 10
307.0163287680274
 20
306.4645273851377
 30
0.0
 10
309.1770480547644
 20
304.4383205313187
 30
0.0
 10
311.5513330394328
 20
303.3330970834194
 30
0.0
 10
314.0031080360883
 20
302.9788675851887
 30
0.0
 10
316.1437225978343
 20
303.1667853061973
 30
0.0
 10
318.2413513101194
 20
303.8903675937957
 30
0.0
 10
320.0638244316785
 20
305.0910621028336
 30
0.0
 10
321.5016339429641
 20
306.5894954852134
 30
0.0
 10
322.1227840952455
 20
307.7579149230688
 30
0.0
 10
322.418864642767
 20
308.3148595935714
 30
0.0
  0
SPLINE
  5
75
330
1F
100
AcDbEntity
  8
0
  6
Continuous
 62
     7
370
    25
100
AcDbSpline
210
0.0
220
0.0
230
1.0
 70
     8
 71
     3
 72
    18
 73
    14
 74
     0
 42
0.000000001
 43
0.00000001
 40
0.0
 40
0.0
 40
0.0
 40
0.0
 40
0.1181635139670257
 40
0.2417302888342772
 40
0.3519954886980152
 40
0.439343518677062
 40
0.5540331161815144
 40
0.6249960116228778
 40
0.7018579524539389
 40
0.7811806993452355
 40
0.8592624491691468
 40
0.9329153330256956
 40
1.0
 40
1.0
 40
1.0
 40
1.0
 10
322.4188646427689
 20
308.3148595935705
 30
0.0
 10
322.7700866629505
 20
309.3780203501868
 30
0.0
 10
323.48859102638
 20
311.5529569964164
 30
0.0
 10
322.9529479011836
 20
314.9341212952523
 30
0.0
 10
321.4747160069873
 20
317.6103979879979
 30
0.0
 10
319.3139967202497
 20
319.6366048418174
 30
0.0
 10
316.9397117355808
 20
320.7418282897169
 30
0.0
 10
314.4879367389247
 20
321.0960577879478
 30
0.0
 10
312.3473221771782
 20
320.908140066939
 30
0.0
 10
310.2496934648926
 20
320.1845577793405
 30
0.0
 10
308.4272203433331
 20
318.9838632703023
 30
0.0
 10
306.9894108320472
 20
317.4854298879222
 30
0.0
 10
306.3682606797657
 20
316.3170104500665
 30
0.0
 10
306.0721801322441
 20
315.7600657795638
 30
0.0
  0
LWPOLYLINE
  5
76
330
1F
100
AcDbEntity
  8
0
  6
Continuous
 62
     7
370
    25
100
AcDbPolyline
 90
        3
 70
   128
 43
0.0
 10
323.6988410508
 20
328.9211016975
 10
322.6179704427
 20
329.4823649094
 10
322.3954378552
 20
329.587430717
  0
LWPOLYLINE
  5
77
330
1F
100
AcDbEntity
  8
0
  6
Continuous
 62
     7
370
    25
100
AcDbPolyline
 90
        3
 70
   128
 43
0.0
 10
315.5308074501
 20
331.3447292541
 10
314.9747583072
 20
331.3737165888
 10
313.9175020948
 20
331.3846821945
  0
LINE
  5
78
330
1F
100
AcDbEntity
  8
0
  6
Continuous
 62
     7
370
    25
100
AcDbLine
 10
306.931997613
 20
329.9521174522
 30
0.0
 11
305.505617029
 21
329.3011979233
 31
0.0
  0
LINE
  5
79
330
1F
100
AcDbEntity
  8
0
  6
Continuous
 62
     7
370
    25
100
AcDbLine
 10
299.8884680762
 20
325.0104149913
 30
0.0
 11
298.9490022228
 21
323.8881576388
 31
0.0
  0
LWPOLYLINE
  5
7A
330
1F
100
AcDbEntity
  8
0
  6
Continuous
 62
     7
370
    25
100
AcDbPolyline
 90
        3
 70
   128
 43
0.0
 10
295.7000419302
 20
317.5590253827
 10
295.4620713092
 20
316.685523098
 10
295.3105254705
 20
316.0234872416
  0
LWPOLYLINE
  5
7B
330
1F
100
AcDbEntity
  8
0
  6
Continuous
 62
     7
370
    25
100
AcDbPolyline
 90
        3
 70
   128
 43
0.0
 10
295.1533145163
 20
308.8894317775
 10
295.1653364436
 20
308.8173688453
 10
295.469983279
 20
307.3575448255
  0
LINE
  5
7C
330
1F
100
AcDbEntity
  8
0
  6
Continuous
 62
     7
370
    25
100
AcDbLine
 10
298.4033251042
 20
300.9267793036
 30
0.0
 11
299.2882532175
 21
299.7613639994
 31
0.0
  0
LWPOLYLINE
  5
7D
330
1F
100
AcDbEntity
  8
0
  6
Continuous
 62
     7
370
    25
100
AcDbPolyline
 90
        3
 70
   128
 43
0.0
 10
304.7091183542
 20
295.2006132748
 10
305.8730743323
 20
294.5925604638
 10
306.1006622826
 20
294.4851479141
  0
LWPOLYLINE
  5
7E
330
1F
100
AcDbEntity
  8
0
  6
Continuous
 62
     7
370
    25
100
AcDbPolyline
 90
        3
 70
   128
 43
0.0
 10
313.0613160674
 20
292.7237329745
 10
313.5162864679
 20
292.7012087843
 10
314.6365050719
 20
292.6914131534
  0
LINE
  5
7F
330
1F
100
AcDbEntity
  8
0
  6
Continuous
 62
     7
370
    25
100
AcDbLine
 10
321.5528018475
 20
294.1202595875
 30
0.0
 11
322.8953308185
 21
294.7284097342
 31
0.0
  0
LINE
  5
80
330
1F
100
AcDbEntity
  8
0
  6
Continuous
 62
     7
370
    25
100
AcDbLine
 10
328.5904250576
 20
299.0510749138
 30
0.0
 11
329.545191445
 21
300.190833346
 31
0.0
  0
LWPOLYLINE
  5
81
330
1F
100
AcDbEntity
  8
0
  6
Continuous
 62
     7
370
    25
100
AcDbPolyline
 90
        3
 70
   128
 43
0.0
 10
332.7910028448
 20
306.5158999904
 10
333.0289734658
 20
307.3894022751
 10
333.1925270912
 20
308.1089117123
  0
LWPOLYLINE
  5
82
330
1F
100
AcDbEntity
  8
0
  6
Continuous
 62
     7
370
    25
100
AcDbPolyline
 90
        3
 70
   128
 43
0.0
 10
333.3394598399
 20
315.1749860034
 10
333.3257083314
 20
315.2575565278
 10
333.047877475
 20
316.6084519847
  0
LINE
  5
83
330
1F
100
AcDbEntity
  8
0
  6
Continuous
 62
     7
370
    25
100
AcDbLine
 10
330.1436120637
 20
323.0680222666
 30
0.0
 11
329.1169665594
 21
324.4173919369
 31
0.0
  0
SPLINE
  5
84
330
1F
100
AcDbEntity
  8
0
  6
Continuous
 62
     7
370
    25
100
AcDbSpline
210
0.0
220
0.0
230
1.0
 70
    24
 71
     3
 72
     9
 73
     5
 74
     0
 42
0.000000001
 43
0.00000001
 40
0.0
 40
0.0
 40
0.0
 40
0.0
 40
0.5600000004405827
 40
1.0
 40
1.0
 40
1.0
 40
1.0
 10
330.7589156652196
 20
324.4484788027381
 30
0.0
 10
330.6875514266848
 20
324.3948433869469
 30
0.0
 10
330.5601152865442
 20
324.2990658588238
 30
0.0
 10
330.360250164214
 20
324.1488526826106
 30
0.0
 10
330.2723095104768
 20
324.082758885143
 30
0.0
  0
SPLINE
  5
85
330
1F
100
AcDbEntity
  8
0
  6
Continuous
 62
     7
370
    25
100
AcDbSpline
210
0.0
220
0.0
230
1.0
 70
    24
 71
     3
 72
     9
 73
     5
 74
     0
 42
0.000000001
 43
0.00000001
 40
0.0
 40
0.0
 40
0.0
 40
0.0
 40
0.559999999528177
 40
1.0
 40
1.0
 40
1.0
 40
1.0
 10
298.2187352645361
 20
299.9921664879913
 30
0.0
 10
298.107182012451
 20
299.9083261054511
 30
0.0
 10
297.9079797764169
 20
299.7586111365033
 30
0.0
 10
297.7858612579684
 20
299.6668301878478
 30
0.0
 10
297.7321291097934
 20
299.6264465703961
 30
0.0
  0
SPLINE
  5
86
330
1F
100
AcDbEntity
  8
0
  6
Continuous
 62
     7
370
    25
100
AcDbSpline
210
0.0
220
0.0
230
1.0
 70
    24
 71
     3
 72
     9
 73
     5
 74
     0
 42
0.000000001
 43
0.00000001
 40
0.0
 40
0.0
 40
0.0
 40
0.0
 40
0.5599999999792348
 40
1.0
 40
1.0
 40
1.0
 40
1.0
 10
330.7589156652354
 20
324.4484788027501
 30
0.0
 10
330.9211972971847
 20
324.5704452523833
 30
0.0
 10
331.2109859256763
 20
324.7882424838792
 30
0.0
 10
331.667452989772
 20
325.1313106827478
 30
0.0
 10
331.8682984979835
 20
325.2822606902571
 30
0.0
  0
SPLINE
  5
87
330
1F
100
AcDbEntity
  8
0
  6
Continuous
 62
     7
370
    25
100
AcDbSpline
210
0.0
220
0.0
230
1.0
 70
    24
 71
     3
 72
     9
 73
     5
 74
     0
 42
0.000000001
 43
0.00000001
 40
0.0
 40
0.0
 40
0.0
 40
0.0
 40
0.5600000000440316
 40
1.0
 40
1.0
 40
1.0
 40
1.0
 10
296.6227462778967
 20
298.7926646835289
 30
0.0
 10
296.8781744645312
 20
298.9846375438328
 30
0.0
 10
297.3342962263428
 20
299.3274462229198
 30
0.0
 10
297.6105690620698
 20
299.5350853531098
 30
0.0
 10
297.7321291097775
 20
299.6264465703842
 30
0.0
  0
SPLINE
  5
88
330
1F
100
AcDbEntity
  8
0
  6
Continuous
 62
     7
370
    25
100
AcDbSpline
210
0.0
220
0.0
230
1.0
 70
    24
 71
     3
 72
    11
 73
     7
 74
     0
 42
0.000000001
 43
0.00000001
 40
0.0
 40
0.0
 40
0.0
 40
0.0
 40
0.2723457484540671
 40
0.5618939965505321
 40
0.7876533507595159
 40
1.0
 40
1.0
 40
1.0
 40
1.0
 10
335.8292176752566
 20
328.2591795413533
 30
0.0
 10
335.8247152997209
 20
328.255795678667
 30
0.0
 10
335.8154261597285
 20
328.248814214336
 30
0.0
 10
335.7465163641407
 20
328.1970234909384
 30
0.0
 10
335.6587935833332
 20
328.1310934408241
 30
0.0
 10
335.5956095291525
 20
328.0836060285441
 30
0.0
 10
335.5649846984379
 20
328.0605892408275
 30
0.0
  0
LINE
  5
89
330
1F
100
AcDbEntity
  8
0
  6
Continuous
 62
     7
370
    25
100
AcDbLine
 10
292.6618271063
 20
295.8157458228
 30
0.0
 11
293.5868468258
 21
294.6530120471
 31
0.0
  0
LWPOLYLINE
  5
8A
330
1F
100
AcDbEntity
  8
0
  6
Continuous
 62
     7
370
    25
100
AcDbPolyline
 90
        3
 70
   128
 43
0.0
 10
300.8039776628
 20
288.6211248983
 10
302.2379210132
 20
287.8544622682
 10
303.17558927
 20
287.4111235195
  0
LWPOLYLINE
  5
8B
330
1F
100
AcDbEntity
  8
0
  6
Continuous
 62
     7
370
    25
100
AcDbPolyline
 90
        3
 70
   128
 43
0.0
 10
312.2951956836
 20
285.1079950768
 10
314.3684486276
 20
285.0377425188
 10
314.9567215398
 20
285.0468310569
  0
LWPOLYLINE
  5
8C
330
1F
100
AcDbEntity
  8
0
  6
Continuous
 62
     7
370
    25
100
AcDbPolyline
 90
        3
 70
   128
 43
0.0
 10
324.1728430625
 20
286.9287330449
 10
326.4728255629
 20
287.9648006597
 10
326.5968278238
 20
288.0281883531
  0
LINE
  5
8D
330
1F
100
AcDbEntity
  8
0
  6
Continuous
 62
     7
370
    25
100
AcDbLine
 10
334.0842654522
 20
293.7228708644
 30
0.0
 11
335.7905985267
 21
295.7644883378
 31
0.0
  0
LWPOLYLINE
  5
8E
330
1F
100
AcDbEntity
  8
0
  6
Continuous
 62
     7
370
    25
100
AcDbPolyline
 90
        3
 70
   128
 43
0.0
 10
340.0661631806
 20
304.1447756263
 10
340.1462267849
 20
304.4116177027
 10
340.7174025662
 20
306.7233720018
  0
LWPOLYLINE
  5
8F
330
1F
100
AcDbEntity
  8
0
  6
Continuous
 62
     7
370
    25
100
AcDbPolyline
 90
        3
 70
   128
 43
0.0
 10
340.9335339324
 20
316.1301439326
 10
340.8137102219
 20
316.8469735968
 10
340.4017981731
 20
318.7344199829
  0
LINE
  5
90
330
1F
100
AcDbEntity
  8
0
  6
Continuous
 62
     7
370
    25
100
AcDbLine
 10
336.5143811296
 20
327.3050076865
 30
0.0
 11
335.8292176783
 21
328.2591795376
 31
0.0
  0
SPLINE
  5
91
330
1F
100
AcDbEntity
  8
0
  6
Continuous
 62
     7
370
    25
100
AcDbSpline
210
0.0
220
0.0
230
1.0
 70
    24
 71
     3
 72
    11
 73
     7
 74
     0
 42
0.000000001
 43
0.00000001
 40
0.0
 40
0.0
 40
0.0
 40
0.0
 40
0.2723457483393439
 40
0.5618939964056959
 40
0.7876533506639398
 40
1.0
 40
1.0
 40
1.0
 40
1.0
 10
292.9260600765751
 20
296.0143361323068
 30
0.0
 10
292.8868733605671
 20
295.984884465061
 30
0.0
 10
292.8060247312127
 20
295.9241208397411
 30
0.0
 10
292.7199771323214
 20
295.8594498106776
 30
0.0
 10
292.6701842565157
 20
295.8220268429263
 30
0.0
 10
292.6645553755621
 20
295.8177963294847
 30
0.0
 10
292.6618270997564
 20
295.8157458317811
 30
0.0
  0
LINE
  5
92
330
1F
100
AcDbEntity
  8
0
  6
Continuous
 62
     7
370
    25
100
AcDbLine
 10
335.8292176754
 20
328.2591795415
 30
0.0
 11
334.9041979492
 21
329.421913326
 31
0.0
  0
LWPOLYLINE
  5
93
330
1F
100
AcDbEntity
  8
0
  6
Continuous
 62
     7
370
    25
100
AcDbPolyline
 90
        3
 70
   128
 43
0.0
 10
327.6870671122
 20
335.4538004748
 10
326.2531237682
 20
336.2204631018
 10
325.315455505
 20
336.6638018537
  0
LWPOLYLINE
  5
94
330
1F
100
AcDbEntity
  8
0
  6
Continuous
 62
     7
370
    25
100
AcDbPolyline
 90
        3
 70
   128
 43
0.0
 10
316.1958490914
 20
338.9669302964
 10
314.1225961505
 20
339.0371828544
 10
313.5343232352
 20
339.0280943162
  0
LWPOLYLINE
  5
95
330
1F
100
AcDbEntity
  8
0
  6
Continuous
 62
     7
370
    25
100
AcDbPolyline
 90
        3
 70
   128
 43
0.0
 10
304.3182017126
 20
337.1461923282
 10
302.0182192113
 20
336.110124713
 10
301.8942169512
 20
336.04673702
  0
LINE
  5
96
330
1F
100
AcDbEntity
  8
0
  6
Continuous
 62
     7
370
    25
100
AcDbLine
 10
294.4067793228
 20
330.3520545088
 30
0.0
 11
292.7004462482
 21
328.3104370353
 31
0.0
  0
LWPOLYLINE
  5
97
330
1F
100
AcDbEntity
  8
0
  6
Continuous
 62
     7
370
    25
100
AcDbPolyline
 90
        3
 70
   128
 43
0.0
 10
288.4248815944
 20
319.9301497469
 10
288.3448179878
 20
319.6633076628
 10
287.7736422088
 20
317.3515533713
  0
LWPOLYLINE
  5
98
330
1F
100
AcDbEntity
  8
0
  6
Continuous
 62
     7
370
    25
100
AcDbPolyline
 90
        3
 70
   128
 43
0.0
 10
287.5575108426
 20
307.9447814406
 10
287.6773345552
 20
307.2279517646
 10
288.0892466019
 20
305.3405053902
  0
LINE
  5
99
330
1F
100
AcDbEntity
  8
0
  6
Continuous
 62
     7
370
    25
100
AcDbLine
 10
291.9766636454
 20
296.7699176867
 30
0.0
 11
292.6618271063
 21
295.8157458228
 31
0.0
  0
SPLINE
  5
9A
330
1F
100
AcDbEntity
  8
0
  6
Continuous
 62
     7
370
    25
100
AcDbSpline
210
0.0
220
0.0
230
1.0
 70
    24
 71
     3
 72
     9
 73
     5
 74
     0
 42
0.000000001
 43
0.00000001
 40
0.0
 40
0.0
 40
0.0
 40
0.0
 40
0.5599999999871749
 40
1.0
 40
1.0
 40
1.0
 40
1.0
 10
283.7614408164799
 20
288.8526827007868
 30
0.0
 10
283.6065795663982
 20
288.734902409355
 30
0.0
 10
283.3300416198175
 20
288.5245804603648
 30
0.0
 10
282.9657790411702
 20
288.2475392208801
 30
0.0
 10
282.8055035065607
 20
288.1256410755033
 30
0.0
  0
SPLINE
  5
9B
330
1F
100
AcDbEntity
  8
0
  6
Continuous
 62
     7
370
    25
100
AcDbSpline
210
0.0
220
0.0
230
1.0
 70
    24
 71
     3
 72
     9
 73
     5
 74
     0
 42
0.000000001
 43
0.00000001
 40
0.0
 40
0.0
 40
0.0
 40
0.0
 40
0.5600000000054072
 40
1.0
 40
1.0
 40
1.0
 40
1.0
 10
345.6855412684521
 20
335.9492842976309
 30
0.0
 10
345.4806572731421
 20
335.793459023945
 30
0.0
 10
345.1147929958065
 20
335.5151996066514
 30
0.0
 10
344.8473006084098
 20
335.3117572908574
 30
0.0
 10
344.7296039579567
 20
335.2222426719092
 30
0.0
  0
ARC
  5
9C
330
1F
100
AcDbEntity
  8
0
  6
Continuous
 62
     7
370
    25
100
AcDbCircle
 10
314.2455223875
 20
312.0374626866
 30
0.0
 40
38.29899805700017
100
AcDbArc
 50
37.2549368278
 51
217.2549368278
  0
ARC
  5
9D
330
1F
100
AcDbEntity
  8
0
  6
Continuous
 62
     7
370
    25
100
AcDbCircle
 10
314.2455223875
 20
312.0374626866
 30
0.0
 40
39.50000000000023
100
AcDbArc
 50
37.2549368278
 51
217.2549368513
  0
ARC
  5
9E
330
1F
100
AcDbEntity
  8
0
  6
Continuous
 62
     7
370
    25
100
AcDbCircle
 10
314.2455223875
 20
312.0374626866
 30
0.0
 40
38.29899805700017
100
AcDbArc
 50
217.2549368278
 51
37.2549368278
  0
ARC
  5
9F
330
1F
100
AcDbEntity
  8
0
  6
Continuous
 62
     7
370
    25
100
AcDbCircle
 10
314.2455223875
 20
312.0374626866
 30
0.0
 40
39.50000000000023
100
AcDbArc
 50
217.2549368513
 51
37.2549368176
  0
SPLINE
  5
A0
330
1F
100
AcDbEntity
  8
0
  6
Continuous
 62
     7
370
    25
100
AcDbSpline
210
0.0
220
0.0
230
1.0
 70
     8
 71
     3
 72
    12
 73
     8
 74
     0
 42
0.000000001
 43
0.00000001
 40
0.0
 40
0.0
 40
0.0
 40
0.0
 40
0.3203755331913538
 40
0.562005856193439
 40
0.7625110883901935
 40
0.8964635022549623
 40
1.0
 40
1.0
 40
1.0
 40
1.0
 10
332.3064778984863
 20
343.5366211033573
 30
0.0
 10
332.3472735255547
 20
343.6348840683542
 30
0.0
 10
332.4188376087764
 20
343.8072579110914
 30
0.0
 10
332.3853997070039
 20
344.0821888370965
 30
0.0
 10
332.283018281773
 20
344.2885773126076
 30
0.0
 10
332.1501556669505
 20
344.4295778260806
 30
0.0
 10
332.0574639559902
 20
344.484074339474
 30
0.0
 10
332.0170537530137
 20
344.5078328303349
 30
0.0
  0
LINE
  5
A1
330
1F
100
AcDbEntity
  8
0
  6
Continuous
 62
     7
370
    25
100
AcDbLine
 10
330.1047010483
 20
345.4835195028
 30
0.0
 11
332.017053753
 21
344.5078328303
 31
0.0
  0
SPLINE
  5
A2
330
1F
100
AcDbEntity
  8
0
  6
Continuous
 62
     7
370
    25
100
AcDbSpline
210
0.0
220
0.0
230
1.0
 70
     8
 71
     3
 72
    12
 73
     8
 74
     0
 42
0.000000001
 43
0.00000001
 40
0.0
 40
0.0
 40
0.0
 40
0.0
 40
0.1369201212178393
 40
0.2732892266835528
 40
0.4609277195254667
 40
0.7173042691150252
 40
1.0
 40
1.0
 40
1.0
 40
1.0
 10
330.104701048267
 20
345.4835195028111
 30
0.0
 10
330.0471897875297
 20
345.5073540227922
 30
0.0
 10
329.9323987120275
 20
345.5549271440843
 30
0.0
 10
329.7324046418661
 20
345.567000087596
 30
0.0
 10
329.5103218186872
 20
345.5187825509043
 30
0.0
 10
329.2876307813191
 20
345.3816571999753
 30
0.0
 10
329.196358208733
 20
345.2282698294502
 30
0.0
 10
329.1484938173489
 20
345.1478317205181
 30
0.0
  0
SPLINE
  5
A3
330
1F
100
AcDbEntity
  8
0
  6
Continuous
 62
     7
370
    25
100
AcDbSpline
210
0.0
220
0.0
230
1.0
 70
     8
 71
     3
 72
    11
 73
     7
 74
     0
 42
0.000000001
 43
0.00000001
 40
0.0
 40
0.0
 40
0.0
 40
0.0
 40
0.260329670063949
 40
0.5282089223352222
 40
0.7614183595322358
 40
1.0
 40
1.0
 40
1.0
 40
1.0
 10
322.3145616280141
 20
329.9988005279803
 30
0.0
 10
322.971177114338
 20
331.4543444535276
 30
0.0
 10
324.3034499910124
 20
334.4076432002131
 30
0.0
 10
326.120413754638
 20
338.435374228891
 30
0.0
 10
327.7694342550869
 20
342.0908191915779
 30
0.0
 10
328.6853309110761
 20
344.121121311365
 30
0.0
 10
329.1484938173489
 20
345.1478317205181
 30
0.0
  0
SPLINE
  5
A4
330
1F
100
AcDbEntity
  8
0
  6
Continuous
 62
     7
370
    25
100
AcDbSpline
210
0.0
220
0.0
230
1.0
 70
     8
 71
     3
 72
    12
 73
     8
 74
     0
 42
0.000000001
 43
0.00000001
 40
0.0
 40
0.0
 40
0.0
 40
0.0
 40
0.2229001245800247
 40
0.4458326905764385
 40
0.6679313583905667
 40
0.8889145851688852
 40
1.0
 40
1.0
 40
1.0
 40
1.0
 10
322.3145616280141
 20
329.9988005279803
 30
0.0
 10
322.2891898248121
 20
329.9236411235754
 30
0.0
 10
322.2384425257353
 20
329.7733113758865
 30
0.0
 10
322.2627213782524
 20
329.5314780292836
 30
0.0
 10
322.3605534210353
 20
329.3135823017851
 30
0.0
 10
322.4980757109284
 20
329.1660340472246
 30
0.0
 10
322.6003116621755
 20
329.107126756216
 30
0.0
 10
322.6345121907165
 20
329.0874207676391
 30
0.0
  0
LINE
  5
A5
330
1F
100
AcDbEntity
  8
0
  6
Continuous
 62
     7
370
    25
100
AcDbLine
 10
323.1263566589
 20
328.8364806082
 30
0.0
 11
322.6345121907
 21
329.0874207676
 31
0.0
  0
SPLINE
  5
A6
330
1F
100
AcDbEntity
  8
0
  6
Continuous
 62
     7
370
    25
100
AcDbSpline
210
0.0
220
0.0
230
1.0
 70
     8
 71
     3
 72
    12
 73
     8
 74
     0
 42
0.000000001
 43
0.00000001
 40
0.0
 40
0.0
 40
0.0
 40
0.0
 40
0.2201335749264514
 40
0.4402546066784624
 40
0.6607438481109829
 40
0.8821597119404009
 40
1.0
 40
1.0
 40
1.0
 40
1.0
 10
323.1263566588552
 20
328.8364806082392
 30
0.0
 10
323.1997231121468
 20
328.8076819290042
 30
0.0
 10
323.3464518383217
 20
328.750086211478
 30
0.0
 10
323.5871919779706
 20
328.7618104487024
 30
0.0
 10
323.8084757431864
 20
328.8470235191413
 30
0.0
 10
323.9644557640002
 20
328.9766858161825
 30
0.0
 10
324.0294587580042
 20
329.0773654488454
 30
0.0
 10
324.0520374835352
 20
329.1123364194488
 30
0.0
  0
SPLINE
  5
A7
330
1F
100
AcDbEntity
  8
0
  6
Continuous
 62
     7
370
    25
100
AcDbSpline
210
0.0
220
0.0
230
1.0
 70
    24
 71
     3
 72
    11
 73
     7
 74
     0
 42
0.000000001
 43
0.00000001
 40
0.0
 40
0.0
 40
0.0
 40
0.0
 40
0.2832270505253222
 40
0.5762690817459335
 40
0.7861908663395977
 40
1.0
 40
1.0
 40
1.0
 40
1.0
 10
332.3064778984863
 20
343.5366211033573
 30
0.0
 10
331.6372390415302
 20
342.36715457278
 30
0.0
 10
330.2755694522324
 20
339.9876946925941
 30
0.0
 10
328.093187390174
 20
336.1740745595701
 30
0.0
 10
325.9955236835984
 20
332.5084961611465
 30
0.0
 10
324.7038163003619
 20
330.2512922700878
 30
0.0
 10
324.0520374835352
 20
329.1123364194488
 30
0.0
  0
SPLINE
  5
A8
330
1F
100
AcDbEntity
  8
0
  6
Continuous
 62
     7
370
    25
100
AcDbSpline
210
0.0
220
0.0
230
1.0
 70
     8
 71
     3
 72
    13
 73
     9
 74
     0
 42
0.000000001
 43
0.00000001
 40
0.0
 40
0.0
 40
0.0
 40
0.0
 40
0.3201770901877479
 40
0.4946667587106008
 40
0.6890181118666563
 40
0.8387695944500847
 40
0.967234818376741
 40
1.0
 40
1.0
 40
1.0
 40
1.0
 10
316.8509083949951
 20
348.253578695501
 30
0.0
 10
316.845271750188
 20
348.3599621157704
 30
0.0
 10
316.8365632544767
 20
348.5243222255282
 30
0.0
 10
316.714173846099
 20
348.7361100908086
 30
0.0
 10
316.5726378278254
 20
348.8764604798337
 30
0.0
 10
316.3942139919511
 20
348.9686096237263
 30
0.0
 10
316.256070402485
 20
348.9993105857427
 30
0.0
 10
316.1835008064317
 20
349.0024049575917
 30
0.0
 10
316.1687532407544
 20
349.0030337946606
 30
0.0
  0
LINE
  5
A9
330
1F
100
AcDbEntity
  8
0
  6
Continuous
 62
     7
370
    25
100
AcDbLine
 10
314.022448475
 20
349.0523583678
 30
0.0
 11
316.1687532408
 21
349.0030337947
 31
0.0
  0
SPLINE
  5
AA
330
1F
100
AcDbEntity
  8
0
  6
Continuous
 62
     7
370
    25
100
AcDbSpline
210
0.0
220
0.0
230
1.0
 70
     8
 71
     3
 72
    12
 73
     8
 74
     0
 42
0.000000001
 43
0.00000001
 40
0.0
 40
0.0
 40
0.0
 40
0.0
 40
0.1369201143547707
 40
0.2732892131935685
 40
0.4609276901287011
 40
0.7173042183016161
 40
1.0
 40
1.0
 40
1.0
 40
1.0
 10
314.0224484750089
 20
349.0523583677893
 30
0.0
 10
313.9602912101038
 20
349.0488793308218
 30
0.0
 10
313.8362268233611
 20
349.0419352577756
 30
0.0
 10
313.650800138223
 20
348.9660384411615
 30
0.0
 10
313.4716312300832
 20
348.8262378315581
 30
0.0
 10
313.3304899728391
 20
348.6060701364234
 30
0.0
 10
313.3148085073038
 20
348.4282711912837
 30
0.0
 10
313.3065849646056
 20
348.3350313589625
 30
0.0
  0
SPLINE
  5
AB
330
1F
100
AcDbEntity
  8
0
  6
Continuous
 62
     7
370
    25
100
AcDbSpline
210
0.0
220
0.0
230
1.0
 70
    24
 71
     3
 72
    11
 73
     7
 74
     0
 42
0.000000001
 43
0.00000001
 40
0.0
 40
0.0
 40
0.0
 40
0.0
 40
0.2603296700649115
 40
0.5282089223371723
 40
0.7614183595020928
 40
1.0
 40
1.0
 40
1.0
 40
1.0
 10
313.7223431143575
 20
331.7210938245247
 30
0.0
 10
313.6823963849692
 20
333.317388369677
 30
0.0
 10
313.601344467699
 20
336.5562701353142
 30
0.0
 10
313.4908052537602
 20
340.9734814318311
 30
0.0
 10
313.3904832585713
 20
344.9824067221378
 30
0.0
 10
313.3347625565902
 20
347.2090383902315
 30
0.0
 10
313.3065849646056
 20
348.3350313589625
 30
0.0
  0
SPLINE
  5
AC
330
1F
100
AcDbEntity
  8
0
  6
Continuous
 62
     7
370
    25
100
AcDbSpline
210
0.0
220
0.0
230
1.0
 70
     8
 71
     3
 72
    12
 73
     8
 74
     0
 42
0.000000001
 43
0.00000001
 40
0.0
 40
0.0
 40
0.0
 40
0.0
 40
0.22290012361967
 40
0.4458326887125152
 40
0.6679313556061605
 40
0.8889145814683728
 40
1.0
 40
1.0
 40
1.0
 40
1.0
 10
313.7223431143575
 20
331.7210938245247
 30
0.0
 10
313.7320943528202
 20
331.6423691281685
 30
0.0
 10
313.7515982489667
 20
331.4849082776556
 30
0.0
 10
313.8784002960321
 20
331.2775581605095
 30
0.0
 10
314.0610853338241
 20
331.1236886260525
 30
0.0
 10
314.2490074255032
 20
331.0504209271944
 30
0.0
 10
314.3666777519343
 20
331.0417058087411
 30
0.0
 10
314.406041472903
 20
331.0387903796656
 30
0.0
  0
LINE
  5
AD
330
1F
100
AcDbEntity
  8
0
  6
Continuous
 62
     7
370
    25
100
AcDbLine
 10
314.9580568617
 20
331.0261044257
 30
0.0
 11
314.4060414729
 21
331.0387903797
 31
0.0
  0
SPLINE
  5
AE
330
1F
100
AcDbEntity
  8
0
  6
Continuous
 62
     7
370
    25
100
AcDbSpline
210
0.0
220
0.0
230
1.0
 70
     8
 71
     3
 72
    12
 73
     8
 74
     0
 42
0.000000001
 43
0.00000001
 40
0.0
 40
0.0
 40
0.0
 40
0.0
 40
0.2201335711101285
 40
0.4402545990408533
 40
0.6607438366208921
 40
0.8821596965545241
 40
1.0
 40
1.0
 40
1.0
 40
1.0
 10
314.958056861663
 20
331.026104425687
 30
0.0
 10
315.0366530307845
 20
331.0319902214698
 30
0.0
 10
315.1938408906292
 20
331.0437614776636
 30
0.0
 10
315.4056533086328
 20
331.1587778772356
 30
0.0
 10
315.5680505303679
 20
331.3315636244046
 30
0.0
 10
315.6523253185946
 20
331.5160625156609
 30
0.0
 10
315.6672077377524
 20
331.6349754786192
 30
0.0
 10
315.672377131794
 20
331.6762797824203
 30
0.0
  0
SPLINE
  5
AF
330
1F
100
AcDbEntity
  8
0
  6
Continuous
 62
     7
370
    25
100
AcDbSpline
210
0.0
220
0.0
230
1.0
 70
     8
 71
     3
 72
    11
 73
     7
 74
     0
 42
0.000000001
 43
0.00000001
 40
0.0
 40
0.0
 40
0.0
 40
0.0
 40
0.2832270505409898
 40
0.5762690817789554
 40
0.7861908663567692
 40
1.0
 40
1.0
 40
1.0
 40
1.0
 10
316.8509083949951
 20
348.253578695501
 30
0.0
 10
316.7553575306556
 20
346.9095539017697
 30
0.0
 10
316.5609445720382
 20
344.1749283344298
 30
0.0
 10
316.2493540390637
 20
339.7920752312937
 30
0.0
 10
315.949859205267
 20
335.5793610392196
 30
0.0
 10
315.7654351311421
 20
332.9852397757809
 30
0.0
 10
315.672377131794
 20
331.6762797824203
 30
0.0
  0
SPLINE
  5
B0
330
1F
100
AcDbEntity
  8
0
  6
Continuous
 62
     7
370
    25
100
AcDbSpline
210
0.0
220
0.0
230
1.0
 70
     8
 71
     3
 72
    13
 73
     9
 74
     0
 42
0.000000001
 43
0.00000001
 40
0.0
 40
0.0
 40
0.0
 40
0.0
 40
0.1923255843130375
 40
0.4540879704407372
 40
0.6566903155945526
 40
0.8131117782652058
 40
0.9441977497085006
 40
1.0
 40
1.0
 40
1.0
 40
1.0
 10
300.8793102381019
 20
345.7974903510876
 30
0.0
 10
300.8512774559794
 20
345.8544248420042
 30
0.0
 10
300.7850909983363
 20
345.9888493259891
 30
0.0
 10
300.6138750626479
 20
346.1406873848595
 30
0.0
 10
300.3974937205123
 20
346.2300775842929
 30
0.0
 10
300.1933341116228
 20
346.2464794155746
 30
0.0
 10
300.0407129584652
 20
346.2187001707329
 30
0.0
 10
299.9627977220762
 20
346.1863957040321
 30
0.0
 10
299.9395333050779
 20
346.1767500349812
 30
0.0
  0
LINE
  5
B1
330
1F
100
AcDbEntity
  8
0
  6
Continuous
 62
     7
370
    25
100
AcDbLine
 10
297.9843783588
 20
345.2899431839
 30
0.0
 11
299.9395333051
 21
346.176750035
 31
0.0
  0
SPLINE
  5
B2
330
1F
100
AcDbEntity
  8
0
  6
Continuous
 62
     7
370
    25
100
AcDbSpline
210
0.0
220
0.0
230
1.0
 70
     8
 71
     3
 72
    12
 73
     8
 74
     0
 42
0.000000001
 43
0.00000001
 40
0.0
 40
0.0
 40
0.0
 40
0.0
 40
0.1369201225725964
 40
0.2732892293761592
 40
0.460927725389302
 40
0.7173042792486509
 40
1.0
 40
1.0
 40
1.0
 40
1.0
 10
297.9843783588324
 20
345.2899431839271
 30
0.0
 10
297.9298860962257
 20
345.2598396491792
 30
0.0
 10
297.821120867456
 20
345.1997537271238
 30
0.0
 10
297.6869875980801
 20
345.0509194217724
 30
0.0
 10
297.5862192127703
 20
344.8472249340589
 30
0.0
 10
297.5545825426951
 20
344.5876218150853
 30
0.0
 10
297.6175980992656
 20
344.4206265861064
 30
0.0
 10
297.6506441842198
 20
344.3330523611988
 30
0.0
  0
SPLINE
  5
B3
330
1F
100
AcDbEntity
  8
0
  6
Continuous
 62
     7
370
    25
100
AcDbSpline
210
0.0
220
0.0
230
1.0
 70
    24
 71
     3
 72
    11
 73
     7
 74
     0
 42
0.000000001
 43
0.00000001
 40
0.0
 40
0.0
 40
0.0
 40
0.0
 40
0.2603296700613621
 40
0.5282089223299598
 40
0.7614183594635634
 40
1.0
 40
1.0
 40
1.0
 40
1.0
 10
305.2337466733842
 20
329.5448025701183
 30
0.0
 10
304.5051496678005
 20
330.9656820229664
 30
0.0
 10
303.0268262825269
 20
333.8486465516455
 30
0.0
 10
301.0106777381405
 20
337.7804552450432
 30
0.0
 10
299.1808832486825
 20
341.3488440429656
 30
0.0
 10
298.1645813569961
 20
343.330793549706
 30
0.0
 10
297.6506441842198
 20
344.3330523611988
 30
0.0
  0
SPLINE
  5
B4
330
1F
100
AcDbEntity
  8
0
  6
Continuous
 62
     7
370
    25
100
AcDbSpline
210
0.0
220
0.0
230
1.0
 70
     8
 71
     3
 72
    12
 73
     8
 74
     0
 42
0.000000001
 43
0.00000001
 40
0.0
 40
0.0
 40
0.0
 40
0.0
 40
0.2229001220213829
 40
0.4458326855483204
 40
0.6679313506030181
 40
0.8889145746355025
 40
1.0
 40
1.0
 40
1.0
 40
1.0
 10
305.2337466733842
 20
329.5448025701183
 30
0.0
 10
305.2766896013356
 20
329.4781049733028
 30
0.0
 10
305.3625817072719
 20
329.3447000723174
 30
0.0
 10
305.5667922485272
 20
329.2129014183952
 30
0.0
 10
305.7981472692768
 20
329.1535338257403
 30
0.0
 10
305.9992488895163
 20
329.1690582500202
 30
0.0
 10
306.1090475405753
 20
329.21226144318
 30
0.0
 10
306.1457779873654
 20
329.2267140122435
 30
0.0
  0
LINE
  5
B5
330
1F
100
AcDbEntity
  8
0
  6
Continuous
 62
     7
370
    25
100
AcDbLine
 10
306.6486309054
 20
329.4547948673
 30
0.0
 11
306.1457779874
 21
329.2267140122
 31
0.0
  0
SPLINE
  5
B6
330
1F
100
AcDbEntity
  8
0
  6
Continuous
 62
     7
370
    25
100
AcDbSpline
210
0.0
220
0.0
230
1.0
 70
     8
 71
     3
 72
    12
 73
     8
 74
     0
 42
0.000000001
 43
0.00000001
 40
0.0
 40
0.0
 40
0.0
 40
0.0
 40
0.2201335757473384
 40
0.4402546082627277
 40
0.6607438504652728
 40
0.8821597150738849
 40
1.0
 40
1.0
 40
1.0
 40
1.0
 10
306.6486309053938
 20
329.4547948672527
 30
0.0
 10
306.7168898546358
 20
329.4941993878625
 30
0.0
 10
306.8534038637187
 20
329.5730061838086
 30
0.0
 10
306.9943365070112
 20
329.7685343470495
 30
0.0
 10
307.065682415609
 20
329.9946704420569
 30
0.0
 10
307.0615603009228
 20
330.1974636515286
 30
0.0
 10
307.023374498584
 20
330.3110577616729
 30
0.0
 10
307.0101106982552
 20
330.3505145624523
 30
0.0
  0
SPLINE
  5
B7
330
1F
100
AcDbEntity
  8
0
  6
Continuous
 62
     7
370
    25
100
AcDbSpline
210
0.0
220
0.0
230
1.0
 70
     8
 71
     3
 72
    11
 73
     7
 74
     0
 42
0.000000001
 43
0.00000001
 40
0.0
 40
0.0
 40
0.0
 40
0.0
 40
0.2832270505044759
 40
0.5762690817061494
 40
0.7861908663338433
 40
0.9999999999999999
 40
0.9999999999999999
 40
0.9999999999999999
 40
0.9999999999999999
 10
300.8793102381019
 20
345.7974903510876
 30
0.0
 10
301.376372387153
 20
344.5451078879903
 30
0.0
 10
302.3877219304763
 20
341.9969427651022
 30
0.0
 10
304.0086372533162
 20
337.9129345004525
 30
0.0
 10
305.5666299181664
 20
333.9874642248416
 30
0.0
 10
306.5260166023538
 20
331.5702231189771
 30
0.0
 10
307.0101106982552
 20
330.3505145624523
 30
0.0
  0
SPLINE
  5
B8
330
1F
100
AcDbEntity
  8
0
  6
Continuous
 62
     7
370
    25
100
AcDbSpline
210
0.0
220
0.0
230
1.0
 70
     8
 71
     3
 72
    12
 73
     8
 74
     0
 42
0.000000001
 43
0.00000001
 40
0.0
 40
0.0
 40
0.0
 40
0.0
 40
0.3203291957399031
 40
0.5619245719158849
 40
0.7389290157734854
 40
0.8801315585623741
 40
1.0
 40
1.0
 40
1.0
 40
1.0
 10
287.5550543234053
 20
336.6548144866362
 30
0.0
 10
287.4683735258248
 20
336.7164672860229
 30
0.0
 10
287.3163172327316
 20
336.8246192227288
 30
0.0
 10
287.0489203390836
 20
336.8521757646792
 30
0.0
 10
286.8330361448052
 20
336.8040503061995
 30
0.0
 10
286.6635140237887
 20
336.7133863702452
 30
0.0
 10
286.5814629866792
 20
336.6279768017506
 30
0.0
 10
286.5437899761538
 20
336.5887617511404
 30
0.0
  0
LINE
  5
B9
330
1F
100
AcDbEntity
  8
0
  6
Continuous
 62
     7
370
    25
100
AcDbLine
 10
285.1670273099
 20
334.9414664481
 30
0.0
 11
286.5437899762
 21
336.5887617511
 31
0.0
  0
SPLINE
  5
BA
330
1F
100
AcDbEntity
  8
0
  6
Continuous
 62
     7
370
    25
100
AcDbSpline
210
0.0
220
0.0
230
1.0
 70
     8
 71
     3
 72
    12
 73
     8
 74
     0
 42
0.000000001
 43
0.00000001
 40
0.0
 40
0.0
 40
0.0
 40
0.0
 40
0.1369201157522366
 40
0.2732892159078378
 40
0.4609276959964157
 40
0.7173042284140196
 40
1.0
 40
1.0
 40
1.0
 40
1.0
 10
285.167027309944
 20
334.9414664481017
 30
0.0
 10
285.1309929102255
 20
334.8907007968113
 30
0.0
 10
285.0590691261222
 20
334.7893737933978
 30
0.0
 10
285.0027960014362
 20
334.5970804806823
 30
0.0
 10
285.0003865351085
 20
334.3698363318408
 30
0.0
 10
285.0845204387455
 20
334.1222153451834
 30
0.0
 10
285.2137520160588
 20
333.9990992551678
 30
0.0
 10
285.2815225547982
 20
333.9345357489311
 30
0.0
  0
SPLINE
  5
BB
330
1F
100
AcDbEntity
  8
0
  6
Continuous
 62
     7
370
    25
100
AcDbSpline
210
0.0
220
0.0
230
1.0
 70
     8
 71
     3
 72
    11
 73
     7
 74
     0
 42
0.000000001
 43
0.00000001
 40
0.0
 40
0.0
 40
0.0
 40
0.0
 40
0.2603296700661895
 40
0.5282089223397668
 40
0.7614183594655058
 40
1.0
 40
1.0
 40
1.0
 40
1.0
 10
298.5300429335668
 20
323.9009679384282
 30
0.0
 10
297.2571032244401
 20
324.865009697377
 30
0.0
 10
294.674308448146
 20
326.8210505069219
 30
0.0
 10
291.1518735193657
 20
329.4887136652511
 30
0.0
 10
287.9550197755669
 20
331.9098028058389
 30
0.0
 10
286.1794277481682
 20
333.2545207443645
 30
0.0
 10
285.2815225547982
 20
333.9345357489311
 30
0.0
  0
SPLINE
  5
BC
330
1F
100
AcDbEntity
  8
0
  6
Continuous
 62
     7
370
    25
100
AcDbSpline
210
0.0
220
0.0
230
1.0
 70
     8
 71
     3
 72
    12
 73
     8
 74
     0
 42
0.000000001
 43
0.00000001
 40
0.0
 40
0.0
 40
0.0
 40
0.0
 40
0.2229001272209451
 40
0.4458326959109363
 40
0.6679313662889754
 40
0.8889145956180562
 40
1.0
 40
1.0
 40
1.0
 40
1.0
 10
298.5300429335668
 20
323.9009679384282
 30
0.0
 10
298.59767217742
 20
323.8595077183408
 30
0.0
 10
298.7329405080638
 20
323.7765812439367
 30
0.0
 10
298.974113140793
 20
323.7464383929977
 30
0.0
 10
299.2083154451577
 20
323.7933312213984
 30
0.0
 10
299.3827659411137
 20
323.8945729633232
 30
0.0
 10
299.4629459413794
 20
323.9811375358389
 30
0.0
 10
299.4897681909045
 20
324.0100955871779
 30
0.0
  0
LINE
  5
BD
330
1F
100
AcDbEntity
  8
0
  6
Continuous
 62
     7
370
    25
100
AcDbLine
 10
299.8438624403
 20
324.4337690417
 30
0.0
 11
299.4897681909
 21
324.0100955872
 31
0.0
  0
SPLINE
  5
BE
330
1F
100
AcDbEntity
  8
0
  6
Continuous
 62
     7
370
    25
100
AcDbSpline
210
0.0
220
0.0
230
1.0
 70
     8
 71
     3
 72
    12
 73
     8
 74
     0
 42
0.000000001
 43
0.00000001
 40
0.0
 40
0.0
 40
0.0
 40
0.0
 40
0.2201364054726538
 40
0.4402602676309996
 40
0.6607523441707857
 40
0.8834152975165523
 40
1.0
 40
1.0
 40
1.0
 40
1.0
 10
299.8438624403179
 20
324.4337690417047
 30
0.0
 10
299.8882648012364
 20
324.4988877288391
 30
0.0
 10
299.9770669930387
 20
324.6291213926622
 30
0.0
 10
300.0192041708991
 20
324.8664346443949
 30
0.0
 10
299.985312901266
 20
325.1015728347076
 30
0.0
 10
299.8934073674604
 20
325.2824422244604
 30
0.0
 10
299.8096798142064
 20
325.3681654657446
 30
0.0
 10
299.780906286319
 20
325.3976248250336
 30
0.0
  0
SPLINE
  5
BF
330
1F
100
AcDbEntity
  8
0
  6
Continuous
 62
     7
370
    25
100
AcDbSpline
210
0.0
220
0.0
230
1.0
 70
    24
 71
     3
 72
    11
 73
     7
 74
     0
 42
0.000000001
 43
0.00000001
 40
0.0
 40
0.0
 40
0.0
 40
0.0
 40
0.2832270505599099
 40
0.5762690817539502
 40
0.7861908663431423
 40
1.0
 40
1.0
 40
1.0
 40
1.0
 10
287.5550543234053
 20
336.6548144866362
 30
0.0
 10
288.546280231356
 20
335.7421240600805
 30
0.0
 10
290.5630820963482
 20
333.8851147348869
 30
0.0
 10
293.7954611159236
 20
330.9088392333891
 30
0.0
 10
296.9023617238983
 20
328.0481004063257
 30
0.0
 10
298.8155408677122
 20
326.2865037058557
 30
0.0
 10
299.780906286319
 20
325.3976248250336
 30
0.0
  0
SPLINE
  5
C0
330
1F
100
AcDbEntity
  8
0
  6
Continuous
 62
     7
370
    25
100
AcDbSpline
210
0.0
220
0.0
230
1.0
 70
     8
 71
     3
 72
    12
 73
     8
 74
     0
 42
0.000000001
 43
0.00000001
 40
0.0
 40
0.0
 40
0.0
 40
0.0
 40
0.3203291896136309
 40
0.5619245569549328
 40
0.7389289952628193
 40
0.8801315335581673
 40
1.0
 40
1.0
 40
1.0
 40
1.0
 10
279.5171729460312
 20
322.6363701862673
 30
0.0
 10
279.4123260976393
 20
322.6543080507204
 30
0.0
 10
279.2284027439737
 20
322.6857748257204
 30
0.0
 10
278.9755301314244
 20
322.5945832468691
 30
0.0
 10
278.8019060481935
 20
322.4575550655291
 30
0.0
 10
278.6885094947494
 20
322.3023167797258
 30
0.0
 10
278.6516418883758
 20
322.1897647921592
 30
0.0
 10
278.6347144496439
 20
322.1380875323341
 30
0.0
  0
LINE
  5
C1
330
1F
100
AcDbEntity
  8
0
  6
Continuous
 62
     7
370
    25
100
AcDbLine
 10
278.1090288056
 20
320.056570858
 30
0.0
 11
278.6347144496
 21
322.1380875323
 31
0.0
  0
SPLINE
  5
C2
330
1F
100
AcDbEntity
  8
0
  6
Continuous
 62
     7
370
    25
100
AcDbSpline
210
0.0
220
0.0
230
1.0
 70
     8
 71
     3
 72
    12
 73
     8
 74
     0
 42
0.000000001
 43
0.00000001
 40
0.0
 40
0.0
 40
0.0
 40
0.0
 40
0.1369201147335062
 40
0.2732892139410251
 40
0.4609276917774127
 40
0.7173042211628813
 40
1.0
 40
1.0
 40
1.0
 40
1.0
 10
278.1090288055621
 20
320.0565708579871
 30
0.0
 10
278.0985893233394
 20
319.9951978468203
 30
0.0
 10
278.0777523711054
 20
319.8726988114402
 30
0.0
 10
278.1104849776048
 20
319.6750325297792
 30
0.0
 10
278.2069116621963
 20
319.4692471980276
 30
0.0
 10
278.3901524093349
 20
319.282652727025
 30
0.0
 10
278.5600041086851
 20
319.2278004418631
 30
0.0
 10
278.6490763123621
 20
319.1990352665084
 30
0.0
  0
SPLINE
  5
C3
330
1F
100
AcDbEntity
  8
0
  6
Continuous
 62
     7
370
    25
100
AcDbSpline
210
0.0
220
0.0
230
1.0
 70
     8
 71
     3
 72
    11
 73
     7
 74
     0
 42
0.000000001
 43
0.00000001
 40
0.0
 40
0.0
 40
0.0
 40
0.0
 40
0.2603296700654318
 40
0.5282089223382256
 40
0.7614183595481328
 40
1.0
 40
1.0
 40
1.0
 40
1.0
 10
294.938982637836
 20
315.9074205950641
 30
0.0
 10
293.3738215461977
 20
316.223684366776
 30
0.0
 10
290.1981095603444
 20
316.8653835860335
 30
0.0
 10
285.8670496838936
 20
317.740537803798
 30
0.0
 10
281.9363127764575
 20
318.534800890142
 30
0.0
 10
279.7531083903953
 20
318.9759493805824
 30
0.0
 10
278.6490763123621
 20
319.1990352665084
 30
0.0
  0
SPLINE
  5
C4
330
1F
100
AcDbEntity
  8
0
  6
Continuous
 62
     7
370
    25
100
AcDbSpline
210
0.0
220
0.0
230
1.0
 70
     8
 71
     3
 72
    12
 73
     8
 74
     0
 42
0.000000001
 43
0.00000001
 40
0.0
 40
0.0
 40
0.0
 40
0.0
 40
0.2229001214508793
 40
0.4458326844630837
 40
0.667931349201455
 40
0.8889145729193788
 40
1.0
 40
1.0
 40
1.0
 40
1.0
 10
294.938982637836
 20
315.9074205950641
 30
0.0
 10
295.0179033963728
 20
315.8994094564575
 30
0.0
 10
295.1757563998136
 20
315.8833860132789
 30
0.0
 10
295.4061239265849
 20
315.9608691268111
 30
0.0
 10
295.5967868756998
 20
316.1047346768283
 30
0.0
 10
295.7100342018338
 20
316.2716415754443
 30
0.0
 10
295.7447149247159
 20
316.384422368543
 30
0.0
 10
295.7563165104228
 20
316.4221504182632
 30
0.0
  0
LINE
  5
C5
330
1F
100
AcDbEntity
  8
0
  6
Continuous
 62
     7
370
    25
100
AcDbLine
 10
295.8915193791
 20
316.9575027318
 30
0.0
 11
295.7563165104
 21
316.4221504183
 31
0.0
  0
SPLINE
  5
C6
330
1F
100
AcDbEntity
  8
0
  6
Continuous
 62
     7
370
    25
100
AcDbSpline
210
0.0
220
0.0
230
1.0
 70
     8
 71
     3
 72
    12
 73
     8
 74
     0
 42
0.000000001
 43
0.00000001
 40
0.0
 40
0.0
 40
0.0
 40
0.0
 40
0.2200858061118361
 40
0.4401590717532177
 40
0.5885344628988668
 40
0.8110242970585004
 40
1.0
 40
1.0
 40
1.0
 40
1.0
 10
295.8915193791432
 20
316.9575027317621
 30
0.0
 10
295.9032965515696
 20
317.0354158301917
 30
0.0
 10
295.9268502253601
 20
317.1912375875692
 30
0.0
 10
295.8685921345336
 20
317.3983103062334
 30
0.0
 10
295.7613293240039
 20
317.578317872306
 30
0.0
 10
295.6145513189506
 20
317.7197843072167
 30
0.0
 10
295.4788984284145
 20
317.7737884089048
 30
0.0
 10
295.4165964905033
 20
317.798591125434
 30
0.0
  0
SPLINE
  5
C7
330
1F
100
AcDbEntity
  8
0
  6
Continuous
 62
     7
370
    25
100
AcDbSpline
210
0.0
220
0.0
230
1.0
 70
    24
 71
     3
 72
    11
 73
     7
 74
     0
 42
0.000000001
 43
0.00000001
 40
0.0
 40
0.0
 40
0.0
 40
0.0
 40
0.2832270505644782
 40
0.5762690817601849
 40
0.7861908663719649
 40
1.0
 40
1.0
 40
1.0
 40
1.0
 10
279.5171729460312
 20
322.6363701862673
 30
0.0
 10
280.806238165095
 20
322.2441413292159
 30
0.0
 10
283.4290400077807
 20
321.4460912741723
 30
0.0
 10
287.6326704170926
 20
320.1670364004534
 30
0.0
 10
291.6731191994684
 20
318.9376334311655
 30
0.0
 10
294.1611622099315
 20
318.180586966857
 30
0.0
 10
295.4165964905033
 20
317.798591125434
 30
0.0
  0
SPLINE
  5
C8
330
1F
100
AcDbEntity
  8
0
  6
Continuous
 62
     7
370
    25
100
AcDbSpline
210
0.0
220
0.0
230
1.0
 70
     8
 71
     3
 72
    12
 73
     8
 74
     0
 42
0.000000001
 43
0.00000001
 40
0.0
 40
0.0
 40
0.0
 40
0.0
 40
0.3203292008043644
 40
0.5619245726364871
 40
0.7389290150957714
 40
0.8801315566607358
 40
1.0
 40
1.0
 40
1.0
 40
1.0
 10
278.3576670908372
 20
306.5186822681499
 30
0.0
 10
278.2554203957671
 20
306.4893523825741
 30
0.0
 10
278.0760582574216
 20
306.437901614501
 30
0.0
 10
277.8877944494865
 20
306.2460235250532
 30
0.0
 10
277.7908188560761
 20
306.0472327334115
 30
0.0
 10
277.7560074626599
 20
305.8581669616412
 30
0.0
 10
277.7716253683461
 20
305.7407648818508
 30
0.0
 10
277.7787961921874
 20
305.6868607509325
 30
0.0
  0
LINE
  5
C9
330
1F
100
AcDbEntity
  8
0
  6
Continuous
 62
     7
370
    25
100
AcDbLine
 10
278.2083060437
 20
303.5833925108
 30
0.0
 11
277.7787961922
 21
305.6868607509
 31
0.0
  0
SPLINE
  5
CA
330
1F
100
AcDbEntity
  8
0
  6
Continuous
 62
     7
370
    25
100
AcDbSpline
210
0.0
220
0.0
230
1.0
 70
     8
 71
     3
 72
    12
 73
     8
 74
     0
 42
0.000000001
 43
0.00000001
 40
0.0
 40
0.0
 40
0.0
 40
0.0
 40
0.136920121324166
 40
0.2732892270164531
 40
0.4609277204781299
 40
0.7173042709071686
 40
1.0
 40
1.0
 40
1.0
 40
1.0
 10
278.2083060436923
 20
303.583392510751
 30
0.0
 10
278.2255291500483
 20
303.5235678162907
 30
0.0
 10
278.2599060508086
 20
303.4041591833781
 30
0.0
 10
278.3751613073792
 20
303.2402701661495
 30
0.0
 10
278.5513256715404
 20
303.0967019659357
 30
0.0
 10
278.7973801785635
 20
303.008091360942
 30
0.0
 10
278.9742107715466
 20
303.0323670516932
 30
0.0
 10
279.0669427767122
 20
303.0450975042816
 30
0.0
  0
SPLINE
  5
CB
330
1F
100
AcDbEntity
  8
0
  6
Continuous
 62
     7
370
    25
100
AcDbSpline
210
0.0
220
0.0
230
1.0
 70
    24
 71
     3
 72
    11
 73
     7
 74
     0
 42
0.000000001
 43
0.00000001
 40
0.0
 40
0.0
 40
0.0
 40
0.0
 40
0.2603296700663265
 40
0.528208922340036
 40
0.7614183594802428
 40
1.0
 40
1.0
 40
1.0
 40
1.0
 10
295.1718193183267
 20
307.1473806263732
 30
0.0
 10
293.6244361937394
 20
306.7532264917897
 30
0.0
 10
290.4847957045197
 20
305.9534877197507
 30
0.0
 10
286.2029304068213
 20
304.8627979715179
 30
0.0
 10
282.3168409875343
 20
303.8729214584413
 30
0.0
 10
280.1584346468491
 20
303.3231256323198
 30
0.0
 10
279.0669427767123
 20
303.0450975042816
 30
0.0
  0
SPLINE
  5
CC
330
1F
100
AcDbEntity
  8
0
  6
Continuous
 62
     7
370
    25
100
AcDbSpline
210
0.0
220
0.0
230
1.0
 70
     8
 71
     3
 72
    12
 73
     8
 74
     0
 42
0.000000001
 43
0.00000001
 40
0.0
 40
0.0
 40
0.0
 40
0.0
 40
0.2229001266620428
 40
0.4458326948083074
 40
0.6679313644651715
 40
0.8889145930765668
 40
1.0
 40
1.0
 40
1.0
 40
1.0
 10
295.1718193183267
 20
307.1473806263732
 30
0.0
 10
295.2464003675699
 20
307.1744052739529
 30
0.0
 10
295.3955733207829
 20
307.2284585023521
 30
0.0
 10
295.5695086277078
 20
307.3982210993005
 30
0.0
 10
295.6788690863676
 20
307.6105650344824
 30
0.0
 10
295.708483210762
 20
307.8100791190616
 30
0.0
 10
295.6907957141953
 20
307.9267384966226
 30
0.0
 10
295.6848787965966
 20
307.9657640264109
 30
0.0
  0
LINE
  5
CD
330
1F
100
AcDbEntity
  8
0
  6
Continuous
 62
     7
370
    25
100
AcDbLine
 10
295.5744117033
 20
308.5067621465
 30
0.0
 11
295.6848787966
 21
307.9657640264
 31
0.0
  0
SPLINE
  5
CE
330
1F
100
AcDbEntity
  8
0
  6
Continuous
 62
     7
370
    25
100
AcDbSpline
210
0.0
220
0.0
230
1.0
 70
     8
 71
     3
 72
    13
 73
     9
 74
     0
 42
0.000000001
 43
0.00000001
 40
0.0
 40
0.0
 40
0.0
 40
0.0
 40
0.2200615389988389
 40
0.2941794150062231
 40
0.5152195009116828
 40
0.7362296893603965
 40
0.9580130281334134
 40
1.0
 40
1.0
 40
1.0
 40
1.0
 10
295.5744117033217
 20
308.5067621465017
 30
0.0
 10
295.5515831382519
 20
308.5822819588105
 30
0.0
 10
295.5210657932029
 20
308.6832372384447
 30
0.0
 10
295.4172744261139
 20
308.8344394853193
 30
0.0
 10
295.2815782100151
 20
308.9623400108289
 30
0.0
 10
295.0627734224602
 20
309.0581727645815
 30
0.0
 10
294.8884226756063
 20
309.072833483624
 30
0.0
 10
294.7962572819033
 20
309.0604642214722
 30
0.0
 10
294.781586389705
 20
309.0584952816749
 30
0.0
  0
SPLINE
  5
CF
330
1F
100
AcDbEntity
  8
0
  6
Continuous
 62
     7
370
    25
100
AcDbSpline
210
0.0
220
0.0
230
1.0
 70
     8
 71
     3
 72
    11
 73
     7
 74
     0
 42
0.000000001
 43
0.00000001
 40
0.0
 40
0.0
 40
0.0
 40
0.0
 40
0.283227050563114
 40
0.5762690817613807
 40
0.7861908663724594
 40
1.0
 40
1.0
 40
1.0
 40
1.0
 10
278.3576670908372
 20
306.5186822681499
 30
0.0
 10
279.6892564449518
 20
306.724600716052
 30
0.0
 10
282.398580193701
 20
307.1435735318698
 30
0.0
 10
286.74088143577
 20
307.815071790234
 30
0.0
 10
290.9146179581627
 20
308.4605030143998
 30
0.0
 10
293.4847374032092
 20
308.8579491227193
 30
0.0
 10
294.781586389705
 20
309.0584952816749
 30
0.0
  0
ARC
  5
D0
330
1F
100
AcDbEntity
  8
0
  6
Continuous
 62
     7
370
    25
100
AcDbCircle
 10
314.2455223875
 20
312.0374626866
 30
0.0
 40
16.42261912900008
100
AcDbArc
 50
307.2549368278
 51
127.2549368278
  0
ARC
  5
D1
330
1F
100
AcDbEntity
  8
0
  6
Continuous
 62
     7
370
    25
100
AcDbCircle
 10
314.2455223875
 20
312.0374626866
 30
0.0
 40
16.42261912900008
100
AcDbArc
 50
127.2549368278
 51
307.2549368278
  0
SPLINE
  5
D2
330
1F
100
AcDbEntity
  8
0
  6
Continuous
 62
     7
370
    25
100
AcDbSpline
210
0.0
220
0.0
230
1.0
 70
     8
 71
     3
 72
    12
 73
     8
 74
     0
 42
0.000000001
 43
0.00000001
 40
0.0
 40
0.0
 40
0.0
 40
0.0
 40
0.3203291947014585
 40
0.5619245601170131
 40
0.7389289982560242
 40
0.8801315363483947
 40
0.9999999999999999
 40
0.9999999999999999
 40
0.9999999999999999
 40
0.9999999999999999
 10
311.6401363799571
 20
275.8213466767804
 30
0.0
 10
311.6459788739854
 20
275.7151370057304
 30
0.0
 10
311.6562278333097
 20
275.5288229773118
 30
0.0
 10
311.8014025006617
 20
275.3025824442837
 30
0.0
 10
311.9736300924201
 20
275.1638031193633
 30
0.0
 10
312.1502093362411
 20
275.0877934238346
 30
0.0
 10
312.2681432231551
 20
275.0768953387701
 30
0.0
 10
312.3222915343135
 20
275.0718915784724
 30
0.0
  0
LINE
  5
D3
330
1F
100
AcDbEntity
  8
0
  6
Continuous
 62
     7
370
    25
100
AcDbLine
 10
314.4685963001
 20
275.0225670053
 30
0.0
 11
312.3222915343
 21
275.0718915785
 31
0.0
  0
SPLINE
  5
D4
330
1F
100
AcDbEntity
  8
0
  6
Continuous
 62
     7
370
    25
100
AcDbSpline
210
0.0
220
0.0
230
1.0
 70
     8
 71
     3
 72
    12
 73
     8
 74
     0
 42
0.000000001
 43
0.00000001
 40
0.0
 40
0.0
 40
0.0
 40
0.0
 40
0.1369201143734293
 40
0.2732892132302926
 40
0.4609276902130952
 40
0.7173042184500189
 40
1.0
 40
1.0
 40
1.0
 40
1.0
 10
314.4685963001187
 20
275.0225670053423
 30
0.0
 10
314.5307535650279
 20
275.026046042321
 30
0.0
 10
314.6548179517785
 20
275.0329901153889
 30
0.0
 10
314.8402446369155
 20
275.108886932044
 30
0.0
 10
315.0194135450437
 20
275.2486875416994
 30
0.0
 10
315.1605548022085
 20
275.4688552368335
 30
0.0
 10
315.1762362677225
 20
275.6466541819354
 30
0.0
 10
315.1844598104065
 20
275.7398940142024
 30
0.0
  0
SPLINE
  5
D5
330
1F
100
AcDbEntity
  8
0
  6
Continuous
 62
     7
370
    25
100
AcDbSpline
210
0.0
220
0.0
230
1.0
 70
    24
 71
     3
 72
    11
 73
     7
 74
     0
 42
0.000000001
 43
0.00000001
 40
0.0
 40
0.0
 40
0.0
 40
0.0
 40
0.2603296700636633
 40
0.5282089223346392
 40
0.7614183595005987
 40
1.0
 40
1.0
 40
1.0
 40
1.0
 10
314.7687016606521
 20
292.3538315487406
 30
0.0
 10
314.8086483900404
 20
290.7575370035871
 30
0.0
 10
314.8897003073107
 20
287.5186552379474
 30
0.0
 10
315.00023952125
 20
283.10144394141
 30
0.0
 10
315.1005615164397
 20
279.092518651068
 30
0.0
 10
315.1562822184216
 20
276.8658869829479
 30
0.0
 10
315.1844598104065
 20
275.7398940142024
 30
0.0
  0
SPLINE
  5
D6
330
1F
100
AcDbEntity
  8
0
  6
Continuous
 62
     7
370
    25
100
AcDbSpline
210
0.0
220
0.0
230
1.0
 70
     8
 71
     3
 72
    12
 73
     8
 74
     0
 42
0.000000001
 43
0.00000001
 40
0.0
 40
0.0
 40
0.0
 40
0.0
 40
0.2228401656766589
 40
0.4114692604660983
 40
0.6322887730400292
 40
0.8531344551548741
 40
1.0
 40
1.0
 40
1.0
 40
1.0
 10
314.7687016606521
 20
292.3538315487406
 30
0.0
 10
314.7590083302704
 20
292.4325844068817
 30
0.0
 10
314.7411098178031
 20
292.5779997551451
 30
0.0
 10
314.6273950316772
 20
292.7760523446638
 30
0.0
 10
314.4625510125584
 20
292.9307176831166
 30
0.0
 10
314.2675046267536
 20
293.019776450528
 30
0.0
 10
314.1370910720293
 20
293.0314660957378
 30
0.0
 10
314.0850033021558
 20
293.0361349934676
 30
0.0
  0
LINE
  5
D7
330
1F
100
AcDbEntity
  8
0
  6
Continuous
 62
     7
370
    25
100
AcDbLine
 10
313.5329879201
 20
293.0488209473
 30
0.0
 11
314.0850033022
 21
293.0361349935
 31
0.0
  0
SPLINE
  5
D8
330
1F
100
AcDbEntity
  8
0
  6
Continuous
 62
     7
370
    25
100
AcDbSpline
210
0.0
220
0.0
230
1.0
 70
     8
 71
     3
 72
    12
 73
     8
 74
     0
 42
0.000000001
 43
0.00000001
 40
0.0
 40
0.0
 40
0.0
 40
0.0
 40
0.2201335700393265
 40
0.4402545968997483
 40
0.6607438333972248
 40
0.8821596922327131
 40
1.0
 40
1.0
 40
1.0
 40
1.0
 10
313.53298792014
 20
293.0488209472913
 30
0.0
 10
313.4543917509648
 20
293.0429351522718
 30
0.0
 10
313.2972038910127
 20
293.0311638976045
 30
0.0
 10
313.0853914718901
 20
292.916147500094
 30
0.0
 10
312.922994248502
 20
292.7433617545102
 30
0.0
 10
312.8387194576777
 20
292.5588628624711
 30
0.0
 10
312.8238370377756
 20
292.4399498978482
 30
0.0
 10
312.818667643335
 20
292.3986455923465
 30
0.0
  0
SPLINE
  5
D9
330
1F
100
AcDbEntity
  8
0
  6
Continuous
 62
     7
370
    25
100
AcDbSpline
210
0.0
220
0.0
230
1.0
 70
     8
 71
     3
 72
    11
 73
     7
 74
     0
 42
0.000000001
 43
0.00000001
 40
0.0
 40
0.0
 40
0.0
 40
0.0
 40
0.2832270505560758
 40
0.5762690817551355
 40
0.7861908663644722
 40
1.0
 40
1.0
 40
1.0
 40
1.0
 10
311.6401363799571
 20
275.8213466767804
 30
0.0
 10
311.7356872443265
 20
277.1653714709317
 30
0.0
 10
311.9301002029861
 20
279.8999970388676
 30
0.0
 10
312.2416907359905
 20
284.2828501424198
 30
0.0
 10
312.5411855698208
 20
288.4955643349691
 30
0.0
 10
312.7256096439787
 20
291.0896855988723
 30
0.0
 10
312.818667643335
 20
292.3986455923465
 30
0.0
  0
SPLINE
  5
DA
330
1F
100
AcDbEntity
  8
0
  6
Continuous
 62
     7
370
    25
100
AcDbSpline
210
0.0
220
0.0
230
1.0
 70
     8
 71
     3
 72
    12
 73
     8
 74
     0
 42
0.000000001
 43
0.00000001
 40
0.0
 40
0.0
 40
0.0
 40
0.0
 40
0.3203291954782955
 40
0.5619245703249617
 40
0.738929013433075
 40
0.8801315555715941
 40
1.0
 40
1.0
 40
1.0
 40
1.0
 10
296.184566875428
 20
280.5383042678571
 30
0.0
 10
296.1437481321351
 20
280.4400776999862
 30
0.0
 10
296.0721434981841
 20
280.267767705379
 30
0.0
 10
296.1047792628858
 20
280.0009431022993
 30
0.0
 10
296.1997368681928
 20
279.8011804976243
 30
0.0
 10
296.3258498915417
 20
279.6560832723774
 30
0.0
 10
296.4273761393209
 20
279.5950948430737
 30
0.0
 10
296.4739910219241
 20
279.5670925428376
 30
0.0
  0
LINE
  5
DB
330
1F
100
AcDbEntity
  8
0
  6
Continuous
 62
     7
370
    25
100
AcDbLine
 10
298.3863437266
 20
278.5914058704
 30
0.0
 11
296.4739910219
 21
279.5670925428
 31
0.0
  0
SPLINE
  5
DC
330
1F
100
AcDbEntity
  8
0
  6
Continuous
 62
     7
370
    25
100
AcDbSpline
210
0.0
220
0.0
230
1.0
 70
     8
 71
     3
 72
    12
 73
     8
 74
     0
 42
0.000000001
 43
0.00000001
 40
0.0
 40
0.0
 40
0.0
 40
0.0
 40
0.136920121191024
 40
0.2732892266307699
 40
0.4609277194041426
 40
0.7173042689015552
 40
1.0
 40
1.0
 40
1.0
 40
1.0
 10
298.3863437265989
 20
278.5914058703981
 30
0.0
 10
298.4438549873241
 20
278.5675713504053
 30
0.0
 10
298.5586460628023
 20
278.5199982290899
 30
0.0
 10
298.7586401329395
 20
278.5079252855245
 30
0.0
 10
298.980722956101
 20
278.5561428221416
 30
0.0
 10
299.2034139935722
 20
278.6932681730216
 30
0.0
 10
299.2946865662095
 20
278.8466555435825
 30
0.0
 10
299.3425509576458
 20
278.9270936525759
 30
0.0
  0
SPLINE
  5
DD
330
1F
100
AcDbEntity
  8
0
  6
Continuous
 62
     7
370
    25
100
AcDbSpline
210
0.0
220
0.0
230
1.0
 70
     8
 71
     3
 72
    11
 73
     7
 74
     0
 42
0.000000001
 43
0.00000001
 40
0.0
 40
0.0
 40
0.0
 40
0.0
 40
0.2603296700652888
 40
0.5282089223379361
 40
0.7614183595338935
 40
1.0
 40
1.0
 40
1.0
 40
1.0
 10
306.1764831469351
 20
294.0761248450128
 30
0.0
 10
305.5198676606117
 20
292.6205809194668
 30
0.0
 10
304.1875947839386
 20
289.6672821727838
 30
0.0
 10
302.3706310203221
 20
285.6395511441262
 30
0.0
 10
300.7216105198892
 20
281.9841061814747
 30
0.0
 10
299.805713863912
 20
279.9538040617143
 30
0.0
 10
299.3425509576458
 20
278.9270936525759
 30
0.0
  0
SPLINE
  5
DE
330
1F
100
AcDbEntity
  8
0
  6
Continuous
 62
     7
370
    25
100
AcDbSpline
210
0.0
220
0.0
230
1.0
 70
     8
 71
     3
 72
    13
 73
     9
 74
     0
 42
0.000000001
 43
0.00000001
 40
0.0
 40
0.0
 40
0.0
 40
0.0
 40
0.2228776829879407
 40
0.4457878041258851
 40
0.6678641110419578
 40
0.705805057300715
 40
0.9258788050832778
 40
1.0
 40
1.0
 40
1.0
 40
1.0
 10
306.1764831469351
 20
294.0761248450128
 30
0.0
 10
306.2018555321041
 20
294.151307841511
 30
0.0
 10
306.2526039951996
 20
294.3016847768201
 30
0.0
 10
306.2283164227563
 20
294.5431646180296
 30
0.0
 10
306.1573951266529
 20
294.7021458453285
 30
0.0
 10
306.0582877741791
 20
294.8403565614824
 30
0.0
 10
305.9708442453446
 20
294.9241426532184
 30
0.0
 10
305.8795370525245
 20
294.974753430287
 30
0.0
 10
305.8565325842144
 20
294.9875046055369
 30
0.0
  0
LINE
  5
DF
330
1F
100
AcDbEntity
  8
0
  6
Continuous
 62
     7
370
    25
100
AcDbLine
 10
305.364688116
 20
295.238444765
 30
0.0
 11
305.8565325842
 21
294.9875046055
 31
0.0
  0
SPLINE
  5
E0
330
1F
100
AcDbEntity
  8
0
  6
Continuous
 62
     7
370
    25
100
AcDbSpline
210
0.0
220
0.0
230
1.0
 70
     8
 71
     3
 72
    12
 73
     8
 74
     0
 42
0.000000001
 43
0.00000001
 40
0.0
 40
0.0
 40
0.0
 40
0.0
 40
0.2201335749438014
 40
0.440254606713228
 40
0.6607438481633563
 40
0.8821597120108804
 40
1.0
 40
1.0
 40
1.0
 40
1.0
 10
305.3646881160105
 20
295.2384447649702
 30
0.0
 10
305.291321662712
 20
295.2672434441878
 30
0.0
 10
305.1445929365233
 20
295.3248391616793
 30
0.0
 10
304.9038527968772
 20
295.3131149243983
 30
0.0
 10
304.6825690316811
 20
295.2279018539068
 30
0.0
 10
304.5265890109209
 20
295.0982395568467
 30
0.0
 10
304.4615860169474
 20
294.9975599241977
 30
0.0
 10
304.4390072914372
 20
294.9625889536147
 30
0.0
  0
SPLINE
  5
E1
330
1F
100
AcDbEntity
  8
0
  6
Continuous
 62
     7
370
    25
100
AcDbSpline
210
0.0
220
0.0
230
1.0
 70
    24
 71
     3
 72
    11
 73
     7
 74
     0
 42
0.000000001
 43
0.00000001
 40
0.0
 40
0.0
 40
0.0
 40
0.0
 40
0.2832270505599697
 40
0.5762690817591567
 40
0.7861908663459319
 40
1.0
 40
1.0
 40
1.0
 40
1.0
 10
296.184566875428
 20
280.5383042678571
 30
0.0
 10
296.8538057326224
 20
281.7077707988508
 30
0.0
 10
298.2154753222696
 20
284.0872306796475
 30
0.0
 10
300.3978573844837
 20
287.9008508129437
 30
0.0
 10
302.4955210912086
 20
291.566429211628
 30
0.0
 10
303.7872284745543
 20
293.8236331028775
 30
0.0
 10
304.4390072914372
 20
294.9625889536147
 30
0.0
  0
SPLINE
  5
E2
330
1F
100
AcDbEntity
  8
0
  6
Continuous
 62
     7
370
    25
100
AcDbSpline
210
0.0
220
0.0
230
1.0
 70
     8
 71
     3
 72
    12
 73
     8
 74
     0
 42
0.000000001
 43
0.00000001
 40
0.0
 40
0.0
 40
0.0
 40
0.0
 40
0.3203291874988908
 40
0.5619245577985279
 40
0.7389289972586685
 40
0.8801315365316106
 40
1.0
 40
1.0
 40
1.0
 40
1.0
 10
327.6117345367422
 20
278.2774350224717
 30
0.0
 10
327.6630810896402
 20
278.1842783810163
 30
0.0
 10
327.7531537091754
 20
278.0208620998947
 30
0.0
 10
327.9821136501877
 20
277.8800153492738
 30
0.0
 10
328.1974994421446
 20
277.8297062476543
 30
0.0
 10
328.3895712144058
 20
277.8378387397562
 30
0.0
 10
328.500554477172
 20
277.8791894992186
 30
0.0
 10
328.5515114698629
 20
277.8981753381205
 30
0.0
  0
LINE
  5
E3
330
1F
100
AcDbEntity
  8
0
  6
Continuous
 62
     7
370
    25
100
AcDbLine
 10
330.506666416
 20
278.7849821891
 30
0.0
 11
328.5515114699
 21
277.8981753381
 31
0.0
  0
SPLINE
  5
E4
330
1F
100
AcDbEntity
  8
0
  6
Continuous
 62
     7
370
    25
100
AcDbSpline
210
0.0
220
0.0
230
1.0
 70
     8
 71
     3
 72
    12
 73
     8
 74
     0
 42
0.000000001
 43
0.00000001
 40
0.0
 40
0.0
 40
0.0
 40
0.0
 40
0.1369201225457334
 40
0.2732892293233241
 40
0.4609277252679466
 40
0.7173042790352044
 40
0.9999999999999999
 40
0.9999999999999999
 40
0.9999999999999999
 40
0.9999999999999999
 10
330.5066664160302
 20
278.7849821891392
 30
0.0
 10
330.5611586786384
 20
278.8150857238701
 30
0.0
 10
330.6699239074113
 20
278.8751716458923
 30
0.0
 10
330.8040571768144
 20
279.0240059511912
 30
0.0
 10
330.9048255621717
 20
279.2277004388444
 30
0.0
 10
330.9364622323493
 20
279.4873035578682
 30
0.0
 10
330.8734466757828
 20
279.6542987869094
 30
0.0
 10
330.8404005908132
 20
279.7418730118961
 30
0.0
  0
SPLINE
  5
E5
330
1F
100
AcDbEntity
  8
0
  6
Continuous
 62
     7
370
    25
100
AcDbSpline
210
0.0
220
0.0
230
1.0
 70
    24
 71
     3
 72
    11
 73
     7
 74
     0
 42
0.000000001
 43
0.00000001
 40
0.0
 40
0.0
 40
0.0
 40
0.0
 40
0.2603296700627197
 40
0.5282089223327184
 40
0.7614183594652437
 40
1.0
 40
1.0
 40
1.0
 40
1.0
 10
323.2572981017003
 20
294.5301228028763
 30
0.0
 10
323.9858951072834
 20
293.1092433500295
 30
0.0
 10
325.4642184925556
 20
290.226278821353
 30
0.0
 10
327.4803670369316
 20
286.2944701279755
 30
0.0
 10
329.3101615263715
 20
282.7260813300883
 30
0.0
 10
330.3264634180444
 20
280.7441318233745
 30
0.0
 10
330.8404005908132
 20
279.7418730118961
 30
0.0
  0
SPLINE
  5
E6
330
1F
100
AcDbEntity
  8
0
  6
Continuous
 62
     7
370
    25
100
AcDbSpline
210
0.0
220
0.0
230
1.0
 70
     8
 71
     3
 72
    12
 73
     8
 74
     0
 42
0.000000001
 43
0.00000001
 40
0.0
 40
0.0
 40
0.0
 40
0.0
 40
0.1165847777148345
 40
0.3388935665353303
 40
0.5612376805370486
 40
0.7827183635946434
 40
1.0
 40
1.0
 40
1.0
 40
1.0
 10
323.2572981017003
 20
294.5301228028763
 30
0.0
 10
323.2365932172322
 20
294.5657191627324
 30
0.0
 10
323.1764073826866
 20
294.6691921682462
 30
0.0
 10
323.0263129044188
 20
294.8064586759599
 30
0.0
 10
322.8076747161474
 20
294.9021795280777
 30
0.0
 10
322.5674726289345
 20
294.9241458841087
 30
0.0
 10
322.41886132097
 20
294.8733608608558
 30
0.0
 10
322.3452667875506
 20
294.8482113608468
 30
0.0
  0
LINE
  5
E7
330
1F
100
AcDbEntity
  8
0
  6
Continuous
 62
     7
370
    25
100
AcDbLine
 10
321.8424138695
 20
294.6201305058
 30
0.0
 11
322.3452667876
 21
294.8482113608
 31
0.0
  0
SPLINE
  5
E8
330
1F
100
AcDbEntity
  8
0
  6
Continuous
 62
     7
370
    25
100
AcDbSpline
210
0.0
220
0.0
230
1.0
 70
     8
 71
     3
 72
    12
 73
     8
 74
     0
 42
0.000000001
 43
0.00000001
 40
0.0
 40
0.0
 40
0.0
 40
0.0
 40
0.2201335757646943
 40
0.4402546082974745
 40
0.6607438505176403
 40
0.8821597151441719
 40
1.0
 40
1.0
 40
1.0
 40
1.0
 10
321.8424138694687
 20
294.6201305058133
 30
0.0
 10
321.7741549202358
 20
294.5807259851874
 30
0.0
 10
321.6376409111715
 20
294.5019191892088
 30
0.0
 10
321.4967082679252
 20
294.3063910259347
 30
0.0
 10
321.4253623593804
 20
294.08025493091
 30
0.0
 10
321.4294844741152
 20
293.8774617214685
 30
0.0
 10
321.4676702764621
 20
293.7638676113567
 30
0.0
 10
321.4809340767878
 20
293.7244108106061
 30
0.0
  0
SPLINE
  5
E9
330
1F
100
AcDbEntity
  8
0
  6
Continuous
 62
     7
370
    25
100
AcDbSpline
210
0.0
220
0.0
230
1.0
 70
     8
 71
     3
 72
    11
 73
     7
 74
     0
 42
0.000000001
 43
0.00000001
 40
0.0
 40
0.0
 40
0.0
 40
0.0
 40
0.2832270505582928
 40
0.5762690817572595
 40
0.7861908663604457
 40
1.0
 40
1.0
 40
1.0
 40
1.0
 10
327.6117345367422
 20
278.2774350224717
 30
0.0
 10
327.1146723875282
 20
279.5298174859798
 30
0.0
 10
326.1033228439757
 20
282.0779826094455
 30
0.0
 10
324.4824075212281
 20
286.1619908738622
 30
0.0
 10
322.9244148565857
 20
290.0874611489497
 30
0.0
 10
321.9650281725905
 20
292.5047022543303
 30
0.0
 10
321.4809340767878
 20
293.7244108106061
 30
0.0
  0
SPLINE
  5
EA
330
1F
100
AcDbEntity
  8
0
  6
Continuous
 62
     7
370
    25
100
AcDbSpline
210
0.0
220
0.0
230
1.0
 70
     8
 71
     3
 72
    12
 73
     8
 74
     0
 42
0.000000001
 43
0.00000001
 40
0.0
 40
0.0
 40
0.0
 40
0.0
 40
0.3203291956777153
 40
0.5619245718616229
 40
0.7389290157161789
 40
0.8801315585013894
 40
1.0
 40
1.0
 40
1.0
 40
1.0
 10
340.9359904515914
 20
287.420110886513
 30
0.0
 10
341.0226712491574
 20
287.3584580871308
 30
0.0
 10
341.17472754224
 20
287.250306150422
 30
0.0
 10
341.4421244358772
 20
287.2227496084512
 30
0.0
 10
341.6580086301681
 20
287.2708750669198
 30
0.0
 10
341.8275307512199
 20
287.3615390028797
 30
0.0
 10
341.90958178835
 20
287.4469485714031
 30
0.0
 10
341.9472547988958
 20
287.4861636220379
 30
0.0
  0
LINE
  5
EB
330
1F
100
AcDbEntity
  8
0
  6
Continuous
 62
     7
370
    25
100
AcDbLine
 10
343.3240174651
 20
289.1334589251
 30
0.0
 11
341.9472547989
 21
287.486163622
 31
0.0
  0
SPLINE
  5
EC
330
1F
100
AcDbEntity
  8
0
  6
Continuous
 62
     7
370
    25
100
AcDbSpline
210
0.0
220
0.0
230
1.0
 70
     8
 71
     3
 72
    13
 73
     9
 74
     0
 42
0.000000001
 43
0.00000001
 40
0.0
 40
0.0
 40
0.0
 40
0.0
 40
0.1368258648470723
 40
0.2731010933964012
 40
0.4606104098961325
 40
0.7168104619180333
 40
0.8076499722265323
 40
1.0
 40
1.0
 40
1.0
 40
1.0
 10
343.3240174651429
 20
289.1334589251211
 30
0.0
 10
343.3600595893432
 20
289.1842324389964
 30
0.0
 10
343.4319987913241
 20
289.2855751359375
 30
0.0
 10
343.4881422113925
 20
289.4777364254287
 30
0.0
 10
343.4913200314518
 20
289.7057626635524
 30
0.0
 10
343.4262484250385
 20
289.8848329417536
 30
0.0
 10
343.3273315537348
 20
290.0364780728096
 30
0.0
 10
343.2571746776891
 20
290.0983586524231
 30
0.0
 10
343.2095222215028
 20
290.1403896232277
 30
0.0
  0
SPLINE
  5
ED
330
1F
100
AcDbEntity
  8
0
  6
Continuous
 62
     7
370
    25
100
AcDbSpline
210
0.0
220
0.0
230
1.0
 70
     8
 71
     3
 72
    11
 73
     7
 74
     0
 42
0.000000001
 43
0.00000001
 40
0.0
 40
0.0
 40
0.0
 40
0.0
 40
0.2603296700330328
 40
0.5282089222724892
 40
0.7614183595165421
 40
1.0
 40
1.0
 40
1.0
 40
1.0
 10
329.9610018413161
 20
300.1739574348045
 30
0.0
 10
331.2339415504441
 20
299.2099156758548
 30
0.0
 10
333.8167363267409
 20
297.253874866308
 30
0.0
 10
337.3391712562116
 20
294.5862117074557
 30
0.0
 10
340.5360250005117
 20
292.1651225664884
 30
0.0
 10
342.3116170282707
 20
290.8204046276899
 30
0.0
 10
343.2095222215028
 20
290.1403896232277
 30
0.0
  0
SPLINE
  5
EE
330
1F
100
AcDbEntity
  8
0
  6
Continuous
 62
     7
370
    25
100
AcDbSpline
210
0.0
220
0.0
230
1.0
 70
     8
 71
     3
 72
    12
 73
     8
 74
     0
 42
0.000000001
 43
0.00000001
 40
0.0
 40
0.0
 40
0.0
 40
0.0
 40
0.2229001272671263
 40
0.4458326960033355
 40
0.6679313664265821
 40
0.8889145958008751
 40
1.0
 40
1.0
 40
1.0
 40
1.0
 10
329.9610018413161
 20
300.1739574348045
 30
0.0
 10
329.8933725974532
 20
300.2154176548762
 30
0.0
 10
329.7581042667899
 20
300.2983441292488
 30
0.0
 10
329.5169316340538
 20
300.3284869801315
 30
0.0
 10
329.2827293296995
 20
300.2815941516767
 30
0.0
 10
329.1082788338346
 20
300.1803524097473
 30
0.0
 10
329.0280988336202
 20
300.0937878372857
 30
0.0
 10
329.0012765841452
 20
300.0648297860005
 30
0.0
  0
LINE
  5
EF
330
1F
100
AcDbEntity
  8
0
  6
Continuous
 62
     7
370
    25
100
AcDbLine
 10
328.6471823348
 20
299.6411563315
 30
0.0
 11
329.0012765841
 21
300.064829786
 31
0.0
  0
SPLINE
  5
F0
330
1F
100
AcDbEntity
  8
0
  6
Continuous
 62
     7
370
    25
100
AcDbSpline
210
0.0
220
0.0
230
1.0
 70
     8
 71
     3
 72
    12
 73
     8
 74
     0
 42
0.000000001
 43
0.00000001
 40
0.0
 40
0.0
 40
0.0
 40
0.0
 40
0.2201335703050966
 40
0.4402545974574398
 40
0.6607438342490254
 40
0.8821596933819896
 40
1.0
 40
1.0
 40
1.0
 40
1.0
 10
328.6471823347686
 20
299.6411563315176
 30
0.0
 10
328.6027801247193
 20
299.5760376388524
 30
0.0
 10
328.513978234647
 20
299.4458039639679
 30
0.0
 10
328.4718387924509
 20
299.2084907953566
 30
0.0
 10
328.5056751157285
 20
298.9737933831559
 30
0.0
 10
328.5973776857132
 20
298.7928715216746
 30
0.0
 10
328.6810685474003
 20
298.7070949565098
 30
0.0
 10
328.7101384886364
 20
298.6773005481538
 30
0.0
  0
SPLINE
  5
F1
330
1F
100
AcDbEntity
  8
0
  6
Continuous
 62
     7
370
    25
100
AcDbSpline
210
0.0
220
0.0
230
1.0
 70
    24
 71
     3
 72
    11
 73
     7
 74
     0
 42
0.000000001
 43
0.00000001
 40
0.0
 40
0.0
 40
0.0
 40
0.0
 40
0.2832270505602077
 40
0.5762690817528359
 40
0.7861908663425556
 40
1.0
 40
1.0
 40
1.0
 40
1.0
 10
340.9359904515914
 20
287.420110886513
 30
0.0
 10
339.944764543636
 20
288.3328013130729
 30
0.0
 10
337.9279626786403
 20
290.1898106382697
 30
0.0
 10
334.6955836590567
 20
293.1660861397754
 30
0.0
 10
331.5886830510732
 20
296.0268249668464
 30
0.0
 10
329.6755039072486
 20
297.7884216673265
 30
0.0
 10
328.7101384886364
 20
298.6773005481538
 30
0.0
  0
SPLINE
  5
F2
330
1F
100
AcDbEntity
  8
0
  6
Continuous
 62
     7
370
    25
100
AcDbSpline
210
0.0
220
0.0
230
1.0
 70
     8
 71
     3
 72
    12
 73
     8
 74
     0
 42
0.000000001
 43
0.00000001
 40
0.0
 40
0.0
 40
0.0
 40
0.0
 40
0.3203291896668969
 40
0.5619245570102487
 40
0.7389289953257566
 40
0.8801315336280866
 40
1.0
 40
1.0
 40
1.0
 40
1.0
 10
348.9738718289964
 20
301.4385551868625
 30
0.0
 10
349.0787186773986
 20
301.4206173224111
 30
0.0
 10
349.26264203107
 20
301.3891505474161
 30
0.0
 10
349.51551464362
 20
301.4803421262832
 30
0.0
 10
349.6891387268397
 20
301.6173703076266
 30
0.0
 10
349.802535280255
 20
301.7726085934045
 30
0.0
 10
349.8394028866245
 20
301.8851605809312
 30
0.0
 10
349.8563303253488
 20
301.9368378407202
 30
0.0
  0
LINE
  5
F3
330
1F
100
AcDbEntity
  8
0
  6
Continuous
 62
     7
370
    25
100
AcDbLine
 10
350.3820159694
 20
304.018354515
 30
0.0
 11
349.8563303253
 21
301.9368378407
 31
0.0
  0
SPLINE
  5
F4
330
1F
100
AcDbEntity
  8
0
  6
Continuous
 62
     7
370
    25
100
AcDbSpline
210
0.0
220
0.0
230
1.0
 70
     8
 71
     3
 72
    13
 73
     9
 74
     0
 42
0.000000001
 43
0.00000001
 40
0.0
 40
0.0
 40
0.0
 40
0.0
 40
0.1368520550563348
 40
0.2731533684839558
 40
0.4606985757378654
 40
0.5051868322060022
 40
0.7677990591363267
 40
0.9999999999999999
 40
0.9999999999999999
 40
0.9999999999999999
 40
0.9999999999999999
 10
350.3820159694083
 20
304.018354514979
 30
0.0
 10
350.3924580158715
 20
304.0797431030812
 30
0.0
 10
350.4133000862672
 20
304.2022732296452
 30
0.0
 10
350.3805244230152
 20
304.3996779533537
 30
0.0
 10
350.3194597433142
 20
304.5313262613063
 30
0.0
 10
350.2145817111893
 20
304.6790578736849
 30
0.0
 10
350.0718166511177
 20
304.8065340767075
 30
0.0
 10
349.9153796454409
 20
304.8537384933207
 30
0.0
 10
349.8419684626585
 20
304.8758901066243
 30
0.0
  0
SPLINE
  5
F5
330
1F
100
AcDbEntity
  8
0
  6
Continuous
 62
     7
370
    25
100
AcDbSpline
210
0.0
220
0.0
230
1.0
 70
     8
 71
     3
 72
    11
 73
     7
 74
     0
 42
0.000000001
 43
0.00000001
 40
0.0
 40
0.0
 40
0.0
 40
0.0
 40
0.260329670066874
 40
0.5282089223411506
 40
0.7614183595496757
 40
1.0
 40
1.0
 40
1.0
 40
1.0
 10
333.5520621372881
 20
308.1675047780477
 30
0.0
 10
335.1172232289254
 20
307.851241006336
 30
0.0
 10
338.2929352147765
 20
307.2095417870789
 30
0.0
 10
342.6239950912055
 20
306.3343875693188
 30
0.0
 10
346.5547319986047
 20
305.5401244829824
 30
0.0
 10
348.7379363846395
 20
305.0989759925475
 30
0.0
 10
349.8419684626585
 20
304.8758901066243
 30
0.0
  0
SPLINE
  5
F6
330
1F
100
AcDbEntity
  8
0
  6
Continuous
 62
     7
370
    25
100
AcDbSpline
210
0.0
220
0.0
230
1.0
 70
     8
 71
     3
 72
    12
 73
     8
 74
     0
 42
0.000000001
 43
0.00000001
 40
0.0
 40
0.0
 40
0.0
 40
0.0
 40
0.2229001214099271
 40
0.4458326843810598
 40
0.6679313490791146
 40
0.8889145727567479
 40
1.0
 40
1.0
 40
1.0
 40
1.0
 10
333.5520621372881
 20
308.1675047780477
 30
0.0
 10
333.4731413787526
 20
308.1755159166671
 30
0.0
 10
333.3152883753145
 20
308.1915393598713
 30
0.0
 10
333.0849208485305
 20
308.1140562463764
 30
0.0
 10
332.8942578993928
 20
307.97019069639
 30
0.0
 10
332.7810105731918
 20
307.8032837977374
 30
0.0
 10
332.7463298502946
 20
307.6905030045741
 30
0.0
 10
332.7347282645699
 20
307.652774954791
 30
0.0
  0
LINE
  5
F7
330
1F
100
AcDbEntity
  8
0
  6
Continuous
 62
     7
370
    25
100
AcDbLine
 10
332.5995253958
 20
307.1174226412
 30
0.0
 11
332.7347282646
 21
307.6527749548
 31
0.0
  0
SPLINE
  5
F8
330
1F
100
AcDbEntity
  8
0
  6
Continuous
 62
     7
370
    25
100
AcDbSpline
210
0.0
220
0.0
230
1.0
 70
     8
 71
     3
 72
    12
 73
     8
 74
     0
 42
0.000000001
 43
0.00000001
 40
0.0
 40
0.0
 40
0.0
 40
0.0
 40
0.2201335722438054
 40
0.4402546012954592
 40
0.6607438400039588
 40
0.8821597010770128
 40
0.9999999999999999
 40
0.9999999999999999
 40
0.9999999999999999
 40
0.9999999999999999
 10
332.5995253958293
 20
307.1174226412115
 30
0.0
 10
332.5877743299226
 20
307.0394873292942
 30
0.0
 10
332.5642728676842
 20
306.883621146207
 30
0.0
 10
332.6292728701684
 20
306.6515257514811
 30
0.0
 10
332.7615897374985
 20
306.4547517219064
 30
0.0
 10
332.9227099511269
 20
306.3315350153998
 30
0.0
 10
333.0353298660802
 20
306.2905651060522
 30
0.0
 10
333.0744482845724
 20
306.2763342476812
 30
0.0
  0
SPLINE
  5
F9
330
1F
100
AcDbEntity
  8
0
  6
Continuous
 62
     7
370
    25
100
AcDbSpline
210
0.0
220
0.0
230
1.0
 70
    24
 71
     3
 72
    11
 73
     7
 74
     0
 42
0.000000001
 43
0.00000001
 40
0.0
 40
0.0
 40
0.0
 40
0.0
 40
0.2832270505644356
 40
0.5762690817613008
 40
0.7861908663722867
 40
1.0
 40
1.0
 40
1.0
 40
1.0
 10
348.9738718289964
 20
301.4385551868625
 30
0.0
 10
347.6848066099367
 20
301.8307840439126
 30
0.0
 10
345.0620047672543
 20
302.6288340989553
 30
0.0
 10
340.8583743579528
 20
303.907888972671
 30
0.0
 10
336.8179255755886
 20
305.1372919419554
 30
0.0
 10
334.3298825651388
 20
305.8943384062599
 30
0.0
 10
333.0744482845724
 20
306.2763342476812
 30
0.0
  0
SPLINE
  5
FA
330
1F
100
AcDbEntity
  8
0
  6
Continuous
 62
     7
370
    25
100
AcDbSpline
210
0.0
220
0.0
230
1.0
 70
     8
 71
     3
 72
    12
 73
     8
 74
     0
 42
0.000000001
 43
0.00000001
 40
0.0
 40
0.0
 40
0.0
 40
0.0
 40
0.3203292007420863
 40
0.5619245725821598
 40
0.7389290150383109
 40
0.8801315565995669
 40
1.0
 40
1.0
 40
1.0
 40
1.0
 10
350.133377684154
 20
317.556243104981
 30
0.0
 10
350.2356243792116
 20
317.5855729905481
 30
0.0
 10
350.4149865175527
 20
317.6370237586111
 30
0.0
 10
350.6032503254968
 20
317.8289018480381
 30
0.0
 10
350.7002259189239
 20
318.0276926396824
 30
0.0
 10
350.7350373123576
 20
318.216758411484
 30
0.0
 10
350.7194194066618
 20
318.3341604913084
 30
0.0
 10
350.7122485828139
 20
318.3880646222581
 30
0.0
  0
LINE
  5
FB
330
1F
100
AcDbEntity
  8
0
  6
Continuous
 62
     7
370
    25
100
AcDbLine
 10
350.2827387313
 20
320.4915328625
 30
0.0
 11
350.7122485828
 21
318.3880646223
 31
0.0
  0
SPLINE
  5
FC
330
1F
100
AcDbEntity
  8
0
  6
Continuous
 62
     7
370
    25
100
AcDbSpline
210
0.0
220
0.0
230
1.0
 70
     8
 71
     3
 72
    12
 73
     8
 74
     0
 42
0.000000001
 43
0.00000001
 40
0.0
 40
0.0
 40
0.0
 40
0.0
 40
0.1335496659692227
 40
0.2374496721155425
 40
0.4314228611592171
 40
0.6784626707083631
 40
1.0
 40
1.0
 40
1.0
 40
1.0
 10
350.2827387312964
 20
320.4915328625007
 30
0.0
 10
350.2661339114211
 20
320.5499020973638
 30
0.0
 10
350.2366107448425
 20
320.6536818828039
 30
0.0
 10
350.135059947046
 20
320.8117445679703
 30
0.0
 10
349.973620541732
 20
320.9587389743224
 30
0.0
 10
349.717446285279
 20
321.0659611898579
 30
0.0
 10
349.5300671768516
 20
321.0428803603437
 30
0.0
 10
349.4241019982101
 20
321.0298278688296
 30
0.0
  0
SPLINE
  5
FD
330
1F
100
AcDbEntity
  8
0
  6
Continuous
 62
     7
370
    25
100
AcDbSpline
210
0.0
220
0.0
230
1.0
 70
    24
 71
     3
 72
    11
 73
     7
 74
     0
 42
0.000000001
 43
0.00000001
 40
0.0
 40
0.0
 40
0.0
 40
0.0
 40
0.2603296700658188
 40
0.5282089223390111
 40
0.7614183594797672
 40
1.0
 40
1.0
 40
1.0
 40
1.0
 10
333.3192254565282
 20
316.9275447467209
 30
0.0
 10
334.866608581117
 20
317.3216988813046
 30
0.0
 10
338.0062490703395
 20
318.1214376533444
 30
0.0
 10
342.288114368053
 20
319.2121274015811
 30
0.0
 10
346.174203787362
 20
320.2020039146632
 30
0.0
 10
348.3326101280646
 20
320.7517997407892
 30
0.0
 10
349.4241019982101
 20
321.0298278688296
 30
0.0
  0
SPLINE
  5
FE
330
1F
100
AcDbEntity
  8
0
  6
Continuous
 62
     7
370
    25
100
AcDbSpline
210
0.0
220
0.0
230
1.0
 70
     8
 71
     3
 72
    12
 73
     8
 74
     0
 42
0.000000001
 43
0.00000001
 40
0.0
 40
0.0
 40
0.0
 40
0.0
 40
0.2229001267076687
 40
0.4458326948994192
 40
0.6679313646014847
 40
0.8889145932580129
 40
1.0
 40
1.0
 40
1.0
 40
1.0
 10
333.3192254565282
 20
316.9275447467209
 30
0.0
 10
333.2446444072914
 20
316.9005200991239
 30
0.0
 10
333.0954714540911
 20
316.8464668706902
 30
0.0
 10
332.9215361472063
 20
316.6767042737017
 30
0.0
 10
332.8121756885951
 20
316.4643603384947
 30
0.0
 10
332.7825615642603
 20
316.2648462539834
 30
0.0
 10
332.8002490608168
 20
316.1481868764956
 30
0.0
 10
332.8061659784049
 20
316.1091613467797
 30
0.0
  0
LINE
  5
FF
330
1F
100
AcDbEntity
  8
0
  6
Continuous
 62
     7
370
    25
100
AcDbLine
 10
332.9166330717
 20
315.5681632267
 30
0.0
 11
332.8061659784
 21
316.1091613468
 31
0.0
  0
SPLINE
  5
100
330
1F
100
AcDbEntity
  8
0
  6
Continuous
 62
     7
370
    25
100
AcDbSpline
210
0.0
220
0.0
230
1.0
 70
     8
 71
     3
 72
    12
 73
     8
 74
     0
 42
0.000000001
 43
0.00000001
 40
0.0
 40
0.0
 40
0.0
 40
0.0
 40
0.220133573027281
 40
0.440254602915286
 40
0.660743842467103
 40
0.8821597043935999
 40
1.0
 40
1.0
 40
1.0
 40
1.0
 10
332.9166330716682
 20
315.5681632267452
 30
0.0
 10
332.9398605919773
 20
315.4928473406849
 30
0.0
 10
332.9863143090991
 20
315.3422198600389
 30
0.0
 10
333.1455797066143
 20
315.1613115801516
 30
0.0
 10
333.3501701371861
 20
315.0414344437424
 30
0.0
 10
333.54879615789
 20
315.0003274696736
 30
0.0
 10
333.6680393712953
 20
315.0122788063154
 30
0.0
 10
333.7094583852313
 20
315.0164300914475
 30
0.0
  0
SPLINE
  5
101
330
1F
100
AcDbEntity
  8
0
  6
Continuous
 62
     7
370
    25
100
AcDbSpline
210
0.0
220
0.0
230
1.0
 70
     8
 71
     3
 72
    11
 73
     7
 74
     0
 42
0.000000001
 43
0.00000001
 40
0.0
 40
0.0
 40
0.0
 40
0.0
 40
0.2832270505634257
 40
0.5762690817602941
 40
0.7861908663717228
 40
1.0
 40
1.0
 40
1.0
 40
1.0
 10
350.133377684154
 20
317.556243104981
 30
0.0
 10
348.801788330033
 20
317.350324657078
 30
0.0
 10
346.0924645812791
 20
316.9313518412594
 30
0.0
 10
341.7501633392
 20
316.2598535828936
 30
0.0
 10
337.5764268167961
 20
315.6144223587261
 30
0.0
 10
335.0063073717354
 20
315.2169762504043
 30
0.0
 10
333.7094583852313
 20
315.0164300914475
 30
0.0
  0
SPLINE
  5
102
330
1F
100
AcDbEntity
  8
0
  6
Continuous
 62
     7
370
    25
100
AcDbSpline
210
0.0
220
0.0
230
1.0
 70
     8
 71
     3
 72
    12
 73
     8
 74
     0
 42
0.000000001
 43
0.00000001
 40
0.0
 40
0.0
 40
0.0
 40
0.0
 40
0.1369201190906856
 40
0.2732892225298325
 40
0.4609277105320562
 40
0.7173042536063341
 40
0.9999999999999999
 40
0.9999999999999999
 40
0.9999999999999999
 40
0.9999999999999999
 10
285.4451959476269
 20
288.7846464861148
 30
0.0
 10
285.4866703912791
 20
288.7382191242773
 30
0.0
 10
285.5694523705518
 20
288.6455512409528
 30
0.0
 10
285.7444025449552
 20
288.5478997175429
 30
0.0
 10
285.965413056784
 20
288.4949840874545
 30
0.0
 10
286.2255472141413
 20
288.5219077343286
 30
0.0
 10
286.374333250911
 20
288.6205032962612
 30
0.0
 10
286.452358370249
 20
288.6722079498229
 30
0.0
  0
SPLINE
  5
103
330
1F
100
AcDbEntity
  8
0
  6
Continuous
 62
     7
370
    25
100
AcDbSpline
210
0.0
220
0.0
230
1.0
 70
     8
 71
     3
 72
    11
 73
     7
 74
     0
 42
0.000000001
 43
0.00000001
 40
0.0
 40
0.0
 40
0.0
 40
0.0
 40
0.2603296700655779
 40
0.5282089223385155
 40
0.7614183595482881
 40
1.0
 40
1.0
 40
1.0
 40
1.0
 10
299.1824368157041
 20
299.3558813821661
 30
0.0
 10
297.9593098633832
 20
298.3293764018689
 30
0.0
 10
295.4775851748147
 20
296.2465977109831
 30
0.0
 10
292.0929903910998
 20
293.4060884770215
 30
0.0
 10
289.0212361293825
 20
290.8281295476903
 30
0.0
 10
287.3151266808366
 20
289.3962832111458
 30
0.0
 10
286.452358370249
 20
288.6722079498229
 30
0.0
  0
SPLINE
  5
104
330
1F
100
AcDbEntity
  8
0
  6
Continuous
 62
     7
370
    25
100
AcDbSpline
210
0.0
220
0.0
230
1.0
 70
     8
 71
     3
 72
    12
 73
     8
 74
     0
 42
0.000000001
 43
0.00000001
 40
0.0
 40
0.0
 40
0.0
 40
0.0
 40
0.2229001252313355
 40
0.4458326920057422
 40
0.667931360295742
 40
0.8889145875472295
 40
1.0
 40
1.0
 40
1.0
 40
1.0
 10
299.1824368157041
 20
299.3558813821661
 30
0.0
 10
299.2379064641519
 20
299.4125892527169
 30
0.0
 10
299.3488538342644
 20
299.5260132472496
 30
0.0
 10
299.4319069003234
 20
299.7544317634593
 30
0.0
 10
299.4383046883256
 20
299.9931967630358
 30
0.0
 10
299.378420174689
 20
300.1858018311304
 30
0.0
 10
299.3118676821412
 20
300.2832339827578
 30
0.0
 10
299.2896041793574
 20
300.3158275175142
 30
0.0
  0
SPLINE
  5
105
330
1F
100
AcDbEntity
  8
0
  6
Continuous
 62
     7
370
    25
100
AcDbSpline
210
0.0
220
0.0
230
1.0
 70
    24
 71
     3
 72
     9
 73
     5
 74
     0
 42
0.000000001
 43
0.00000001
 40
0.0
 40
0.0
 40
0.0
 40
0.0
 40
0.4999998288440481
 40
1.0
 40
1.0
 40
1.0
 40
1.0
 10
298.9553464822934
 20
300.7553201031367
 30
0.0
 10
299.0110560794006
 20
300.6820713639402
 30
0.0
 10
299.1224753117552
 20
300.5355738353994
 30
0.0
 10
299.2338945441099
 20
300.3890763068585
 30
0.0
 10
299.2896041793574
 20
300.3158275175142
 30
0.0
  0
SPLINE
  5
106
330
1F
100
AcDbEntity
  8
0
  6
Continuous
 62
     7
370
    25
100
AcDbSpline
210
0.0
220
0.0
230
1.0
 70
     8
 71
     3
 72
    12
 73
     8
 74
     0
 42
0.000000001
 43
0.00000001
 40
0.0
 40
0.0
 40
0.0
 40
0.0
 40
0.2201335735716525
 40
0.4402546039526777
 40
0.6607438440022866
 40
0.8821597064322876
 40
1.0
 40
1.0
 40
1.0
 40
1.0
 10
298.9553464822934
 20
300.7553201031367
 30
0.0
 10
298.9017408710833
 20
300.8130993281287
 30
0.0
 10
298.7945327031059
 20
300.9286544858579
 30
0.0
 10
298.5725463770572
 20
301.0225445472586
 30
0.0
 10
298.3362040282483
 20
301.0417816532894
 30
0.0
 10
298.1394125203728
 20
300.9926371566351
 30
0.0
 10
298.0371635891127
 20
300.9301316828259
 30
0.0
 10
298.0016475229671
 20
300.9084204677071
 30
0.0
  0
SPLINE
  5
107
330
1F
100
AcDbEntity
  8
0
  6
Continuous
 62
     7
370
    25
100
AcDbSpline
210
0.0
220
0.0
230
1.0
 70
     8
 71
     3
 72
    11
 73
     7
 74
     0
 42
0.000000001
 43
0.00000001
 40
0.0
 40
0.0
 40
0.0
 40
0.0
 40
0.2832270505181717
 40
0.5762690817323789
 40
0.7861908663323486
 40
1.0
 40
1.0
 40
1.0
 40
1.0
 10
284.3061911135234
 20
291.4940564968321
 30
0.0
 10
285.4165669998642
 20
292.2573375753797
 30
0.0
 10
287.6757978580351
 20
293.8103505571326
 30
0.0
 10
291.2967239170325
 20
296.2994034816204
 30
0.0
 10
294.7770884739651
 20
298.6918333289555
 30
0.0
 10
296.9202406770215
 20
300.1650529343314
 30
0.0
 10
298.0016475229671
 20
300.9084204677071
 30
0.0
  0
SPLINE
  5
108
330
1F
100
AcDbEntity
  8
0
  6
Continuous
 62
     7
370
    25
100
AcDbSpline
210
0.0
220
0.0
230
1.0
 70
     8
 71
     3
 72
    12
 73
     8
 74
     0
 42
0.000000001
 43
0.00000001
 40
0.0
 40
0.0
 40
0.0
 40
0.0
 40
0.3203292003654257
 40
0.561924569492574
 40
0.7389290103575872
 40
0.8801315506287823
 40
1.0
 40
1.0
 40
1.0
 40
1.0
 10
284.3061911135234
 20
291.4940564968321
 30
0.0
 10
284.2267957841016
 20
291.4232680039326
 30
0.0
 10
284.0875197322958
 20
291.2990901476766
 30
0.0
 10
284.0011526855685
 20
291.0445293570948
 30
0.0
 10
284.0000327872632
 20
290.8233489098266
 30
0.0
 10
284.0507013703503
 20
290.6379024349073
 30
0.0
 10
284.1157114737051
 20
290.5389031693588
 30
0.0
 10
284.1455602910451
 20
290.4934485270547
 30
0.0
  0
LINE
  5
109
330
1F
100
AcDbEntity
  8
0
  6
Continuous
 62
     7
370
    25
100
AcDbLine
 10
284.145560291
 20
290.4934485271
 30
0.0
 11
284.7953781185
 21
289.639047506
 31
0.0
  0
LINE
  5
10A
330
1F
100
AcDbEntity
  8
0
  6
Continuous
 62
     7
370
    25
100
AcDbLine
 10
285.4451959476
 20
288.7846464861
 30
0.0
 11
284.7953781185
 21
289.639047506
 31
0.0
  0
SPLINE
  5
10B
330
1F
100
AcDbEntity
  8
0
  6
Continuous
 62
     7
370
    25
100
AcDbSpline
210
0.0
220
0.0
230
1.0
 70
     8
 71
     3
 72
    12
 73
     8
 74
     0
 42
0.000000001
 43
0.00000001
 40
0.0
 40
0.0
 40
0.0
 40
0.0
 40
0.2201335735842031
 40
0.4402546039777173
 40
0.6607438440396624
 40
0.8821597064822697
 40
1.0
 40
1.0
 40
1.0
 40
1.0
 10
329.5356982927892
 20
323.3196052699059
 30
0.0
 10
329.589303904009
 20
323.2618260449227
 30
0.0
 10
329.6965120720057
 20
323.1462708872109
 30
0.0
 10
329.9184983980702
 20
323.0523808258467
 30
0.0
 10
330.1548407468827
 20
323.0331437198552
 30
0.0
 10
330.3516322547299
 20
323.0822882165376
 30
0.0
 10
330.4538811859663
 20
323.1447936903472
 30
0.0
 10
330.4893972520925
 20
323.1665049054593
 30
0.0
  0
SPLINE
  5
10C
330
1F
100
AcDbEntity
  8
0
  6
Continuous
 62
     7
370
    25
100
AcDbSpline
210
0.0
220
0.0
230
1.0
 70
     8
 71
     3
 72
    11
 73
     7
 74
     0
 42
0.000000001
 43
0.00000001
 40
0.0
 40
0.0
 40
0.0
 40
0.0
 40
0.2832270505185671
 40
0.5762690817332475
 40
0.786190866332788
 40
1.0
 40
1.0
 40
1.0
 40
1.0
 10
344.1848536615401
 20
332.580868876337
 30
0.0
 10
343.0744777751987
 20
331.8175877977889
 30
0.0
 10
340.8152469170262
 20
330.2645748160349
 30
0.0
 10
337.194320858025
 20
327.7755218915447
 30
0.0
 10
333.7139563010916
 20
325.3830920442089
 30
0.0
 10
331.5708040980371
 20
323.9098724388343
 30
0.0
 10
330.4893972520925
 20
323.1665049054593
 30
0.0
  0
SPLINE
  5
10D
330
1F
100
AcDbEntity
  8
0
  6
Continuous
 62
     7
370
    25
100
AcDbSpline
210
0.0
220
0.0
230
1.0
 70
     8
 71
     3
 72
    12
 73
     8
 74
     0
 42
0.000000001
 43
0.00000001
 40
0.0
 40
0.0
 40
0.0
 40
0.0
 40
0.3203292003935757
 40
0.5619245695284261
 40
0.7389290104027767
 40
0.8801315506835865
 40
1.0
 40
1.0
 40
1.0
 40
1.0
 10
344.1848536615401
 20
332.580868876337
 30
0.0
 10
344.2642489909534
 20
332.6516573692414
 30
0.0
 10
344.4035250427413
 20
332.7758352255032
 30
0.0
 10
344.4898920894619
 20
333.030396016093
 30
0.0
 10
344.4910119877193
 20
333.2515764633331
 30
0.0
 10
344.4403434047231
 20
333.4370229382721
 30
0.0
 10
344.3753333011988
 20
333.5360222036809
 30
0.0
 10
344.3454844837895
 20
333.5814768459081
 30
0.0
  0
LINE
  5
10E
330
1F
100
AcDbEntity
  8
0
  6
Continuous
 62
     7
370
    25
100
AcDbLine
 10
343.6956666565
 20
334.4358778671
 30
0.0
 11
344.3454844838
 21
333.5814768459
 31
0.0
  0
LINE
  5
10F
330
1F
100
AcDbEntity
  8
0
  6
Continuous
 62
     7
370
    25
100
AcDbLine
 10
343.6956666565
 20
334.4358778671
 30
0.0
 11
343.0458488276
 21
335.2902788871
 31
0.0
  0
SPLINE
  5
110
330
1F
100
AcDbEntity
  8
0
  6
Continuous
 62
     7
370
    25
100
AcDbSpline
210
0.0
220
0.0
230
1.0
 70
     8
 71
     3
 72
    12
 73
     8
 74
     0
 42
0.000000001
 43
0.00000001
 40
0.0
 40
0.0
 40
0.0
 40
0.0
 40
0.1369201190564432
 40
0.2732892224798724
 40
0.4609277104377527
 40
0.7173042534523935
 40
1.0
 40
1.0
 40
1.0
 40
1.0
 10
343.0458488276163
 20
335.2902788871225
 30
0.0
 10
343.0043743839056
 20
335.3367062488825
 30
0.0
 10
342.9215924045105
 20
335.4293741320586
 30
0.0
 10
342.7466422302096
 20
335.5270256555549
 30
0.0
 10
342.5256317183893
 20
335.5799412856599
 30
0.0
 10
342.2654975609919
 20
335.5530176388574
 30
0.0
 10
342.1167115241776
 20
335.4544220769163
 30
0.0
 10
342.0386864047873
 20
335.4027174233311
 30
0.0
  0
SPLINE
  5
111
330
1F
100
AcDbEntity
  8
0
  6
Continuous
 62
     7
370
    25
100
AcDbSpline
210
0.0
220
0.0
230
1.0
 70
     8
 71
     3
 72
    11
 73
     7
 74
     0
 42
0.000000001
 43
0.00000001
 40
0.0
 40
0.0
 40
0.0
 40
0.0
 40
0.2603296700665834
 40
0.5282089223405578
 40
0.7614183595493675
 40
1.0
 40
1.0
 40
1.0
 40
1.0
 10
329.3086079593958
 20
324.7190439910411
 30
0.0
 10
330.5317349117158
 20
325.7455489713377
 30
0.0
 10
333.0134596002826
 20
327.8283276622221
 30
0.0
 10
336.3980543839841
 20
330.6688368961724
 30
0.0
 10
339.4698086456791
 20
333.2467958254849
 30
0.0
 10
341.1759180942084
 20
334.6786421620154
 30
0.0
 10
342.0386864047873
 20
335.4027174233311
 30
0.0
  0
SPLINE
  5
112
330
1F
100
AcDbEntity
  8
0
  6
Continuous
 62
     7
370
    25
100
AcDbSpline
210
0.0
220
0.0
230
1.0
 70
     8
 71
     3
 72
    12
 73
     8
 74
     0
 42
0.000000001
 43
0.00000001
 40
0.0
 40
0.0
 40
0.0
 40
0.0
 40
0.2229001251908031
 40
0.4458326919246622
 40
0.6679313601744405
 40
0.8889145873855703
 40
1.0
 40
1.0
 40
1.0
 40
1.0
 10
329.3086079593958
 20
324.7190439910411
 30
0.0
 10
329.2531383109385
 20
324.6623361204992
 30
0.0
 10
329.1421909408076
 20
324.5489121259844
 30
0.0
 10
329.0591378747114
 20
324.3204936097875
 30
0.0
 10
329.0527400866716
 20
324.0817286102122
 30
0.0
 10
329.1126246002951
 20
323.8891235420426
 30
0.0
 10
329.1791770928838
 20
323.7916913903636
 30
0.0
 10
329.2014405957055
 20
323.7590978555544
 30
0.0
  0
SPLINE
  5
113
330
1F
100
AcDbEntity
  8
0
  6
Continuous
 62
     7
370
    25
100
AcDbSpline
210
0.0
220
0.0
230
1.0
 70
    24
 71
     3
 72
     9
 73
     5
 74
     0
 42
0.000000001
 43
0.00000001
 40
0.0
 40
0.0
 40
0.0
 40
0.0
 40
0.4999999145895372
 40
1.0
 40
1.0
 40
1.0
 40
1.0
 10
329.5356982927892
 20
323.3196052699059
 30
0.0
 10
329.479988686125
 20
323.3928540216683
 30
0.0
 10
329.3685694537637
 20
323.5393515502178
 30
0.0
 10
329.2571502214025
 20
323.6858490787673
 30
0.0
 10
329.2014405957055
 20
323.7590978555544
 30
0.0
  0
SPLINE
  5
114
330
1F
100
AcDbEntity
  8
0
  6
Continuous
 62
     7
370
    25
100
AcDbSpline
210
0.0
220
0.0
230
1.0
 70
     8
 71
     3
 72
    19
 73
    15
 74
     0
 42
0.000000001
 43
0.00000001
 40
0.0
 40
0.0
 40
0.0
 40
0.0
 40
0.0903184215815981
 40
0.204563192330383
 40
0.2714198874793248
 40
0.3439361549146841
 40
0.4207855040565416
 40
0.4999999999999998
 40
0.5792144959434579
 40
0.6560638450853152
 40
0.7285801125206747
 40
0.7954368076696164
 40
0.9096815784184012
 40
0.9999999999999999
 40
0.9999999999999999
 40
0.9999999999999999
 40
0.9999999999999999
 10
306.7830809486935
 20
315.4362812743421
 30
0.0
 10
307.1630601070497
 20
316.115053271366
 30
0.0
 10
308.0236791069303
 20
317.652411477413
 30
0.0
 10
309.9158348919638
 20
319.1287518183848
 30
0.0
 10
311.9255338226157
 20
319.9715010167807
 30
0.0
 10
313.7655125196815
 20
320.2989179380983
 30
0.0
 10
315.7372933427152
 20
320.1844460607005
 30
0.0
 10
317.6795768776456
 20
319.5772680243777
 30
0.0
 10
319.4125491091913
 20
318.5105263768614
 30
0.0
 10
320.7931775572115
 20
317.0981211540887
 30
0.0
 10
321.7539233957413
 20
315.4950956147511
 30
0.0
 10
322.4372977076409
 20
313.4257682957664
 30
0.0
 10
322.5655255248311
 20
311.0292308051114
 30
0.0
 10
321.9706238748416
 20
309.3708498647073
 30
0.0
 10
321.7079638263195
 20
308.6386440987922
 30
0.0
  0
SPLINE
  5
115
330
1F
100
AcDbEntity
  8
0
  6
Continuous
 62
     7
370
    25
100
AcDbSpline
210
0.0
220
0.0
230
1.0
 70
     8
 71
     3
 72
    19
 73
    15
 74
     0
 42
0.000000001
 43
0.00000001
 40
0.0
 40
0.0
 40
0.0
 40
0.0
 40
0.090318421581599
 40
0.2045631923303834
 40
0.271419887479325
 40
0.3439361549146842
 40
0.4207855040565413
 40
0.4999999999999992
 40
0.579214495943457
 40
0.6560638450853141
 40
0.7285801125206733
 40
0.7954368076696149
 40
0.9096815784183994
 40
1.0
 40
1.0
 40
1.0
 40
1.0
 10
321.7079638263195
 20
308.6386440987922
 30
0.0
 10
321.3279846679633
 20
307.9598721017683
 30
0.0
 10
320.4673656680828
 20
306.4225138957212
 30
0.0
 10
318.5752098830494
 20
304.9461735547495
 30
0.0
 10
316.5655109523974
 20
304.1034243563536
 30
0.0
 10
314.7255322553316
 20
303.7760074350359
 30
0.0
 10
312.7537514322979
 20
303.8904793124337
 30
0.0
 10
310.8114678973675
 20
304.4976573487565
 30
0.0
 10
309.0784956658218
 20
305.5643989962729
 30
0.0
 10
307.6978672178016
 20
306.9768042190456
 30
0.0
 10
306.7371213792719
 20
308.5798297583831
 30
0.0
 10
306.0537470673722
 20
310.6491570773679
 30
0.0
 10
305.925519250182
 20
313.0456945680228
 30
0.0
 10
306.5204209001714
 20
314.704075508427
 30
0.0
 10
306.7830809486935
 20
315.4362812743421
 30
0.0
  0
SPLINE
  5
116
330
1F
100
AcDbEntity
  8
0
  6
Continuous
 62
     7
370
    25
100
AcDbSpline
210
0.0
220
0.0
230
1.0
 70
    24
 71
     3
 72
     9
 73
     5
 74
     0
 42
0.000000001
 43
0.00000001
 40
0.0
 40
0.0
 40
0.0
 40
0.0
 40
0.7733550438562328
 40
1.0
 40
1.0
 40
1.0
 40
1.0
 10
322.4170168071401
 20
308.3157012025981
 30
0.0
 10
322.4320816655363
 20
308.3088398126415
 30
0.0
 10
322.4515615389992
 20
308.2999675747076
 30
0.0
 10
322.4249059887794
 20
308.3121080223476
 30
0.0
 10
322.4188646427689
 20
308.3148595935705
 30
0.0
  0
ARC
  5
117
330
1F
100
AcDbEntity
  8
0
  6
Continuous
 62
     7
370
    25
100
AcDbCircle
 10
314.2455223875
 20
312.0374626866
 30
0.0
 40
8.91131119599999
100
AcDbArc
 50
157.3074712684
 51
213.6929108093
  0
SPLINE
  5
118
330
1F
100
AcDbEntity
  8
0
  6
Continuous
 62
     7
370
    25
100
AcDbSpline
210
0.0
220
0.0
230
1.0
 70
    24
 71
     3
 72
    13
 73
     9
 74
     0
 42
0.000000001
 43
0.00000001
 40
0.0
 40
0.0
 40
0.0
 40
0.0
 40
0.201733044926166
 40
0.3473497128670661
 40
0.500000000098781
 40
0.652650287311368
 40
0.7982669552100673
 40
1.0
 40
1.0
 40
1.0
 40
1.0
 10
306.135749468689
 20
315.7311127024653
 30
0.0
 10
306.1004187565607
 20
315.7472043102971
 30
0.0
 10
306.0395853283155
 20
315.7749112998089
 30
0.0
 10
306.0658282253075
 20
315.7629587978261
 30
0.0
 10
306.1511186030327
 20
315.7241127280047
 30
0.0
 10
306.2980019047529
 20
315.6572137512806
 30
0.0
 10
306.5097048528213
 20
315.5607922354963
 30
0.0
 10
306.6826425514376
 20
315.4820266104119
 30
0.0
 10
306.7830809488981
 20
315.4362812742488
 30
0.0
  0
ARC
  5
119
330
1F
100
AcDbEntity
  8
0
  6
Continuous
 62
     7
370
    25
100
AcDbCircle
 10
314.2455223875
 20
312.0374626866
 30
0.0
 40
8.911311196000057
100
AcDbArc
 50
337.3074712698
 51
33.6929108129
  0
CIRCLE
  5
11A
330
1F
100
AcDbEntity
  8
0
  6
Continuous
 62
     7
370
    25
100
AcDbCircle
 10
314.2455223875
 20
312.0374626866
 30
0.0
 40
57.00000000000018
  0
SPLINE
  5
11B
330
1F
100
AcDbEntity
  8
0
  6
Continuous
 62
     7
370
    25
100
AcDbSpline
210
0.0
220
0.0
230
1.0
 70
     8
 71
     3
 72
    35
 73
    31
 74
     0
 42
0.000000001
 43
0.00000001
 40
0.0
 40
0.0
 40
0.0
 40
0.0
 40
0.0282546077220523
 40
0.0583834426637937
 40
0.0903495399278268
 40
0.125861647901282
 40
0.1640104750491878
 40
0.2048405213069452
 40
0.2374624815847438
 40
0.2716127104071186
 40
0.3071914351681351
 40
0.3440550017625769
 40
0.382015121566733
 40
0.4208413631481726
 40
0.4602672732901846
 40
0.5000000044809544
 40
0.5397327356717241
 40
0.579158645813736
 40
0.6179848873951757
 40
0.6559450071993318
 40
0.6928085737937734
 40
0.72838729855479
 40
0.762537527377165
 40
0.7951594876549634
 40
0.835992837618201
 40
0.8741415922595378
 40
0.9096504660940499
 40
0.9416198397637138
 40
0.971747028370545
 40
1.0
 40
1.0
 40
1.0
 40
1.0
 10
358.2533832922659
 20
307.3918311595144
 30
0.0
 10
358.3573048520604
 20
308.6971897487073
 30
0.0
 10
358.5720414531658
 20
311.3944959402334
 30
0.0
 10
358.4212448768674
 20
315.5856774794948
 30
0.0
 10
357.8474917027606
 20
320.0759799505486
 30
0.0
 10
356.7070084553873
 20
324.8446092144266
 30
0.0
 10
354.8845411435209
 20
329.8374114509504
 30
0.0
 10
352.5173103149421
 20
334.4492095514838
 30
0.0
 10
349.7417722756391
 20
338.5983845199303
 30
0.0
 10
346.7022014911249
 20
342.2481492032612
 30
0.0
 10
343.1396646674826
 20
345.6807896633878
 30
0.0
 10
339.0693092657951
 20
348.7946755713642
 30
0.0
 10
334.5316293095408
 20
351.4870349032138
 30
0.0
 10
329.5935330885993
 20
353.6619945034623
 30
0.0
 10
324.3467794246833
 20
355.2388385658455
 30
0.0
 10
318.9032363060192
 20
356.1597795494204
 30
0.0
 10
313.3873854420288
 20
356.3957524704676
 30
0.0
 10
307.9270335278787
 20
355.9491898228774
 30
0.0
 10
302.6436488653443
 20
354.8532473047872
 30
0.0
 10
297.64382121873
 20
353.1677023408283
 30
0.0
 10
293.013002598458
 20
350.972344286934
 30
0.0
 10
288.8122528623815
 20
348.3592250727339
 30
0.0
 10
285.0776076849447
 20
345.4245708676368
 30
0.0
 10
281.4967836815808
 20
341.9462809475649
 30
0.0
 10
278.2187265305374
 20
337.9302662788906
 30
0.0
 10
275.3939461331955
 20
333.4280351156644
 30
0.0
 10
273.2829601635943
 20
329.0026290998239
 30
0.0
 10
271.7842821166136
 20
324.731173928845
 30
0.0
 10
270.7617862716418
 20
320.6638371610414
 30
0.0
 10
270.4085901156157
 20
317.9813021294084
 30
0.0
 10
270.237661482747
 20
316.6830942136199
 30
0.0
  0
SPLINE
  5
11C
330
1F
100
AcDbEntity
  8
0
  6
Continuous
 62
     7
370
    25
100
AcDbSpline
210
0.0
220
0.0
230
1.0
 70
     8
 71
     3
 72
    35
 73
    31
 74
     0
 42
0.000000001
 43
0.00000001
 40
0.0
 40
0.0
 40
0.0
 40
0.0
 40
0.0282546077224732
 40
0.0583834426636161
 40
0.0903495399278293
 40
0.1258616479030816
 40
0.1640104750499178
 40
0.2048405213069401
 40
0.2374624815847386
 40
0.2716127104071134
 40
0.3071914351681302
 40
0.3440550017625721
 40
0.3820151215667282
 40
0.420841363148168
 40
0.4602672732901801
 40
0.5000000044809499
 40
0.5397327356717199
 40
0.5791586458137319
 40
0.6179848873951715
 40
0.6559450071993277
 40
0.6928085737937697
 40
0.7283872985547863
 40
0.7625375273771613
 40
0.7951594876549598
 40
0.8359928376182579
 40
0.8741415922594714
 40
0.9096504660940462
 40
0.9416198397647849
 40
0.9717470283710183
 40
1.0
 40
1.0
 40
1.0
 40
1.0
 10
270.237661482747
 20
316.6830942136199
 30
0.0
 10
270.1337399229475
 20
315.3777356244076
 30
0.0
 10
269.9190033218359
 20
312.6804294328898
 30
0.0
 10
270.0697998981661
 20
308.4892478936295
 30
0.0
 10
270.6435530722578
 20
303.9989454225107
 30
0.0
 10
271.784036319648
 20
299.2303161585899
 30
0.0
 10
273.6065036315666
 20
294.2375139220877
 30
0.0
 10
275.9737344600851
 20
289.6257158216191
 30
0.0
 10
278.7492724993751
 20
285.4765408532038
 30
0.0
 10
281.7888432838878
 20
281.8267761698721
 30
0.0
 10
285.3513801075305
 20
278.3941357097458
 30
0.0
 10
289.4217355092178
 20
275.2802498017692
 30
0.0
 10
293.9594154654722
 20
272.5878904699198
 30
0.0
 10
298.8975116864137
 20
270.4129308696712
 30
0.0
 10
304.1442653503297
 20
268.8360868072881
 30
0.0
 10
309.5878084689938
 20
267.9151458237131
 30
0.0
 10
315.1036593329842
 20
267.679172902666
 30
0.0
 10
320.5640112471344
 20
268.125735550256
 30
0.0
 10
325.8473959096686
 20
269.2216780683464
 30
0.0
 10
330.847223556283
 20
270.9072230323052
 30
0.0
 10
335.478042176555
 20
273.1025810861995
 30
0.0
 10
339.6787919126315
 20
275.7157003003998
 30
0.0
 10
343.4134370900686
 20
278.6503545054966
 30
0.0
 10
346.9942610934334
 20
282.1286444255713
 30
0.0
 10
350.2723182444798
 20
286.1446590942397
 30
0.0
 10
353.0970986418124
 20
290.646890257472
 30
0.0
 10
355.2080846114384
 20
295.0722962733518
 30
0.0
 10
356.7067626584276
 20
299.3437514443557
 30
0.0
 10
357.7292585033724
 20
303.4110882121655
 30
0.0
 10
358.0824546593975
 20
306.0936232437482
 30
0.0
 10
358.2533832922659
 20
307.3918311595144
 30
0.0
  0
SPLINE
  5
11D
330
1F
100
AcDbEntity
  8
0
  6
Continuous
 62
     7
370
    25
100
AcDbSpline
210
0.0
220
0.0
230
1.0
 70
    24
 71
     3
 72
    11
 73
     7
 74
     0
 42
0.000000001
 43
0.00000001
 40
0.0
 40
0.0
 40
0.0
 40
0.0
 40
0.270699660407187
 40
0.5623161110113809
 40
0.7892984430189688
 40
1.0
 40
1.0
 40
1.0
 40
1.0
 10
270.2376614827471
 20
316.6830942136199
 30
0.0
 10
270.7759158830928
 20
316.6262741010216
 30
0.0
 10
271.8940152581782
 20
316.5082434219454
 30
0.0
 10
273.1776369920528
 20
316.3727395943769
 30
0.0
 10
273.9472520809763
 20
316.2914961972362
 30
0.0
 10
274.0596433095976
 20
316.2796317661024
 30
0.0
 10
274.1137485838772
 20
316.2739202145113
 30
0.0
  0
ARC
  5
11E
330
1F
100
AcDbEntity
  8
0
  6
Continuous
 62
     7
370
    25
100
AcDbCircle
 10
314.2455223875
 20
312.0374626866
 30
0.0
 40
40.35476230894876
100
AcDbArc
 50
173.973964907
 51
353.973964907
  0
SPLINE
  5
11F
330
1F
100
AcDbEntity
  8
0
  6
Continuous
 62
     7
370
    25
100
AcDbSpline
210
0.0
220
0.0
230
1.0
 70
    24
 71
     3
 72
    11
 73
     7
 74
     0
 42
0.000000001
 43
0.00000001
 40
0.0
 40
0.0
 40
0.0
 40
0.0
 40
0.2706996603325201
 40
0.562316110912314
 40
0.7892984429590831
 40
1.0
 40
1.0
 40
1.0
 40
1.0
 10
354.3772961911359
 20
307.8010051586229
 30
0.0
 10
354.4615628269869
 20
307.7921096628605
 30
0.0
 10
354.6366073279413
 20
307.7736313220468
 30
0.0
 10
355.6855109805936
 20
307.6629051977268
 30
0.0
 10
356.9673960739039
 20
307.5275846963183
 30
0.0
 10
357.8354844778162
 20
307.4359460941558
 30
0.0
 10
358.2533832922659
 20
307.3918311595144
 30
0.0
  0
ARC
  5
120
330
1F
100
AcDbEntity
  8
0
  6
Continuous
 62
     7
370
    25
100
AcDbCircle
 10
314.2455223875
 20
312.0374626866
 30
0.0
 40
40.35476230894876
100
AcDbArc
 50
353.973964907
 51
173.973964907
  0
CIRCLE
  5
121
330
1F
100
AcDbEntity
  8
0
  6
Continuous
 62
     7
370
    25
100
AcDbCircle
 10
314.2455223875
 20
312.0374626866
 30
0.0
 40
39.93812333100013
  0
LINE
  5
122
330
1F
100
AcDbEntity
  8
0
  6
Continuous
 62
     7
370
    25
100
AcDbLine
 10
224.3653176736
 20
432.0374626866
 30
0.0
 11
224.3653176736
 21
192.0374626866
 31
0.0
  0
LINE
  5
123
330
1F
100
AcDbEntity
  8
0
  6
Continuous
 62
     7
370
    25
100
AcDbLine
 10
224.3653176736
 20
192.0374626866
 30
0.0
 11
222.8710256265
 21
192.0374626866
 31
0.0
  0
LINE
  5
124
330
1F
100
AcDbEntity
  8
0
  6
Continuous
 62
     7
370
    25
100
AcDbLine
 10
222.8710256265
 20
192.0374626866
 30
0.0
 11
222.8710256265
 21
432.0374626866
 31
0.0
  0
LINE
  5
125
330
1F
100
AcDbEntity
  8
0
  6
Continuous
 62
     7
370
    25
100
AcDbLine
 10
222.8710256265
 20
432.0374626866
 30
0.0
 11
224.3653176736
 21
432.0374626866
 31
0.0
  0
ARC
  5
126
330
1F
100
AcDbEntity
  8
0
  6
Continuous
 62
     7
370
    25
100
AcDbCircle
 10
279.2455223875
 20
192.0374626866
 30
0.0
 40
54.8802047138885
100
AcDbArc
 50
180.0
 51
270.0
  0
LINE
  5
127
330
1F
100
AcDbEntity
  8
0
  6
Continuous
 62
     7
370
    25
100
AcDbLine
 10
279.2455223875
 20
137.1572579727
 30
0.0
 11
279.2455223875
 21
135.6629659255
 31
0.0
  0
ARC
  5
128
330
1F
100
AcDbEntity
  8
0
  6
Continuous
 62
     7
370
    25
100
AcDbCircle
 10
279.2455223875
 20
192.0374626866
 30
0.0
 40
56.37449676102611
100
AcDbArc
 50
180.0
 51
270.0
  0
LINE
  5
129
330
1F
100
AcDbEntity
  8
0
  6
Continuous
 62
     7
370
    25
100
AcDbLine
 10
404.1257271014
 20
192.0374626866
 30
0.0
 11
404.1257271014
 21
432.0374626866
 31
0.0
  0
LINE
  5
12A
330
1F
100
AcDbEntity
  8
0
  6
Continuous
 62
     7
370
    25
100
AcDbLine
 10
405.6200191485
 20
432.0374626866
 30
0.0
 11
404.1257271014
 21
432.0374626866
 31
0.0
  0
LINE
  5
12B
330
1F
100
AcDbEntity
  8
0
  6
Continuous
 62
     7
370
    25
100
AcDbLine
 10
405.6200191485
 20
432.0374626866
 30
0.0
 11
405.6200191485
 21
192.0374626866
 31
0.0
  0
LINE
  5
12C
330
1F
100
AcDbEntity
  8
0
  6
Continuous
 62
     7
370
    25
100
AcDbLine
 10
404.1257271014
 20
192.0374626866
 30
0.0
 11
405.6200191485
 21
192.0374626866
 31
0.0
  0
ARC
  5
12D
330
1F
100
AcDbEntity
  8
0
  6
Continuous
 62
     7
370
    25
100
AcDbCircle
 10
349.2455223875
 20
192.0374626866
 30
0.0
 40
54.8802047138885
100
AcDbArc
 50
270.0
 51
0.0
  0
ARC
  5
12E
330
1F
100
AcDbEntity
  8
0
  6
Continuous
 62
     7
370
    25
100
AcDbCircle
 10
349.2455223875
 20
192.0374626866
 30
0.0
 40
56.37449676102611
100
AcDbArc
 50
270.0
 51
0.0
  0
LINE
  5
12F
330
1F
100
AcDbEntity
  8
0
  6
Continuous
 62
     7
370
    25
100
AcDbLine
 10
349.2455223875
 20
137.1572579727
 30
0.0
 11
349.2455223875
 21
135.6629659255
 31
0.0
  0
ARC
  5
130
330
1F
100
AcDbEntity
  8
0
  6
Continuous
 62
     7
370
    25
100
AcDbCircle
 10
349.2455223875
 20
432.0374626866
 30
0.0
 40
56.37449676102614
100
AcDbArc
 50
0.0
 51
90.0
  0
ARC
  5
131
330
1F
100
AcDbEntity
  8
0
  6
Continuous
 62
     7
370
    25
100
AcDbCircle
 10
349.2455223875
 20
432.0374626866
 30
0.0
 40
54.88020471388859
100
AcDbArc
 50
0.0
 51
90.0
  0
LINE
  5
132
330
1F
100
AcDbEntity
  8
0
  6
Continuous
 62
     7
370
    25
100
AcDbLine
 10
349.2455223875
 20
488.4119594476
 30
0.0
 11
349.2455223875
 21
486.9176674005
 31
0.0
  0
LINE
  5
133
330
1F
100
AcDbEntity
  8
0
  6
Continuous
 62
     7
370
    25
100
AcDbLine
 10
279.2455223875
 20
137.1572579727
 30
0.0
 11
349.2455223875
 21
137.1572579727
 31
0.0
  0
LINE
  5
134
330
1F
100
AcDbEntity
  8
0
  6
Continuous
 62
     7
370
    25
100
AcDbLine
 10
349.2455223875
 20
135.6629659255
 30
0.0
 11
279.2455223875
 21
135.6629659255
 31
0.0
  0
ARC
  5
135
330
1F
100
AcDbEntity
  8
0
  6
Continuous
 62
     7
370
    25
100
AcDbCircle
 10
279.2455223875
 20
192.0374626866
 30
0.0
 40
65.0
100
AcDbArc
 50
180.0
 51
270.0
  0
ARC
  5
136
330
1F
100
AcDbEntity
  8
0
  6
Continuous
 62
     7
370
    25
100
AcDbCircle
 10
279.2455223875
 20
432.0374626866
 30
0.0
 40
65.0
100
AcDbArc
 50
90.0
 51
180.0
  0
LINE
  5
137
330
1F
100
AcDbEntity
  8
0
  6
Continuous
 62
     7
370
    25
100
AcDbLine
 10
279.2455223875
 20
488.4119594476
 30
0.0
 11
349.2455223875
 21
488.4119594476
 31
0.0
  0
ARC
  5
138
330
1F
100
AcDbEntity
  8
0
  6
Continuous
 62
     7
370
    25
100
AcDbCircle
 10
279.2455223875
 20
432.0374626866
 30
0.0
 40
56.37449676102614
100
AcDbArc
 50
90.0
 51
180.0
  0
LINE
  5
139
330
1F
100
AcDbEntity
  8
0
  6
Continuous
 62
     7
370
    25
100
AcDbLine
 10
214.2455223875
 20
432.0374626866
 30
0.0
 11
214.2455223875
 21
192.0374626866
 31
0.0
  0
LINE
  5
13A
330
1F
100
AcDbEntity
  8
0
  6
Continuous
 62
     7
370
    25
100
AcDbLine
 10
279.2455223875
 20
127.0374626866
 30
0.0
 11
349.2455223875
 21
127.0374626866
 31
0.0
  0
ARC
  5
13B
330
1F
100
AcDbEntity
  8
0
  6
Continuous
 62
     7
370
    25
100
AcDbCircle
 10
349.2455223875
 20
192.0374626866
 30
0.0
 40
65.0
100
AcDbArc
 50
270.0
 51
0.0
  0
LINE
  5
13C
330
1F
100
AcDbEntity
  8
0
  6
Continuous
 62
     7
370
    25
100
AcDbLine
 10
414.2455223875
 20
192.0374626866
 30
0.0
 11
414.2455223875
 21
432.0374626866
 31
0.0
  0
ARC
  5
13D
330
1F
100
AcDbEntity
  8
0
  6
Continuous
 62
     7
370
    25
100
AcDbCircle
 10
349.2455223875
 20
432.0374626866
 30
0.0
 40
65.0
100
AcDbArc
 50
0.0
 51
90.0
  0
LINE
  5
13E
330
1F
100
AcDbEntity
  8
0
  6
Continuous
 62
     7
370
    25
100
AcDbLine
 10
349.2455223875
 20
497.0374626866
 30
0.0
 11
279.2455223875
 21
497.0374626866
 31
0.0
  0
LINE
  5
13F
330
1F
100
AcDbEntity
  8
0
  6
Continuous
 62
     7
370
    25
100
AcDbLine
 10
279.2455223875
 20
488.4119594476
 30
0.0
 11
279.2455223875
 21
486.9176674005
 31
0.0
  0
ARC
  5
140
330
1F
100
AcDbEntity
  8
0
  6
Continuous
 62
     7
370
    25
100
AcDbCircle
 10
279.2455223875
 20
432.0374626866
 30
0.0
 40
54.88020471388859
100
AcDbArc
 50
90.0
 51
180.0
  0
LINE
  5
141
330
1F
100
AcDbEntity
  8
0
  6
Continuous
 62
     7
370
    25
100
AcDbLine
 10
349.2455223875
 20
486.9176674005
 30
0.0
 11
279.2455223875
 21
486.9176674005
 31
0.0
  0
ARC
  5
142
330
1F
100
AcDbEntity
  8
0
  6
Continuous
 62
     7
370
    25
100
AcDbCircle
 10
279.2455223875
 20
432.0374626866
 30
0.0
 40
54.67129158923177
100
AcDbArc
 50
90.0
 51
180.0
  0
LINE
  5
143
330
1F
100
AcDbEntity
  8
0
  6
Continuous
 62
     7
370
    25
100
AcDbLine
 10
224.3653176736
 20
432.0374626866
 30
0.0
 11
224.5742307983
 21
432.0374626866
 31
0.0
  0
LINE
  5
144
330
1F
100
AcDbEntity
  8
0
  6
Continuous
 62
     7
370
    25
100
AcDbLine
 10
279.2455223875
 20
486.9176674005
 30
0.0
 11
279.2455223875
 21
486.7087542758
 31
0.0
  0
LINE
  5
145
330
1F
100
AcDbEntity
  8
0
  6
Continuous
 62
     7
370
    25
100
AcDbLine
 10
279.2455223875
 20
486.7087542758
 30
0.0
 11
349.2455223875
 21
486.7087542758
 31
0.0
  0
LINE
  5
146
330
1F
100
AcDbEntity
  8
0
  6
Continuous
 62
     7
370
    25
100
AcDbLine
 10
349.2455223875
 20
486.9176674005
 30
0.0
 11
349.2455223875
 21
486.7087542758
 31
0.0
  0
ARC
  5
147
330
1F
100
AcDbEntity
  8
0
  6
Continuous
 62
     7
370
    25
100
AcDbCircle
 10
349.2455223875
 20
432.0374626866
 30
0.0
 40
54.67129158923177
100
AcDbArc
 50
0.0
 51
90.0
  0
LINE
  5
148
330
1F
100
AcDbEntity
  8
0
  6
Continuous
 62
     7
370
    25
100
AcDbLine
 10
404.1257271014
 20
432.0374626866
 30
0.0
 11
403.9168139767
 21
432.0374626866
 31
0.0
  0
LINE
  5
149
330
1F
100
AcDbEntity
  8
0
  6
Continuous
 62
     7
370
    25
100
AcDbLine
 10
403.9168139767
 20
432.0374626866
 30
0.0
 11
403.9168139767
 21
192.0374626866
 31
0.0
  0
LINE
  5
14A
330
1F
100
AcDbEntity
  8
0
  6
Continuous
 62
     7
370
    25
100
AcDbLine
 10
404.1257271014
 20
192.0374626866
 30
0.0
 11
403.9168139767
 21
192.0374626866
 31
0.0
  0
ARC
  5
14B
330
1F
100
AcDbEntity
  8
0
  6
Continuous
 62
     7
370
    25
100
AcDbCircle
 10
349.2455223875
 20
192.0374626866
 30
0.0
 40
54.67129158923169
100
AcDbArc
 50
270.0
 51
0.0
  0
LINE
  5
14C
330
1F
100
AcDbEntity
  8
0
  6
Continuous
 62
     7
370
    25
100
AcDbLine
 10
349.2455223875
 20
137.1572579727
 30
0.0
 11
349.2455223875
 21
137.3661710973
 31
0.0
  0
ARC
  5
14D
330
1F
100
AcDbEntity
  8
0
  6
Continuous
 62
     7
370
    25
100
AcDbCircle
 10
279.2455223875
 20
192.0374626866
 30
0.0
 40
54.67129158923169
100
AcDbArc
 50
180.0
 51
270.0
  0
LINE
  5
14E
330
1F
100
AcDbEntity
  8
0
  6
Continuous
 62
     7
370
    25
100
AcDbLine
 10
279.2455223875
 20
137.1572579727
 30
0.0
 11
279.2455223875
 21
137.3661710973
 31
0.0
  0
LINE
  5
14F
330
1F
100
AcDbEntity
  8
0
  6
Continuous
 62
     7
370
    25
100
AcDbLine
 10
224.3653176736
 20
192.0374626866
 30
0.0
 11
224.5742307983
 21
192.0374626866
 31
0.0
  0
LINE
  5
150
330
1F
100
AcDbEntity
  8
0
  6
Continuous
 62
     7
370
    25
100
AcDbLine
 10
224.5742307983
 20
192.0374626866
 30
0.0
 11
224.5742307983
 21
432.0374626866
 31
0.0
  0
LINE
  5
151
330
1F
100
AcDbEntity
  8
0
  6
Continuous
 62
     7
370
    25
100
AcDbLine
 10
349.2455223875
 20
137.3661710973
 30
0.0
 11
279.2455223875
 21
137.3661710973
 31
0.0
  0
ARC
  5
152
330
1F
100
AcDbEntity
  8
0
  6
Continuous
 62
     7
370
    25
100
AcDbCircle
 10
349.2455223875
 20
192.0374626866
 30
0.0
 40
53.40145421243201
100
AcDbArc
 50
270.0
 51
0.0
  0
LINE
  5
153
330
1F
100
AcDbEntity
  8
0
  6
Continuous
 62
     7
370
    25
100
AcDbLine
 10
402.6469765999
 20
192.0374626866
 30
0.0
 11
403.9168139767
 21
192.0374626866
 31
0.0
  0
LINE
  5
154
330
1F
100
AcDbEntity
  8
0
  6
Continuous
 62
     7
370
    25
100
AcDbLine
 10
349.2455223875
 20
138.6360084741
 30
0.0
 11
349.2455223875
 21
137.3661710973
 31
0.0
  0
LINE
  5
155
330
1F
100
AcDbEntity
  8
0
  6
Continuous
 62
     7
370
    25
100
AcDbLine
 10
402.6469765999
 20
192.0374626866
 30
0.0
 11
402.6469765999
 21
432.0374626866
 31
0.0
  0
LINE
  5
156
330
1F
100
AcDbEntity
  8
0
  6
Continuous
 62
     7
370
    25
100
AcDbLine
 10
403.9168139767
 20
432.0374626866
 30
0.0
 11
402.6469765999
 21
432.0374626866
 31
0.0
  0
LINE
  5
157
330
1F
100
AcDbEntity
  8
0
  6
Continuous
 62
     7
370
    25
100
AcDbLine
 10
279.2455223875
 20
138.6360084741
 30
0.0
 11
349.2455223875
 21
138.6360084741
 31
0.0
  0
LINE
  5
158
330
1F
100
AcDbEntity
  8
0
  6
Continuous
 62
     7
370
    25
100
AcDbLine
 10
279.2455223875
 20
138.6360084741
 30
0.0
 11
279.2455223875
 21
137.3661710973
 31
0.0
  0
ARC
  5
159
330
1F
100
AcDbEntity
  8
0
  6
Continuous
 62
     7
370
    25
100
AcDbCircle
 10
349.2455223875
 20
432.0374626866
 30
0.0
 40
53.40145421243204
100
AcDbArc
 50
360.0
 51
90.0
  0
LINE
  5
15A
330
1F
100
AcDbEntity
  8
0
  6
Continuous
 62
     7
370
    25
100
AcDbLine
 10
349.2455223875
 20
486.7087542758
 30
0.0
 11
349.2455223875
 21
485.438916899
 31
0.0
  0
LINE
  5
15B
330
1F
100
AcDbEntity
  8
0
  6
Continuous
 62
     7
370
    25
100
AcDbLine
 10
349.2455223875
 20
485.438916899
 30
0.0
 11
279.2455223875
 21
485.438916899
 31
0.0
  0
LINE
  5
15C
330
1F
100
AcDbEntity
  8
0
  6
Continuous
 62
     7
370
    25
100
AcDbLine
 10
279.2455223875
 20
486.7087542758
 30
0.0
 11
279.2455223875
 21
485.438916899
 31
0.0
  0
ARC
  5
15D
330
1F
100
AcDbEntity
  8
0
  6
Continuous
 62
     7
370
    25
100
AcDbCircle
 10
279.2455223875
 20
192.0374626866
 30
0.0
 40
53.40145421243196
100
AcDbArc
 50
180.0
 51
270.0
  0
LINE
  5
15E
330
1F
100
AcDbEntity
  8
0
  6
Continuous
 62
     7
370
    25
100
AcDbLine
 10
225.8440681751
 20
192.0374626866
 30
0.0
 11
224.5742307983
 21
192.0374626866
 31
0.0
  0
LINE
  5
15F
330
1F
100
AcDbEntity
  8
0
  6
Continuous
 62
     7
370
    25
100
AcDbLine
 10
225.8440681751
 20
432.0374626866
 30
0.0
 11
225.8440681751
 21
192.0374626866
 31
0.0
  0
LINE
  5
160
330
1F
100
AcDbEntity
  8
0
  6
Continuous
 62
     7
370
    25
100
AcDbLine
 10
224.5742307983
 20
432.0374626866
 30
0.0
 11
225.8440681751
 21
432.0374626866
 31
0.0
  0
ARC
  5
161
330
1F
100
AcDbEntity
  8
0
  6
Continuous
 62
     7
370
    25
100
AcDbCircle
 10
279.2455223875
 20
432.0374626866
 30
0.0
 40
53.40145421243204
100
AcDbArc
 50
90.0
 51
180.0
  0
LINE
  5
162
330
1F
100
AcDbEntity
  8
0
  6
Continuous
 62
     7
370
    25
100
AcDbLine
 10
349.2455223875
 20
482.0374626866
 30
0.0
 11
279.2455223875
 21
482.0374626866
 31
0.0
  0
LINE
  5
163
330
1F
100
AcDbEntity
  8
0
  6
Continuous
 62
     7
370
    25
100
AcDbLine
 10
279.2455223875
 20
485.438916899
 30
0.0
 11
279.2455223875
 21
482.0374626866
 31
0.0
  0
LINE
  5
164
330
1F
100
AcDbEntity
  8
0
  6
Continuous
 62
     7
370
    25
100
AcDbLine
 10
349.2455223875
 20
485.438916899
 30
0.0
 11
349.2455223875
 21
482.0374626866
 31
0.0
  0
ARC
  5
165
330
1F
100
AcDbEntity
  8
0
  6
Continuous
 62
     7
370
    25
100
AcDbCircle
 10
349.2455223875
 20
432.0374626866
 30
0.0
 40
49.99999999999994
100
AcDbArc
 50
0.0
 51
90.0
  0
LINE
  5
166
330
1F
100
AcDbEntity
  8
0
  6
Continuous
 62
     7
370
    25
100
AcDbLine
 10
402.6469765999
 20
432.0374626866
 30
0.0
 11
399.2455223875
 21
432.0374626866
 31
0.0
  0
LINE
  5
167
330
1F
100
AcDbEntity
  8
0
  6
Continuous
 62
     7
370
    25
100
AcDbLine
 10
279.2455223875
 20
142.0374626866
 30
0.0
 11
349.2455223875
 21
142.0374626866
 31
0.0
  0
LINE
  5
168
330
1F
100
AcDbEntity
  8
0
  6
Continuous
 62
     7
370
    25
100
AcDbLine
 10
349.2455223875
 20
142.0374626866
 30
0.0
 11
349.2455223875
 21
138.6360084741
 31
0.0
  0
LINE
  5
169
330
1F
100
AcDbEntity
  8
0
  6
Continuous
 62
     7
370
    25
100
AcDbLine
 10
279.2455223875
 20
142.0374626866
 30
0.0
 11
279.2455223875
 21
138.6360084741
 31
0.0
  0
ARC
  5
16A
330
1F
100
AcDbEntity
  8
0
  6
Continuous
 62
     7
370
    25
100
AcDbCircle
 10
349.2455223875
 20
192.0374626866
 30
0.0
 40
49.99999999999994
100
AcDbArc
 50
270.0
 51
0.0
  0
LINE
  5
16B
330
1F
100
AcDbEntity
  8
0
  6
Continuous
 62
     7
370
    25
100
AcDbLine
 10
399.2455223875
 20
192.0374626866
 30
0.0
 11
402.6469765999
 21
192.0374626866
 31
0.0
  0
LINE
  5
16C
330
1F
100
AcDbEntity
  8
0
  6
Continuous
 62
     7
370
    25
100
AcDbLine
 10
399.2455223875
 20
192.0374626866
 30
0.0
 11
399.2455223875
 21
432.0374626866
 31
0.0
  0
ARC
  5
16D
330
1F
100
AcDbEntity
  8
0
  6
Continuous
 62
     7
370
    25
100
AcDbCircle
 10
279.2455223875
 20
432.0374626866
 30
0.0
 40
49.99999999999994
100
AcDbArc
 50
90.0
 51
180.0
  0
LINE
  5
16E
330
1F
100
AcDbEntity
  8
0
  6
Continuous
 62
     7
370
    25
100
AcDbLine
 10
225.8440681751
 20
432.0374626866
 30
0.0
 11
229.2455223875
 21
432.0374626866
 31
0.0
  0
LINE
  5
16F
330
1F
100
AcDbEntity
  8
0
  6
Continuous
 62
     7
370
    25
100
AcDbLine
 10
229.2455223875
 20
432.0374626866
 30
0.0
 11
229.2455223875
 21
192.0374626866
 31
0.0
  0
LINE
  5
170
330
1F
100
AcDbEntity
  8
0
  6
Continuous
 62
     7
370
    25
100
AcDbLine
 10
229.2455223875
 20
192.0374626866
 30
0.0
 11
225.8440681751
 21
192.0374626866
 31
0.0
  0
ARC
  5
171
330
1F
100
AcDbEntity
  8
0
  6
Continuous
 62
     7
370
    25
100
AcDbCircle
 10
279.2455223875
 20
192.0374626866
 30
0.0
 40
49.99999999999994
100
AcDbArc
 50
180.0
 51
270.0
  0
LINE
  5
172
330
1F
100
AcDbEntity
  8
0
  6
Continuous
 62
     7
370
    25
100
AcDbLine
 10
399.2455223875
 20
192.0374626866
 30
0.0
 11
394.9735458999
 21
192.0374626866
 31
0.0
  0
SPLINE
  5
173
330
1F
100
AcDbEntity
  8
0
  6
Continuous
 62
     7
370
    25
100
AcDbSpline
210
0.0
220
0.0
230
1.0
 70
     8
 71
     3
 72
    25
 73
    21
 74
     0
 42
0.000000001
 43
0.00000001
 40
0.0
 40
0.0
 40
0.0
 40
0.0
 40
0.0314167636262302
 40
0.0642433133203148
 40
0.0984799227401768
 40
0.1341268330690625
 40
0.1711842579539589
 40
0.209652387540406
 40
0.2495313917949556
 40
0.2871160184955233
 40
0.3704394832816418
 40
0.4995017968526417
 40
0.5761266245921046
 40
0.6487319589539838
 40
0.7173184269090342
 40
0.7818867725002646
 40
0.8424378878934097
 40
0.8989728554398504
 40
0.9514930057898429
 40
1.0
 40
1.0
 40
1.0
 40
1.0
 10
394.1540992184036
 20
276.469853095976
 30
0.0
 10
394.161798680279
 20
275.5849913469217
 30
0.0
 10
394.1775431072844
 20
273.7755608382301
 30
0.0
 10
394.2030832767156
 20
271.002553966539
 30
0.0
 10
394.2306406672511
 20
268.1109380743942
 30
0.0
 10
394.260319316685
 20
265.1007719699099
 30
0.0
 10
394.2920460433673
 20
261.9720267835503
 30
0.0
 10
394.3258926843974
 20
258.7247575397834
 30
0.0
 10
394.3604048320838
 20
255.4630149153055
 30
0.0
 10
394.4104646897713
 20
250.9407009895313
 30
0.0
 10
394.4877547929782
 20
243.9099650475248
 30
0.0
 10
394.5769647186855
 20
235.7816524625385
 30
0.0
 10
394.6607295769803
 20
227.9539682399042
 30
0.0
 10
394.7233107006891
 20
221.8257503687506
 30
0.0
 10
394.7798233767342
 20
216.0354010524024
 30
0.0
 10
394.8302629034129
 20
210.5828494120453
 30
0.0
 10
394.8747898999686
 20
205.468124157191
 30
0.0
 10
394.9133631259847
 20
200.6911711049045
 30
0.0
 10
394.9464756785756
 20
196.25214826928
 30
0.0
 10
394.9647646605067
 20
193.4046536895016
 30
0.0
 10
394.9735458998905
 20
192.0374626865674
 30
0.0
  0
SPLINE
  5
174
330
1F
100
AcDbEntity
  8
0
  6
Continuous
 62
     7
370
    25
100
AcDbSpline
210
0.0
220
0.0
230
1.0
 70
     8
 71
     3
 72
    42
 73
    38
 74
     0
 42
0.000000001
 43
0.00000001
 40
0.0
 40
0.0
 40
0.0
 40
0.0
 40
0.0123702037939321
 40
0.0251064598754522
 40
0.0382102098071258
 40
0.0516827771866776
 40
0.0655253798158109
 40
0.0797391403852796
 40
0.0943250958812534
 40
0.1092842058868974
 40
0.1246173599269874
 40
0.1554402018084222
 40
0.1972495796990388
 40
0.2500475832940109
 40
0.2797721325525302
 40
0.3071697472592734
 40
0.332242132140625
 40
0.3549915146533045
 40
0.3754208821141799
 40
0.4196743681011428
 40
0.461139029594886
 40
0.4998797205681604
 40
0.5589990386017297
 40
0.6243482548032613
 40
0.6798118452766795
 40
0.7497803740273064
 40
0.777585568432785
 40
0.8026363551464076
 40
0.8249328769594115
 40
0.8444753370375038
 40
0.8612640385306428
 40
0.8752994630250097
 40
0.9026491973583213
 40
0.92878796098922
 40
0.9537214586520538
 40
0.9774562641656869
 40
0.9999999999999999
 40
0.9999999999999999
 40
0.9999999999999999
 40
0.9999999999999999
 10
394.153392212132
 20
347.6022622223472
 30
0.0
 10
394.1507179228806
 20
347.3071370196502
 30
0.0
 10
394.1452902082767
 20
346.708153431087
 30
0.0
 10
394.1352627227274
 20
345.7974673447886
 30
0.0
 10
394.1237203131674
 20
344.8612803497711
 30
0.0
 10
394.1105191314001
 20
343.8996555334115
 30
0.0
 10
394.0956919683585
 20
342.9125741443557
 30
0.0
 10
394.079219419251
 20
341.9000424420843
 30
0.0
 10
394.0611029418976
 20
340.8620518193327
 30
0.0
 10
394.0413090599982
 20
339.7986287643455
 30
0.0
 10
394.012894810925
 20
338.3518594074574
 30
0.0
 10
393.9679949094228
 20
336.273582271222
 30
0.0
 10
393.9003127867936
 20
333.3140285487406
 30
0.0
 10
393.8301491347499
 20
330.3834632910937
 30
0.0
 10
393.7682474201117
 20
327.7919439787168
 30
0.0
 10
393.7240932113446
 20
325.8513763884474
 30
0.0
 10
393.6856103781132
 20
324.073224312227
 30
0.0
 10
393.6529327356553
 20
322.4573679620378
 30
0.0
 10
393.6147749222582
 20
320.3838212043333
 30
0.0
 10
393.576976492143
 20
317.8588942454095
 30
0.0
 10
393.5481045755668
 20
314.8891085799953
 30
0.0
 10
393.5360150410487
 20
311.5577108426991
 30
0.0
 10
393.557460562396
 20
307.6550852174938
 30
0.0
 10
393.6170664093164
 20
303.3708224285454
 30
0.0
 10
393.7082515220201
 20
298.8532137274634
 30
0.0
 10
393.7929986645159
 20
295.2381300872548
 30
0.0
 10
393.8627456190424
 20
292.3434698898973
 30
0.0
 10
393.9043942612421
 20
290.571278084109
 30
0.0
 10
393.9408302446986
 20
288.9933405477625
 30
0.0
 10
393.9719970158912
 20
287.609522023024
 30
0.0
 10
393.9980055852313
 20
286.4198937322777
 30
0.0
 10
394.0267214124789
 20
285.0444620270738
 30
0.0
 10
394.0574684462221
 20
283.445313963181
 30
0.0
 10
394.0896430276138
 20
281.5847826963836
 30
0.0
 10
394.1163382565105
 20
279.8066910182121
 30
0.0
 10
394.1381255745766
 20
278.1113084707216
 30
0.0
 10
394.1485546064637
 20
277.0073922175677
 30
0.0
 10
394.1536349165387
 20
276.4696398237054
 30
0.0
  0
SPLINE
  5
175
330
1F
100
AcDbEntity
  8
0
  6
Continuous
 62
     7
370
    25
100
AcDbSpline
210
0.0
220
0.0
230
1.0
 70
     8
 71
     3
 72
    32
 73
    28
 74
     0
 42
0.000000001
 43
0.00000001
 40
0.0
 40
0.0
 40
0.0
 40
0.0
 40
0.0272256991636109
 40
0.0557621307701697
 40
0.0856096546837977
 40
0.1167685853420127
 40
0.1492391990843152
 40
0.1830217400617088
 40
0.2181164250442701
 40
0.2545234473642723
 40
0.2922429801747441
 40
0.3312751791611976
 40
0.3716201848129728
 40
0.413278124337278
 40
0.4562491132812594
 40
0.5005332569139463
 40
0.5833854584433351
 40
0.649808766319803
 40
0.6998031812923139
 40
0.73336870521849
 40
0.7505053453111418
 40
0.7968970363774961
 40
0.8413646142666783
 40
0.8839083571727447
 40
0.9245285828168737
 40
0.963225656299249
 40
1.0
 40
1.0
 40
1.0
 40
1.0
 10
394.9735458998905
 20
432.0374626865668
 30
0.0
 10
394.9687090107561
 20
431.2700307344308
 30
0.0
 10
394.9588023691376
 20
429.6982201956072
 30
0.0
 10
394.942096122052
 20
427.285682475655
 30
0.0
 10
394.9236119076011
 20
424.7627489503014
 30
0.0
 10
394.9032146454434
 20
422.1294667054634
 30
0.0
 10
394.8809263643486
 20
419.3858218977778
 30
0.0
 10
394.8567226785007
 20
416.5318181958445
 30
0.0
 10
394.8305909842981
 20
413.5674543246357
 30
0.0
 10
394.8025137987895
 20
410.4927304933797
 30
0.0
 10
394.7724737343436
 20
407.3076464043319
 30
0.0
 10
394.7404511381958
 20
404.012202409881
 30
0.0
 10
394.7064284692536
 20
400.6063968229091
 30
0.0
 10
394.6703745072872
 20
397.0902359099211
 30
0.0
 10
394.6323057719962
 20
393.4636949052887
 30
0.0
 10
394.5807569587257
 20
388.6789815305663
 30
0.0
 10
394.5212449318043
 20
383.2349211203589
 30
0.0
 10
394.4597688373952
 20
377.6301031360493
 30
0.0
 10
394.4132867457359
 20
373.4115293462498
 30
0.0
 10
394.382013294736
 20
370.5792035499217
 30
0.0
 10
394.3520417024111
 20
367.8480539929126
 30
0.0
 10
394.3199845163047
 20
364.8094102277033
 30
0.0
 10
394.281059502877
 20
361.0554219180672
 30
0.0
 10
394.2450281445525
 20
357.4630849797279
 30
0.0
 10
394.2118466445647
 20
354.0324507492348
 30
0.0
 10
394.1814123916087
 20
350.7635780171922
 30
0.0
 10
394.1628683267289
 20
348.637847409623
 30
0.0
 10
394.1538325110394
 20
347.6020599433789
 30
0.0
  0
LINE
  5
176
330
1F
100
AcDbEntity
  8
0
  6
Continuous
 62
     7
370
    25
100
AcDbLine
 10
399.2455223875
 20
432.0374626866
 30
0.0
 11
394.9758184678
 21
432.0374626866
 31
0.0
  0
SPLINE
  5
177
330
1F
100
AcDbEntity
  8
0
  6
Continuous
 62
     7
370
    25
100
AcDbSpline
210
0.0
220
0.0
230
1.0
 70
     8
 71
     3
 72
   103
 73
    99
 74
     0
 42
0.000000001
 43
0.00000001
 40
0.0
 40
0.0
 40
0.0
 40
0.0
 40
0.0094504019197965
 40
0.0189213476213918
 40
0.0284128320334708
 40
0.0379248500265169
 40
0.0474573964128382
 40
0.0570104659465878
 40
0.0665840533237891
 40
0.0761781531823523
 40
0.08579276010209
 40
0.0954278686047362
 40
0.1050834731539558
 40
0.1147595681553548
 40
0.1244561479564925
 40
0.1341732068468828
 40
0.1439107390580044
 40
0.1536687387632977
 40
0.1634472000781698
 40
0.1732461170599903
 40
0.1830654837080892
 40
0.1929052939637499
 40
0.2027655417102036
 40
0.2126462207726187
 40
0.2225473249180884
 40
0.2324688478556211
 40
0.2424107832361208
 40
0.2523731246523725
 40
0.2623558656390242
 40
0.2723589996725624
 40
0.2823825201712926
 40
0.2924264204953143
 40
0.3024906939464931
 40
0.3125753337684327
 40
0.3226803331464467
 40
0.3328056852075238
 40
0.3429513830202961
 40
0.3531174195950036
 40
0.3633037878834552
 40
0.3735104807789907
 40
0.3837374911164408
 40
0.3939848116720808
 40
0.4042524351635913
 40
0.4145403542500097
 40
0.424848561531679
 40
0.435177049550204
 40
0.4455258107883971
 40
0.4558948376702236
 40
0.4662841225607502
 40
0.4766936577660861
 40
0.4871234355333264
 40
0.4975734480504905
 40
0.5080436874464629
 40
0.5185341457909284
 40
0.5290448150943072
 40
0.53957568730769
 40
0.5501267543227675
 40
0.5606980079717632
 40
0.5712894400273605
 40
0.5819010422026286
 40
0.5925328061509526
 40
0.6031847234659504
 40
0.6138567856814011
 40
0.6245489842711617
 40
0.6352613106490884
 40
0.6459937561689524
 40
0.6567463121243567
 40
0.6675189697486511
 40
0.6783117202148429
 40
0.6891245546355096
 40
0.699957464062709
 40
0.7108104394878866
 40
0.7216834718417806
 40
0.7325765519943311
 40
0.7434896707545794
 40
0.7544228188705718
 40
0.7653759870292611
 40
0.7763491658564035
 40
0.787342345916459
 40
0.798355517712484
 40
0.8093886716860279
 40
0.8204417982170262
 40
0.8315148876236921
 40
0.8426079301624051
 40
0.8537209160276023
 40
0.864853835351663
 40
0.8760066782047955
 40
0.8871794345949227
 40
0.8983720944675623
 40
0.9095846477057106
 40
0.9208170841297214
 40
0.932069393497185
 40
0.9433415655028037
 40
0.9546335897782702
 40
0.9659454558921406
 40
0.9772771533497063
 40
0.988628671592867
 40
1.0
 40
1.0
 40
1.0
 40
1.0
 10
349.2455223875063
 20
477.871766517828
 30
0.0
 10
349.4722081390359
 20
477.8709964615698
 30
0.0
 10
349.9260724235299
 20
477.8694546750646
 30
0.0
 10
350.6074708583845
 20
477.8542607165138
 30
0.0
 10
351.2900530847975
 20
477.829565070883
 30
0.0
 10
351.9736645742863
 20
477.794381317231
 30
0.0
 10
352.6581476053555
 20
477.7489002427839
 30
0.0
 10
353.3433429571014
 20
477.6929990915019
 30
0.0
 10
354.0290894893686
 20
477.6266423683028
 30
0.0
 10
354.7152242924424
 20
477.5497741568751
 30
0.0
 10
355.4015826850502
 20
477.4623471270592
 30
0.0
 10
356.0879982545575
 20
477.3643147978078
 30
0.0
 10
356.7743028872476
 20
477.2556336772496
 30
0.0
 10
357.4603268026991
 20
477.1362627473868
 30
0.0
 10
358.1458985885031
 20
477.0061636622581
 30
0.0
 10
358.8308452363333
 20
476.8653007539564
 30
0.0
 10
359.5149921791058
 20
476.7136410899165
 30
0.0
 10
360.1981633293008
 20
476.5511545159983
 30
0.0
 10
360.8801811184349
 20
476.3778137029435
 30
0.0
 10
361.560866537688
 20
476.1935941914414
 30
0.0
 10
362.2400391796883
 20
475.9984744370552
 30
0.0
 10
362.9175172814583
 20
475.7924358546403
 30
0.0
 10
363.5931177685194
 20
475.5754628623174
 30
0.0
 10
364.2666563001614
 20
475.347542924951
 30
0.0
 10
364.9379473158734
 20
475.1086665971149
 30
0.0
 10
365.6068040829372
 20
474.8588275655116
 30
0.0
 10
366.2730387451828
 20
474.5980226908216
 30
0.0
 10
366.9364623729054
 20
474.3262520489558
 30
0.0
 10
367.5968850139395
 20
474.0435189716771
 30
0.0
 10
368.2541157458913
 20
473.7498300865737
 30
0.0
 10
368.907962729524
 20
473.4451953563432
 30
0.0
 10
369.5582332632929
 20
473.1296281173711
 30
0.0
 10
370.2047338390266
 20
472.8031451175643
 30
0.0
 10
370.8472701987492
 20
472.4657665534187
 30
0.0
 10
371.4856473926379
 20
472.1175161062882
 30
0.0
 10
372.1196698381107
 20
471.7584209778254
 30
0.0
 10
372.749141380036
 20
471.3885119245664
 30
0.0
 10
373.3738653520577
 20
471.0078232916296
 30
0.0
 10
373.9936446390285
 20
470.6163930454983
 30
0.0
 10
374.6082817405406
 20
470.2142628058575
 30
0.0
 10
375.2175788355453
 20
469.8014778764556
 30
0.0
 10
375.8213378480528
 20
469.3780872749605
 30
0.0
 10
376.4193605138987
 20
468.944143761781
 30
0.0
 10
377.0114484485673
 20
468.4997038678216
 30
0.0
 10
377.5974032160585
 20
468.0448279211416
 30
0.0
 10
378.1770263987875
 20
467.5795800724911
 30
0.0
 10
378.7501196684989
 20
467.1040283196875
 30
0.0
 10
379.3164848581853
 20
466.6182445308087
 30
0.0
 10
379.8759240349933
 20
466.1223044661689
 30
0.0
 10
380.428239574099
 20
465.6162877990487
 30
0.0
 10
380.9732342335402
 20
465.1002781351499
 30
0.0
 10
381.5107112299834
 20
464.5743630307416
 30
0.0
 10
382.0404743154098
 20
464.0386340094738
 30
0.0
 10
382.5623278547
 20
463.4931865778219
 30
0.0
 10
383.0760769040994
 20
462.9381202391395
 30
0.0
 10
383.581527290538
 20
462.3735385062822
 30
0.0
 10
384.0784856917916
 20
461.7995489127809
 30
0.0
 10
384.5667597174531
 20
461.2162630225306
 30
0.0
 10
385.0461579906964
 20
460.6237964379656
 30
0.0
 10
385.5164902308071
 20
460.0222688066963
 30
0.0
 10
385.9775673364546
 20
459.4118038265748
 30
0.0
 10
386.4292014696808
 20
458.7925292491643
 30
0.0
 10
386.8712061405771
 20
458.1645768815817
 30
0.0
 10
387.3033962926245
 20
457.5280825866877
 30
0.0
 10
387.7255883886679
 20
456.8831862815973
 30
0.0
 10
388.1376004974948
 20
456.2300319344823
 30
0.0
 10
388.5392523809866
 20
455.5687675596383
 30
0.0
 10
388.9303655818194
 20
454.8995452107959
 30
0.0
 10
389.3107635116712
 20
454.2225209726413
 30
0.0
 10
389.6802715399131
 20
453.5378549505282
 30
0.0
 10
390.0387170827466
 20
452.8457112583541
 30
0.0
 10
390.3859296927525
 20
452.1462580045744
 30
0.0
 10
390.7217411488185
 20
451.4396672763329
 30
0.0
 10
391.0459855464098
 20
450.7261151216852
 30
0.0
 10
391.3584993881423
 20
450.00578152989
 30
0.0
 10
391.6591216746269
 20
449.2788504097497
 30
0.0
 10
391.9476939955429
 20
448.545509565974
 30
0.0
 10
392.2240606209001
 20
447.8059506735497
 30
0.0
 10
392.4880685924559
 20
447.0603692500944
 30
0.0
 10
392.7395678152381
 20
446.3089646261733
 30
0.0
 10
392.978411149142
 20
445.5519399135636
 30
0.0
 10
393.2044545005452
 20
444.7895019714433
 30
0.0
 10
393.4175569139325
 20
444.0218613704911
 30
0.0
 10
393.6175806633653
 20
443.2492323548788
 30
0.0
 10
393.8043913442045
 20
442.4718328021389
 30
0.0
 10
393.9778579633414
 20
441.6898841808988
 30
0.0
 10
394.1378530342598
 20
440.9036115064424
 30
0.0
 10
394.2842526530374
 20
440.1132432941795
 30
0.0
 10
394.4169366444845
 20
439.3190115106581
 30
0.0
 10
394.5357884443976
 20
438.5211515234255
 30
0.0
 10
394.6406959676218
 20
437.7199020448011
 30
0.0
 10
394.731548785351
 20
436.9155050879783
 30
0.0
 10
394.8082491109943
 20
436.1082058664996
 30
0.0
 10
394.8706711128872
 20
435.2982528950915
 30
0.0
 10
394.9188135809648
 20
434.4858973264526
 30
0.0
 10
394.9522290808393
 20
433.6713951364273
 30
0.0
 10
394.9721603949225
 20
432.854998640257
 30
0.0
 10
394.9730837965553
 20
432.310133012169
 30
0.0
 10
394.9735458998904
 20
432.0374626865668
 30
0.0
  0
LINE
  5
178
330
1F
100
AcDbEntity
  8
0
  6
Continuous
 62
     7
370
    25
100
AcDbLine
 10
349.2455223875
 20
482.0374626866
 30
0.0
 11
349.2455223875
 21
477.8717665178
 31
0.0
  0
SPLINE
  5
179
330
1F
100
AcDbEntity
  8
0
  6
Continuous
 62
     7
370
    25
100
AcDbSpline
210
0.0
220
0.0
230
1.0
 70
     8
 71
     3
 72
     9
 73
     5
 74
     0
 42
0.000000001
 43
0.00000001
 40
0.0
 40
0.0
 40
0.0
 40
0.0
 40
0.5
 40
1.0
 40
1.0
 40
1.0
 40
1.0
 10
279.245522387507
 20
477.871766517828
 30
0.0
 10
290.9121890541736
 20
477.8531915012541
 30
0.0
 10
314.2455223875066
 20
477.8337301218158
 30
0.0
 10
337.5788557208397
 20
477.8531915012542
 30
0.0
 10
349.2455223875063
 20
477.871766517828
 30
0.0
  0
LINE
  5
17A
330
1F
100
AcDbEntity
  8
0
  6
Continuous
 62
     7
370
    25
100
AcDbLine
 10
279.2455223875
 20
482.0374626866
 30
0.0
 11
279.2455223875
 21
477.8717665178
 31
0.0
  0
LINE
  5
17B
330
1F
100
AcDbEntity
  8
0
  6
Continuous
 62
     7
370
    25
100
AcDbLine
 10
229.2455223875
 20
432.0374626866
 30
0.0
 11
233.5174988751
 21
432.0374626866
 31
0.0
  0
SPLINE
  5
17C
330
1F
100
AcDbEntity
  8
0
  6
Continuous
 62
     7
370
    25
100
AcDbSpline
210
0.0
220
0.0
230
1.0
 70
     8
 71
     3
 72
    25
 73
    21
 74
     0
 42
0.000000001
 43
0.00000001
 40
0.0
 40
0.0
 40
0.0
 40
0.0
 40
0.0314012993362682
 40
0.0642157928234163
 40
0.0984437549546319
 40
0.1340854275657561
 40
0.171141024813743
 40
0.2096107372420224
 40
0.2494947351264649
 40
0.2871925030598564
 40
0.3705165471834488
 40
0.4994668784560438
 40
0.5761016449609193
 40
0.6487153227829534
 40
0.7173085398970661
 40
0.7818820415750874
 40
0.8424367215062929
 40
0.8989736639591999
 40
0.9514942020376247
 40
1.0
 40
1.0
 40
1.0
 40
1.0
 10
234.3372122640769
 20
347.6020599449168
 30
0.0
 10
234.3295160277594
 20
348.4865190465593
 30
0.0
 10
234.3137771912358
 20
350.2952417310458
 30
0.0
 10
234.2882417293605
 20
353.0673319562474
 30
0.0
 10
234.2606848663549
 20
355.9583228039895
 30
0.0
 10
234.2310023878912
 20
358.9681553796369
 30
0.0
 10
234.199267461333
 20
362.0968585128601
 30
0.0
 10
234.165408759991
 20
365.3443774554677
 30
0.0
 10
234.1308480826408
 20
368.6096036228387
 30
0.0
 10
234.0807372416004
 20
373.1354181329125
 30
0.0
 10
234.0034162299122
 20
380.1664482997417
 30
0.0
 10
233.9142023688635
 20
388.2921903704982
 30
0.0
 10
233.8304316224612
 20
396.1175117180643
 30
0.0
 10
233.7678190444755
 20
402.2466491502241
 30
0.0
 10
233.7112799735519
 20
408.0377731752154
 30
0.0
 10
233.6608190980424
 20
413.4909547740657
 30
0.0
 10
233.6162756041762
 20
418.6061652010199
 30
0.0
 10
233.5776907756128
 20
423.3834587080651
 30
0.0
 10
233.544570958782
 20
427.8226771031998
 30
0.0
 10
233.52628061979
 20
430.6702546324292
 30
0.0
 10
233.5174988751224
 20
432.0374626865669
 30
0.0
  0
SPLINE
  5
17D
330
1F
100
AcDbEntity
  8
0
  6
Continuous
 62
     7
370
    25
100
AcDbSpline
210
0.0
220
0.0
230
1.0
 70
     8
 71
     3
 72
    42
 73
    38
 74
     0
 42
0.000000001
 43
0.00000001
 40
0.0
 40
0.0
 40
0.0
 40
0.0
 40
0.0123759712413521
 40
0.0251188828850528
 40
0.0382301801699402
 40
0.0517111898564305
 40
0.0655631324704634
 40
0.0797871330518133
 40
0.0943842306138038
 40
0.1093553864900336
 40
0.1247014917172937
 40
0.1555222558041524
 40
0.1973611752322775
 40
0.2502203342989427
 40
0.2799435200536295
 40
0.3073465855240223
 40
0.3324312479577062
 40
0.3551997491852161
 40
0.375655092580133
 40
0.4199151215913857
 40
0.4613863876066845
 40
0.5001338650961765
 40
0.559243083412126
 40
0.6245824745898768
 40
0.6799954206721889
 40
0.7499531411821622
 40
0.7777219420561395
 40
0.8027449832083403
 40
0.8250224080621855
 40
0.844554420524774
 40
0.8613413245478702
 40
0.8753836023423734
 40
0.9027106755346622
 40
0.9288297069271017
 40
0.9537463906930901
 40
0.9774672868885844
 40
1.0
 40
1.0
 40
1.0
 40
1.0
 10
234.3374098615218
 20
276.4696401784998
 30
0.0
 10
234.3400854767568
 20
276.7649029273505
 30
0.0
 10
234.3455160376738
 20
277.3641827950925
 30
0.0
 10
234.3555508991559
 20
278.2753435467446
 30
0.0
 10
234.3671032642857
 20
279.2120675255179
 30
0.0
 10
234.3803172400805
 20
280.1742915329122
 30
0.0
 10
234.3951599794297
 20
281.1620343594458
 30
0.0
 10
234.4116509371597
 20
282.1752897273391
 30
0.0
 10
234.4297886347473
 20
283.2140662925153
 30
0.0
 10
234.4496067211758
 20
284.2783373962445
 30
0.0
 10
234.4780430205031
 20
285.7256373942142
 30
0.0
 10
234.5229828605705
 20
287.804847328965
 30
0.0
 10
234.5907349461901
 20
290.7664656480255
 30
0.0
 10
234.6609680512363
 20
293.6991139111218
 30
0.0
 10
234.7229170791234
 20
296.2921597842764
 30
0.0
 10
234.7670792828573
 20
298.2331154381595
 30
0.0
 10
234.8055732873456
 20
300.0121474268063
 30
0.0
 10
234.8382646323377
 20
301.6293763061556
 30
0.0
 10
234.8764207375984
 20
303.704170109776
 30
0.0
 10
234.914195564323
 20
306.2300558881152
 30
0.0
 10
234.9430137295734
 20
309.2003462878506
 30
0.0
 10
234.9550163162621
 20
312.5318395196145
 30
0.0
 10
234.9334755523354
 20
316.4341209429906
 30
0.0
 10
234.8738273714426
 20
320.7166555301076
 30
0.0
 10
234.7826323814332
 20
325.2325292693424
 30
0.0
 10
234.6979442599372
 20
328.8453074593411
 30
0.0
 10
234.6282573721751
 20
331.7382222517064
 30
0.0
 10
234.5866657615692
 20
333.5084642758023
 30
0.0
 10
234.5502722635414
 20
335.0850638924799
 30
0.0
 10
234.5191331475476
 20
336.4681557069945
 30
0.0
 10
234.4931379383909
 20
337.6576689351684
 30
0.0
 10
234.4644429270248
 20
339.0326979040321
 30
0.0
 10
234.4337242609841
 20
340.6310168928423
 30
0.0
 10
234.401587338427
 20
342.4901561426117
 30
0.0
 10
234.3749201432495
 20
344.2670569307585
 30
0.0
 10
234.3531525959464
 20
345.9614504920137
 30
0.0
 10
234.3427299937626
 20
347.0647725206019
 30
0.0
 10
234.3376525628681
 20
347.6022622238319
 30
0.0
  0
SPLINE
  5
17E
330
1F
100
AcDbEntity
  8
0
  6
Continuous
 62
     7
370
    25
100
AcDbSpline
210
0.0
220
0.0
230
1.0
 70
     8
 71
     3
 72
    32
 73
    28
 74
     0
 42
0.000000001
 43
0.00000001
 40
0.0
 40
0.0
 40
0.0
 40
0.0
 40
0.0272265760406193
 40
0.0557633679009775
 40
0.0856107347322805
 40
0.1167689903660282
 40
0.1492384106227536
 40
0.1830192392060126
 40
0.2181116924976868
 40
0.2545159634913186
 40
0.2922322250427935
 40
0.3312606325756663
 40
0.3716013263472838
 40
0.4132544333585085
 40
0.4562200689722272
 40
0.5004983382923034
 40
0.5834312976221712
 40
0.6498948106190183
 40
0.6998888780112631
 40
0.7334135016098255
 40
0.7504686884844162
 40
0.7968548806889866
 40
0.8413216039505869
 40
0.883869135939005
 40
0.9244977936732589
 40
0.9632079413166287
 40
1.0
 40
1.0
 40
1.0
 40
1.0
 10
233.5174988751224
 20
192.0374626865675
 30
0.0
 10
233.5223356156871
 20
192.8048908237031
 30
0.0
 10
233.5322418537375
 20
194.3766777970195
 30
0.0
 10
233.5489457961605
 20
196.7891569218964
 30
0.0
 10
233.5674262906246
 20
199.3119845456665
 30
0.0
 10
233.5878182709602
 20
201.9451136342654
 30
0.0
 10
233.6100997332054
 20
204.6885580148322
 30
0.0
 10
233.6342950354573
 20
207.5423140227088
 30
0.0
 10
233.6604167665033
 20
210.5063829311701
 30
0.0
 10
233.6884823882925
 20
213.5807645310545
 30
0.0
 10
233.7185092669534
 20
216.765459119623
 30
0.0
 10
233.7505170309075
 20
220.0604663447545
 30
0.0
 10
233.7845231974937
 20
223.4657878916331
 30
0.0
 10
233.8205589517381
 20
226.9814175006212
 30
0.0
 10
233.8586077747575
 20
230.6073799095614
 30
0.0
 10
233.9101566120412
 20
235.3938823506509
 30
0.0
 10
233.9696799067771
 20
240.8409902480414
 30
0.0
 10
234.0311693052488
 20
246.449005038726
 30
0.0
 10
234.0776340489649
 20
250.6674016145878
 30
0.0
 10
234.1088586257304
 20
253.4961764760796
 30
0.0
 10
234.1387829473196
 20
256.2236318227323
 30
0.0
 10
234.1708013700983
 20
259.2596982287191
 30
0.0
 10
234.2097137646771
 20
263.0134799025775
 30
0.0
 10
234.245737521603
 20
266.6060076112171
 30
0.0
 10
234.2789175535949
 20
270.037229412816
 30
0.0
 10
234.3093559408943
 20
273.3070868094185
 30
0.0
 10
234.3279061053254
 20
275.4336055546261
 30
0.0
 10
234.3369455595552
 20
276.4698534508318
 30
0.0
  0
LINE
  5
17F
330
1F
100
AcDbEntity
  8
0
  6
Continuous
 62
     7
370
    25
100
AcDbLine
 10
229.2455223875
 20
192.0374626866
 30
0.0
 11
233.5152263077
 21
192.0374626866
 31
0.0
  0
LINE
  5
180
330
1F
100
AcDbEntity
  8
0
  6
Continuous
 62
     7
370
    25
100
AcDbLine
 10
279.2455223875
 20
142.0374626866
 30
0.0
 11
279.2455223875
 21
146.2031588553
 31
0.0
  0
SPLINE
  5
181
330
1F
100
AcDbEntity
  8
0
  6
Continuous
 62
     7
370
    25
100
AcDbSpline
210
0.0
220
0.0
230
1.0
 70
     8
 71
     3
 72
    20
 73
    16
 74
     0
 42
0.000000001
 43
0.00000001
 40
0.0
 40
0.0
 40
0.0
 40
0.0
 40
0.076926391949224
 40
0.1538511264146388
 40
0.2307745047303682
 40
0.3076968282464738
 40
0.384618398325415
 40
0.4615395163385068
 40
0.5384604836623776
 40
0.6153816016754272
 40
0.6923031717542841
 40
0.7692254952702636
 40
0.8461488735858246
 40
0.9230736080510288
 40
1.0
 40
1.0
 40
1.0
 40
1.0
 10
349.2455223875061
 20
146.2031588553064
 30
0.0
 10
347.4506590793661
 20
146.2058903895873
 30
0.0
 10
343.8609711358588
 20
146.2113533992945
 30
0.0
 10
338.4763374424761
 20
146.2178831103179
 30
0.0
 10
333.0917135914526
 20
146.2231898323559
 30
0.0
 10
327.7070871018371
 20
146.227151829899
 30
0.0
 10
322.3224613192717
 20
146.2297991695865
 30
0.0
 10
316.937835343338
 20
146.2311220868093
 30
0.0
 10
311.5532094316139
 20
146.2311220868094
 30
0.0
 10
306.1685834556832
 20
146.2297991695865
 30
0.0
 10
300.7839576731236
 20
146.2271518298991
 30
0.0
 10
295.399331183517
 20
146.2231898323558
 30
0.0
 10
290.0147073325052
 20
146.2178831103179
 30
0.0
 10
284.6300736391373
 20
146.2113533992945
 30
0.0
 10
281.0403856956409
 20
146.2058903895873
 30
0.0
 10
279.2455223875068
 20
146.2031588553064
 30
0.0
  0
LINE
  5
182
330
1F
100
AcDbEntity
  8
0
  6
Continuous
 62
     7
370
    25
100
AcDbLine
 10
349.2455223875
 20
142.0374626866
 30
0.0
 11
349.2455223875
 21
146.2031588553
 31
0.0
  0
SPLINE
  5
183
330
1F
100
AcDbEntity
  8
0
  6
Continuous
 62
     7
370
    25
100
AcDbSpline
210
0.0
220
0.0
230
1.0
 70
     8
 71
     3
 72
   103
 73
    99
 74
     0
 42
0.000000001
 43
0.00000001
 40
0.0
 40
0.0
 40
0.0
 40
0.0
 40
0.0094502503145216
 40
0.0189210476041982
 40
0.0284123867979081
 40
0.0379242627663204
 40
0.0474566703219165
 40
0.0570096042190123
 40
0.0665830591537804
 40
0.0761770297642728
 40
0.0857915106304303
 40
0.0954264962741057
 40
0.105081981159069
 40
0.114757959691023
 40
0.1244544262176115
 40
0.1341713750284233
 40
0.1439088003549994
 40
0.153666696370832
 40
0.1634450571913701
 40
0.1732438768740154
 40
0.1830631494181158
 40
0.1929028687649639
 40
0.2027630287977919
 40
0.2126436233417535
 40
0.2225446461639204
 40
0.232466090973268
 40
0.2424079514206551
 40
0.2523702210988141
 40
0.2623528935423264
 40
0.2723559622276038
 40
0.2823794205728658
 40
0.2924232619381175
 40
0.3024874796251144
 40
0.3125720668773452
 40
0.3226770168799957
 40
0.3328023227599171
 40
0.3429479775855928
 40
0.3531139743671041
 40
0.3633003060560918
 40
0.3735069655457165
 40
0.3837339456706202
 40
0.3939812392068777
 40
0.4042488388719609
 40
0.4145367373246867
 40
0.4248449271651685
 40
0.4351734009347701
 40
0.4455221511160549
 40
0.4558911701327266
 40
0.466280450349581
 40
0.4766899840724482
 40
0.4871197635481309
 40
0.4975697809643482
 40
0.5080400284496749
 40
0.5185304980734727
 40
0.5290411818458317
 40
0.5395720717175017
 40
0.5501231595798229
 40
0.560694437264656
 40
0.5712858965443148
 40
0.5818975291314871
 40
0.5925293266791661
 40
0.6031812807805695
 40
0.6138533829690659
 40
0.6245456247180905
 40
0.635257997441068
 40
0.6459904924913291
 40
0.656743101162028
 40
0.667515814686051
 40
0.6783086242359352
 40
0.6891215209237791
 40
0.6999544958011481
 40
0.7108075398589873
 40
0.7216806440275263
 40
0.7325737991761826
 40
0.7434869961134684
 40
0.7544202255868899
 40
0.7653734782828495
 40
0.7763467448265443
 40
0.7873400157818629
 40
0.7983532816512819
 40
0.8093865328757625
 40
0.8204397598346395
 40
0.8315129528455163
 40
0.8426061021641539
 40
0.8537191979843582
 40
0.8648522304378709
 40
0.8760051895942501
 40
0.8871780654607605
 40
0.8983708479822499
 40
0.9095835270410353
 40
0.9208160924567813
 40
0.9320685339863802
 40
0.9433408413238243
 40
0.9546330041000893
 40
0.9659450118829997
 40
0.9772768541771095
 40
0.9886285204235696
 40
1.0
 40
1.0
 40
1.0
 40
1.0
 10
279.2455223875064
 20
146.2031588553064
 30
0.0
 10
279.0188402714082
 20
146.2039288679038
 30
0.0
 10
278.5649831811759
 20
146.2054705672795
 30
0.0
 10
277.8835954148527
 20
146.2206639919416
 30
0.0
 10
277.2010236125389
 20
146.2453588192404
 30
0.0
 10
276.5174222960104
 20
146.2805414509376
 30
0.0
 10
275.8329491803914
 20
146.326021117196
 30
0.0
 10
275.1477634804567
 20
146.3819205820024
 30
0.0
 10
274.4620263305073
 20
146.4482753510816
 30
0.0
 10
273.7759006346765
 20
146.5251413508747
 30
0.0
 10
273.0895510689345
 20
146.6125659219937
 30
0.0
 10
272.403144040898
 20
146.7105955560345
 30
0.0
 10
271.7168476595551
 20
146.8192737555638
 30
0.0
 10
271.030831700892
 20
146.9386415493991
 30
0.0
 10
270.345267573181
 20
147.0687372944438
 30
0.0
 10
269.6603282809151
 20
147.2095966696594
 30
0.0
 10
268.9761883876516
 20
147.3612526187733
 30
0.0
 10
268.2930239776953
 20
147.5237353071853
 30
0.0
 10
267.6110126166298
 20
147.6970720755055
 30
0.0
 10
266.9303333106944
 20
147.8812873944786
 30
0.0
 10
266.2511664650028
 20
148.0764028200512
 30
0.0
 10
265.5736938406011
 20
148.2824369489445
 30
0.0
 10
264.8980985103653
 20
148.4994053746741
 30
0.0
 10
264.2245648137356
 20
148.7273206440605
 30
0.0
 10
263.5532783102888
 20
148.9661922142583
 30
0.0
 10
262.8844257321466
 20
149.2160264103252
 30
0.0
 10
262.218194935223
 20
149.4768263833661
 30
0.0
 10
261.55477484931
 20
149.7485920692703
 30
0.0
 10
260.8943554270052
 20
150.0313201480816
 30
0.0
 10
260.2371275914806
 20
150.3250040040154
 30
0.0
 10
259.5832831831001
 20
150.6296336861647
 30
0.0
 10
258.9330149048849
 20
150.9451958699145
 30
0.0
 10
258.286516266834
 20
151.271673819096
 30
0.0
 10
257.6439815291022
 20
151.6090473489104
 30
0.0
 10
257.0056056440439
 20
151.9572927896515
 30
0.0
 10
256.3715841971252
 20
152.3163829512527
 30
0.0
 10
255.7421133467152
 20
152.6862870886945
 30
0.0
 10
255.1173897627599
 20
153.066970868295
 30
0.0
 10
254.4976105643492
 20
153.4583963349166
 30
0.0
 10
253.8829732561856
 20
153.8605218801206
 30
0.0
 10
253.2736756639628
 20
154.2733022112934
 30
0.0
 10
252.6699158686661
 20
154.6966883217823
 30
0.0
 10
252.0718921398034
 20
155.1306274620624
 30
0.0
 10
251.4798028675808
 20
155.575063111972
 30
0.0
 10
250.8938464940326
 20
156.0299349540428
 30
0.0
 10
250.3142214431217
 20
156.495178847955
 30
0.0
 10
249.74112604982
 20
156.9707268061483
 30
0.0
 10
249.1747584881887
 20
157.4565069706202
 30
0.0
 10
248.6153166984692
 20
157.9524435909386
 30
0.0
 10
248.0629983132026
 20
158.4584570035018
 30
0.0
 10
247.5180005823961
 20
158.9744636120745
 30
0.0
 10
246.9805202977496
 20
159.5003758696287
 30
0.0
 10
246.4507537159671
 20
160.036102261523
 30
0.0
 10
245.9288964811653
 20
160.5815472900443
 30
0.0
 10
245.4151435464066
 20
161.1366114603492
 30
0.0
 10
244.9096890943696
 20
161.701191267826
 30
0.0
 10
244.4127264571862
 20
162.275179186913
 30
0.0
 10
243.9244480354624
 20
162.858463661401
 30
0.0
 10
243.4450452165079
 20
163.4509290962449
 30
0.0
 10
242.9747082917999
 20
164.0524558509207
 30
0.0
 10
242.5136263737037
 20
164.6629202343473
 30
0.0
 10
242.0619873114772
 20
165.2821945014095
 30
0.0
 10
241.6199776065858
 20
165.9101468511048
 30
0.0
 10
241.1877823273542
 20
166.5466414263435
 30
0.0
 10
240.7655850229851
 20
167.1915383154304
 30
0.0
 10
240.353567636972
 20
167.8446935552525
 30
0.0
 10
239.9519104199371
 20
168.5059591362019
 30
0.0
 10
239.5607918419249
 20
169.1751830088581
 30
0.0
 10
239.1803885041825
 20
169.8522090924572
 30
0.0
 10
238.8108750504604
 20
170.5368772851713
 30
0.0
 10
238.4524240778648
 20
171.2290234762255
 30
0.0
 10
238.1052060472983
 20
171.9284795598747
 30
0.0
 10
237.769389193522
 20
172.6350734512649
 30
0.0
 10
237.4451394348744
 20
173.348629104204
 30
0.0
 10
237.1326202826857
 20
174.0689665308605
 30
0.0
 10
236.831992750423
 20
174.7959018234185
 30
0.0
 10
236.543415262606
 20
175.5292471777054
 30
0.0
 10
236.2670435635306
 20
176.2688109188163
 30
0.0
 10
236.0030306258421
 20
177.0143975287534
 30
0.0
 10
235.7515265589975
 20
177.7658076761039
 30
0.0
 10
235.5126785176576
 20
178.5228382477697
 30
0.0
 10
235.2866306100572
 20
179.2852823827725
 30
0.0
 10
235.0735238063687
 20
180.0529295081497
 30
0.0
 10
234.8734958472173
 20
180.8255653769562
 30
0.0
 10
234.6866811519458
 20
181.6029721083933
 30
0.0
 10
234.5132107283687
 20
182.3849282300698
 30
0.0
 10
234.3532120776958
 20
183.1712087224366
 30
0.0
 10
234.2068091185168
 20
183.9615850653146
 30
0.0
 10
234.0741220406468
 20
184.7558252868777
 30
0.0
 10
233.9552674228622
 20
185.5536940137912
 30
0.0
 10
233.8503573648041
 20
186.3549525274351
 30
0.0
 10
233.7595023097344
 20
187.1593588078005
 30
0.0
 10
233.6828000583866
 20
187.9666676340147
 30
0.0
 10
233.6203764572483
 20
188.7766304835006
 30
0.0
 10
233.5722327280417
 20
189.5889961952019
 30
0.0
 10
233.5388163281795
 20
190.4035087843588
 30
0.0
 10
233.518884454361
 20
191.2199159264476
 30
0.0
 10
233.5179610032682
 20
191.7647887335149
 30
0.0
 10
233.5174988751225
 20
192.0374626865675
 30
0.0
  0
SPLINE
  5
184
330
1F
100
AcDbEntity
  8
0
  6
Continuous
 62
     7
370
    25
100
AcDbSpline
210
0.0
220
0.0
230
1.0
 70
     8
 71
     3
 72
   126
 73
   122
 74
     0
 42
0.000000001
 43
0.00000001
 40
0.0
 40
0.0
 40
0.0
 40
0.0
 40
0.0091751583298485
 40
0.0183374237147838
 40
0.02748679056877
 40
0.0366232533327016
 40
0.0457468064743561
 40
0.0548574444883518
 40
0.0639551618961026
 40
0.0730399532457755
 40
0.0821118131122462
 40
0.0911707360970593
 40
0.1002167168283817
 40
0.1092497499609643
 40
0.1182698301760988
 40
0.127276952181577
 40
0.1362711107116504
 40
0.1452523005269888
 40
0.154220516414642
 40
0.1631757531879987
 40
0.1721180056867479
 40
0.1810472687768412
 40
0.1899635373504521
 40
0.198866806325941
 40
0.207757070647815
 40
0.216634325286693
 40
0.2254985652392679
 40
0.2343497855282687
 40
0.2431879812024284
 40
0.2520131473364454
 40
0.2608252790309495
 40
0.2696243714124669
 40
0.2784104196333869
 40
0.2871834188719263
 40
0.2959433643320978
 40
0.3046902512436762
 40
0.3134240748621654
 40
0.322144830468767
 40
0.3308525133703479
 40
0.3395471188994101
 40
0.3482286424140582
 40
0.3568970792979702
 40
0.3655524249603668
 40
0.3741946748359818
 40
0.3828238243850343
 40
0.3914398690931967
 40
0.40004280447157
 40
0.4086326260566543
 40
0.4172093294103207
 40
0.4257729101197855
 40
0.4343233637975827
 40
0.4428606860815391
 40
0.4513848726347466
 40
0.4598959191455389
 40
0.468393821327466
 40
0.4768785749192694
 40
0.4853501756848591
 40
0.4938086194132887
 40
0.5022539019187346
 40
0.5106860190404707
 40
0.5191049666428487
 40
0.5275107406152754
 40
0.5359033368721908
 40
0.5442827513530493
 40
0.5526489800222979
 40
0.5610020188693567
 40
0.5693418639085993
 40
0.5776685111793353
 40
0.5859819567457898
 40
0.5942821966970874
 40
0.6025692271472332
 40
0.6108430442350974
 40
0.6191036441243972
 40
0.627351023003682
 40
0.6355851770863165
 40
0.6438061026104674
 40
0.6520137958390875
 40
0.6602082530599019
 40
0.6683894705853949
 40
0.6765574447527959
 40
0.6847121719240676
 40
0.6928536484858937
 40
0.7009818708496671
 40
0.7090968354514787
 40
0.7171985387521069
 40
0.7252869772370077
 40
0.7333621474163048
 40
0.7414240458247798
 40
0.7494726690218656
 40
0.7575080135916358
 40
0.7655300761427991
 40
0.7735388533086909
 40
0.7815343417472675
 40
0.7895165381411003
 40
0.7974854391973695
 40
0.8054410416478587
 40
0.8133833422489527
 40
0.8213123377816314
 40
0.829228025051467
 40
0.8371304008886215
 40
0.8450194621478441
 40
0.8528952057084696
 40
0.860757628474417
 40
0.8686067273741891
 40
0.876442499360872
 40
0.8842649414121362
 40
0.892074050530236
 40
0.8998698237420134
 40
0.9076522580988982
 40
0.9154213506769118
 40
0.9231770985766695
 40
0.9309194989233857
 40
0.9386485488668764
 40
0.9463642455815663
 40
0.9540665862664921
 40
0.9617555681453104
 40
0.9694311884663034
 40
0.9770934445023867
 40
0.9847423335511167
 40
0.9923778529346996
 40
1.0
 40
1.0
 40
1.0
 40
1.0
 10
394.9735458998904
 20
192.0374626865674
 30
0.0
 10
394.9733929022394
 20
191.8174548144567
 30
0.0
 10
394.9730871219301
 20
191.3777482255952
 30
0.0
 10
394.9605477205196
 20
190.7187424213581
 30
0.0
 10
394.9392120764512
 20
190.0609042589898
 30
0.0
 10
394.9082583559494
 20
189.404366291329
 30
0.0
 10
394.8679649964691
 20
188.7492641537316
 30
0.0
 10
394.8183185972691
 20
188.0957310546576
 30
0.0
 10
394.7593861079791
 20
187.4438992199396
 30
0.0
 10
394.6912152745209
 20
186.7938994785433
 30
0.0
 10
394.6138612200374
 20
186.1458613460421
 30
0.0
 10
394.5273792995736
 20
185.4999129757946
 30
0.0
 10
394.4318269722609
 20
184.8561811462748
 30
0.0
 10
394.3272632622313
 20
184.2147912395157
 30
0.0
 10
394.2137488640772
 20
183.5758672227028
 30
0.0
 10
394.0913460758174
 20
182.9395316297012
 30
0.0
 10
393.9601187778423
 20
182.3059055433693
 30
0.0
 10
393.8201323994334
 20
181.6751085784317
 30
0.0
 10
393.6714538884897
 20
181.0472588649665
 30
0.0
 10
393.5141516802951
 20
180.4224730324908
 30
0.0
 10
393.3482956664531
 20
179.8008661946433
 30
0.0
 10
393.1739571636993
 20
179.182551934463
 30
0.0
 10
392.9912088826872
 20
178.5676422902577
 30
0.0
 10
392.8001248967275
 20
177.9562477420619
 30
0.0
 10
392.6007806105065
 20
177.3484771986789
 30
0.0
 10
392.3932527287824
 20
176.7444379853048
 30
0.0
 10
392.1776192250783
 20
176.1442358317288
 30
0.0
 10
391.9539593103747
 20
175.5479748611086
 30
0.0
 10
391.7223534018137
 20
174.9557575793147
 30
0.0
 10
391.482883091427
 20
174.3676848648397
 30
0.0
 10
391.23563111489
 20
173.7838559592704
 30
0.0
 10
390.9806813203188
 20
173.2043684583155
 30
0.0
 10
390.7181186371126
 20
172.6293183033866
 30
0.0
 10
390.4480290448559
 20
172.0587997737263
 30
0.0
 10
390.1704995422832
 20
171.4929054790803
 30
0.0
 10
389.8856181163196
 20
170.9317263529073
 30
0.0
 10
389.5934737112046
 20
170.3753516461214
 30
0.0
 10
389.2941561977033
 20
169.8238689213656
 30
0.0
 10
388.9877563424204
 20
169.2773640478042
 30
0.0
 10
388.6743657772162
 20
168.7359211964379
 30
0.0
 10
388.3540769687418
 20
168.1996228359269
 30
0.0
 10
388.0269831880912
 20
167.6685497289251
 30
0.0
 10
387.693178480586
 20
167.1427809289134
 30
0.0
 10
387.3527576356967
 20
166.6223937775299
 30
0.0
 10
387.0058161571042
 20
166.1074639023909
 30
0.0
 10
386.6524502329165
 20
165.5980652153961
 30
0.0
 10
386.2927567060404
 20
165.0942699115123
 30
0.0
 10
385.9268330447182
 20
164.5961484680305
 30
0.0
 10
385.5547773132337
 20
164.1037696442907
 30
0.0
 10
385.1766881427986
 20
163.6172004818658
 30
0.0
 10
384.7926647026189
 20
163.1365063052018
 30
0.0
 10
384.4028066711527
 20
162.6617507227065
 30
0.0
 10
384.0072142075632
 20
162.1929956282801
 30
0.0
 10
383.6059879233723
 20
161.7303012032831
 30
0.0
 10
383.1992288543223
 20
161.2737259189333
 30
0.0
 10
382.7870384324484
 20
160.8233265391261
 30
0.0
 10
382.3695184583704
 20
160.3791581236736
 30
0.0
 10
381.9467710738062
 20
159.9412740319534
 30
0.0
 10
381.5188987343145
 20
159.5097259269607
 30
0.0
 10
381.0860041822685
 20
159.0845637797615
 30
0.0
 10
380.6481904200701
 20
158.6658358743329
 30
0.0
 10
380.2055606836035
 20
158.2535888127918
 30
0.0
 10
379.7582184159367
 20
157.8478675210002
 30
0.0
 10
379.3062672412754
 20
157.4487152545407
 30
0.0
 10
378.8498109391693
 20
157.0561736050607
 30
0.0
 10
378.3889534189811
 20
156.6702825069701
 30
0.0
 10
377.9237986946151
 20
156.2910802444955
 30
0.0
 10
377.454450859516
 20
155.9186034590751
 30
0.0
 10
376.9810140619363
 20
155.5528871570946
 30
0.0
 10
376.503592480479
 20
155.1939647179535
 30
0.0
 10
376.0222902999158
 20
154.8418679024572
 30
0.0
 10
375.537211687289
 20
154.4966268615258
 30
0.0
 10
375.0484607682943
 20
154.1582701452155
 30
0.0
 10
374.5561416039517
 20
153.8268247120448
 30
0.0
 10
374.0603581675657
 20
153.502315938618
 30
0.0
 10
373.5612143219771
 20
153.1847676295414
 30
0.0
 10
373.0588137971105
 20
152.8742020276217
 30
0.0
 10
372.5532601678179
 20
152.5706398243458
 30
0.0
 10
372.0446568320223
 20
152.2741001706291
 30
0.0
 10
371.5331069891631
 20
151.9846006878296
 30
0.0
 10
371.018713618944
 20
151.7021574790215
 30
0.0
 10
370.5015794603884
 20
151.4267851405165
 30
0.0
 10
369.9818069911999
 20
151.1584967736339
 30
0.0
 10
369.4594984074332
 20
150.8973039967078
 30
0.0
 10
368.9347556034757
 20
150.6432169573236
 30
0.0
 10
368.40768015234
 20
150.3962443447846
 30
0.0
 10
367.8783732862706
 20
150.1563934027922
 30
0.0
 10
367.3469358776654
 20
149.9236699423411
 30
0.0
 10
366.8134684203111
 20
149.698078354822
 30
0.0
 10
366.2780710109375
 20
149.4796216253182
 30
0.0
 10
365.7408433310871
 20
149.2683013461025
 30
0.0
 10
365.2018846293051
 20
149.0641177303137
 30
0.0
 10
364.6612937036458
 20
148.8670696258198
 30
0.0
 10
364.1191688845001
 20
148.6771545292503
 30
0.0
 10
363.5756080177426
 20
148.4943686002007
 30
0.0
 10
363.0307084481981
 20
148.318706675595
 30
0.0
 10
362.4845670034294
 20
148.150162284207
 30
0.0
 10
361.9372799778448
 20
147.9887276613291
 30
0.0
 10
361.3889431171261
 20
147.8343937635869
 30
0.0
 10
360.8396516029788
 20
147.6871502838875
 30
0.0
 10
360.2895000382001
 20
147.5469856665039
 30
0.0
 10
359.7385824320679
 20
147.4138871222822
 30
0.0
 10
359.1869921860508
 20
147.2878406439699
 30
0.0
 10
358.6348220798355
 20
147.1688310216566
 30
0.0
 10
358.0821642576741
 20
147.0568418583281
 30
0.0
 10
357.5291102150485
 20
146.9518555855081
 30
0.0
 10
356.9757507856538
 20
146.8538534790466
 30
0.0
 10
356.4221761286962
 20
146.7628156748226
 30
0.0
 10
355.8684757165091
 20
146.6787211851826
 30
0.0
 10
355.3147383224808
 20
146.6015479130506
 30
0.0
 10
354.7610520093049
 20
146.5312726750714
 30
0.0
 10
354.2075041175077
 20
146.4678711914827
 30
0.0
 10
353.6541812544251
 20
146.4113182001606
 30
0.0
 10
353.1011692829732
 20
146.3615871087341
 30
0.0
 10
352.5485533126499
 20
146.3186513664682
 30
0.0
 10
351.9964176836919
 20
146.2824794347777
 30
0.0
 10
351.4448459781569
 20
146.2530535860993
 30
0.0
 10
350.893920932227
 20
146.2303000059879
 30
0.0
 10
350.3437247176354
 20
146.2143490522001
 30
0.0
 10
349.7943378505336
 20
146.2045665738867
 30
0.0
 10
349.4283539550938
 20
146.2036278205818
 30
0.0
 10
349.2455223875065
 20
146.2031588553064
 30
0.0
  0
SPLINE
  5
185
330
1F
100
AcDbEntity
  8
0
  6
Continuous
 62
     7
370
    25
100
AcDbSpline
210
0.0
220
0.0
230
1.0
 70
     8
 71
     3
 72
   126
 73
   122
 74
     0
 42
0.000000001
 43
0.00000001
 40
0.0
 40
0.0
 40
0.0
 40
0.0
 40
0.009175029208071
 40
0.0183371676483048
 40
0.0274864097350877
 40
0.0366227499097331
 40
0.0457461826404305
 40
0.0548567024222084
 40
0.0639543037768842
 40
0.0730389812530256
 40
0.0821107294259048
 40
0.0911695428974556
 40
0.1002154162962327
 40
0.1092483442773688
 40
0.1182683215225342
 40
0.1272753427398936
 40
0.1362694026640666
 40
0.1452504960560886
 40
0.1542186177033688
 40
0.1631737624196523
 40
0.1721159250449784
 40
0.1810451004456442
 40
0.1899612835141686
 40
0.1988644691692462
 40
0.2077546523557204
 40
0.216631828044537
 40
0.2254959912327157
 40
0.2343471369433031
 40
0.2431852602253486
 40
0.2520103561538627
 40
0.2608224198297812
 40
0.2696214463799318
 40
0.2784074309570028
 40
0.2871803687395039
 40
0.2959402549317374
 40
0.3046870847637621
 40
0.3134208534913621
 40
0.3221415563960146
 40
0.3308491887848583
 40
0.3395437459906613
 40
0.3482252233717909
 40
0.3568936163121822
 40
0.3655489202213112
 40
0.374191130534159
 40
0.3828202427111899
 40
0.3914362522383162
 40
0.4000391546268744
 40
0.4086289454135955
 40
0.4172056201605782
 40
0.4257691744552606
 40
0.4343196039103949
 40
0.4428569041640205
 40
0.4513810708794387
 40
0.4598920997451872
 40
0.4683899864750166
 40
0.4768747268078623
 40
0.485346316507827
 40
0.4938047513641506
 40
0.5022500271911902
 40
0.5106821398283988
 40
0.5191010851402992
 40
0.5275068590164672
 40
0.5358994573715081
 40
0.5442788761450345
 40
0.552645111301649
 40
0.5609981588309207
 40
0.5693380147473719
 40
0.5776646750904503
 40
0.5859781359245202
 40
0.594278393338837
 40
0.6025654434475343
 40
0.610839282389606
 40
0.6190999063288868
 40
0.6273473114540399
 40
0.6355814939785412
 40
0.6438024501406613
 40
0.6520101762034524
 40
0.6602046684547369
 40
0.668385923207089
 40
0.676553936797826
 40
0.6847087055889911
 40
0.6928502259673458
 40
0.7009784943443563
 40
0.7090935071561801
 40
0.7171952608636605
 40
0.725283751952312
 40
0.733358976932311
 40
0.74142093233849
 40
0.7494696147303257
 40
0.7575050206919325
 40
0.7655271468320543
 40
0.7735359897840564
 40
0.7815315462059224
 40
0.7895138127802432
 40
0.7974827862142165
 40
0.8054384632396382
 40
0.8133808406128988
 40
0.8213099151149812
 40
0.829225683551455
 40
0.8371281427524743
 40
0.845017289572777
 40
0.8528931208916801
 40
0.8607556336130816
 40
0.8686048246654576
 40
0.8764406910018621
 40
0.8842632295999298
 40
0.892072437461874
 40
0.8998683116144905
 40
0.9076508491091585
 40
0.9154200470218428
 40
0.9231759024530986
 40
0.9309184125280737
 40
0.9386475743965157
 40
0.9463633852327713
 40
0.9540658422357979
 40
0.9617549426291662
 40
0.9694306836610681
 40
0.9770930626043226
 40
0.9847420767563878
 40
0.9923777234393617
 40
1.0
 40
1.0
 40
1.0
 40
1.0
 10
233.5174988751224
 20
432.037462686567
 30
0.0
 10
233.5176518577547
 20
432.2574674603324
 30
0.0
 10
233.5179576080812
 20
432.6971679047095
 30
0.0
 10
233.5304966287391
 20
433.3561645751338
 30
0.0
 10
233.5518316545747
 20
434.0139937708024
 30
0.0
 10
233.5827845029634
 20
434.6705229441478
 30
0.0
 10
233.6230767504393
 20
435.3256164649586
 30
0.0
 10
233.6727218037958
 20
435.97914112966
 30
0.0
 10
233.7316527216395
 20
436.63096471708
 30
0.0
 10
233.7998217657855
 20
437.2809564026798
 30
0.0
 10
233.8771738210321
 20
437.928986675082
 30
0.0
 10
233.9636535402852
 20
438.5749273848926
 30
0.0
 10
234.0592034724189
 20
439.2186517573712
 30
0.0
 10
234.1637646013423
 20
439.8600344139887
 30
0.0
 10
234.277276240538
 20
440.4989513908332
 30
0.0
 10
234.3996761000887
 20
441.135280157085
 30
0.0
 10
234.5309003077277
 20
441.7688996327033
 30
0.0
 10
234.6708834423143
 20
442.3996902055537
 30
0.0
 10
234.8195585641005
 20
443.027533747923
 30
0.0
 10
234.97685724596
 20
443.6523136324347
 30
0.0
 10
235.1427096044476
 20
444.273914747367
 30
0.0
 10
235.3170443309814
 20
444.8922235113766
 30
0.0
 10
235.4997887230526
 20
445.5071278876312
 30
0.0
 10
235.6908687154805
 20
446.1185173973529
 30
0.0
 10
235.8902089116898
 20
446.7262831327785
 30
0.0
 10
236.0977326150086
 20
447.3303177695375
 30
0.0
 10
236.313361859972
 20
447.9305155784524
 30
0.0
 10
236.5370174436239
 20
448.5267724367669
 30
0.0
 10
236.7686189568079
 20
449.1189858388027
 30
0.0
 10
237.0080848154356
 20
449.7070549060531
 30
0.0
 10
237.2553322917285
 20
450.2908803967119
 30
0.0
 10
237.5102775454142
 20
450.8703647146502
 30
0.0
 10
237.7728356548832
 20
451.4454119178351
 30
0.0
 10
238.0429206482791
 20
452.0159277262067
 30
0.0
 10
238.320445534533
 20
452.5818195290067
 30
0.0
 10
238.6053223343151
 20
453.1429963915726
 30
0.0
 10
238.8974621109114
 20
453.6993690615963
 30
0.0
 10
239.1967750010041
 20
454.2508499748554
 30
0.0
 10
239.5031702453583
 20
454.7973532604215
 30
0.0
 10
239.8165562193972
 20
455.3387947453504
 30
0.0
 10
240.1368404636687
 20
455.8750919588598
 30
0.0
 10
240.4639297141858
 20
456.406164135999
 30
0.0
 10
240.79772993264
 20
456.9319322208191
 30
0.0
 10
241.1381463364773
 20
457.4523188690453
 30
0.0
 10
241.4850834288317
 20
457.9672484502592
 30
0.0
 10
241.8384450283065
 20
458.4766470495973
 30
0.0
 10
242.1981342985999
 20
458.9804424689698
 30
0.0
 10
242.5640537779646
 20
459.4785642278072
 30
0.0
 10
242.9361054084982
 20
459.9709435633395
 30
0.0
 10
243.3141905652563
 20
460.4575134304142
 30
0.0
 10
243.6982100851812
 20
460.9382085008609
 30
0.0
 10
244.0880642958422
 20
461.4129651624057
 30
0.0
 10
244.4836530439804
 20
461.8817215171434
 30
0.0
 10
244.8848757238526
 20
462.3444173795739
 30
0.0
 10
245.2916313053665
 20
462.8009942742098
 30
0.0
 10
245.7038183620072
 20
463.2513954327561
 30
0.0
 10
246.1213350985426
 20
463.6955657908787
 30
0.0
 10
246.5440793785074
 20
464.1334519845578
 30
0.0
 10
246.9719487514597
 20
464.5650023460377
 30
0.0
 10
247.4048404800039
 20
464.9901668993806
 30
0.0
 10
247.8426515665763
 20
465.4088973556267
 30
0.0
 10
248.2852787799888
 20
465.8211471075713
 30
0.0
 10
248.7326186817249
 20
466.2268712241634
 30
0.0
 10
249.1845676519872
 20
466.6260264445311
 30
0.0
 10
249.641021915486
 20
467.0185711716452
 30
0.0
 10
250.1018775669723
 20
467.404465465622
 30
0.0
 10
250.5670305965055
 20
467.783671036674
 30
0.0
 10
251.0363769144545
 20
468.1561512377197
 30
0.0
 10
251.509812376229
 20
468.521871056649
 30
0.0
 10
251.9872328067364
 20
468.8807971082633
 30
0.0
 10
252.468534024561
 20
469.2328976258856
 30
0.0
 10
252.9536118658636
 20
469.5781424526557
 30
0.0
 10
253.4423622079962
 20
469.9165030325124
 30
0.0
 10
253.9346809928307
 20
470.2479524008717
 30
0.0
 10
254.4304642497991
 20
470.5724651750057
 30
0.0
 10
254.9296081186399
 20
470.8900175441325
 30
0.0
 10
255.4320088718512
 20
471.2005872592176
 30
0.0
 10
255.9375629368459
 20
471.5041536225023
 30
0.0
 10
256.4461669178087
 20
471.8006974767551
 30
0.0
 10
256.9577176172498
 20
472.0902011942639
 30
0.0
 10
257.4721120572573
 20
472.3726486655647
 30
0.0
 10
257.9892475004415
 20
472.6480252879247
 30
0.0
 10
258.509021470575
 20
472.9163179535743
 30
0.0
 10
259.0313317729208
 20
473.1775150377056
 30
0.0
 10
259.5560765142522
 20
473.4316063862373
 30
0.0
 10
260.0831541225598
 20
473.6785833033533
 30
0.0
 10
260.6124633664447
 20
473.9184385388254
 30
0.0
 10
261.1439033741991
 20
474.1511662751199
 30
0.0
 10
261.6773736525693
 20
474.3767621143023
 30
0.0
 10
262.2127741052032
 20
474.5952230647388
 30
0.0
 10
262.7500050507807
 20
474.806547527608
 30
0.0
 10
263.2889672408256
 20
475.0107352832231
 30
0.0
 10
263.8295618771977
 20
475.2077874771763
 30
0.0
 10
264.3716906292682
 20
475.3977066063054
 30
0.0
 10
264.9152556507723
 20
475.5804965044968
 30
0.0
 10
265.4601595963442
 20
475.756162328322
 30
0.0
 10
266.0063056377298
 20
475.9247105425231
 30
0.0
 10
266.5535974796808
 20
476.0861489053444
 30
0.0
 10
267.1019393755265
 20
476.2404864537234
 30
0.0
 10
267.6512361424271
 20
476.387733488342
 30
0.0
 10
268.2013931763046
 20
476.5279015585491
 30
0.0
 10
268.7523164664561
 20
476.661003447153
 30
0.0
 10
269.303912609845
 20
476.7870531550982
 30
0.0
 10
269.8560888250749
 20
476.9060658860262
 30
0.0
 10
270.408752966044
 20
477.0180580307252
 30
0.0
 10
270.9618135352815
 20
477.1230471514899
 30
0.0
 10
271.5151796969665
 20
477.2210519663378
 30
0.0
 10
272.0687612896308
 20
477.3120923333064
 30
0.0
 10
272.6224688385449
 20
477.3961892340205
 30
0.0
 10
273.1762135677926
 20
477.4733647595814
 30
0.0
 10
273.7299074120205
 20
477.5436420874292
 30
0.0
 10
274.2834630279141
 20
477.6070454914716
 30
0.0
 10
274.8367938052216
 20
477.6636002280389
 30
0.0
 10
275.3898138779857
 20
477.7133328837836
 30
0.0
 10
275.9424381335434
 20
477.7562700037547
 30
0.0
 10
276.4945822283709
 20
477.7924431210479
 30
0.0
 10
277.0461625770043
 20
477.8218699573414
 30
0.0
 10
277.5970964397339
 20
477.8446243230342
 30
0.0
 10
278.1473016411967
 20
477.8605758497321
 30
0.0
 10
278.6966976614449
 20
477.8703587029107
 30
0.0
 10
279.0626877146828
 20
477.8712975204094
 30
0.0
 10
279.245522387507
 20
477.871766517828
 30
0.0
  0
SPLINE
  5
186
330
1F
100
AcDbEntity
  8
0
  6
Continuous
 62
     7
370
    25
100
AcDbSpline
210
0.0
220
0.0
230
1.0
 70
     8
 71
     3
 72
     9
 73
     5
 74
     0
 42
0.000000001
 43
0.00000001
 40
0.0
 40
0.0
 40
0.0
 40
0.0
 40
0.5
 40
1.0
 40
1.0
 40
1.0
 40
1.0
 10
349.4895535652744
 20
459.0433573393981
 30
0.0
 10
337.7415431726851
 20
459.0439029849595
 30
0.0
 10
314.2455223875066
 20
459.0459773214099
 30
0.0
 10
290.7495016023281
 20
459.0439029849596
 30
0.0
 10
279.0014912097388
 20
459.0433573393981
 30
0.0
  0
SPLINE
  5
187
330
1F
100
AcDbEntity
  8
0
  6
Continuous
 62
     7
370
    25
100
AcDbSpline
210
0.0
220
0.0
230
1.0
 70
     8
 71
     3
 72
    22
 73
    18
 74
     0
 42
0.000000001
 43
0.00000001
 40
0.0
 40
0.0
 40
0.0
 40
0.0
 40
0.125
 40
0.125
 40
0.25
 40
0.25
 40
0.375
 40
0.375
 40
0.5
 40
0.5
 40
0.625
 40
0.625
 40
0.75
 40
0.75
 40
0.875
 40
0.875
 40
1.0
 40
1.0
 40
1.0
 40
1.0
 10
279.0014912097388
 20
459.0433573393983
 30
0.0
 10
279.003801366688
 20
460.1130029656584
 30
0.0
 10
279.0072354304159
 20
461.2100531520665
 30
0.0
 10
279.0165661277679
 20
463.4151122234177
 30
0.0
 10
279.0224649145726
 20
464.522945104763
 30
0.0
 10
279.0367426891466
 20
466.6955364287028
 30
0.0
 10
279.045122411905
 20
467.7600136914478
 30
0.0
 10
279.0641303953977
 20
469.788768766503
 30
0.0
 10
279.074757370164
 20
470.7527345776497
 30
0.0
 10
279.0977854671883
 20
472.5294847344932
 30
0.0
 10
279.1101834879856
 20
473.3420297846503
 30
0.0
 10
279.1361040702104
 20
474.7797720107417
 30
0.0
 10
279.1496227292971
 20
475.4048808799689
 30
0.0
 10
279.1770693285308
 20
476.4515650188964
 30
0.0
 10
279.1909938489684
 20
476.8732143268442
 30
0.0
 10
279.2185859482816
 20
477.5169614202727
 30
0.0
 10
279.2322514734378
 20
477.7392428833492
 30
0.0
 10
279.245522387507
 20
477.871766517828
 30
0.0
  0
SPLINE
  5
188
330
1F
100
AcDbEntity
  8
0
  6
Continuous
 62
     7
370
    25
100
AcDbSpline
210
0.0
220
0.0
230
1.0
 70
     8
 71
     3
 72
    14
 73
    10
 74
     0
 42
0.000000001
 43
0.00000001
 40
0.0
 40
0.0
 40
0.0
 40
0.0
 40
0.25
 40
0.25
 40
0.5
 40
0.5
 40
0.75
 40
0.75
 40
1.0
 40
1.0
 40
1.0
 40
1.0
 10
349.4895535652743
 20
459.043357339398
 30
0.0
 10
349.4845357044753
 20
461.3667201994382
 30
0.0
 10
349.4745167741812
 20
463.6686471580508
 30
0.0
 10
349.4456749075151
 20
467.9543489411034
 30
0.0
 10
349.4268590577911
 20
469.9370707386936
 30
0.0
 10
349.3826876548829
 20
473.345148573449
 30
0.0
 10
349.3573429549209
 20
474.7696672220957
 30
0.0
 10
349.3031664523263
 20
476.8893101989368
 30
0.0
 10
349.2743479612386
 20
477.5839137160529
 30
0.0
 10
349.2455223875063
 20
477.871766517828
 30
0.0
  0
SPLINE
  5
189
330
1F
100
AcDbEntity
  8
0
  6
Continuous
 62
     7
370
    25
100
AcDbSpline
210
0.0
220
0.0
230
1.0
 70
     8
 71
     3
 72
    44
 73
    40
 74
     0
 42
0.000000001
 43
0.00000001
 40
0.0
 40
0.0
 40
0.0
 40
0.0
 40
0.0130050695640849
 40
0.0259936106606584
 40
0.0389704848006556
 40
0.0519406042897873
 40
0.0649089257237547
 40
0.0778804432824732
 40
0.0908601818602943
 40
0.1038531900713314
 40
0.1168645331704234
 40
0.1298992859313237
 40
0.1429625255239647
 40
0.1560593244324793
 40
0.1691947434548828
 40
0.1823738248238755
 40
0.1956015854864206
 40
0.208883010577332
 40
0.2222230471193423
 40
0.2356265979790154
 40
0.2490985161044249
 40
0.311450615104757
 40
0.3735444648962629
 40
0.4358191477298616
 40
0.4987005073886082
 40
0.5614577373597867
 40
0.6238797281237283
 40
0.6863239712297514
 40
0.7491389197917256
 40
0.7743487734440472
 40
0.7994745645243698
 40
0.8245372288020691
 40
0.849557919157628
 40
0.8745579571623106
 40
0.8995587827524302
 40
0.924581902618574
 40
0.9496488379650977
 40
0.9747810723110585
 40
1.0
 40
1.0
 40
1.0
 40
1.0
 10
375.6047937425285
 20
432.9709047993928
 30
0.0
 10
375.6042651814206
 20
433.1484722836989
 30
0.0
 10
375.6032087309663
 20
433.5033815773634
 30
0.0
 10
375.5880622080774
 20
434.0353109074753
 30
0.0
 10
375.5629003430676
 20
434.5663674318347
 30
0.0
 10
375.526695274235
 20
435.0965323439213
 30
0.0
 10
375.479643727107
 20
435.6257797496249
 30
0.0
 10
375.4216158346042
 20
436.1540826413838
 30
0.0
 10
375.3525704080528
 20
436.6814112898787
 30
0.0
 10
375.2724437215741
 20
437.2077336665674
 30
0.0
 10
375.1811793367508
 20
437.7330153227692
 30
0.0
 10
375.0787201224933
 20
438.2572194154492
 30
0.0
 10
374.9650104170527
 20
438.7803066928416
 30
0.0
 10
374.8399954602497
 20
439.3022354967529
 30
0.0
 10
374.7036215920874
 20
439.8229617409452
 30
0.0
 10
374.5558361233822
 20
440.3424389713242
 30
0.0
 10
374.3965877557263
 20
440.8606181237688
 30
0.0
 10
374.2258251264519
 20
441.377448417691
 30
0.0
 10
374.0435023473347
 20
441.8928739869491
 30
0.0
 10
373.8495582851152
 20
442.4068465265106
 30
0.0
 10
373.3957803909971
 20
443.5380282839958
 30
0.0
 10
372.5921607536726
 20
445.2457866134915
 30
0.0
 10
371.2817664391675
 20
447.4391256379798
 30
0.0
 10
369.7556557477672
 20
449.4978412305863
 30
0.0
 10
368.0278809951708
 20
451.4028453035083
 30
0.0
 10
366.1227410206592
 20
453.133767583552
 30
0.0
 10
364.0608124909967
 20
454.6651675252172
 30
0.0
 10
361.857034035888
 20
455.9857699703027
 30
0.0
 10
359.9942483066158
 20
456.8658590044162
 30
0.0
 10
358.5541452128804
 20
457.43046900965
 30
0.0
 10
357.580448317054
 20
457.7689152259985
 30
0.0
 10
356.596703288138
 20
458.0680947358652
 30
0.0
 10
355.6035901555026
 20
458.327844257523
 30
0.0
 10
354.6018273825888
 20
458.5480186238761
 30
0.0
 10
353.5921229012177
 20
458.7283989733983
 30
0.0
 10
352.5751867620431
 20
458.8691042078895
 30
0.0
 10
351.5517283426758
 20
458.9690342333823
 30
0.0
 10
350.5224538433243
 20
459.0317016811779
 30
0.0
 10
349.834248635999
 20
459.0394676629019
 30
0.0
 10
349.4895535652744
 20
459.0433573393983
 30
0.0
  0
SPLINE
  5
18A
330
1F
100
AcDbEntity
  8
0
  6
Continuous
 62
     7
370
    25
100
AcDbSpline
210
0.0
220
0.0
230
1.0
 70
     8
 71
     3
 72
    22
 73
    18
 74
     0
 42
0.000000001
 43
0.00000001
 40
0.0
 40
0.0
 40
0.0
 40
0.0
 40
0.125
 40
0.125
 40
0.25
 40
0.25
 40
0.375
 40
0.375
 40
0.5
 40
0.5
 40
0.625
 40
0.625
 40
0.75
 40
0.75
 40
0.875
 40
0.875
 40
1.0
 40
1.0
 40
1.0
 40
1.0
 10
375.6047937425285
 20
432.9709047993928
 30
0.0
 10
376.691879887985
 20
432.963276937307
 30
0.0
 10
377.8103527437776
 20
432.9512529573954
 30
0.0
 10
380.0648097307218
 20
432.9174685639301
 30
0.0
 10
381.2006109421823
 20
432.8956987356818
 30
0.0
 10
383.4328963699178
 20
432.8422685502098
 30
0.0
 10
384.529075221733
 20
432.8106046057937
 30
0.0
 10
386.6212625543367
 20
432.7382553650909
 30
0.0
 10
387.6169252345316
 20
432.6975750991751
 30
0.0
 10
389.4533462048603
 20
432.6090720992578
 30
0.0
 10
390.2938368362546
 20
432.5612622645869
 30
0.0
 10
391.7809650044205
 20
432.4611128437155
 30
0.0
 10
392.4275039243188
 20
432.408789645043
 30
0.0
 10
393.5093511833369
 20
432.3025011768725
 30
0.0
 10
393.9447430213023
 20
432.2485501869803
 30
0.0
 10
394.6086845325839
 20
432.1416876230102
 30
0.0
 10
394.8374385879433
 20
432.0887844292875
 30
0.0
 10
394.9735458998904
 20
432.0374626865668
 30
0.0
  0
SPLINE
  5
18B
330
1F
100
AcDbEntity
  8
0
  6
Continuous
 62
     7
370
    25
100
AcDbSpline
210
0.0
220
0.0
230
1.0
 70
     8
 71
     3
 72
    22
 73
    18
 74
     0
 42
0.000000001
 43
0.00000001
 40
0.0
 40
0.0
 40
0.0
 40
0.0
 40
0.125
 40
0.125
 40
0.25
 40
0.25
 40
0.375
 40
0.375
 40
0.5
 40
0.5
 40
0.625
 40
0.625
 40
0.75
 40
0.75
 40
0.875
 40
0.875
 40
1.0
 40
1.0
 40
1.0
 40
1.0
 10
233.5174988751224
 20
192.0374626865675
 30
0.0
 10
233.6536061870695
 20
191.9861409438467
 30
0.0
 10
233.8823602424289
 20
191.933237750124
 30
0.0
 10
234.5463017537105
 20
191.8263751861539
 30
0.0
 10
234.9816935916759
 20
191.7724241962618
 30
0.0
 10
236.063540850694
 20
191.6661357280913
 30
0.0
 10
236.7100797705923
 20
191.6138125294188
 30
0.0
 10
238.1972079387582
 20
191.5136631085474
 30
0.0
 10
239.0376985701525
 20
191.4658532738765
 30
0.0
 10
240.8741195404812
 20
191.3773502739592
 30
0.0
 10
241.8697822206761
 20
191.3366700080434
 30
0.0
 10
243.9619695532798
 20
191.2643207673406
 30
0.0
 10
245.058148405095
 20
191.2326568229244
 30
0.0
 10
247.2904338328306
 20
191.1792266374525
 30
0.0
 10
248.4262350442912
 20
191.1574568092043
 30
0.0
 10
250.6806920312354
 20
191.123672415739
 30
0.0
 10
251.7991648870279
 20
191.1116484358274
 30
0.0
 10
252.8862510324845
 20
191.1040205737416
 30
0.0
  0
SPLINE
  5
18C
330
1F
100
AcDbEntity
  8
0
  6
Continuous
 62
     7
370
    25
100
AcDbSpline
210
0.0
220
0.0
230
1.0
 70
     8
 71
     3
 72
    44
 73
    40
 74
     0
 42
0.000000001
 43
0.00000001
 40
0.0
 40
0.0
 40
0.0
 40
0.0
 40
0.0130050695728399
 40
0.0259936106772174
 40
0.0389704848240653
 40
0.0519406043190884
 40
0.064908925757981
 40
0.0778804433206573
 40
0.0908601819014644
 40
0.1038531901145128
 40
0.1168645332146411
 40
0.1298992859756006
 40
0.1429625255673209
 40
0.1560593244739409
 40
0.1691947434934726
 40
0.1823738248586219
 40
0.1956015855163487
 40
0.2088830106014751
 40
0.2222230471367358
 40
0.2356265979886991
 40
0.2490985161054471
 40
0.3114506151166167
 40
0.3735444649120073
 40
0.4358191477416298
 40
0.4987005073878083
 40
0.5614577373488792
 40
0.6238797281093668
 40
0.686323971218985
 40
0.7491389197918386
 40
0.7743487734438089
 40
0.7994745645238653
 40
0.8245372288013813
 40
0.8495579191568392
 40
0.8745579571614923
 40
0.8995587827516529
 40
0.924581902617906
 40
0.949648837964601
 40
0.9747810723107846
 40
1.0
 40
1.0
 40
1.0
 40
1.0
 10
252.8862510324844
 20
191.1040205737414
 30
0.0
 10
252.8867795936029
 20
190.926453089316
 30
0.0
 10
252.8878360440782
 20
190.5715437954257
 30
0.0
 10
252.9029825669969
 20
190.0396144649951
 30
0.0
 10
252.9281444320353
 20
189.5085579403565
 30
0.0
 10
252.9643495008947
 20
188.9783930280303
 30
0.0
 10
253.0114010480467
 20
188.4491456221266
 30
0.0
 10
253.0694289405712
 20
187.9208427302073
 30
0.0
 10
253.138474367141
 20
187.3935140815918
 30
0.0
 10
253.2186010536346
 20
186.8671917048224
 30
0.0
 10
253.3098654384688
 20
186.3419100485796
 30
0.0
 10
253.4123246527329
 20
185.8177059558987
 30
0.0
 10
253.526034358175
 20
185.2946186785455
 30
0.0
 10
253.6510493149743
 20
184.7726898747135
 30
0.0
 10
253.787423183127
 20
184.2519636306405
 30
0.0
 10
253.9352086518165
 20
183.732486400421
 30
0.0
 10
254.0944570194494
 20
183.2143072481759
 30
0.0
 10
254.2652196486939
 20
182.6974769544937
 30
0.0
 10
254.4475424277738
 20
182.1820513855158
 30
0.0
 10
254.6414864899455
 20
181.6680788462741
 30
0.0
 10
255.0952643842188
 20
180.5368970889327
 30
0.0
 10
255.8988840217924
 20
178.8291387594692
 30
0.0
 10
257.209278336437
 20
176.6357997349023
 30
0.0
 10
258.7353890276734
 20
174.577084142398
 30
0.0
 10
260.4631637798621
 20
172.6720800696042
 30
0.0
 10
262.3683037540017
 20
170.9411577896791
 30
0.0
 10
264.4302322835379
 20
169.4097578480695
 30
0.0
 10
266.6340107387909
 20
168.0891554029319
 30
0.0
 10
268.4967964682533
 20
167.2090663687707
 30
0.0
 10
269.9368995621242
 20
166.6444563635011
 30
0.0
 10
270.9105964579431
 20
166.3060101471662
 30
0.0
 10
271.8943414868534
 20
166.0068306373089
 30
0.0
 10
272.8874546194851
 20
165.7470811156566
 30
0.0
 10
273.8892173923975
 20
165.5269067493054
 30
0.0
 10
274.8989218737693
 20
165.346526399781
 30
0.0
 10
275.915858012947
 20
165.2058211652842
 30
0.0
 10
276.9393164323196
 20
165.1058911397819
 30
0.0
 10
277.9685909316788
 20
165.0432236919737
 30
0.0
 10
278.6567961390104
 20
165.0354577102383
 30
0.0
 10
279.0014912097386
 20
165.0315680337362
 30
0.0
  0
SPLINE
  5
18D
330
1F
100
AcDbEntity
  8
0
  6
Continuous
 62
     7
370
    25
100
AcDbSpline
210
0.0
220
0.0
230
1.0
 70
     8
 71
     3
 72
    22
 73
    18
 74
     0
 42
0.000000001
 43
0.00000001
 40
0.0
 40
0.0
 40
0.0
 40
0.0
 40
0.125
 40
0.125
 40
0.25
 40
0.25
 40
0.375
 40
0.375
 40
0.5
 40
0.5
 40
0.625
 40
0.625
 40
0.75
 40
0.75
 40
0.875
 40
0.875
 40
1.0
 40
1.0
 40
1.0
 40
1.0
 10
279.2455223875068
 20
146.2031588553065
 30
0.0
 10
279.2322514734375
 20
146.3356824897851
 30
0.0
 10
279.2185859482814
 20
146.5579639528617
 30
0.0
 10
279.1909938489682
 20
147.2017110462902
 30
0.0
 10
279.1770693285305
 20
147.6233603542381
 30
0.0
 10
279.1496227292968
 20
148.6700444931656
 30
0.0
 10
279.1361040702102
 20
149.2951533623927
 30
0.0
 10
279.1101834879854
 20
150.7328955884841
 30
0.0
 10
279.097785467188
 20
151.5454406386413
 30
0.0
 10
279.0747573701637
 20
153.3221907954847
 30
0.0
 10
279.0641303953975
 20
154.2861566066315
 30
0.0
 10
279.0451224119047
 20
156.3149116816867
 30
0.0
 10
279.0367426891463
 20
157.3793889444316
 30
0.0
 10
279.0224649145723
 20
159.5519802683714
 30
0.0
 10
279.0165661277677
 20
160.6598131497167
 30
0.0
 10
279.0072354304156
 20
162.8648722210679
 30
0.0
 10
279.0038013666878
 20
163.9619224074761
 30
0.0
 10
279.0014912097386
 20
165.0315680337362
 30
0.0
  0
SPLINE
  5
18E
330
1F
100
AcDbEntity
  8
0
  6
Continuous
 62
     7
370
    25
100
AcDbSpline
210
0.0
220
0.0
230
1.0
 70
     8
 71
     3
 72
    22
 73
    18
 74
     0
 42
0.000000001
 43
0.00000001
 40
0.0
 40
0.0
 40
0.0
 40
0.0
 40
0.125
 40
0.125
 40
0.25
 40
0.25
 40
0.375
 40
0.375
 40
0.5
 40
0.5
 40
0.625
 40
0.625
 40
0.75
 40
0.75
 40
0.875
 40
0.875
 40
1.0
 40
1.0
 40
1.0
 40
1.0
 10
349.2455223875061
 20
146.2031588553064
 30
0.0
 10
349.2587933015753
 20
146.3356824897851
 30
0.0
 10
349.2724588267314
 20
146.5579639528616
 30
0.0
 10
349.3000509260445
 20
147.2017110462902
 30
0.0
 10
349.3139754464823
 20
147.623360354238
 30
0.0
 10
349.3414220457159
 20
148.6700444931654
 30
0.0
 10
349.3549407048026
 20
149.2951533623927
 30
0.0
 10
349.3808612870274
 20
150.732895588484
 30
0.0
 10
349.3932593078247
 20
151.5454406386412
 30
0.0
 10
349.416287404849
 20
153.3221907954847
 30
0.0
 10
349.4269143796153
 20
154.2861566066314
 30
0.0
 10
349.4459223631079
 20
156.3149116816866
 30
0.0
 10
349.4543020858663
 20
157.3793889444316
 30
0.0
 10
349.4685798604403
 20
159.5519802683713
 30
0.0
 10
349.474478647245
 20
160.6598131497168
 30
0.0
 10
349.483809344597
 20
162.8648722210679
 30
0.0
 10
349.4872434083248
 20
163.9619224074761
 30
0.0
 10
349.489553565274
 20
165.0315680337362
 30
0.0
  0
SPLINE
  5
18F
330
1F
100
AcDbEntity
  8
0
  6
Continuous
 62
     7
370
    25
100
AcDbSpline
210
0.0
220
0.0
230
1.0
 70
     8
 71
     3
 72
    45
 73
    41
 74
     0
 42
0.000000001
 43
0.00000001
 40
0.0
 40
0.0
 40
0.0
 40
0.0
 40
0.0126496010122533
 40
0.0252749347435241
 40
0.0378786824985814
 40
0.0504635342132097
 40
0.063032186877854
 40
0.0755873429353251
 40
0.0881317086574828
 40
0.1006679925059826
 40
0.1131989034822951
 40
0.1257271494723048
 40
0.1382554355908366
 40
0.1507864625314773
 40
0.1633229249270292
 40
0.1758675097258546
 40
0.1884228945892852
 40
0.2009917463150959
 40
0.213576719291893
 40
0.2261804539890248
 40
0.238805575486399
 40
0.2514546920483166
 40
0.3142213047939732
 40
0.3766293398275701
 40
0.4390268355628198
 40
0.5017705995240125
 40
0.564645578825103
 40
0.6269248044995474
 40
0.6890344186549732
 40
0.7514135758596363
 40
0.7768938606767188
 40
0.8021450890418794
 40
0.8272008117319529
 40
0.8520950837590515
 40
0.8768623084504941
 40
0.901537072178871
 40
0.9261539728707392
 40
0.9507474457611955
 40
0.9753515900363736
 40
1.0
 40
1.0
 40
1.0
 40
1.0
 10
349.4895535652742
 20
165.0315680337361
 30
0.0
 10
349.6624409963891
 20
165.0325533716593
 30
0.0
 10
350.0078841874568
 20
165.034522157211
 30
0.0
 10
350.5253960995564
 20
165.0502968148588
 30
0.0
 10
351.0416309115315
 20
165.0754479029812
 30
0.0
 10
351.5565003802348
 20
165.1108781462307
 30
0.0
 10
352.0699156532783
 20
165.1563284861189
 30
0.0
 10
352.5817879630131
 20
165.2118496455965
 30
0.0
 10
353.0920284462148
 20
165.2774087394403
 30
0.0
 10
353.6005481975361
 20
165.3529944681395
 30
0.0
 10
354.1072582605144
 20
165.4385889763509
 30
0.0
 10
354.6120696351891
 20
165.5341753804883
 30
0.0
 10
355.1148932817734
 20
165.6397357515795
 30
0.0
 10
355.6156401236373
 20
165.7552516521757
 30
0.0
 10
356.11422105709
 20
165.8807039932132
 30
0.0
 10
356.6105469347137
 20
166.0160730589411
 30
0.0
 10
357.1045286478406
 20
166.1613385397756
 30
0.0
 10
357.5960768384837
 20
166.3164793654294
 30
0.0
 10
358.0851029964411
 20
166.4814743305362
 30
0.0
 10
358.5715153768443
 20
166.6562997448849
 30
0.0
 10
359.0552342915265
 20
166.8409382164238
 30
0.0
 10
360.170885594112
 20
167.2919483456476
 30
0.0
 10
361.8765401801942
 20
168.099573161035
 30
0.0
 10
364.0778905977298
 20
169.4212405005871
 30
0.0
 10
366.1377911120365
 20
170.9536732096508
 30
0.0
 10
368.0412674512024
 20
172.6855085042918
 30
0.0
 10
369.7676067785131
 20
174.5915406208746
 30
0.0
 10
371.2922808471433
 20
176.6515482796773
 30
0.0
 10
372.6013560368103
 20
178.846475051036
 30
0.0
 10
373.4737247387703
 20
180.7040132357772
 30
0.0
 10
374.0347793373163
 20
182.1438331893162
 30
0.0
 10
374.3724131627271
 20
183.1226654132819
 30
0.0
 10
374.6685563507177
 20
184.1064065663949
 30
0.0
 10
374.9235804206845
 20
185.094729600963
 30
0.0
 10
375.1378521802155
 20
186.0873099092876
 30
0.0
 10
375.3116787350559
 20
187.0838610153887
 30
0.0
 10
375.4456947958456
 20
188.0841266594406
 30
0.0
 10
375.5393708733601
 20
189.0878773250707
 30
0.0
 10
375.5965871130651
 20
190.0949320956591
 30
0.0
 10
375.6020565608203
 20
190.7674562708831
 30
0.0
 10
375.6047937425285
 20
191.1040205737414
 30
0.0
  0
SPLINE
  5
190
330
1F
100
AcDbEntity
  8
0
  6
Continuous
 62
     7
370
    25
100
AcDbSpline
210
0.0
220
0.0
230
1.0
 70
     8
 71
     3
 72
    22
 73
    18
 74
     0
 42
0.000000001
 43
0.00000001
 40
0.0
 40
0.0
 40
0.0
 40
0.0
 40
0.125
 40
0.125
 40
0.25
 40
0.25
 40
0.375
 40
0.375
 40
0.5
 40
0.5
 40
0.625
 40
0.625
 40
0.75
 40
0.75
 40
0.875
 40
0.875
 40
1.0
 40
1.0
 40
1.0
 40
1.0
 10
375.6047937425284
 20
191.1040205737415
 30
0.0
 10
376.691879887985
 20
191.1116484358273
 30
0.0
 10
377.8103527437775
 20
191.123672415739
 30
0.0
 10
380.0648097307217
 20
191.1574568092042
 30
0.0
 10
381.2006109421822
 20
191.1792266374524
 30
0.0
 10
383.4328963699178
 20
191.2326568229244
 30
0.0
 10
384.529075221733
 20
191.2643207673406
 30
0.0
 10
386.6212625543367
 20
191.3366700080434
 30
0.0
 10
387.6169252345316
 20
191.3773502739591
 30
0.0
 10
389.4533462048603
 20
191.4658532738764
 30
0.0
 10
390.2938368362546
 20
191.5136631085473
 30
0.0
 10
391.7809650044205
 20
191.6138125294187
 30
0.0
 10
392.4275039243188
 20
191.6661357280912
 30
0.0
 10
393.5093511833369
 20
191.7724241962617
 30
0.0
 10
393.9447430213022
 20
191.8263751861538
 30
0.0
 10
394.6086845325839
 20
191.9332377501239
 30
0.0
 10
394.8374385879432
 20
191.9861409438466
 30
0.0
 10
394.9735458998904
 20
192.0374626865675
 30
0.0
  0
SPLINE
  5
191
330
1F
100
AcDbEntity
  8
0
  6
Continuous
 62
     7
370
    25
100
AcDbSpline
210
0.0
220
0.0
230
1.0
 70
     8
 71
     3
 72
    45
 73
    41
 74
     0
 42
0.000000001
 43
0.00000001
 40
0.0
 40
0.0
 40
0.0
 40
0.0
 40
0.012649601007397
 40
0.0252749347343015
 40
0.0378786824854894
 40
0.0504635341967478
 40
0.0630321868585257
 40
0.0755873429136403
 40
0.088131708633957
 40
0.1006679924811327
 40
0.113198903456641
 40
0.1257271494463664
 40
0.1382554355651381
 40
0.150786462506546
 40
0.1633229249033871
 40
0.1758675097040301
 40
0.1884228945698042
 40
0.2009917462984856
 40
0.2135767192786744
 40
0.2261804539797225
 40
0.2388055754815304
 40
0.2514546920483994
 40
0.3142213047600187
 40
0.3766293397823355
 40
0.4390268355286747
 40
0.5017705995224202
 40
0.5646455788079162
 40
0.6269248044770742
 40
0.6890344186381326
 40
0.7514135758597594
 40
0.7768938606911888
 40
0.8021450890674732
 40
0.8272008117654441
 40
0.8520950837972202
 40
0.8768623084901346
 40
0.9015370722167996
 40
0.9261539729038039
 40
0.9507474457862839
 40
0.9753515900504236
 40
1.0
 40
1.0
 40
1.0
 40
1.0
 10
279.0014912097388
 20
459.0433573393983
 30
0.0
 10
278.8286037786899
 20
459.0423720014917
 30
0.0
 10
278.4831605877475
 20
459.040403215973
 30
0.0
 10
277.9656486758247
 20
459.0246285583699
 30
0.0
 10
277.4494138640054
 20
458.9994774702887
 30
0.0
 10
276.9345443954371
 20
458.9640472270759
 30
0.0
 10
276.4211291225078
 20
458.9185968872197
 30
0.0
 10
275.9092568128661
 20
458.8630757277695
 30
0.0
 10
275.3990163297368
 20
458.7975166339483
 30
0.0
 10
274.8904965784669
 20
458.7219309052662
 30
0.0
 10
274.383786515519
 20
458.6363363970668
 30
0.0
 10
273.8789751408541
 20
458.5407499929356
 30
0.0
 10
273.3761514942586
 20
458.4351896218449
 30
0.0
 10
272.8754046523629
 20
458.319673721243
 30
0.0
 10
272.3768237188575
 20
458.1942213801937
 30
0.0
 10
271.8804978411607
 20
458.0588523144474
 30
0.0
 10
271.3865161279401
 20
457.913586833588
 30
0.0
 10
270.8949679371827
 20
457.7584460079024
 30
0.0
 10
270.4059417790907
 20
457.5934510427566
 30
0.0
 10
269.9195293985325
 20
457.418625628362
 30
0.0
 10
269.4358104836756
 20
457.2339871567685
 30
0.0
 10
268.3201591813829
 20
456.7829770277137
 30
0.0
 10
266.6145045957935
 20
455.9753522125652
 30
0.0
 10
264.4131541786767
 20
454.6536848732156
 30
0.0
 10
262.353253663995
 20
453.1212521639213
 30
0.0
 10
260.4497773242825
 20
451.3894168693141
 30
0.0
 10
258.7234379965362
 20
449.4833847528959
 30
0.0
 10
257.1987639279657
 20
447.4233770942903
 30
0.0
 10
255.8896887382365
 20
445.2284503226832
 30
0.0
 10
255.017320036218
 20
443.3709121374052
 30
0.0
 10
254.4562654375651
 20
441.9310921832836
 30
0.0
 10
254.1186316120432
 20
440.9522599588726
 30
0.0
 10
253.8224884239819
 20
439.968518805441
 30
0.0
 10
253.5674643539785
 20
438.9801957706825
 30
0.0
 10
253.3531925944426
 20
437.987615462295
 30
0.0
 10
253.1793660396264
 20
436.9910643562587
 30
0.0
 10
253.0453499788864
 20
435.9907987123986
 30
0.0
 10
252.9516739014456
 20
434.9870480470875
 30
0.0
 10
252.8944576618326
 20
433.9799932769436
 30
0.0
 10
252.8889882141542
 20
433.3074691020603
 30
0.0
 10
252.8862510324846
 20
432.9709047993931
 30
0.0
  0
SPLINE
  5
192
330
1F
100
AcDbEntity
  8
0
  6
Continuous
 62
     7
370
    25
100
AcDbSpline
210
0.0
220
0.0
230
1.0
 70
     8
 71
     3
 72
    22
 73
    18
 74
     0
 42
0.000000001
 43
0.00000001
 40
0.0
 40
0.0
 40
0.0
 40
0.0
 40
0.125
 40
0.125
 40
0.25
 40
0.25
 40
0.375
 40
0.375
 40
0.5
 40
0.5
 40
0.625
 40
0.625
 40
0.75
 40
0.75
 40
0.875
 40
0.875
 40
1.0
 40
1.0
 40
1.0
 40
1.0
 10
233.5174988751225
 20
432.037462686567
 30
0.0
 10
233.6536061870696
 20
432.0887844292879
 30
0.0
 10
233.882360242429
 20
432.1416876230106
 30
0.0
 10
234.5463017537107
 20
432.2485501869807
 30
0.0
 10
234.981693591676
 20
432.3025011768729
 30
0.0
 10
236.0635408506941
 20
432.4087896450433
 30
0.0
 10
236.7100797705924
 20
432.4611128437158
 30
0.0
 10
238.1972079387583
 20
432.5612622645872
 30
0.0
 10
239.0376985701526
 20
432.6090720992581
 30
0.0
 10
240.8741195404813
 20
432.6975750991754
 30
0.0
 10
241.8697822206762
 20
432.7382553650912
 30
0.0
 10
243.9619695532799
 20
432.8106046057941
 30
0.0
 10
245.0581484050951
 20
432.8422685502101
 30
0.0
 10
247.2904338328307
 20
432.8956987356821
 30
0.0
 10
248.4262350442912
 20
432.9174685639304
 30
0.0
 10
250.6806920312355
 20
432.9512529573956
 30
0.0
 10
251.7991648870279
 20
432.9632769373072
 30
0.0
 10
252.8862510324845
 20
432.9709047993931
 30
0.0
  0
SPLINE
  5
193
330
1F
100
AcDbEntity
  8
0
  6
Continuous
 62
     7
370
    25
100
AcDbSpline
210
0.0
220
0.0
230
1.0
 70
     8
 71
     3
 72
    18
 73
    14
 74
     0
 42
0.000000001
 43
0.00000001
 40
0.0
 40
0.0
 40
0.0
 40
0.0
 40
0.0721328501101247
 40
0.1437721355799328
 40
0.2150695945921846
 40
0.2861809520588242
 40
0.3572652066393521
 40
0.4284838534755728
 40
0.5000000671403438
 40
0.6249491820881513
 40
0.749361398185488
 40
0.8740996701882557
 40
0.9999999999999999
 40
0.9999999999999999
 40
0.9999999999999999
 40
0.9999999999999999
 10
279.0014912097388
 20
165.0315680337361
 30
0.0
 10
280.6962524999748
 20
165.0318216967581
 30
0.0
 10
284.0741787793805
 20
165.0323272871283
 30
0.0
 10
289.1273553571298
 20
165.0350292644825
 30
0.0
 10
294.1566016962641
 20
165.0366539357062
 30
0.0
 10
299.1728721074729
 20
165.0365770523957
 30
0.0
 10
304.1873373986917
 20
165.0346712469078
 30
0.0
 10
309.211346940665
 20
165.0318396365455
 30
0.0
 10
315.5010143753343
 20
165.0295195980058
 30
0.0
 10
323.0405549198313
 20
165.0342338251405
 30
0.0
 10
331.8305423538156
 20
165.0377266227476
 30
0.0
 10
340.6427315559181
 20
165.0341293654692
 30
0.0
 10
346.5315120051273
 20
165.0324244458702
 30
0.0
 10
349.489553565274
 20
165.0315680337362
 30
0.0
  0
SPLINE
  5
194
330
1F
100
AcDbEntity
  8
0
  6
Continuous
 62
     7
370
    25
100
AcDbSpline
210
0.0
220
0.0
230
1.0
 70
     8
 71
     3
 72
    27
 73
    23
 74
     0
 42
0.000000001
 43
0.00000001
 40
0.0
 40
0.0
 40
0.0
 40
0.0
 40
0.0459759800284222
 40
0.0926494579588626
 40
0.1401202105531524
 40
0.1884743045785725
 40
0.2377849097004067
 40
0.2881132467345358
 40
0.3395096275898092
 40
0.3920145540669914
 40
0.4456598532425913
 40
0.5004698364895469
 40
0.5454525467728337
 40
0.5915151357415099
 40
0.6386710832531941
 40
0.6869309641017968
 40
0.736302857325753
 40
0.7867927435637465
 40
0.838404893458687
 40
0.891142250243503
 40
0.9450068096295603
 40
1.0
 40
1.0
 40
1.0
 40
1.0
 10
378.2329736854826
 20
348.0302214166844
 30
0.0
 10
378.185418714952
 20
349.332415087042
 30
0.0
 10
378.0895873212505
 20
351.9565579033888
 30
0.0
 10
377.9373032928939
 20
355.9246955352142
 30
0.0
 10
377.777491582852
 20
359.9597884221112
 30
0.0
 10
377.6095679135675
 20
364.0691286834439
 30
0.0
 10
377.4340286085344
 20
368.258982081796
 30
0.0
 10
377.2517073313376
 20
372.5346121125194
 30
0.0
 10
377.0642003546351
 20
376.9003930915044
 30
0.0
 10
376.87395256225
 20
381.359903872191
 30
0.0
 10
376.6843604829552
 20
385.9160238978547
 30
0.0
 10
376.512373328152
 20
390.259376509232
 30
0.0
 10
376.3602449996467
 20
394.388349700281
 30
0.0
 10
376.2254580536077
 20
398.3008437157552
 30
0.0
 10
376.0977143693555
 20
402.3063208072126
 30
0.0
 10
375.9785052185794
 20
406.4057095828771
 30
0.0
 10
375.8698897004919
 20
410.5997311546255
 30
0.0
 10
375.7745568989771
 20
414.8889231183221
 30
0.0
 10
375.6955300947347
 20
419.273664674792
 30
0.0
 10
375.6374134807144
 20
423.7541884619696
 30
0.0
 10
375.6016321849349
 20
428.3306245413038
 30
0.0
 10
375.6037326308956
 20
431.4134903871984
 30
0.0
 10
375.6047937425284
 20
432.9709047993926
 30
0.0
  0
SPLINE
  5
195
330
1F
100
AcDbEntity
  8
0
  6
Continuous
 62
     7
370
    25
100
AcDbSpline
210
0.0
220
0.0
230
1.0
 70
     8
 71
     3
 72
    22
 73
    18
 74
     0
 42
0.000000001
 43
0.00000001
 40
0.0
 40
0.0
 40
0.0
 40
0.0
 40
0.125
 40
0.125
 40
0.25
 40
0.25
 40
0.375
 40
0.375
 40
0.5
 40
0.5
 40
0.625
 40
0.625
 40
0.75
 40
0.75
 40
0.875
 40
0.875
 40
1.0
 40
1.0
 40
1.0
 40
1.0
 10
378.2328358974486
 20
348.0301439113085
 30
0.0
 10
379.1299347024835
 20
348.02156720156
 30
0.0
 10
380.0501198252057
 20
348.0113254998751
 30
0.0
 10
381.9003534219735
 20
347.9874444681653
 30
0.0
 10
382.8302577162311
 20
347.9738031578006
 30
0.0
 10
384.6552141761456
 20
347.9433708746358
 30
0.0
 10
385.5500365370177
 20
347.9265803250177
 30
0.0
 10
387.257508463522
 20
347.890447047835
 30
0.0
 10
388.0699026970373
 20
347.8711075711761
 30
0.0
 10
389.5701418991791
 20
347.8307688999213
 30
0.0
 10
390.2577896756758
 20
347.8097750074589
 30
0.0
 10
391.4782176897239
 20
347.7671824434555
 30
0.0
 10
392.0109226434916
 20
347.745589410662
 30
0.0
 10
392.9074976253369
 20
347.7028447217933
 30
0.0
 10
393.2714245629739
 20
347.6816972913704
 30
0.0
 10
393.8330855213478
 20
347.6407269171028
 30
0.0
 10
394.0309671188481
 20
347.6209058622596
 30
0.0
 10
394.1537457965279
 20
347.6020599433789
 30
0.0
  0
SPLINE
  5
196
330
1F
100
AcDbEntity
  8
0
  6
Continuous
 62
     7
370
    25
100
AcDbSpline
210
0.0
220
0.0
230
1.0
 70
     8
 71
     3
 72
    22
 73
    18
 74
     0
 42
0.000000001
 43
0.00000001
 40
0.0
 40
0.0
 40
0.0
 40
0.0
 40
0.125
 40
0.125
 40
0.25
 40
0.25
 40
0.375
 40
0.375
 40
0.5
 40
0.5
 40
0.625
 40
0.625
 40
0.75
 40
0.75
 40
0.875
 40
0.875
 40
1.0
 40
1.0
 40
1.0
 40
1.0
 10
234.3374487111846
 20
276.4741608095863
 30
0.0
 10
234.460224883012
 20
276.450737869225
 30
0.0
 10
234.6581131057387
 20
276.4266242561501
 30
0.0
 10
235.2198099239751
 20
276.3779385588369
 30
0.0
 10
235.5837661469808
 20
276.3533700353355
 30
0.0
 10
236.4804240236107
 20
276.3049312253838
 30
0.0
 10
237.0131826116112
 20
276.2810668323727
 30
0.0
 10
238.2337399640348
 20
276.2352807724955
 30
0.0
 10
238.921463424233
 20
276.2133658229649
 30
0.0
 10
240.4218697160825
 20
276.1726148388181
 30
0.0
 10
241.2343552926505
 20
276.1537841616434
 30
0.0
 10
242.9420164745137
 20
276.1200399051543
 30
0.0
 10
243.8369366688754
 20
276.1051285907168
 30
0.0
 10
245.6620856527854
 20
276.0796432183809
 30
0.0
 10
246.5920845762411
 20
276.0690679638627
 30
0.0
 10
248.4424962421408
 20
276.052240876318
 30
0.0
 10
249.3627647801258
 20
276.0459853895852
 30
0.0
 10
250.259938887352
 20
276.0417065148595
 30
0.0
  0
SPLINE
  5
197
330
1F
100
AcDbEntity
  8
0
  6
Continuous
 62
     7
370
    25
100
AcDbSpline
210
0.0
220
0.0
230
1.0
 70
     8
 71
     3
 72
    27
 73
    23
 74
     0
 42
0.000000001
 43
0.00000001
 40
0.0
 40
0.0
 40
0.0
 40
0.0
 40
0.0459775704097916
 40
0.0926530123866319
 40
0.1401261305675576
 40
0.1884830146817287
 40
0.2377968529447983
 40
0.2881288808402926
 40
0.3395294215830861
 40
0.3920389854092876
 40
0.4456894054085705
 40
0.5005049969462204
 40
0.5454838813441363
 40
0.591542716242045
 40
0.6386949794253907
 40
0.6869512444927857
 40
0.7363195899027685
 40
0.7868059960550323
 40
0.8384147334060305
 40
0.8911487447512915
 40
0.9450100247938896
 40
1.0
 40
1.0
 40
1.0
 40
1.0
 10
250.2597963672968
 20
276.0416263400034
 30
0.0
 10
250.3073527209005
 20
274.7394357152007
 30
0.0
 10
250.4031872632704
 20
272.1152891364613
 30
0.0
 10
250.5554437731132
 20
268.1471292029971
 30
0.0
 10
250.7152090699043
 20
264.1119817135125
 30
0.0
 10
250.8830676220213
 20
260.0025528253546
 30
0.0
 10
251.0585265182955
 20
255.8125755175741
 30
0.0
 10
251.2407543524776
 20
251.5367853171078
 30
0.0
 10
251.4281571142832
 20
247.1708072149426
 30
0.0
 10
251.618291873387
 20
242.7110619045793
 30
0.0
 10
251.8077636876237
 20
238.1546696936615
 30
0.0
 10
251.9796236072265
 20
233.8112769522932
 30
0.0
 10
252.1316205112863
 20
229.6825074469828
 30
0.0
 10
252.266275313709
 20
225.7704727198287
 30
0.0
 10
252.3938891988974
 20
221.7654527165822
 30
0.0
 10
252.5129736582533
 20
217.6665190711043
 30
0.0
 10
252.6214727611913
 20
213.4729508519891
 30
0.0
 10
252.7167009638257
 20
209.1842105873182
 30
0.0
 10
252.7956386209678
 20
204.7999191541466
 30
0.0
 10
252.8536864965817
 20
200.3198439448524
 30
0.0
 10
252.8894210296257
 20
195.7438548985899
 30
0.0
 10
252.8873149775227
 20
192.6612865548111
 30
0.0
 10
252.8862510324845
 20
191.1040205737416
 30
0.0
  0
SPLINE
  5
198
330
1F
100
AcDbEntity
  8
0
  6
Continuous
 62
     7
370
    25
100
AcDbSpline
210
0.0
220
0.0
230
1.0
 70
     8
 71
     3
 72
    31
 73
    27
 74
     0
 42
0.000000001
 43
0.00000001
 40
0.0
 40
0.0
 40
0.0
 40
0.0
 40
0.0306879781155044
 40
0.0610275998669912
 40
0.091019075334917
 40
0.120662636072769
 40
0.1499585553837567
 40
0.1789071684786991
 40
0.2075088925588187
 40
0.2357642468693895
 40
0.2636738727721341
 40
0.2912385538858682
 40
0.3184592363461187
 40
0.3453370492351809
 40
0.3718733252342947
 40
0.3980696215491372
 40
0.4239277411585798
 40
0.4494497544344397
 40
0.474638021176614
 40
0.499495213103291
 40
0.5902029261656851
 40
0.6777211090943073
 40
0.7621982596216219
 40
0.8438527129448273
 40
0.9229868586393126
 40
1.0
 40
1.0
 40
1.0
 40
1.0
 10
375.6047937425284
 20
191.1040205737415
 30
0.0
 10
375.6033858413236
 20
191.9730701952087
 30
0.0
 10
375.6005860207862
 20
193.7013043709447
 30
0.0
 10
375.6091679907477
 20
196.2789059092448
 30
0.0
 10
375.6259966023515
 20
198.8269176939108
 30
0.0
 10
375.6511491699144
 20
201.3453414042976
 30
0.0
 10
375.6835563836406
 20
203.8341818096658
 30
0.0
 10
375.7225248706043
 20
206.2934566157783
 30
0.0
 10
375.7673357924581
 20
208.7231946230208
 30
0.0
 10
375.8173499476822
 20
211.123437106623
 30
0.0
 10
375.8719794627424
 20
213.4942384900904
 30
0.0
 10
375.9306945129395
 20
215.8356673427544
 30
0.0
 10
375.9930207455434
 20
218.1478074259595
 30
0.0
 10
376.0585390273937
 20
220.4307588576319
 30
0.0
 10
376.1268845834534
 20
222.6846393671926
 30
0.0
 10
376.1977458131164
 20
224.9095856620299
 30
0.0
 10
376.2708644521769
 20
227.1057548256709
 30
0.0
 10
376.3460302284777
 20
229.2733260147979
 30
0.0
 10
376.4230952509196
 20
231.4125014560795
 30
0.0
 10
376.5718621258196
 20
235.3968509647883
 30
0.0
 10
376.8049938341179
 20
241.1451647652808
 30
0.0
 10
377.1232064698358
 20
248.5809092788249
 30
0.0
 10
377.4312406963771
 20
255.7609621270331
 30
0.0
 10
377.7200346414673
 20
262.7046774683854
 30
0.0
 10
377.9880798131661
 20
269.4381214190104
 30
0.0
 10
378.1509295497148
 20
273.8604812912855
 30
0.0
 10
378.2312483949403
 20
276.0416259811129
 30
0.0
  0
SPLINE
  5
199
330
1F
100
AcDbEntity
  8
0
  6
Continuous
 62
     7
370
    25
100
AcDbSpline
210
0.0
220
0.0
230
1.0
 70
     8
 71
     3
 72
    22
 73
    18
 74
     0
 42
0.000000001
 43
0.00000001
 40
0.0
 40
0.0
 40
0.0
 40
0.0
 40
0.125
 40
0.125
 40
0.25
 40
0.25
 40
0.375
 40
0.375
 40
0.5
 40
0.5
 40
0.625
 40
0.625
 40
0.75
 40
0.75
 40
0.875
 40
0.875
 40
1.0
 40
1.0
 40
1.0
 40
1.0
 10
378.2311182839038
 20
276.0381840503027
 30
0.0
 10
379.1283157408104
 20
276.0424373940585
 30
0.0
 10
380.0486054102878
 20
276.0486639145965
 30
0.0
 10
381.8990523756969
 20
276.0654263641451
 30
0.0
 10
382.8290654401169
 20
276.0759659438941
 30
0.0
 10
384.6542342910853
 20
276.1013741031442
 30
0.0
 10
385.5491601972906
 20
276.116243881498
 30
0.0
 10
387.2568247385333
 20
276.149900752118
 30
0.0
 10
388.0693079716639
 20
276.168685587529
 30
0.0
 10
389.5697037750139
 20
276.2093426782416
 30
0.0
 10
390.2574191208025
 20
276.2312095879968
 30
0.0
 10
391.4779580016245
 20
276.2768997075437
 30
0.0
 10
392.0107062703052
 20
276.3007162119901
 30
0.0
 10
392.9073450284754
 20
276.3490616046531
 30
0.0
 10
393.271292480106
 20
276.3735846078305
 30
0.0
 10
393.8329761952673
 20
276.4221833975088
 30
0.0
 10
394.0308600949786
 20
276.446255626308
 30
0.0
 10
394.1536349165367
 20
276.4696398237054
 30
0.0
  0
SPLINE
  5
19A
330
1F
100
AcDbEntity
  8
0
  6
Continuous
 62
     7
370
    25
100
AcDbSpline
210
0.0
220
0.0
230
1.0
 70
     8
 71
     3
 72
    31
 73
    27
 74
     0
 42
0.000000001
 43
0.00000001
 40
0.0
 40
0.0
 40
0.0
 40
0.0
 40
0.03068975746821
 40
0.061031177908853
 40
0.0910244718654414
 40
0.1206698712379436
 40
0.1499676495784839
 40
0.1789181422676525
 40
0.2075217666151769
 40
0.2357790419309076
 40
0.2636906096140439
 40
0.2912572533101167
 40
0.3184799191864821
 40
0.345359736377812
 40
0.3718980376532789
 40
0.398096380356657
 40
0.4239565676693016
 40
0.4494806702437462
 40
0.4746710482523128
 40
0.4995303738904326
 40
0.590229012192961
 40
0.6777394662393258
 40
0.7622102055182916
 40
0.8438595170911036
 40
0.9229897164085714
 40
1.0
 40
1.0
 40
1.0
 40
1.0
 10
252.8862510324845
 20
432.9709047993931
 30
0.0
 10
252.8876581544082
 20
432.1017727676224
 30
0.0
 10
252.8904564270421
 20
430.3733735871394
 30
0.0
 10
252.8818595799763
 20
427.7955242722898
 30
0.0
 10
252.8650079905176
 20
425.2472642159773
 30
0.0
 10
252.8398242503717
 20
422.7285917478615
 30
0.0
 10
252.8073787285454
 20
420.2395021077457
 30
0.0
 10
252.7683655100815
 20
417.7799775930542
 30
0.0
 10
252.723504194418
 20
415.3499894026282
 30
0.0
 10
252.6734346888967
 20
412.9494962561895
 30
0.0
 10
252.618745545412
 20
410.5784437210241
 30
0.0
 10
252.5599672326063
 20
408.2367632142788
 30
0.0
 10
252.4975747149912
 20
405.9243709565417
 30
0.0
 10
252.4319877053518
 20
403.6411668069111
 30
0.0
 10
252.363571526505
 20
401.3870330076297
 30
0.0
 10
252.2926382966645
 20
399.1618328169837
 30
0.0
 10
252.2194467639425
 20
396.9654091106498
 30
0.0
 10
252.1442076667485
 20
394.7975826831888
 30
0.0
 10
252.0670692895013
 20
392.658151252979
 30
0.0
 10
251.9181827842734
 20
388.6737958001495
 30
0.0
 10
251.6848897302207
 20
382.9256918628502
 30
0.0
 10
251.3664877554631
 20
375.4903386818879
 30
0.0
 10
251.0582898981957
 20
368.3105740551516
 30
0.0
 10
250.7693699089754
 20
361.3670467156646
 30
0.0
 10
250.5012403975643
 20
354.6336959144294
 30
0.0
 10
250.3383905223633
 20
350.2113656249419
 30
0.0
 10
250.2580710892578
 20
348.0302214182399
 30
0.0
  0
SPLINE
  5
19B
330
1F
100
AcDbEntity
  8
0
  6
Continuous
 62
     7
370
    25
100
AcDbSpline
210
0.0
220
0.0
230
1.0
 70
     8
 71
     3
 72
    22
 73
    18
 74
     0
 42
0.000000001
 43
0.00000001
 40
0.0
 40
0.0
 40
0.0
 40
0.0
 40
0.125
 40
0.125
 40
0.25
 40
0.25
 40
0.375
 40
0.375
 40
0.5
 40
0.5
 40
0.625
 40
0.625
 40
0.75
 40
0.75
 40
0.875
 40
0.875
 40
1.0
 40
1.0
 40
1.0
 40
1.0
 10
234.3372989785895
 20
347.6020599449168
 30
0.0
 10
234.4600776562864
 20
347.620905863788
 30
0.0
 10
234.6579592538003
 20
347.6407269186222
 30
0.0
 10
235.2196202121908
 20
347.6816972928738
 30
0.0
 10
235.5835471498309
 20
347.7028447232895
 30
0.0
 10
236.4801221316703
 20
347.7455894121471
 30
0.0
 10
237.0128270854289
 20
347.7671824449363
 30
0.0
 10
238.2332550994473
 20
347.8097750089344
 30
0.0
 10
238.9209028759234
 20
347.8307689013957
 30
0.0
 10
240.4211420780157
 20
347.8711075726519
 30
0.0
 10
241.2335363115021
 20
347.8904470493131
 30
0.0
 10
242.9410082379452
 20
347.9265803265038
 30
0.0
 10
243.8358305987851
 20
347.9433708761275
 30
0.0
 10
245.6607870586371
 20
347.9738031593064
 30
0.0
 10
246.5906913528644
 20
347.9874444696796
 30
0.0
 10
248.440924949578
 20
348.0113255014086
 30
0.0
 10
249.3611100722764
 20
348.0215672031042
 30
0.0
 10
250.2582088772917
 20
348.0301439128641
 30
0.0
  0
SPLINE
  5
19C
330
1F
100
AcDbEntity
  8
0
  6
Continuous
 62
     7
370
    25
100
AcDbSpline
210
0.0
220
0.0
230
1.0
 70
     8
 71
     3
 72
    14
 73
    10
 74
     0
 42
0.000000001
 43
0.00000001
 40
0.0
 40
0.0
 40
0.0
 40
0.0
 40
0.25
 40
0.25
 40
0.5
 40
0.5
 40
0.75
 40
0.75
 40
1.0
 40
1.0
 40
1.0
 40
1.0
 10
378.2311057334969
 20
276.041706236794
 30
0.0
 10
381.3052112666018
 20
281.5061958100944
 30
0.0
 10
383.675276061496
 20
287.3662358339644
 30
0.0
 10
386.8532667446402
 20
299.4965062233395
 30
0.0
 10
387.6609651239399
 20
305.765868195776
 30
0.0
 10
387.6612664664831
 20
318.3055286541255
 30
0.0
 10
386.8538694081539
 20
324.5749294391732
 30
0.0
 10
383.6764617375328
 20
336.7053525561208
 30
0.0
 10
381.3066785924538
 20
342.5655064840186
 30
0.0
 10
378.2328356989079
 20
348.03014379963
 30
0.0
  0
SPLINE
  5
19D
330
1F
100
AcDbEntity
  8
0
  6
Continuous
 62
     7
370
    25
100
AcDbSpline
210
0.0
220
0.0
230
1.0
 70
     8
 71
     3
 72
    14
 73
    10
 74
     0
 42
0.000000001
 43
0.00000001
 40
0.0
 40
0.0
 40
0.0
 40
0.0
 40
0.2500000000000001
 40
0.2500000000000001
 40
0.5000000000000001
 40
0.5000000000000001
 40
0.7500000000000001
 40
0.7500000000000001
 40
1.0
 40
1.0
 40
1.0
 40
1.0
 10
250.2582090767042
 20
348.0301438006952
 30
0.0
 10
247.1843661960524
 20
342.5655065082196
 30
0.0
 10
244.8145830578778
 20
336.7053526068006
 30
0.0
 10
241.6371753873484
 20
324.5749295445882
 30
0.0
 10
240.8297783222028
 20
318.3055287877785
 30
0.0
 10
240.8300796373924
 20
305.7658683824005
 30
0.0
 10
241.6377779961569
 20
299.4965064346788
 30
0.0
 10
244.815768626288
 20
287.3662360861749
 30
0.0
 10
247.1858333887121
 20
281.5061960784438
 30
0.0
 10
250.2599388850827
 20
276.0417065148677
 30
0.0
  0
ARC
  5
19E
330
1F
100
AcDbEntity
  8
0
  6
Continuous
 62
     7
370
    25
100
AcDbCircle
 10
314.2455223875
 20
312.0374626866
 30
0.0
 40
73.4155934289037
100
AcDbArc
 50
29.3576293208
 51
150.6423706783
  0
ARC
  5
19F
330
1F
100
AcDbEntity
  8
0
  6
Continuous
 62
     7
370
    25
100
AcDbCircle
 10
314.2455223875
 20
312.0374626866
 30
0.0
 40
73.41559342890363
100
AcDbArc
 50
209.3603828394
 51
330.6396169116
  0
CIRCLE
  5
1A0
330
1F
100
AcDbEntity
  8
0
  6
Continuous
 62
     7
370
    25
100
AcDbCircle
 10
314.2455223875
 20
312.0374626866
 30
0.0
 40
58.98236190979497
  0
CIRCLE
  5
1A1
330
1F
100
AcDbEntity
  8
0
  6
Continuous
 62
     7
370
    25
100
AcDbCircle
 10
314.2455223875
 20
312.0374626866
 30
0.0
 40
57.5
  0
LINE
  5
1A2
330
1F
100
AcDbEntity
  8
0
  6
Continuous
 62
     8
370
    25
100
AcDbLine
 10
330.2723095152
 20
324.0827588784
 30
0.0
 11
330.7877715147
 21
323.3644684605
 31
0.0
  0
LWPOLYLINE
  5
1A3
330
1F
100
AcDbEntity
  8
0
  6
Continuous
 62
     8
370
    25
100
AcDbPolyline
 90
        3
 70
   128
 43
0.0
 10
333.7080103821
 20
316.8498038056
 10
333.7443317979
 20
316.7004550268
 10
334.0624994208
 20
315.076292601
  0
LINE
  5
1A4
330
1F
100
AcDbEntity
  8
0
  6
Continuous
 62
     8
370
    25
100
AcDbLine
 10
333.9018769011
 20
308.0909714318
 30
0.0
 11
333.4707140538
 21
306.3507174503
 31
0.0
  0
LWPOLYLINE
  5
1A5
330
1F
100
AcDbEntity
  8
0
  6
Continuous
 62
     8
370
    25
100
AcDbPolyline
 90
        3
 70
   128
 43
0.0
 10
330.2494581514
 20
299.9618216663
 10
329.2996264348
 20
298.7965783762
 10
328.9694850365
 20
298.4304060652
  0
LWPOLYLINE
  5
1A6
330
1F
100
AcDbEntity
  8
0
  6
Continuous
 62
     8
370
    25
100
AcDbPolyline
 90
        3
 70
   128
 43
0.0
 10
323.2576456771
 20
294.1285626701
 10
322.7781340154
 20
293.8952024968
 10
321.6152683746
 20
293.3925194023
  0
LINE
  5
1A7
330
1F
100
AcDbEntity
  8
0
  6
Continuous
 62
     8
370
    25
100
AcDbLine
 10
314.7723386442
 20
291.9957678825
 30
0.0
 11
312.9878275126
 21
292.0283330306
 31
0.0
  0
LINE
  5
1A8
330
1F
100
AcDbEntity
  8
0
  6
Continuous
 62
     8
370
    25
100
AcDbLine
 10
306.0306509956
 20
293.7491343321
 30
0.0
 11
304.4221570492
 21
294.5603759895
 31
0.0
  0
LINE
  5
1A9
330
1F
100
AcDbEntity
  8
0
  6
Continuous
 62
     8
370
    25
100
AcDbLine
 10
298.9108668626
 20
299.1225331118
 30
0.0
 11
298.2187352669
 21
299.9921664853
 31
0.0
  0
LINE
  5
1AA
330
1F
100
AcDbEntity
  8
0
  6
Continuous
 62
     8
370
    25
100
AcDbLine
 10
298.2187352647
 20
299.9921664881
 30
0.0
 11
297.7032732603
 21
300.7104569127
 31
0.0
  0
LWPOLYLINE
  5
1AB
330
1F
100
AcDbEntity
  8
0
  6
Continuous
 62
     8
370
    25
100
AcDbPolyline
 90
        3
 70
   128
 43
0.0
 10
294.8248394164
 20
307.0590955925
 10
294.7467129784
 20
307.3744703409
 10
294.4285453542
 20
308.9986327721
  0
LINE
  5
1AC
330
1F
100
AcDbEntity
  8
0
  6
Continuous
 62
     8
370
    25
100
AcDbLine
 10
294.589167874
 20
315.9839539414
 30
0.0
 11
295.0227658535
 21
317.7324339088
 31
0.0
  0
LWPOLYLINE
  5
1AD
330
1F
100
AcDbEntity
  8
0
  6
Continuous
 62
     8
370
    25
100
AcDbPolyline
 90
        3
 70
   128
 43
0.0
 10
298.2415866236
 20
324.1131037069
 10
299.1914183405
 20
325.2783469973
 10
299.5215597385
 20
325.644519308
  0
LWPOLYLINE
  5
1AE
330
1F
100
AcDbEntity
  8
0
  6
Continuous
 62
     8
370
    25
100
AcDbPolyline
 90
        3
 70
   128
 43
0.0
 10
305.0680129614
 20
329.8621754955
 10
305.7129107625
 20
330.1797228777
 10
306.8757764005
 20
330.6824059708
  0
LINE
  5
1AF
330
1F
100
AcDbEntity
  8
0
  6
Continuous
 62
     8
370
    25
100
AcDbLine
 10
313.7187061308
 20
332.0791574906
 30
0.0
 11
315.5032172618
 21
332.0465923426
 31
0.0
  0
LINE
  5
1B0
330
1F
100
AcDbEntity
  8
0
  6
Continuous
 62
     8
370
    25
100
AcDbLine
 10
322.4603937795
 20
330.325791041
 30
0.0
 11
324.0688877259
 21
329.5145493836
 31
0.0
  0
LINE
  5
1B1
330
1F
100
AcDbEntity
  8
0
  6
Continuous
 62
     8
370
    25
100
AcDbLine
 10
329.5801779124
 20
324.9523922613
 30
0.0
 11
330.2723095152
 21
324.0827588784
 31
0.0
  0
LINE
  5
1B2
330
1F
100
AcDbEntity
  8
0
  6
Continuous
 62
     8
370
    25
100
AcDbLine
 10
297.7321291098
 20
299.6264465704
 30
0.0
 11
298.4458125741
 21
298.7297713619
 31
0.0
  0
LINE
  5
1B3
330
1F
100
AcDbEntity
  8
0
  6
Continuous
 62
     8
370
    25
100
AcDbLine
 10
303.9571855878
 20
294.1244616963
 30
0.0
 11
305.7760358746
 21
293.1961974215
 31
0.0
  0
LWPOLYLINE
  5
1B4
330
1F
100
AcDbEntity
  8
0
  6
Continuous
 62
     8
370
    25
100
AcDbPolyline
 90
        3
 70
   128
 43
0.0
 10
312.7553332864
 20
291.4339480586
 10
314.0391265902
 20
291.3811590638
 10
314.7888006323
 20
291.3872731637
  0
LWPOLYLINE
  5
1B5
330
1F
100
AcDbEntity
  8
0
  6
Continuous
 62
     8
370
    25
100
AcDbPolyline
 90
        3
 70
   128
 43
0.0
 10
321.8375811308
 20
292.8258484228
 10
321.9596627051
 20
292.8745423
 10
323.701697043
 20
293.6715638666
  0
LWPOLYLINE
  5
1B6
330
1F
100
AcDbEntity
  8
0
  6
Continuous
 62
     8
370
    25
100
AcDbPolyline
 90
        3
 70
   128
 43
0.0
 10
329.4174894487
 20
298.0183010114
 10
330.5076240642
 20
299.2989569799
 10
330.7344422326
 20
299.5939502836
  0
LWPOLYLINE
  5
1B7
330
1F
100
AcDbEntity
  8
0
  6
Continuous
 62
     8
370
    25
100
AcDbPolyline
 90
        3
 70
   128
 43
0.0
 10
333.9997380533
 20
305.9962341682
 10
334.1445603692
 20
306.4918548765
 10
334.498565451
 20
307.9705565835
  0
LINE
  5
1B8
330
1F
100
AcDbEntity
  8
0
  6
Continuous
 62
     8
370
    25
100
AcDbLine
 10
334.6640174728
 20
315.1696403689
 30
0.0
 11
334.2563610086
 21
317.1650172951
 31
0.0
  0
LINE
  5
1B9
330
1F
100
AcDbEntity
  8
0
  6
Continuous
 62
     8
370
    25
100
AcDbLine
 10
331.2887587564
 20
323.7102332513
 30
0.0
 11
330.7589156652
 21
324.4484788028
 31
0.0
  0
LINE
  5
1BA
330
1F
100
AcDbEntity
  8
0
  6
Continuous
 62
     8
370
    25
100
AcDbLine
 10
330.7589156652
 20
324.4484788028
 30
0.0
 11
330.0452322009
 21
325.3451540112
 31
0.0
  0
LINE
  5
1BB
330
1F
100
AcDbEntity
  8
0
  6
Continuous
 62
     8
370
    25
100
AcDbLine
 10
324.5338591872
 20
329.9504636768
 30
0.0
 11
322.7150089004
 21
330.8787279516
 31
0.0
  0
LWPOLYLINE
  5
1BC
330
1F
100
AcDbEntity
  8
0
  6
Continuous
 62
     8
370
    25
100
AcDbPolyline
 90
        3
 70
   128
 43
0.0
 10
315.7357114886
 20
332.6409773145
 10
314.4519181849
 20
332.6937663093
 10
313.7022441427
 20
332.6876522094
  0
LWPOLYLINE
  5
1BD
330
1F
100
AcDbEntity
  8
0
  6
Continuous
 62
     8
370
    25
100
AcDbPolyline
 90
        3
 70
   128
 43
0.0
 10
306.6534636442
 20
331.2490769503
 10
306.5313820699
 20
331.2003830731
 10
304.789347732
 20
330.4033615066
  0
LWPOLYLINE
  5
1BE
330
1F
100
AcDbEntity
  8
0
  6
Continuous
 62
     8
370
    25
100
AcDbPolyline
 90
        3
 70
   128
 43
0.0
 10
299.0735553263
 20
326.0566243618
 10
297.9834207109
 20
324.7759683933
 10
297.7566025424
 20
324.4809750895
  0
LWPOLYLINE
  5
1BF
330
1F
100
AcDbEntity
  8
0
  6
Continuous
 62
     8
370
    25
100
AcDbPolyline
 90
        3
 70
   128
 43
0.0
 10
294.4913067217
 20
318.0786912049
 10
294.3464844058
 20
317.5830704967
 10
293.992479324
 20
316.1043687896
  0
LINE
  5
1C0
330
1F
100
AcDbEntity
  8
0
  6
Continuous
 62
     8
370
    25
100
AcDbLine
 10
293.8270273022
 20
308.9052850042
 30
0.0
 11
294.2346837664
 21
306.9099080781
 31
0.0
  0
LINE
  5
1C1
330
1F
100
AcDbEntity
  8
0
  6
Continuous
 62
     8
370
    25
100
AcDbLine
 10
297.2022860186
 20
300.3646921219
 30
0.0
 11
297.7321291098
 21
299.6264465704
 31
0.0
  0
LINE
  5
1C2
330
1F
100
AcDbEntity
  8
0
  6
Continuous
 62
     8
370
    25
100
AcDbLine
 10
296.6227462803
 20
298.7926646804
 30
0.0
 11
297.3826588665
 21
297.8377885417
 31
0.0
  0
LINE
  5
1C3
330
1F
100
AcDbEntity
  8
0
  6
Continuous
 62
     8
370
    25
100
AcDbLine
 10
303.2667485166
 20
292.9206262265
 30
0.0
 11
305.2081866055
 21
291.9299150014
 31
0.0
  0
LWPOLYLINE
  5
1C4
330
1F
100
AcDbEntity
  8
0
  6
Continuous
 62
     8
370
    25
100
AcDbPolyline
 90
        3
 70
   128
 43
0.0
 10
312.6546401012
 20
290.0498296739
 10
314.0252607573
 20
289.9934522356
 10
314.822100431
 20
289.9998931811
  0
LWPOLYLINE
  5
1C5
330
1F
100
AcDbEntity
  8
0
  6
Continuous
 62
     8
370
    25
100
AcDbPolyline
 90
        3
 70
   128
 43
0.0
 10
322.3544813894
 20
291.537909134
 10
322.4779047565
 20
291.5871621392
 10
324.3303608618
 20
292.4343265881
  0
LWPOLYLINE
  5
1C6
330
1F
100
AcDbEntity
  8
0
  6
Continuous
 62
     8
370
    25
100
AcDbPolyline
 90
        3
 70
   128
 43
0.0
 10
330.4403733963
 20
297.080400383
 10
331.6001249251
 20
298.4431740803
 10
331.8407134472
 20
298.7560409433
  0
LWPOLYLINE
  5
1C7
330
1F
100
AcDbEntity
  8
0
  6
Continuous
 62
     8
370
    25
100
AcDbPolyline
 90
        3
 70
   128
 43
0.0
 10
335.3254038706
 20
305.5856793202
 10
335.4813934908
 20
306.119296549
 10
335.8608902794
 20
307.7058598831
  0
LINE
  5
1C8
330
1F
100
AcDbEntity
  8
0
  6
Continuous
 62
     8
370
    25
100
AcDbLine
 10
336.0363914111
 20
315.3758663683
 30
0.0
 11
335.6019531454
 21
317.5046170865
 31
0.0
  0
LINE
  5
1C9
330
1F
100
AcDbEntity
  8
0
  6
Continuous
 62
     8
370
    25
100
AcDbLine
 10
332.4299236671
 20
324.4999849854
 30
0.0
 11
331.8682985025
 21
325.2822606823
 31
0.0
  0
LINE
  5
1CA
330
1F
100
AcDbEntity
  8
0
  6
Continuous
 62
     8
370
    25
100
AcDbLine
 10
331.8682985025
 20
325.2822606823
 30
0.0
 11
331.1083859085
 21
326.2371368314
 31
0.0
  0
LINE
  5
1CB
330
1F
100
AcDbEntity
  8
0
  6
Continuous
 62
     8
370
    25
100
AcDbLine
 10
325.2242962584
 20
331.1542991466
 30
0.0
 11
323.2828581693
 21
332.1450103718
 31
0.0
  0
LWPOLYLINE
  5
1CC
330
1F
100
AcDbEntity
  8
0
  6
Continuous
 62
     8
370
    25
100
AcDbPolyline
 90
        3
 70
   128
 43
0.0
 10
315.8364046738
 20
334.0250956992
 10
314.4657840243
 20
334.0814731375
 10
313.668944344
 20
334.075032192
  0
LWPOLYLINE
  5
1CD
330
1F
100
AcDbEntity
  8
0
  6
Continuous
 62
     8
370
    25
100
AcDbPolyline
 90
        3
 70
   128
 43
0.0
 10
306.1365633856
 20
332.5370162391
 10
306.0131400221
 20
332.4877632354
 10
304.1606839133
 20
331.6405987851
  0
LWPOLYLINE
  5
1CE
330
1F
100
AcDbEntity
  8
0
  6
Continuous
 62
     8
370
    25
100
AcDbPolyline
 90
        3
 70
   128
 43
0.0
 10
298.0506713787
 20
326.99452499
 10
296.89091985
 20
325.631751293
 10
296.6503313279
 20
325.3188844299
  0
LWPOLYLINE
  5
1CF
330
1F
100
AcDbEntity
  8
0
  6
Continuous
 62
     8
370
    25
100
AcDbPolyline
 90
        3
 70
   128
 43
0.0
 10
293.1656409044
 20
318.489246053
 10
293.0096512835
 20
317.9556288216
 10
292.6301544956
 20
316.36906549
  0
LINE
  5
1D0
330
1F
100
AcDbEntity
  8
0
  6
Continuous
 62
     8
370
    25
100
AcDbLine
 10
292.4546533639
 20
308.6990590049
 30
0.0
 11
292.8890916297
 21
306.5703082865
 31
0.0
  0
LINE
  5
1D1
330
1F
100
AcDbEntity
  8
0
  6
Continuous
 62
     8
370
    25
100
AcDbLine
 10
296.0611211079
 20
299.5749403877
 30
0.0
 11
296.6227462779
 21
298.7926646836
 31
0.0
  0
LINE
  5
1D2
330
1F
100
AcDbEntity
  8
0
  6
Continuous
 62
     8
370
    25
100
AcDbLine
 10
335.5649846984
 20
328.0605892408
 30
0.0
 11
336.2435030947
 21
327.1155561538
 31
0.0
  0
LWPOLYLINE
  5
1D3
330
1F
100
AcDbEntity
  8
0
  6
Continuous
 62
     8
370
    25
100
AcDbPolyline
 90
        3
 70
   128
 43
0.0
 10
340.0809372334
 20
318.6549695842
 10
340.4884558445
 20
316.788094368
 10
340.6070994165
 20
316.0781698459
  0
LWPOLYLINE
  5
1D4
330
1F
100
AcDbEntity
  8
0
  6
Continuous
 62
     8
370
    25
100
AcDbPolyline
 90
        3
 70
   128
 43
0.0
 10
340.3935394098
 20
306.7894855902
 10
339.8291439066
 20
304.5049751977
 10
339.7499119593
 20
304.2409140674
  0
LINE
  5
1D5
330
1F
100
AcDbEntity
  8
0
  6
Continuous
 62
     8
370
    25
100
AcDbLine
 10
335.5265809253
 20
295.9633653461
 30
0.0
 11
333.8422379538
 21
293.9479962263
 31
0.0
  0
LWPOLYLINE
  5
1D6
330
1F
100
AcDbEntity
  8
0
  6
Continuous
 62
     8
370
    25
100
AcDbPolyline
 90
        3
 70
   128
 43
0.0
 10
326.4439589096
 20
288.3212613841
 10
326.3231358665
 20
288.259504186
 10
324.0544668235
 20
287.237368597
  0
LWPOLYLINE
  5
1D7
330
1F
100
AcDbEntity
  8
0
  6
Continuous
 62
     8
370
    25
100
AcDbPolyline
 90
        3
 70
   128
 43
0.0
 10
314.9448020604
 20
285.377172633
 10
314.3669437277
 20
285.3682798221
 10
312.3248448797
 20
285.4372548732
  0
LWPOLYLINE
  5
1D8
330
1F
100
AcDbEntity
  8
0
  6
Continuous
 62
     8
370
    25
100
AcDbPolyline
 90
        3
 70
   128
 43
0.0
 10
303.3070661138
 20
287.7144235642
 10
302.3849210541
 20
288.1505165902
 10
300.9751138133
 20
288.9040168975
  0
LINE
  5
1D9
330
1F
100
AcDbEntity
  8
0
  6
Continuous
 62
     8
370
    25
100
AcDbLine
 10
293.8376127591
 20
294.8683834335
 30
0.0
 11
292.9260600766
 21
296.0143361323
 31
0.0
  0
LINE
  5
1DA
330
1F
100
AcDbEntity
  8
0
  6
Continuous
 62
     8
370
    25
100
AcDbLine
 10
292.9260600766
 20
296.0143361323
 30
0.0
 11
292.2475416803
 21
296.9593692193
 31
0.0
  0
LWPOLYLINE
  5
1DB
330
1F
100
AcDbEntity
  8
0
  6
Continuous
 62
     8
370
    25
100
AcDbPolyline
 90
        3
 70
   128
 43
0.0
 10
288.4101075416
 20
305.4199557889
 10
288.0025889305
 20
307.2868310051
 10
287.8839453585
 20
307.9967555273
  0
LWPOLYLINE
  5
1DC
330
1F
100
AcDbEntity
  8
0
  6
Continuous
 62
     8
370
    25
100
AcDbPolyline
 90
        3
 70
   128
 43
0.0
 10
288.0975053652
 20
317.2854397829
 10
288.6619008684
 20
319.5699501754
 10
288.7411328157
 20
319.8340113057
  0
LINE
  5
1DD
330
1F
100
AcDbEntity
  8
0
  6
Continuous
 62
     8
370
    25
100
AcDbLine
 10
292.9644638497
 20
328.1115600271
 30
0.0
 11
294.6488068212
 21
330.1269291468
 31
0.0
  0
LWPOLYLINE
  5
1DE
330
1F
100
AcDbEntity
  8
0
  6
Continuous
 62
     8
370
    25
100
AcDbPolyline
 90
        3
 70
   128
 43
0.0
 10
302.0470858654
 20
335.753663989
 10
302.1679089085
 20
335.8154211871
 10
304.4365779515
 20
336.8375567762
  0
LWPOLYLINE
  5
1DF
330
1F
100
AcDbEntity
  8
0
  6
Continuous
 62
     8
370
    25
100
AcDbPolyline
 90
        3
 70
   128
 43
0.0
 10
313.5462427146
 20
338.6977527401
 10
314.1241010473
 20
338.706645551
 10
316.1661998953
 20
338.6376704999
  0
LWPOLYLINE
  5
1E0
330
1F
100
AcDbEntity
  8
0
  6
Continuous
 62
     8
370
    25
100
AcDbPolyline
 90
        3
 70
   128
 43
0.0
 10
325.1839786612
 20
336.360501809
 10
326.1061237209
 20
335.9244087829
 10
327.5159309618
 20
335.1709084756
  0
LINE
  5
1E1
330
1F
100
AcDbEntity
  8
0
  6
Continuous
 62
     8
370
    25
100
AcDbLine
 10
334.653432016
 20
329.2065419396
 30
0.0
 11
335.5649846984
 21
328.0605892408
 31
0.0
  0
SPLINE
  5
1E2
330
1F
100
AcDbEntity
  8
0
  6
Continuous
 62
     8
370
    25
100
AcDbSpline
210
0.0
220
0.0
230
1.0
 70
    24
 71
     3
 72
     9
 73
     5
 74
     0
 42
0.000000001
 43
0.00000001
 40
0.0
 40
0.0
 40
0.0
 40
0.0
 40
0.66267383053592
 40
1.0
 40
1.0
 40
1.0
 40
1.0
 10
324.1871613495293
 20
298.965881534886
 30
0.0
 10
323.1780146046124
 20
300.2927395731357
 30
0.0
 10
321.6551738065974
 20
302.2950187897101
 30
0.0
 10
320.1596580721627
 20
304.2613701489734
 30
0.0
 10
319.6551814780925
 20
304.9246719208143
 30
0.0
  0
SPLINE
  5
1E3
330
1F
100
AcDbEntity
  8
0
  6
Continuous
 62
     8
370
    25
100
AcDbSpline
210
0.0
220
0.0
230
1.0
 70
    24
 71
     3
 72
     9
 73
     5
 74
     0
 42
0.000000001
 43
0.00000001
 40
0.0
 40
0.0
 40
0.0
 40
0.0
 40
0.4794751474916565
 40
1.0
 40
1.0
 40
1.0
 40
1.0
 10
308.8358632969192
 20
319.1502534523217
 30
0.0
 10
308.1174447243457
 20
320.0948528999724
 30
0.0
 10
306.6191010117846
 20
322.0649225742657
 30
0.0
 10
305.0964573124845
 20
324.0669426392195
 30
0.0
 10
304.3038834254836
 20
325.1090438382483
 30
0.0
  0
SPLINE
  5
1E4
330
1F
100
AcDbEntity
  8
0
  6
Continuous
 62
     8
370
    25
100
AcDbSpline
210
0.0
220
0.0
230
1.0
 70
    24
 71
     3
 72
    12
 73
     8
 74
     0
 42
0.000000001
 43
0.00000001
 40
0.0
 40
0.0
 40
0.0
 40
0.0
 40
0.3049372037855781
 40
0.5250495784332473
 40
0.7557938860312299
 40
0.9865381936581203
 40
1.0
 40
1.0
 40
1.0
 40
1.0
 10
321.7079638261149
 20
308.6386440988854
 30
0.0
 10
321.808241440021
 20
308.5929719926617
 30
0.0
 10
321.9809022969256
 20
308.5143324569763
 30
0.0
 10
322.1942652149341
 20
308.4171548968419
 30
0.0
 10
322.3350405801721
 20
308.3530378204139
 30
0.0
 10
322.4103285917487
 20
308.3187473947829
 30
0.0
 10
322.4166673827327
 20
308.3158603502685
 30
0.0
 10
322.4170168071401
 20
308.3157012025981
 30
0.0
  0
LWPOLYLINE
  5
1E5
330
1F
100
AcDbEntity
  8
0
  6
Continuous
 62
     8
370
    25
100
AcDbPolyline
 90
        3
 70
   128
 43
0.0
 10
312.0437175488
 20
281.4355943166
 10
314.3423706531
 20
281.356639479
 10
315.0411164696
 20
281.3668037054
  0
LWPOLYLINE
  5
1E6
330
1F
100
AcDbEntity
  8
0
  6
Continuous
 62
     8
370
    25
100
AcDbPolyline
 90
        3
 70
   128
 43
0.0
 10
325.5394955028
 20
283.510835414
 10
327.2159627845
 20
284.2329672193
 10
328.26832185
 20
284.748575067
  0
LWPOLYLINE
  5
1E7
330
1F
100
AcDbEntity
  8
0
  6
Continuous
 62
     8
370
    25
100
AcDbPolyline
 90
        3
 70
   128
 43
0.0
 10
336.7973530632
 20
291.2351256675
 10
337.6919798952
 20
292.2489326093
 10
338.7195746248
 20
293.5349477395
  0
LWPOLYLINE
  5
1E8
330
1F
100
AcDbEntity
  8
0
  6
Continuous
 62
     8
370
    25
100
AcDbPolyline
 90
        3
 70
   128
 43
0.0
 10
343.5891678971
 20
303.0779559766
 10
343.8339390152
 20
303.9227911747
 10
344.3241061831
 20
305.9875792884
  0
LWPOLYLINE
  5
1E9
330
1F
100
AcDbEntity
  8
0
  6
Continuous
 62
     8
370
    25
100
AcDbPolyline
 90
        3
 70
   128
 43
0.0
 10
344.5709928708
 20
316.6945145703
 10
344.5065041564
 20
317.0966399581
 10
343.9693736829
 20
319.6410773827
  0
LINE
  5
1EA
330
1F
100
AcDbEntity
  8
0
  6
Continuous
 62
     8
370
    25
100
AcDbLine
 10
339.5484110799
 20
329.3892959067
 30
0.0
 11
337.724578697
 21
331.7873033718
 31
0.0
  0
LWPOLYLINE
  5
1EB
330
1F
100
AcDbEntity
  8
0
  6
Continuous
 62
     8
370
    25
100
AcDbPolyline
 90
        3
 70
   128
 43
0.0
 10
329.5149870617
 20
338.6488463568
 10
327.040168574
 20
339.9232892162
 10
326.8294116598
 20
340.0190284587
  0
LWPOLYLINE
  5
1EC
330
1F
100
AcDbEntity
  8
0
  6
Continuous
 62
     8
370
    25
100
AcDbPolyline
 90
        3
 70
   128
 43
0.0
 10
316.4562309457
 20
342.6386891318
 10
314.1486741219
 20
342.7182858941
 10
313.44323965
 20
342.7079474348
  0
LWPOLYLINE
  5
1ED
330
1F
100
AcDbEntity
  8
0
  6
Continuous
 62
     8
370
    25
100
AcDbPolyline
 90
        3
 70
   128
 43
0.0
 10
302.9575950073
 20
340.5664827843
 10
301.2750819905
 20
339.8419581538
 10
300.2169549659
 20
339.3233855842
  0
LWPOLYLINE
  5
1EE
330
1F
100
AcDbEntity
  8
0
  6
Continuous
 62
     8
370
    25
100
AcDbPolyline
 90
        3
 70
   128
 43
0.0
 10
291.6942763862
 20
332.8404335338
 10
290.7990648798
 20
331.8259927638
 10
289.768765523
 20
330.5363995662
  0
LWPOLYLINE
  5
1EF
330
1F
100
AcDbEntity
  8
0
  6
Continuous
 62
     8
370
    25
100
AcDbPolyline
 90
        3
 70
   128
 43
0.0
 10
284.9008549238
 20
320.9936216694
 10
284.6571057598
 20
320.1521341984
 10
284.1668038059
 20
318.086675922
  0
LWPOLYLINE
  5
1F0
330
1F
100
AcDbEntity
  8
0
  6
Continuous
 62
     8
370
    25
100
AcDbPolyline
 90
        3
 70
   128
 43
0.0
 10
283.9209719662
 20
307.374423546
 10
283.9845406187
 20
306.978285415
 10
284.5204582144
 20
304.4385909162
  0
LINE
  5
1F1
330
1F
100
AcDbEntity
  8
0
  6
Continuous
 62
     8
370
    25
100
AcDbLine
 10
288.9464907967
 20
294.6800062818
 30
0.0
 11
290.7609147136
 21
292.2942234721
 31
0.0
  0
LWPOLYLINE
  5
1F2
330
1F
100
AcDbEntity
  8
0
  6
Continuous
 62
     8
370
    25
100
AcDbPolyline
 90
        3
 70
   128
 43
0.0
 10
298.9810774413
 20
285.4231993535
 10
301.450876201
 20
284.1516361569
 10
301.6542036158
 20
284.0592393
  0
ENDSEC
  0
SECTION
  2
OBJECTS
  0
DICTIONARY
  5
C
330
0
100
AcDbDictionary
281
     1
  3
ACAD_GROUP
350
D
  3
ACAD_LAYOUT
350
1A
  3
ACAD_MLINESTYLE
350
17
  3
ACAD_PLOTSETTINGS
350
19
  3
ACAD_PLOTSTYLENAME
350
E
  3
ACAD_SCALELIST
350
47
  0
DICTIONARY
  5
D
102
{ACAD_REACTORS
330
C
102
}
330
C
100
AcDbDictionary
281
     1
  0
DICTIONARY
  5
1A
102
{ACAD_REACTORS
330
C
102
}
330
C
100
AcDbDictionary
281
     1
  3
Layout1
350
1E
  3
Layout2
350
26
  3
Model
350
22
  0
DICTIONARY
  5
17
102
{ACAD_REACTORS
330
C
102
}
330
C
100
AcDbDictionary
281
     1
  3
Standard
350
18
  0
DICTIONARY
  5
19
102
{ACAD_REACTORS
330
C
102
}
330
C
100
AcDbDictionary
281
     1
  0
ACDBDICTIONARYWDFLT
  5
E
102
{ACAD_REACTORS
330
C
102
}
330
C
100
AcDbDictionary
281
     1
  3
Normal
350
F
100
AcDbDictionaryWithDefault
340
F
  0
DICTIONARY
  5
47
102
{ACAD_REACTORS
330
C
102
}
330
C
100
AcDbDictionary
281
     1
  3
A0
350
48
  3
A1
350
49
  3
A2
350
4A
  3
A3
350
4B
  3
A4
350
4C
  3
A5
350
4D
  3
A6
350
4E
  3
A7
350
4F
  3
A8
350
50
  3
A9
350
51
  3
B0
350
52
  3
B1
350
53
  3
B2
350
54
  3
B3
350
55
  3
B4
350
56
  3
B5
350
57
  3
B6
350
58
  3
B7
350
59
  3
B8
350
5A
  3
B9
350
5B
  3
C0
350
5C
  3
C1
350
5D
  3
C2
350
5E
  3
C3
350
5F
  3
C4
350
60
  3
C5
350
61
  3
C6
350
62
  3
C7
350
63
  3
C8
350
64
  3
C9
350
65
  3
D0
350
66
  3
D1
350
67
  3
D2
350
68
  0
LAYOUT
  5
1E
102
{ACAD_REACTORS
330
1A
102
}
330
1A
100
AcDbPlotSettings
  1

  2
none_device
  4

  6

 40
0.0
 41
0.0
 42
0.0
 43
0.0
 44
0.0
 45
0.0
 46
0.0
 47
0.0
 48
0.0
 49
0.0
140
0.0
141
0.0
142
1.0
143
1.0
 70
   688
 72
     1
 73
     0
 74
     5
  7

 75
    16
147
1.0
148
0.0
149
0.0
100
AcDbLayout
  1
Layout1
 70
     1
 71
     1
 10
0.0
 20
0.0
 11
420.0
 21
297.0
 12
0.0
 22
0.0
 32
0.0
 14
1.0000000000E+20
 24
1.0000000000E+20
 34
1.0000000000E+20
 15
-1.0000000000E+20
 25
-1.0000000000E+20
 35
-1.0000000000E+20
146
0.0
 13
0.0
 23
0.0
 33
0.0
 16
1.0
 26
0.0
 36
0.0
 17
0.0
 27
1.0
 37
0.0
 76
     0
330
1B
  0
LAYOUT
  5
26
102
{ACAD_REACTORS
330
1A
102
}
330
1A
100
AcDbPlotSettings
  1

  2
none_device
  4

  6

 40
0.0
 41
0.0
 42
0.0
 43
0.0
 44
0.0
 45
0.0
 46
0.0
 47
0.0
 48
0.0
 49
0.0
140
0.0
141
0.0
142
1.0
143
1.0
 70
   688
 72
     1
 73
     0
 74
     5
  7

 75
    16
147
1.0
148
0.0
149
0.0
100
AcDbLayout
  1
Layout2
 70
     1
 71
     2
 10
0.0
 20
0.0
 11
0.0
 21
0.0
 12
0.0
 22
0.0
 32
0.0
 14
0.0
 24
0.0
 34
0.0
 15
0.0
 25
0.0
 35
0.0
146
0.0
 13
0.0
 23
0.0
 33
0.0
 16
1.0
 26
0.0
 36
0.0
 17
0.0
 27
1.0
 37
0.0
 76
     0
330
23
  0
LAYOUT
  5
22
102
{ACAD_REACTORS
330
1A
102
}
330
1A
100
AcDbPlotSettings
  1

  2
none_device
  4
Letter_(8.50_x_11.00_Inches)
  6

 40
6.35
 41
6.35
 42
6.35000508
 43
6.35000508
 44
215.9
 45
279.4
 46
0.0
 47
0.0
 48
0.0
 49
0.0
140
0.0
141
0.0
142
1.0
143
1.0
 70
  1712
 72
     1
 73
     0
 74
     0
  7

 75
     0
147
1.0
148
0.0
149
0.0
100
AcDbLayout
  1
Model
 70
     1
 71
     0
 10
0.0
 20
0.0
 11
650.0
 21
650.0
 12
0.0
 22
0.0
 32
0.0
 14
0.0
 24
0.0
 34
0.0
 15
650.0
 25
650.0
 35
0.0
146
0.0
 13
0.0
 23
0.0
 33
0.0
 16
1.0
 26
0.0
 36
0.0
 17
0.0
 27
1.0
 37
0.0
 76
     0
330
1F
331
29
  0
MLINESTYLE
  5
18
102
{ACAD_REACTORS
330
17
102
}
330
17
100
AcDbMlineStyle
  2
Standard
 70
     0
  3

 62
   256
 51
90.0
 52
90.0
 71
     2
 49
0.5
 62
   256
  6
BYLAYER
 49
-0.5
 62
   256
  6
BYLAYER
  0
ACDBPLACEHOLDER
  5
F
102
{ACAD_REACTORS
330
E
102
}
330
E
  0
SCALE
  5
48
102
{ACAD_REACTORS
330
47
102
}
330
47
100
AcDbScale
 70
     0
300
1:1
140
1.0
141
1.0
290
     1
  0
SCALE
  5
49
102
{ACAD_REACTORS
330
47
102
}
330
47
100
AcDbScale
 70
     0
300
1:2
140
1.0
141
2.0
290
     0
  0
SCALE
  5
4A
102
{ACAD_REACTORS
330
47
102
}
330
47
100
AcDbScale
 70
     0
300
1:4
140
1.0
141
4.0
290
     0
  0
SCALE
  5
4B
102
{ACAD_REACTORS
330
47
102
}
330
47
100
AcDbScale
 70
     0
300
1:5
140
1.0
141
5.0
290
     0
  0
SCALE
  5
4C
102
{ACAD_REACTORS
330
47
102
}
330
47
100
AcDbScale
 70
     0
300
1:8
140
1.0
141
8.0
290
     0
  0
SCALE
  5
4D
102
{ACAD_REACTORS
330
47
102
}
330
47
100
AcDbScale
 70
     0
300
1:10
140
1.0
141
10.0
290
     0
  0
SCALE
  5
4E
102
{ACAD_REACTORS
330
47
102
}
330
47
100
AcDbScale
 70
     0
300
1:16
140
1.0
141
16.0
290
     0
  0
SCALE
  5
4F
102
{ACAD_REACTORS
330
47
102
}
330
47
100
AcDbScale
 70
     0
300
1:20
140
1.0
141
20.0
290
     0
  0
SCALE
  5
50
102
{ACAD_REACTORS
330
47
102
}
330
47
100
AcDbScale
 70
     0
300
1:30
140
1.0
141
30.0
290
     0
  0
SCALE
  5
51
102
{ACAD_REACTORS
330
47
102
}
330
47
100
AcDbScale
 70
     0
300
1:40
140
1.0
141
40.0
290
     0
  0
SCALE
  5
52
102
{ACAD_REACTORS
330
47
102
}
330
47
100
AcDbScale
 70
     0
300
1:50
140
1.0
141
50.0
290
     0
  0
SCALE
  5
53
102
{ACAD_REACTORS
330
47
102
}
330
47
100
AcDbScale
 70
     0
300
1:100
140
1.0
141
100.0
290
     0
  0
SCALE
  5
54
102
{ACAD_REACTORS
330
47
102
}
330
47
100
AcDbScale
 70
     0
300
2:1
140
2.0
141
1.0
290
     0
  0
SCALE
  5
55
102
{ACAD_REACTORS
330
47
102
}
330
47
100
AcDbScale
 70
     0
300
4:1
140
4.0
141
1.0
290
     0
  0
SCALE
  5
56
102
{ACAD_REACTORS
330
47
102
}
330
47
100
AcDbScale
 70
     0
300
8:1
140
8.0
141
1.0
290
     0
  0
SCALE
  5
57
102
{ACAD_REACTORS
330
47
102
}
330
47
100
AcDbScale
 70
     0
300
10:1
140
10.0
141
1.0
290
     0
  0
SCALE
  5
58
102
{ACAD_REACTORS
330
47
102
}
330
47
100
AcDbScale
 70
     0
300
100:1
140
100.0
141
1.0
290
     0
  0
SCALE
  5
59
102
{ACAD_REACTORS
330
47
102
}
330
47
100
AcDbScale
 70
     0
300
1/128" = 1'-0"
140
0.0078125
141
12.0
290
     0
  0
SCALE
  5
5A
102
{ACAD_REACTORS
330
47
102
}
330
47
100
AcDbScale
 70
     0
300
1/64" = 1'-0"
140
0.015625
141
12.0
290
     0
  0
SCALE
  5
5B
102
{ACAD_REACTORS
330
47
102
}
330
47
100
AcDbScale
 70
     0
300
1/32" = 1'-0"
140
0.03125
141
12.0
290
     0
  0
SCALE
  5
5C
102
{ACAD_REACTORS
330
47
102
}
330
47
100
AcDbScale
 70
     0
300
1/16" = 1'-0"
140
0.0625
141
12.0
290
     0
  0
SCALE
  5
5D
102
{ACAD_REACTORS
330
47
102
}
330
47
100
AcDbScale
 70
     0
300
3/32" = 1'-0"
140
0.09375
141
12.0
290
     0
  0
SCALE
  5
5E
102
{ACAD_REACTORS
330
47
102
}
330
47
100
AcDbScale
 70
     0
300
1/8" = 1'-0"
140
0.125
141
12.0
290
     0
  0
SCALE
  5
5F
102
{ACAD_REACTORS
330
47
102
}
330
47
100
AcDbScale
 70
     0
300
3/16" = 1'-0"
140
0.1875
141
12.0
290
     0
  0
SCALE
  5
60
102
{ACAD_REACTORS
330
47
102
}
330
47
100
AcDbScale
 70
     0
300
1/4" = 1'-0"
140
0.25
141
12.0
290
     0
  0
SCALE
  5
61
102
{ACAD_REACTORS
330
47
102
}
330
47
100
AcDbScale
 70
     0
300
3/8" = 1'-0"
140
0.375
141
12.0
290
     0
  0
SCALE
  5
62
102
{ACAD_REACTORS
330
47
102
}
330
47
100
AcDbScale
 70
     0
300
1/2" = 1'-0"
140
0.5
141
12.0
290
     0
  0
SCALE
  5
63
102
{ACAD_REACTORS
330
47
102
}
330
47
100
AcDbScale
 70
     0
300
3/4" = 1'-0"
140
0.75
141
12.0
290
     0
  0
SCALE
  5
64
102
{ACAD_REACTORS
330
47
102
}
330
47
100
AcDbScale
 70
     0
300
1" = 1'-0"
140
1.0
141
12.0
290
     0
  0
SCALE
  5
65
102
{ACAD_REACTORS
330
47
102
}
330
47
100
AcDbScale
 70
     0
300
1-1/2" = 1'-0"
140
1.5
141
12.0
290
     0
  0
SCALE
  5
66
102
{ACAD_REACTORS
330
47
102
}
330
47
100
AcDbScale
 70
     0
300
3" = 1'-0"
140
3.0
141
12.0
290
     0
  0
SCALE
  5
67
102
{ACAD_REACTORS
330
47
102
}
330
47
100
AcDbScale
 70
     0
300
6" = 1'-0"
140
6.0
141
12.0
290
     0
  0
SCALE
  5
68
102
{ACAD_REACTORS
330
47
102
}
330
47
100
AcDbScale
 70
     0
300
1'-0" = 1'-0"
140
12.0
141
12.0
290
     0
  0
ENDSEC
  0
EOF
