  0
SECTION
  2
HEADER
  9
$ACADVER
  1
AC1015
  9
$ACADMAINTVER
 70
     6
  9
$DWGCODEPAGE
  3
ANSI_1252
  9
$INSBASE
 10
0.0
 20
0.0
 30
0.0
  9
$EXTMIN
 10
0.0
 20
0.0
 30
0.0
  9
$EXTMAX
 10
650.0
 20
650.0
 30
0.0
  9
$LIMMIN
 10
0.0
 20
0.0
  9
$LIMMAX
 10
650.0
 20
650.0
  9
$ORTHOMODE
 70
     0
  9
$REGENMODE
 70
     1
  9
$FILLMODE
 70
     1
  9
$QTEXTMODE
 70
     0
  9
$MIRRTEXT
 70
     1
  9
$LTSCALE
 40
1.0
  9
$ATTMODE
 70
     1
  9
$TEXTSIZE
 40
5.0
  9
$TRACEWID
 40
1.0
  9
$TEXTSTYLE
  7
Standard
  9
$CLAYER
  8
0
  9
$CELTYPE
  6
ByLayer
  9
$CECOLOR
 62
   256
  9
$CELTSCALE
 40
1.0
  9
$DISPSILH
 70
     0
  9
$DIMSCALE
 40
1.0
  9
$DIMASZ
 40
6.0
  9
$DIMEXO
 40
1.0
  9
$DIMDLI
 40
3.75
  9
$DIMRND
 40
0.0
  9
$DIMDLE
 40
0.0
  9
$DIMEXE
 40
1.0
  9
$DIMTP
 40
0.0
  9
$DIMTM
 40
0.0
  9
$DIMTXT
 40
5.0
  9
$DIMCEN
 40
2.5
  9
$DIMTSZ
 40
0.0
  9
$DIMTOL
 70
     0
  9
$DIMLIM
 70
     0
  9
$DIMTIH
 70
     1
  9
$DIMTOH
 70
     1
  9
$DIMSE1
 70
     0
  9
$DIMSE2
 70
     0
  9
$DIMTAD
 70
     1
  9
$DIMZIN
 70
     0
  9
$DIMBLK
  1

  9
$DIMASO
 70
     1
  9
$DIMSHO
 70
     1
  9
$DIMPOST
  1

  9
$DIMAPOST
  1

  9
$DIMALT
 70
     0
  9
$DIMALTD
 70
     3
  9
$DIMALTF
 40
0.0393700787
  9
$DIMLFAC
 40
1.0
  9
$DIMTOFL
 70
     1
  9
$DIMTVP
 40
0.0
  9
$DIMTIX
 70
     0
  9
$DIMSOXD
 70
     0
  9
$DIMSAH
 70
     0
  9
$DIMBLK1
  1

  9
$DIMBLK2
  1

  9
$DIMSTYLE
  2
ISO-25
  9
$DIMCLRD
 70
     0
  9
$DIMCLRE
 70
     0
  9
$DIMCLRT
 70
     0
  9
$DIMTFAC
 40
1.0
  9
$DIMGAP
 40
1.524
  9
$DIMJUST
 70
     0
  9
$DIMSD1
 70
     0
  9
$DIMSD2
 70
     0
  9
$DIMTOLJ
 70
     0
  9
$DIMTZIN
 70
     0
  9
$DIMALTZ
 70
     0
  9
$DIMALTTZ
 70
     0
  9
$DIMUPT
 70
     0
  9
$DIMDEC
 70
     2
  9
$DIMTDEC
 70
     2
  9
$DIMALTU
 70
     2
  9
$DIMALTTD
 70
     3
  9
$DIMTXSTY
  7
Standard
  9
$DIMAUNIT
 70
     0
  9
$DIMADEC
 70
     2
  9
$DIMALTRND
 40
0.0
  9
$DIMAZIN
 70
     0
  9
$DIMDSEP
 70
    44
  9
$DIMATFIT
 70
     3
  9
$DIMFRAC
 70
     0
  9
$DIMLDRBLK
  1

  9
$DIMLUNIT
 70
     2
  9
$DIMLWD
 70
    -2
  9
$DIMLWE
 70
    -2
  9
$DIMTMOVE
 70
     0
  9
$LUNITS
 70
     2
  9
$LUPREC
 70
     2
  9
$SKETCHINC
 40
1.0
  9
$FILLETRAD
 40
10.0
  9
$AUNITS
 70
     0
  9
$AUPREC
 70
     2
  9
$MENU
  1
.
  9
$ELEVATION
 40
0.0
  9
$PELEVATION
 40
0.0
  9
$THICKNESS
 40
0.0
  9
$LIMCHECK
 70
     0
  9
$CHAMFERA
 40
0.0
  9
$CHAMFERB
 40
0.0
  9
$CHAMFERC
 40
0.0
  9
$CHAMFERD
 40
0.0
  9
$SKPOLY
 70
     0
  9
$TDCREATE
 40
2458568.382703426
  9
$TDUCREATE
 40
2458568.299370093
  9
$TDUPDATE
 40
2458568.38270441
  9
$TDUUPDATE
 40
2458568.299371076
  9
$TDINDWG
 40
0.0000000116
  9
$TDUSRTIMER
 40
0.0000000116
  9
$USRTIMER
 70
     1
  9
$ANGBASE
 50
0.0
  9
$ANGDIR
 70
     0
  9
$PDMODE
 70
     0
  9
$PDSIZE
 40
-1.0
  9
$PLINEWID
 40
0.0
  9
$SPLFRAME
 70
     0
  9
$SPLINETYPE
 70
     6
  9
$SPLINESEGS
 70
     8
  9
$HANDSEED
  5
1D3
  9
$SURFTAB1
 70
     6
  9
$SURFTAB2
 70
     6
  9
$SURFTYPE
 70
     6
  9
$SURFU
 70
     6
  9
$SURFV
 70
     6
  9
$UCSBASE
  2

  9
$UCSNAME
  2

  9
$UCSORG
 10
0.0
 20
0.0
 30
0.0
  9
$UCSXDIR
 10
1.0
 20
0.0
 30
0.0
  9
$UCSYDIR
 10
0.0
 20
1.0
 30
0.0
  9
$UCSORTHOREF
  2

  9
$UCSORTHOVIEW
 70
     0
  9
$UCSORGTOP
 10
0.0
 20
0.0
 30
0.0
  9
$UCSORGBOTTOM
 10
0.0
 20
0.0
 30
0.0
  9
$UCSORGLEFT
 10
0.0
 20
0.0
 30
0.0
  9
$UCSORGRIGHT
 10
0.0
 20
0.0
 30
0.0
  9
$UCSORGFRONT
 10
0.0
 20
0.0
 30
0.0
  9
$UCSORGBACK
 10
0.0
 20
0.0
 30
0.0
  9
$PUCSBASE
  2

  9
$PUCSNAME
  2

  9
$PUCSORG
 10
0.0
 20
0.0
 30
0.0
  9
$PUCSXDIR
 10
1.0
 20
0.0
 30
0.0
  9
$PUCSYDIR
 10
0.0
 20
1.0
 30
0.0
  9
$PUCSORTHOREF
  2

  9
$PUCSORTHOVIEW
 70
     0
  9
$PUCSORGTOP
 10
0.0
 20
0.0
 30
0.0
  9
$PUCSORGBOTTOM
 10
0.0
 20
0.0
 30
0.0
  9
$PUCSORGLEFT
 10
0.0
 20
0.0
 30
0.0
  9
$PUCSORGRIGHT
 10
0.0
 20
0.0
 30
0.0
  9
$PUCSORGFRONT
 10
0.0
 20
0.0
 30
0.0
  9
$PUCSORGBACK
 10
0.0
 20
0.0
 30
0.0
  9
$USERI1
 70
     0
  9
$USERI2
 70
     0
  9
$USERI3
 70
     0
  9
$USERI4
 70
     0
  9
$USERI5
 70
     0
  9
$USERR1
 40
0.0
  9
$USERR2
 40
0.0
  9
$USERR3
 40
0.0
  9
$USERR4
 40
0.0
  9
$USERR5
 40
0.0
  9
$WORLDVIEW
 70
     1
  9
$SHADEDGE
 70
     3
  9
$SHADEDIF
 70
    70
  9
$TILEMODE
 70
     1
  9
$MAXACTVP
 70
    64
  9
$PINSBASE
 10
0.0
 20
0.0
 30
0.0
  9
$PLIMCHECK
 70
     0
  9
$PEXTMIN
 10
1.0000000000E+20
 20
1.0000000000E+20
 30
1.0000000000E+20
  9
$PEXTMAX
 10
-1.0000000000E+20
 20
-1.0000000000E+20
 30
-1.0000000000E+20
  9
$PLIMMIN
 10
0.0
 20
0.0
  9
$PLIMMAX
 10
420.0
 20
297.0
  9
$UNITMODE
 70
     0
  9
$VISRETAIN
 70
     1
  9
$PLINEGEN
 70
     0
  9
$PSLTSCALE
 70
     1
  9
$TREEDEPTH
 70
  3020
  9
$CMLSTYLE
  2
Standard
  9
$CMLJUST
 70
     0
  9
$CMLSCALE
 40
20.0
  9
$PROXYGRAPHICS
 70
     1
  9
$MEASUREMENT
 70
     1
  9
$CELWEIGHT
370
    -1
  9
$ENDCAPS
280
     0
  9
$JOINSTYLE
280
     0
  9
$LWDISPLAY
290
     1
  9
$INSUNITS
 70
     4
  9
$HYPERLINKBASE
  1

  9
$STYLESHEET
  1

  9
$XEDIT
290
     1
  9
$CEPSNTYPE
380
     0
  9
$PSTYLEMODE
290
     1
  9
$FINGERPRINTGUID
  2
{9FB74D96-6B0F-4348-9B93-ACAF66BC85A4}
  9
$VERSIONGUID
  2
{FAEB1C32-E019-11D5-929B-00C0DF256EC4}
  9
$EXTNAMES
290
     1
  9
$PSVPSCALE
 40
0.0
  9
$OLESTARTUP
290
     0
  0
ENDSEC
  0
SECTION
  2
CLASSES
  0
CLASS
  1
ACDBDICTIONARYWDFLT
  2
AcDbDictionaryWithDefault
  3
ObjectDBX Classes
 90
        0
280
     0
281
     0
  0
CLASS
  1
VISUALSTYLE
  2
AcDbVisualStyle
  3
ObjectDBX Classes
 90
     4095
280
     0
281
     0
  0
CLASS
  1
MATERIAL
  2
AcDbMaterial
  3
ObjectDBX Classes
 90
     1153
280
     0
281
     0
  0
CLASS
  1
SCALE
  2
AcDbScale
  3
ObjectDBX Classes
 90
     1153
280
     0
281
     0
  0
CLASS
  1
TABLESTYLE
  2
AcDbTableStyle
  3
ObjectDBX Classes
 90
     4095
280
     0
281
     0
  0
CLASS
  1
MLEADERSTYLE
  2
AcDbMLeaderStyle
  3
ACDB_MLEADERSTYLE_CLASS
 90
     4095
280
     0
281
     0
  0
CLASS
  1
SUN
  2
AcDbSun
  3
SCENEOE
 90
     1153
280
     0
281
     0
  0
CLASS
  1
ACDBPLACEHOLDER
  2
AcDbPlaceHolder
  3
ObjectDBX Classes
 90
        0
280
     0
281
     0
  0
CLASS
  1
LAYOUT
  2
AcDbLayout
  3
ObjectDBX Classes
 90
        0
280
     0
281
     0
  0
ENDSEC
  0
SECTION
  2
TABLES
  0
TABLE
  2
VPORT
  5
8
330
0
100
AcDbSymbolTable
 70
     1
  0
VPORT
  5
29
330
8
100
AcDbSymbolTableRecord
100
AcDbViewportTableRecord
  2
*Active
 70
     0
 10
0.0
 20
0.0
 11
1.0
 21
1.0
 12
325.0
 22
325.0
 13
0.0
 23
0.0
 14
10.0
 24
10.0
 15
10.0
 25
10.0
 16
0.0
 26
0.0
 36
1.0
 17
0.0
 27
0.0
 37
0.0
 40
650.0
 41
1.0
 42
50.0
 43
0.0
 44
0.0
 50
0.0
 51
0.0
 71
     0
 72
  2000
 73
     1
 74
     3
 75
     0
 76
     0
 77
     0
 78
     0
281
     0
 65
     1
110
0.0
120
0.0
130
0.0
111
1.0
121
0.0
131
0.0
112
0.0
122
1.0
132
0.0
 79
     0
146
0.0
  0
ENDTAB
  0
TABLE
  2
LTYPE
  5
5
330
0
100
AcDbSymbolTable
 70
     6
  0
LTYPE
  5
14
330
5
100
AcDbSymbolTableRecord
100
AcDbLinetypeTableRecord
  2
ByBlock
 70
     0
  3

 72
    65
 73
     0
 40
0.0
  0
LTYPE
  5
15
330
5
100
AcDbSymbolTableRecord
100
AcDbLinetypeTableRecord
  2
ByLayer
 70
     0
  3

 72
    65
 73
     0
 40
0.0
  0
LTYPE
  5
16
330
5
100
AcDbSymbolTableRecord
100
AcDbLinetypeTableRecord
  2
Continuous
 70
     0
  3
Solid line
 72
    65
 73
     0
 40
0.0
  0
LTYPE
  5
6E
330
5
100
AcDbSymbolTableRecord
100
AcDbLinetypeTableRecord
  2
HIDDEN
 70
     0
  3
Hidden __ __ __ __ __ __ __ __ __ __ __ __ __ __
 72
    65
 73
     2
 40
1.905
 49
1.27
 74
     0
 49
-0.635
 74
     0
  0
LTYPE
  5
6F
330
5
100
AcDbSymbolTableRecord
100
AcDbLinetypeTableRecord
  2
PHANTOM
 70
     0
  3
Phantom ______  __  __  ______  __  __  ______
 72
    65
 73
     6
 40
12.7
 49
6.35
 74
     0
 49
-1.27
 74
     0
 49
1.27
 74
     0
 49
-1.27
 74
     0
 49
1.27
 74
     0
 49
-1.27
 74
     0
  0
LTYPE
  5
70
330
5
100
AcDbSymbolTableRecord
100
AcDbLinetypeTableRecord
  2
CENTER
 70
     0
  3
Center ____ _ ____ _ ____ _ ____ _ ____ _ ____
 72
    65
 73
     4
 40
10.16
 49
6.35
 74
     0
 49
-1.27
 74
     0
 49
1.27
 74
     0
 49
-1.27
 74
     0
  0
LTYPE
  5
71
330
5
100
AcDbSymbolTableRecord
100
AcDbLinetypeTableRecord
  2
CENTERX2
 70
     0
  3
Center (2x) ________  __  ________  __  _____
 72
    65
 73
     4
 40
20.32
 49
12.7
 74
     0
 49
-2.54
 74
     0
 49
2.54
 74
     0
 49
-2.54
 74
     0
  0
LTYPE
  5
72
330
5
100
AcDbSymbolTableRecord
100
AcDbLinetypeTableRecord
  2
DOT2
 70
     0
  3
Dot (.5x) ........................................
 72
    65
 73
     2
 40
0.635
 49
0.0
 74
     0
 49
-0.635
 74
     0
  0
ENDTAB
  0
TABLE
  2
LAYER
  5
2
330
0
100
AcDbSymbolTable
 70
     2
  0
LAYER
  5
10
330
2
100
AcDbSymbolTableRecord
100
AcDbLayerTableRecord
  2
0
 70
     0
 62
     7
  6
Continuous
370
    -3
390
F
  0
LAYER
  5
73
330
2
100
AcDbSymbolTableRecord
100
AcDbLayerTableRecord
  2
TABLE_BL1
 70
     0
 62
   179
  6
Continuous
370
    -3
390
F
  0
ENDTAB
  0
TABLE
  2
STYLE
  5
3
330
0
100
AcDbSymbolTable
 70
     1
  0
STYLE
  5
11
330
3
100
AcDbSymbolTableRecord
100
AcDbTextStyleTableRecord
  2
Standard
 70
     0
 40
0.0
 41
1.0
 50
0.0
 71
     0
 42
5.0
  3
txt
  4

  0
ENDTAB
  0
TABLE
  2
VIEW
  5
6
330
0
100
AcDbSymbolTable
 70
     0
  0
ENDTAB
  0
TABLE
  2
UCS
  5
7
330
0
100
AcDbSymbolTable
 70
     0
  0
ENDTAB
  0
TABLE
  2
APPID
  5
9
330
0
100
AcDbSymbolTable
 70
     1
  0
APPID
  5
12
330
9
100
AcDbSymbolTableRecord
100
AcDbRegAppTableRecord
  2
ACAD
 70
     0
  0
ENDTAB
  0
TABLE
  2
DIMSTYLE
  5
A
330
0
100
AcDbSymbolTable
 70
     1
100
AcDbDimStyleTable
  0
DIMSTYLE
105
27
330
A
100
AcDbSymbolTableRecord
100
AcDbDimStyleTableRecord
  2
ISO-25
 70
     0
 41
2.5
 42
0.625
 43
3.75
 44
1.25
 73
     0
 74
     0
 77
     1
 78
     8
140
2.5
141
2.5
143
0.0393700787
147
0.625
171
     3
172
     1
178
     0
271
     2
272
     2
274
     3
278
    44
283
     0
284
     8
340
11
  0
ENDTAB
  0
TABLE
  2
BLOCK_RECORD
  5
1
330
0
100
AcDbSymbolTable
 70
     1
  0
BLOCK_RECORD
  5
1F
330
1
100
AcDbSymbolTableRecord
100
AcDbBlockTableRecord
  2
*Model_Space
340
22
  0
BLOCK_RECORD
  5
1B
330
1
100
AcDbSymbolTableRecord
100
AcDbBlockTableRecord
  2
*Paper_Space
340
1E
  0
BLOCK_RECORD
  5
23
330
1
100
AcDbSymbolTableRecord
100
AcDbBlockTableRecord
  2
*Paper_Space0
340
26
  0
ENDTAB
  0
ENDSEC
  0
SECTION
  2
BLOCKS
  0
BLOCK
  5
20
330
1F
100
AcDbEntity
  8
0
100
AcDbBlockBegin
  2
*Model_Space
 70
     0
 10
0.0
 20
0.0
 30
0.0
  3
*Model_Space
  1

  0
ENDBLK
  5
21
330
1F
100
AcDbEntity
  8
0
100
AcDbBlockEnd
  0
BLOCK
  5
1C
330
1B
100
AcDbEntity
 67
     1
  8
0
100
AcDbBlockBegin
  2
*Paper_Space
 70
     0
 10
0.0
 20
0.0
 30
0.0
  3
*Paper_Space
  1

  0
ENDBLK
  5
1D
330
1B
100
AcDbEntity
 67
     1
  8
0
100
AcDbBlockEnd
  0
BLOCK
  5
24
330
23
100
AcDbEntity
  8
0
100
AcDbBlockBegin
  2
*Paper_Space0
 70
     0
 10
0.0
 20
0.0
 30
0.0
  3
*Paper_Space0
  1

  0
ENDBLK
  5
25
330
23
100
AcDbEntity
  8
0
100
AcDbBlockEnd
  0
ENDSEC
  0
SECTION
  2
ENTITIES
  0
SPLINE
  5
74
330
1F
100
AcDbEntity
  8
0
  6
Continuous
 62
     7
370
    25
100
AcDbSpline
210
0.0
220
0.0
230
1.0
 70
     8
 71
     3
 72
    18
 73
    14
 74
     0
 42
0.000000001
 43
0.00000001
 40
0.0
 40
0.0
 40
0.0
 40
0.0
 40
0.1181632511129892
 40
0.241729870480245
 40
0.3519958966082085
 40
0.4393433555572522
 40
0.5540331445901646
 40
0.6249961301881906
 40
0.7018582747037613
 40
0.781180857669551
 40
0.8592624086737071
 40
0.9329154998412865
 40
1.0
 40
1.0
 40
1.0
 40
1.0
 10
315.1430738613278
 20
316.5846904977092
 30
0.0
 10
314.7918514656908
 20
315.5215325384025
 30
0.0
 10
314.0733459793621
 20
313.3466005406573
 30
0.0
 10
314.6090003820674
 20
309.9654371613324
 30
0.0
 10
316.0872188093068
 20
307.2891537029308
 30
0.0
 10
318.2479472813122
 20
305.2629486646896
 30
0.0
 10
320.6222272837687
 20
304.1577377282152
 30
0.0
 10
323.0740032853678
 20
303.80347132002
 30
0.0
 10
325.2146154450473
 20
303.9914344980988
 30
0.0
 10
327.3122434195602
 20
304.714994977746
 30
0.0
 10
329.1347259374533
 20
305.9156787601598
 30
0.0
 10
330.572514565828
 20
307.4141262209985
 30
0.0
 10
331.1936799254157
 20
308.5825358628754
 30
0.0
 10
331.4897669002683
 20
309.1394743188152
 30
0.0
  0
SPLINE
  5
75
330
1F
100
AcDbEntity
  8
0
  6
Continuous
 62
     7
370
    25
100
AcDbSpline
210
0.0
220
0.0
230
1.0
 70
     8
 71
     3
 72
    18
 73
    14
 74
     0
 42
0.000000001
 43
0.00000001
 40
0.0
 40
0.0
 40
0.0
 40
0.0
 40
0.1181641267663159
 40
0.2417305851046707
 40
0.3519955405432403
 40
0.4393439977676132
 40
0.5540331566847506
 40
0.6249958975687732
 40
0.7018578489858435
 40
0.7811803285804442
 40
0.8592623586420268
 40
0.9329149428817634
 40
1.0
 40
1.0
 40
1.0
 40
1.0
 10
331.4897669002683
 20
309.1394743188152
 30
0.0
 10
331.8409891743274
 20
310.2026418609847
 30
0.0
 10
332.5594912115658
 20
312.377583774965
 30
0.0
 10
332.0238502267583
 20
315.7587526917278
 30
0.0
 10
330.545603235933
 20
318.4350222638128
 30
0.0
 10
328.3848944252647
 20
320.4612353918665
 30
0.0
 10
326.0106127583951
 20
321.5664798790626
 30
0.0
 10
323.5588357011392
 20
321.9206731719106
 30
0.0
 10
321.4182259915718
 20
321.7327717260396
 30
0.0
 10
319.3205843978961
 20
321.0092040076387
 30
0.0
 10
317.4981373678443
 20
319.8084764587528
 30
0.0
 10
316.0602902876012
 20
318.3100725916598
 30
0.0
 10
315.4391508384699
 20
317.1416429248124
 30
0.0
 10
315.1430738613278
 20
316.5846904977092
 30
0.0
  0
LWPOLYLINE
  5
76
330
1F
100
AcDbEntity
  8
0
  6
Continuous
 62
     7
370
    25
100
AcDbPolyline
 90
        3
 70
   128
 43
0.0
 10
332.7697319433
 20
329.7457238897
 10
331.688861315
 20
330.3069910272
 10
331.4663273737
 20
330.4120442136
  0
LWPOLYLINE
  5
77
330
1F
100
AcDbEntity
  8
0
  6
Continuous
 62
     7
370
    25
100
AcDbPolyline
 90
        3
 70
   128
 43
0.0
 10
324.6017051384
 20
332.1693679555
 10
324.0456534073
 20
332.1983358129
 10
322.9884011194
 20
332.2093030675
  0
LINE
  5
78
330
1F
100
AcDbEntity
  8
0
  6
Continuous
 62
     7
370
    25
100
AcDbLine
 10
316.0028857634
 20
330.7767352327
 30
0.0
 11
314.5765168116
 21
330.1258227094
 31
0.0
  0
LINE
  5
79
330
1F
100
AcDbEntity
  8
0
  6
Continuous
 62
     7
370
    25
100
AcDbLine
 10
308.9593601868
 20
325.8350333436
 30
0.0
 11
308.0199015782
 21
324.7127970918
 31
0.0
  0
LWPOLYLINE
  5
7A
330
1F
100
AcDbEntity
  8
0
  6
Continuous
 62
     7
370
    25
100
AcDbPolyline
 90
        3
 70
   128
 43
0.0
 10
304.7709417984
 20
318.383648084
 10
304.5329702542
 20
317.5101420148
 10
304.3814179942
 20
316.8481132253
  0
LWPOLYLINE
  5
7B
330
1F
100
AcDbEntity
  8
0
  6
Continuous
 62
     7
370
    25
100
AcDbPolyline
 90
        3
 70
   128
 43
0.0
 10
304.2242107436
 20
309.7140630944
 10
304.2362285301
 20
309.6420010789
 10
304.5408753202
 20
308.1821641191
  0
LINE
  5
7C
330
1F
100
AcDbEntity
  8
0
  6
Continuous
 62
     7
370
    25
100
AcDbLine
 10
307.4742210552
 20
301.7514189943
 30
0.0
 11
308.3591414139
 21
300.5859991773
 31
0.0
  0
LWPOLYLINE
  5
7D
330
1F
100
AcDbEntity
  8
0
  6
Continuous
 62
     7
370
    25
100
AcDbPolyline
 90
        3
 70
   128
 43
0.0
 10
313.7800199434
 20
296.025230573
 10
314.9439645455
 20
295.4171737893
 10
315.1715648815
 20
295.3097662194
  0
LWPOLYLINE
  5
7E
330
1F
100
AcDbEntity
  8
0
  6
Continuous
 62
     7
370
    25
100
AcDbPolyline
 90
        3
 70
   128
 43
0.0
 10
322.1322101996
 20
293.5483595594
 10
322.5871873543
 20
293.5258290036
 10
323.7073970482
 20
293.5160538419
  0
LINE
  5
7F
330
1F
100
AcDbEntity
  8
0
  6
Continuous
 62
     7
370
    25
100
AcDbLine
 10
330.6236965105
 20
294.9448963865
 30
0.0
 11
331.9662315294
 21
295.5530425771
 31
0.0
  0
LINE
  5
80
330
1F
100
AcDbEntity
  8
0
  6
Continuous
 62
     7
370
    25
100
AcDbLine
 10
337.6085860178
 20
299.8176953061
 30
0.0
 11
338.6459750578
 21
301.0541638597
 31
0.0
  0
LWPOLYLINE
  5
81
330
1F
100
AcDbEntity
  8
0
  6
Continuous
 62
     7
370
    25
100
AcDbPolyline
 90
        3
 70
   128
 43
0.0
 10
341.8618989632
 20
307.3405167325
 10
342.0998705074
 20
308.2140228017
 10
342.2634256527
 20
308.9335402711
  0
LWPOLYLINE
  5
82
330
1F
100
AcDbEntity
  8
0
  6
Continuous
 62
     7
370
    25
100
AcDbPolyline
 90
        3
 70
   128
 43
0.0
 10
342.4103511021
 20
315.9996113046
 10
342.3965973303
 20
316.0821935399
 10
342.118780081
 20
317.4330732091
  0
LINE
  5
83
330
1F
100
AcDbEntity
  8
0
  6
Continuous
 62
     7
370
    25
100
AcDbLine
 10
339.214513962
 20
323.8926371797
 30
0.0
 11
338.1878686592
 21
325.2420267328
 31
0.0
  0
SPLINE
  5
84
330
1F
100
AcDbEntity
  8
0
  6
Continuous
 62
     7
370
    25
100
AcDbSpline
210
0.0
220
0.0
230
1.0
 70
     8
 71
     3
 72
     9
 73
     5
 74
     0
 42
0.000000001
 43
0.00000001
 40
0.0
 40
0.0
 40
0.0
 40
0.0
 40
0.5599937918299338
 40
1.0
 40
1.0
 40
1.0
 40
1.0
 10
339.829812710014
 20
325.273110555006
 30
0.0
 10
339.7584468399021
 20
325.219474997442
 30
0.0
 10
339.6310063733235
 20
325.1236961542719
 30
0.0
 10
339.4311419688349
 20
324.9734747882941
 30
0.0
 10
339.3432003900678
 20
324.9073764546642
 30
0.0
  0
SPLINE
  5
85
330
1F
100
AcDbEntity
  8
0
  6
Continuous
 62
     7
370
    25
100
AcDbSpline
210
0.0
220
0.0
230
1.0
 70
     8
 71
     3
 72
     9
 73
     5
 74
     0
 42
0.000000001
 43
0.00000001
 40
0.0
 40
0.0
 40
0.0
 40
0.0
 40
0.5600038726037058
 40
0.9999999999999999
 40
0.9999999999999999
 40
0.9999999999999999
 40
0.9999999999999999
 10
307.2896254703671
 20
300.8167883618602
 30
0.0
 10
307.1780745670354
 20
300.7329467952782
 30
0.0
 10
306.9788779028891
 20
300.5832307474369
 30
0.0
 10
306.8567596221789
 20
300.4914619703673
 30
0.0
 10
306.8030280515821
 20
300.4510840638408
 30
0.0
  0
SPLINE
  5
86
330
1F
100
AcDbEntity
  8
0
  6
Continuous
 62
     7
370
    25
100
AcDbSpline
210
0.0
220
0.0
230
1.0
 70
     8
 71
     3
 72
     9
 73
     5
 74
     0
 42
0.000000001
 43
0.00000001
 40
0.0
 40
0.0
 40
0.0
 40
0.0
 40
0.5600031134180264
 40
1.0
 40
1.0
 40
1.0
 40
1.0
 10
339.829812710014
 20
325.273110555006
 30
0.0
 10
339.9920907850643
 20
325.3950809548346
 30
0.0
 10
340.2818714508536
 20
325.6128840293285
 30
0.0
 10
340.738343138401
 20
325.9559445621124
 30
0.0
 10
340.9391892597348
 20
326.1068901284465
 30
0.0
  0
SPLINE
  5
87
330
1F
100
AcDbEntity
  8
0
  6
Continuous
 62
     7
370
    25
100
AcDbSpline
210
0.0
220
0.0
230
1.0
 70
     8
 71
     3
 72
     9
 73
     5
 74
     0
 42
0.000000001
 43
0.00000001
 40
0.0
 40
0.0
 40
0.0
 40
0.0
 40
0.5599983670495142
 40
1.0
 40
1.0
 40
1.0
 40
1.0
 10
305.6936366007001
 20
299.6173044904003
 30
0.0
 10
305.9490680500574
 20
299.8092733288789
 30
0.0
 10
306.4051969682596
 20
300.1520758257686
 30
0.0
 10
306.6814682406104
 20
300.3597202000737
 30
0.0
 10
306.803028051582
 20
300.4510840638408
 30
0.0
  0
SPLINE
  5
88
330
1F
100
AcDbEntity
  8
0
  6
Continuous
 62
     7
370
    25
100
AcDbSpline
210
0.0
220
0.0
230
1.0
 70
     8
 71
     3
 72
    11
 73
     7
 74
     0
 42
0.000000001
 43
0.00000001
 40
0.0
 40
0.0
 40
0.0
 40
0.0
 40
0.272352450008064
 40
0.5618830734680829
 40
0.7876422845163431
 40
1.0
 40
1.0
 40
1.0
 40
1.0
 10
344.900111620155
 20
329.083814309431
 30
0.0
 10
344.8956089769306
 20
329.0804285071345
 30
0.0
 10
344.8863196938212
 20
329.0734433487472
 30
0.0
 10
344.8174206211348
 20
329.021656913641
 30
0.0
 10
344.729686064386
 20
328.9557322262173
 30
0.0
 10
344.6665073195302
 20
328.9082341939427
 30
0.0
 10
344.6358842298657
 20
328.8852116330394
 30
0.0
  0
LINE
  5
89
330
1F
100
AcDbEntity
  8
0
  6
Continuous
 62
     7
370
    25
100
AcDbLine
 10
301.7327216909
 20
296.6403803094
 30
0.0
 11
302.6577410743
 21
295.4776427015
 31
0.0
  0
LWPOLYLINE
  5
8A
330
1F
100
AcDbEntity
  8
0
  6
Continuous
 62
     7
370
    25
100
AcDbPolyline
 90
        3
 70
   128
 43
0.0
 10
309.8748726294
 20
289.4457420572
 10
311.3088113711
 20
288.6790773137
 10
312.2464818403
 20
288.2357379659
  0
LWPOLYLINE
  5
8B
330
1F
100
AcDbEntity
  8
0
  6
Continuous
 62
     7
370
    25
100
AcDbPolyline
 90
        3
 70
   128
 43
0.0
 10
321.3660967991
 20
285.9326144918
 10
323.4393400595
 20
285.8623704179
 10
324.0276230023
 20
285.8714601262
  0
LWPOLYLINE
  5
8C
330
1F
100
AcDbEntity
  8
0
  6
Continuous
 62
     7
370
    25
100
AcDbPolyline
 90
        3
 70
   128
 43
0.0
 10
333.2437378809
 20
287.7533575757
 10
335.54371721
 20
288.7894353135
 10
335.6677246735
 20
288.8528248533
  0
LINE
  5
8D
330
1F
100
AcDbEntity
  8
0
  6
Continuous
 62
     7
370
    25
100
AcDbLine
 10
343.155155842
 20
294.5475122197
 30
0.0
 11
344.8614878103
 21
296.5891203149
 31
0.0
  0
LWPOLYLINE
  5
8E
330
1F
100
AcDbEntity
  8
0
  6
Continuous
 62
     7
370
    25
100
AcDbPolyline
 90
        3
 70
   128
 43
0.0
 10
349.1370630905
 20
304.969414161
 10
349.2171270296
 20
305.2362343534
 10
349.7883034393
 20
307.548000501
  0
LWPOLYLINE
  5
8F
330
1F
100
AcDbEntity
  8
0
  6
Continuous
 62
     7
370
    25
100
AcDbPolyline
 90
        3
 70
   128
 43
0.0
 10
350.0044298813
 20
316.9547757371
 10
349.8846096441
 20
317.6716109975
 10
349.4726968453
 20
319.559051679
  0
LINE
  5
90
330
1F
100
AcDbEntity
  8
0
  6
Continuous
 62
     7
370
    25
100
AcDbLine
 10
345.585281913
 20
328.1296333535
 30
0.0
 11
344.9001116202
 21
329.0838143094
 31
0.0
  0
SPLINE
  5
91
330
1F
100
AcDbEntity
  8
0
  6
Continuous
 62
     7
370
    25
100
AcDbSpline
210
0.0
220
0.0
230
1.0
 70
     8
 71
     3
 72
    11
 73
     7
 74
     0
 42
0.000000001
 43
0.00000001
 40
0.0
 40
0.0
 40
0.0
 40
0.0
 40
0.2723364219393737
 40
0.5618793928348447
 40
0.7876570768621523
 40
1.0
 40
1.0
 40
1.0
 40
1.0
 10
301.9969565317303
 20
296.838953183485
 30
0.0
 10
301.957769317664
 20
296.8095055920247
 30
0.0
 10
301.8769189933127
 20
296.7487498741801
 30
0.0
 10
301.7908723159743
 20
296.6840839009267
 30
0.0
 10
301.7410759794367
 20
296.6466326495826
 30
0.0
 10
301.7354489368541
 20
296.6424213772476
 30
0.0
 10
301.7327216908604
 20
296.6403803094158
 30
0.0
  0
LINE
  5
92
330
1F
100
AcDbEntity
  8
0
  6
Continuous
 62
     7
370
    25
100
AcDbLine
 10
344.9001116202
 20
329.0838143094
 30
0.0
 11
343.9750922367
 21
330.2465519174
 31
0.0
  0
LWPOLYLINE
  5
93
330
1F
100
AcDbEntity
  8
0
  6
Continuous
 62
     7
370
    25
100
AcDbPolyline
 90
        3
 70
   128
 43
0.0
 10
336.7579681322
 20
336.2784227594
 10
335.3240144894
 20
337.0450875028
 10
334.3863440201
 20
337.4884268506
  0
LWPOLYLINE
  5
94
330
1F
100
AcDbEntity
  8
0
  6
Continuous
 62
     7
370
    25
100
AcDbPolyline
 90
        3
 70
   128
 43
0.0
 10
325.2667439625
 20
339.7915503248
 10
323.1934858009
 20
339.8618092998
 10
322.6052177593
 20
339.8527195915
  0
LWPOLYLINE
  5
95
330
1F
100
AcDbEntity
  8
0
  6
Continuous
 62
     7
370
    25
100
AcDbPolyline
 90
        3
 70
   128
 43
0.0
 10
313.3891028807
 20
337.970822142
 10
311.0891086504
 20
336.9347444041
 10
310.9651160881
 20
336.8713697656
  0
LINE
  5
96
330
1F
100
AcDbEntity
  8
0
  6
Continuous
 62
     7
370
    25
100
AcDbLine
 10
303.477677469
 20
331.1766823991
 30
0.0
 11
301.7713455007
 21
329.1350743039
 31
0.0
  0
LWPOLYLINE
  5
97
330
1F
100
AcDbEntity
  8
0
  6
Continuous
 62
     7
370
    25
100
AcDbPolyline
 90
        3
 70
   128
 43
0.0
 10
297.4957776711
 20
320.7547804578
 10
297.415713732
 20
320.4879304631
 10
296.8445373223
 20
318.1761941179
  0
LWPOLYLINE
  5
98
330
1F
100
AcDbEntity
  8
0
  6
Continuous
 62
     7
370
    25
100
AcDbPolyline
 90
        3
 70
   128
 43
0.0
 10
296.6284034297
 20
308.7694188817
 10
296.7482311175
 20
308.0525836213
 10
297.1601439163
 20
306.1651429399
  0
LINE
  5
99
330
1F
100
AcDbEntity
  8
0
  6
Continuous
 62
     7
370
    25
100
AcDbLine
 10
301.0475588486
 20
297.594531463
 30
0.0
 11
301.7327216909
 21
296.6403803094
 31
0.0
  0
SPLINE
  5
9A
330
1F
100
AcDbEntity
  8
0
  6
Continuous
 62
     7
370
    25
100
AcDbSpline
210
0.0
220
0.0
230
1.0
 70
     8
 71
     3
 72
     9
 73
     5
 74
     0
 42
0.000000001
 43
0.00000001
 40
0.0
 40
0.0
 40
0.0
 40
0.0
 40
0.5599978222286599
 40
1.0
 40
1.0
 40
1.0
 40
1.0
 10
292.8323400661618
 20
289.6773061021099
 30
0.0
 10
292.6774775731394
 20
289.5595272877861
 30
0.0
 10
292.4009363315929
 20
289.3492071585844
 30
0.0
 10
292.0366760780768
 20
289.0721737503851
 30
0.0
 10
291.8764007732541
 20
288.950278447462
 30
0.0
  0
SPLINE
  5
9B
330
1F
100
AcDbEntity
  8
0
  6
Continuous
 62
     7
370
    25
100
AcDbSpline
210
0.0
220
0.0
230
1.0
 70
     8
 71
     3
 72
     9
 73
     5
 74
     0
 42
0.000000001
 43
0.00000001
 40
0.0
 40
0.0
 40
0.0
 40
0.0
 40
0.5600109202931556
 40
1.0
 40
1.0
 40
1.0
 40
1.0
 10
354.756439988342
 20
336.7739161713848
 30
0.0
 10
354.5515525145029
 20
336.6180860057244
 30
0.0
 10
354.1856891600315
 20
336.3398232790283
 30
0.0
 10
353.9181951421771
 20
336.1363844699561
 30
0.0
 10
353.8005006954343
 20
336.0468736155757
 30
0.0
  0
ARC
  5
9C
330
1F
100
AcDbEntity
  8
0
  6
Continuous
 62
     7
370
    25
100
AcDbCircle
 10
323.3164179149
 20
312.8620895522
 30
0.0
 40
38.29899805700023
100
AcDbArc
 50
37.2549368278
 51
217.2549368278
  0
ARC
  5
9D
330
1F
100
AcDbEntity
  8
0
  6
Continuous
 62
     7
370
    25
100
AcDbCircle
 10
323.3164179149
 20
312.8620895522
 30
0.0
 40
39.50000000000034
100
AcDbArc
 50
37.2549368278
 51
217.2549368513
  0
ARC
  5
9E
330
1F
100
AcDbEntity
  8
0
  6
Continuous
 62
     7
370
    25
100
AcDbCircle
 10
323.3164179149
 20
312.8620895522
 30
0.0
 40
38.29899805700023
100
AcDbArc
 50
217.2549368278
 51
37.2549368278
  0
ARC
  5
9F
330
1F
100
AcDbEntity
  8
0
  6
Continuous
 62
     7
370
    25
100
AcDbCircle
 10
323.3164179149
 20
312.8620895522
 30
0.0
 40
39.50000000000034
100
AcDbArc
 50
217.2549368513
 51
37.2549368176
  0
SPLINE
  5
A0
330
1F
100
AcDbEntity
  8
0
  6
Continuous
 62
     7
370
    25
100
AcDbSpline
210
0.0
220
0.0
230
1.0
 70
     8
 71
     3
 72
    12
 73
     8
 74
     0
 42
0.000000001
 43
0.00000001
 40
0.0
 40
0.0
 40
0.0
 40
0.0
 40
0.320375971681491
 40
0.5620006215509186
 40
0.7625096689645758
 40
0.8964669681268158
 40
1.0
 40
1.0
 40
1.0
 40
1.0
 10
341.3773728058011
 20
344.3612447245845
 30
0.0
 10
341.4181685627404
 20
344.4595075532548
 30
0.0
 10
341.4897321092703
 20
344.6318793154011
 30
0.0
 10
341.4562878119435
 20
344.9068150532701
 30
0.0
 10
341.3539258889562
 20
345.1132024037041
 30
0.0
 10
341.2210468648107
 20
345.2542050052639
 30
0.0
 10
341.1283558550033
 20
345.3087005684161
 30
0.0
 10
341.087947551933
 20
345.3324577077159
 30
0.0
  0
LINE
  5
A1
330
1F
100
AcDbEntity
  8
0
  6
Continuous
 62
     7
370
    25
100
AcDbLine
 10
339.175592129
 20
346.3081410392
 30
0.0
 11
341.0879475519
 21
345.3324577077
 31
0.0
  0
SPLINE
  5
A2
330
1F
100
AcDbEntity
  8
0
  6
Continuous
 62
     7
370
    25
100
AcDbSpline
210
0.0
220
0.0
230
1.0
 70
     8
 71
     3
 72
    12
 73
     8
 74
     0
 42
0.000000001
 43
0.00000001
 40
0.0
 40
0.0
 40
0.0
 40
0.0
 40
0.1369186808582903
 40
0.2732897932925069
 40
0.4609242857102349
 40
0.7173018214335586
 40
1.0
 40
1.0
 40
1.0
 40
1.0
 10
339.1755921289594
 20
346.3081410392055
 30
0.0
 10
339.1180829742539
 20
346.3319763309532
 30
0.0
 10
339.0032946568135
 20
346.3795515917869
 30
0.0
 10
338.8032994698518
 20
346.3916372310355
 30
0.0
 10
338.5812176803361
 20
346.3434011137539
 30
0.0
 10
338.3585285429327
 20
346.2062963497203
 30
0.0
 10
338.2672514740084
 20
346.0529036622691
 30
0.0
 10
338.2193846151501
 20
345.9724625809917
 30
0.0
  0
SPLINE
  5
A3
330
1F
100
AcDbEntity
  8
0
  6
Continuous
 62
     7
370
    25
100
AcDbSpline
210
0.0
220
0.0
230
1.0
 70
     8
 71
     3
 72
    11
 73
     7
 74
     0
 42
0.000000001
 43
0.00000001
 40
0.0
 40
0.0
 40
0.0
 40
0.0
 40
0.2603291267966639
 40
0.5282084996198043
 40
0.7614182211871019
 40
1.0
 40
1.0
 40
1.0
 40
1.0
 10
331.3854587719113
 20
330.8234354718456
 30
0.0
 10
332.0420700075088
 20
332.2789765878669
 30
0.0
 10
333.3743359735039
 20
335.2322734336288
 30
0.0
 10
335.1913209652992
 20
339.2599930640833
 30
0.0
 10
336.8403315594045
 20
342.9154434367795
 30
0.0
 10
337.7562239913569
 20
344.9457501656265
 30
0.0
 10
338.2193846151502
 20
345.9724625809917
 30
0.0
  0
SPLINE
  5
A4
330
1F
100
AcDbEntity
  8
0
  6
Continuous
 62
     7
370
    25
100
AcDbSpline
210
0.0
220
0.0
230
1.0
 70
     8
 71
     3
 72
    12
 73
     8
 74
     0
 42
0.000000001
 43
0.00000001
 40
0.0
 40
0.0
 40
0.0
 40
0.0
 40
0.2229051402783414
 40
0.4458283332672456
 40
0.6679363340917103
 40
0.8889285198925437
 40
1.0
 40
1.0
 40
1.0
 40
1.0
 10
331.3854587719113
 20
330.8234354718456
 30
0.0
 10
331.3600869221353
 20
330.7482744018332
 30
0.0
 10
331.3093411677598
 20
330.5979461746405
 30
0.0
 10
331.333607911194
 20
330.3561077106197
 30
0.0
 10
331.4314544226841
 20
330.1382158920219
 30
0.0
 10
331.5689634058063
 20
329.9906503953905
 30
0.0
 10
331.6712034755407
 20
329.9317516158034
 30
0.0
 10
331.7054016039044
 20
329.9120506509075
 30
0.0
  0
LINE
  5
A5
330
1F
100
AcDbEntity
  8
0
  6
Continuous
 62
     7
370
    25
100
AcDbLine
 10
332.1972591326
 20
329.6611150964
 30
0.0
 11
331.7054016039
 21
329.9120506509
 31
0.0
  0
SPLINE
  5
A6
330
1F
100
AcDbEntity
  8
0
  6
Continuous
 62
     7
370
    25
100
AcDbSpline
210
0.0
220
0.0
230
1.0
 70
     8
 71
     3
 72
    12
 73
     8
 74
     0
 42
0.000000001
 43
0.00000001
 40
0.0
 40
0.0
 40
0.0
 40
0.0
 40
0.2201357779882901
 40
0.4402548171758104
 40
0.6607414737670892
 40
0.8821561252061092
 40
1.0
 40
1.0
 40
1.0
 40
1.0
 10
332.1972591325909
 20
329.6611150964031
 30
0.0
 10
332.2706246060608
 20
329.6323070146662
 30
0.0
 10
332.4173499743978
 20
329.5746930417165
 30
0.0
 10
332.6580933443701
 20
329.586424909286
 30
0.0
 10
332.8793812892185
 20
329.6716326217136
 30
0.0
 10
333.0353497963837
 20
329.8013130520853
 30
0.0
 10
333.1003543653123
 20
329.9019933656426
 30
0.0
 10
333.122934167114
 20
329.9369653924236
 30
0.0
  0
SPLINE
  5
A7
330
1F
100
AcDbEntity
  8
0
  6
Continuous
 62
     7
370
    25
100
AcDbSpline
210
0.0
220
0.0
230
1.0
 70
     8
 71
     3
 72
    11
 73
     7
 74
     0
 42
0.000000001
 43
0.00000001
 40
0.0
 40
0.0
 40
0.0
 40
0.0
 40
0.2832271102738728
 40
0.5762688788584179
 40
0.7861909608159975
 40
0.9999999999999999
 40
0.9999999999999999
 40
0.9999999999999999
 40
0.9999999999999999
 10
341.3773728058011
 20
344.3612447245845
 30
0.0
 10
340.70812996913
 20
343.1917811693216
 30
0.0
 10
339.3464530491505
 20
340.8123286825682
 30
0.0
 10
337.1640913559891
 20
336.9986993533989
 30
0.0
 10
335.0664199214895
 20
333.3331252529732
 30
0.0
 10
333.7747124356369
 20
331.0759205859733
 30
0.0
 10
333.122934167114
 20
329.9369653924235
 30
0.0
  0
SPLINE
  5
A8
330
1F
100
AcDbEntity
  8
0
  6
Continuous
 62
     7
370
    25
100
AcDbSpline
210
0.0
220
0.0
230
1.0
 70
     8
 71
     3
 72
    13
 73
     9
 74
     0
 42
0.000000001
 43
0.00000001
 40
0.0
 40
0.0
 40
0.0
 40
0.0
 40
0.3201814088848411
 40
0.4946692210732902
 40
0.6890212909270005
 40
0.8387738323460078
 40
0.9672396843321697
 40
1.0
 40
1.0
 40
1.0
 40
1.0
 10
325.9217990085751
 20
349.078207300497
 30
0.0
 10
325.916165436108
 20
349.1845929886974
 30
0.0
 10
325.9074617611698
 20
349.3489552035393
 30
0.0
 10
325.7850668136946
 20
349.5607392947071
 30
0.0
 10
325.6435297180635
 20
349.7010943168776
 30
0.0
 10
325.4651066632304
 20
349.7932433232554
 30
0.0
 10
325.3269665269738
 20
349.8239415637423
 30
0.0
 10
325.2543989951149
 20
349.8270330324397
 30
0.0
 10
325.2396536514432
 20
349.8276612027416
 30
0.0
  0
LINE
  5
A9
330
1F
100
AcDbEntity
  8
0
  6
Continuous
 62
     7
370
    25
100
AcDbLine
 10
323.0933499977
 20
349.8769840463
 30
0.0
 11
325.2396536514
 21
349.8276612027
 31
0.0
  0
SPLINE
  5
AA
330
1F
100
AcDbEntity
  8
0
  6
Continuous
 62
     7
370
    25
100
AcDbSpline
210
0.0
220
0.0
230
1.0
 70
     8
 71
     3
 72
    12
 73
     8
 74
     0
 42
0.000000001
 43
0.00000001
 40
0.0
 40
0.0
 40
0.0
 40
0.0
 40
0.1369195813879718
 40
0.2732961281954824
 40
0.4609298278853697
 40
0.7173035955403942
 40
1.0
 40
1.0
 40
1.0
 40
1.0
 10
323.0933499977261
 20
349.8769840462932
 30
0.0
 10
323.0311929445846
 20
349.8735084357592
 30
0.0
 10
322.9071253584042
 20
349.8665709992549
 30
0.0
 10
322.7216954629044
 20
349.7906615519839
 30
0.0
 10
322.5425239452711
 20
349.6508606129327
 30
0.0
 10
322.4013785841398
 20
349.4307074125423
 30
0.0
 10
322.3857035391887
 20
349.2529012434235
 30
0.0
 10
322.3774833128126
 20
349.1596570475826
 30
0.0
  0
SPLINE
  5
AB
330
1F
100
AcDbEntity
  8
0
  6
Continuous
 62
     7
370
    25
100
AcDbSpline
210
0.0
220
0.0
230
1.0
 70
     8
 71
     3
 72
    11
 73
     7
 74
     0
 42
0.000000001
 43
0.00000001
 40
0.0
 40
0.0
 40
0.0
 40
0.0
 40
0.260329898378436
 40
0.5282092634695177
 40
0.7614183855036956
 40
1.0
 40
1.0
 40
1.0
 40
1.0
 10
322.793240611282
 20
332.5457116826305
 30
0.0
 10
322.7532943655693
 20
334.1420080890685
 30
0.0
 10
322.6722434484149
 20
337.3808928824623
 30
0.0
 10
322.5617077377267
 20
341.7981090151615
 30
0.0
 10
322.4613849600963
 20
345.8070299074777
 30
0.0
 10
322.4056620425152
 20
348.0336627788949
 30
0.0
 10
322.3774833128125
 20
349.1596570475826
 30
0.0
  0
SPLINE
  5
AC
330
1F
100
AcDbEntity
  8
0
  6
Continuous
 62
     7
370
    25
100
AcDbSpline
210
0.0
220
0.0
230
1.0
 70
     8
 71
     3
 72
    12
 73
     8
 74
     0
 42
0.000000001
 43
0.00000001
 40
0.0
 40
0.0
 40
0.0
 40
0.0
 40
0.2229079825242267
 40
0.445817810573967
 40
0.6679306014014146
 40
0.8889112526794932
 40
1.0
 40
1.0
 40
1.0
 40
1.0
 10
322.793240611282
 20
332.5457116826305
 30
0.0
 10
322.8029915671758
 20
332.4669843426327
 30
0.0
 10
322.8224935596944
 20
332.3095290108286
 30
0.0
 10
322.9493066929259
 20
332.1021952933788
 30
0.0
 10
323.131966121781
 20
331.9482995770938
 30
0.0
 10
323.3199052450069
 20
331.8750685693934
 30
0.0
 10
323.4375720545597
 20
331.8663379944401
 30
0.0
 10
323.4769356891782
 20
331.8634173138866
 30
0.0
  0
LINE
  5
AD
330
1F
100
AcDbEntity
  8
0
  6
Continuous
 62
     7
370
    25
100
AcDbLine
 10
324.0289492056
 20
331.8507215245
 30
0.0
 11
323.4769356892
 21
331.8634173139
 31
0.0
  0
SPLINE
  5
AE
330
1F
100
AcDbEntity
  8
0
  6
Continuous
 62
     7
370
    25
100
AcDbSpline
210
0.0
220
0.0
230
1.0
 70
     8
 71
     3
 72
    12
 73
     8
 74
     0
 42
0.000000001
 43
0.00000001
 40
0.0
 40
0.0
 40
0.0
 40
0.0
 40
0.2201306909192905
 40
0.440261470565857
 40
0.6607325670101779
 40
0.882138621017591
 40
1.0
 40
1.0
 40
1.0
 40
1.0
 10
324.0289492056043
 20
331.8507215245494
 30
0.0
 10
324.1075445149087
 20
331.8566120685284
 30
0.0
 10
324.264735165197
 20
331.8683931588604
 30
0.0
 10
324.4765506425611
 20
331.9834057313548
 30
0.0
 10
324.638931247346
 20
332.156196584197
 30
0.0
 10
324.7232403877343
 20
332.3406829251076
 30
0.0
 10
324.7381029286231
 20
332.4596052284879
 30
0.0
 10
324.7432661697537
 20
332.5009187920818
 30
0.0
  0
SPLINE
  5
AF
330
1F
100
AcDbEntity
  8
0
  6
Continuous
 62
     7
370
    25
100
AcDbSpline
210
0.0
220
0.0
230
1.0
 70
     8
 71
     3
 72
    11
 73
     7
 74
     0
 42
0.000000001
 43
0.00000001
 40
0.0
 40
0.0
 40
0.0
 40
0.0
 40
0.2832273023410782
 40
0.5762693452101381
 40
0.7861910149299515
 40
1.0
 40
1.0
 40
1.0
 40
1.0
 10
325.9217990085751
 20
349.078207300497
 30
0.0
 10
325.8262552609752
 20
347.7341817778131
 30
0.0
 10
325.6318568664232
 20
344.9995559084116
 30
0.0
 10
325.3202293632653
 20
340.6167069933464
 30
0.0
 10
325.0207715530169
 20
336.4039942389486
 30
0.0
 10
324.8363319818812
 20
333.8098767733138
 30
0.0
 10
324.7432661697538
 20
332.5009187920817
 30
0.0
  0
SPLINE
  5
B0
330
1F
100
AcDbEntity
  8
0
  6
Continuous
 62
     7
370
    25
100
AcDbSpline
210
0.0
220
0.0
230
1.0
 70
     8
 71
     3
 72
    13
 73
     9
 74
     0
 42
0.000000001
 43
0.00000001
 40
0.0
 40
0.0
 40
0.0
 40
0.0
 40
0.1923270600518896
 40
0.4540789121426109
 40
0.6566914080435913
 40
0.813113611905595
 40
0.9441945492865973
 40
1.0
 40
1.0
 40
1.0
 40
1.0
 10
309.9502129003674
 20
346.6221234067211
 30
0.0
 10
309.9221753247361
 20
346.679057428818
 30
0.0
 10
309.8559793779028
 20
346.8134770929605
 30
0.0
 10
309.6847732913577
 20
346.9653114766991
 30
0.0
 10
309.4683853606559
 20
347.0547005920025
 30
0.0
 10
309.264228279926
 20
347.0711019217895
 30
0.0
 10
309.1116082963987
 20
347.0433173667894
 30
0.0
 10
309.0336925869926
 20
347.0110177337933
 30
0.0
 10
309.0104264661938
 20
347.0013728602657
 30
0.0
  0
LINE
  5
B1
330
1F
100
AcDbEntity
  8
0
  6
Continuous
 62
     7
370
    25
100
AcDbLine
 10
307.0552749083
 20
346.1145749553
 30
0.0
 11
309.0104264662
 21
347.0013728603
 31
0.0
  0
SPLINE
  5
B2
330
1F
100
AcDbEntity
  8
0
  6
Continuous
 62
     7
370
    25
100
AcDbSpline
210
0.0
220
0.0
230
1.0
 70
     8
 71
     3
 72
    12
 73
     8
 74
     0
 42
0.000000001
 43
0.00000001
 40
0.0
 40
0.0
 40
0.0
 40
0.0
 40
0.136918704831219
 40
0.2732895238261162
 40
0.4609276125493709
 40
0.7173062650731518
 40
1.0
 40
1.0
 40
1.0
 40
1.0
 10
307.0552749082715
 20
346.1145749552974
 30
0.0
 10
307.000784094668
 20
346.0844714435592
 30
0.0
 10
306.8920205146958
 20
346.0243848805248
 30
0.0
 10
306.7578882685241
 20
345.8755470345725
 30
0.0
 10
306.6571115032528
 20
345.6718500368843
 30
0.0
 10
306.6254699497243
 20
345.4122534998451
 30
0.0
 10
306.6884869815016
 20
345.2452565053345
 30
0.0
 10
306.7215336010129
 20
345.1576819880733
 30
0.0
  0
SPLINE
  5
B3
330
1F
100
AcDbEntity
  8
0
  6
Continuous
 62
     7
370
    25
100
AcDbSpline
210
0.0
220
0.0
230
1.0
 70
     8
 71
     3
 72
    11
 73
     7
 74
     0
 42
0.000000001
 43
0.00000001
 40
0.0
 40
0.0
 40
0.0
 40
0.0
 40
0.260329866595213
 40
0.5282087857039023
 40
0.7614181718671412
 40
1.0
 40
1.0
 40
1.0
 40
1.0
 10
314.3046451255948
 20
330.3694268925914
 30
0.0
 10
313.5760483714223
 20
331.7903084989755
 30
0.0
 10
312.0977269946912
 20
334.6732744750006
 30
0.0
 10
310.0815743705063
 20
338.6050822267247
 30
0.0
 10
308.2517829902296
 20
342.1734702640458
 30
0.0
 10
307.2354744109431
 20
344.155421702098
 30
0.0
 10
306.7215336010129
 20
345.1576819880733
 30
0.0
  0
SPLINE
  5
B4
330
1F
100
AcDbEntity
  8
0
  6
Continuous
 62
     7
370
    25
100
AcDbSpline
210
0.0
220
0.0
230
1.0
 70
     8
 71
     3
 72
    12
 73
     8
 74
     0
 42
0.000000001
 43
0.00000001
 40
0.0
 40
0.0
 40
0.0
 40
0.0
 40
0.2229001031100433
 40
0.445831813906639
 40
0.6679301866691509
 40
0.8889128708437284
 40
1.0
 40
1.0
 40
1.0
 40
1.0
 10
314.3046451255948
 20
330.3694268925914
 30
0.0
 10
314.3475868125719
 20
330.3027296938949
 30
0.0
 10
314.4334762757445
 20
330.1693258387039
 30
0.0
 10
314.6376824079282
 20
330.0375119841142
 30
0.0
 10
314.869042534521
 20
329.9781906352322
 30
0.0
 10
315.0701484143978
 20
329.9936663029932
 30
0.0
 10
315.179941632533
 20
330.0368878318448
 30
0.0
 10
315.2166706964642
 20
330.0513467057476
 30
0.0
  0
LINE
  5
B5
330
1F
100
AcDbEntity
  8
0
  6
Continuous
 62
     7
370
    25
100
AcDbLine
 10
315.7195252821
 20
330.279423879
 30
0.0
 11
315.2166706965
 21
330.0513467057
 31
0.0
  0
SPLINE
  5
B6
330
1F
100
AcDbEntity
  8
0
  6
Continuous
 62
     7
370
    25
100
AcDbSpline
210
0.0
220
0.0
230
1.0
 70
     8
 71
     3
 72
    12
 73
     8
 74
     0
 42
0.000000001
 43
0.00000001
 40
0.0
 40
0.0
 40
0.0
 40
0.0
 40
0.2201242074852483
 40
0.4402568077893458
 40
0.6607499624138466
 40
0.8821750778993336
 40
1.0
 40
1.0
 40
1.0
 40
1.0
 10
315.7195252821118
 20
330.2794238789806
 30
0.0
 10
315.7877817521735
 20
330.3188244747573
 30
0.0
 10
315.9242972947555
 20
330.3976271685627
 30
0.0
 10
316.0652340725933
 20
330.5931550487809
 30
0.0
 10
316.136572089485
 20
330.8192997876724
 30
0.0
 10
316.132457861601
 20
331.0220906614574
 30
0.0
 10
316.0942741391918
 20
331.1356814606913
 30
0.0
 10
316.0810125515134
 20
331.1751326783428
 30
0.0
  0
SPLINE
  5
B7
330
1F
100
AcDbEntity
  8
0
  6
Continuous
 62
     7
370
    25
100
AcDbSpline
210
0.0
220
0.0
230
1.0
 70
     8
 71
     3
 72
    11
 73
     7
 74
     0
 42
0.000000001
 43
0.00000001
 40
0.0
 40
0.0
 40
0.0
 40
0.0
 40
0.2832271313259733
 40
0.5762692631284975
 40
0.7861905666919895
 40
1.0
 40
1.0
 40
1.0
 40
1.0
 10
309.9502129003674
 20
346.6221234067211
 30
0.0
 10
310.44727314541
 20
345.3697386795878
 30
0.0
 10
311.4586188445319
 20
342.8215688750934
 30
0.0
 10
313.0795378981753
 20
338.737557919535
 30
0.0
 10
314.6375268761427
 20
334.8120852241687
 30
0.0
 10
315.5969162252343
 20
332.3948436850582
 30
0.0
 10
316.0810125515134
 20
331.1751326783428
 30
0.0
  0
SPLINE
  5
B8
330
1F
100
AcDbEntity
  8
0
  6
Continuous
 62
     7
370
    25
100
AcDbSpline
210
0.0
220
0.0
230
1.0
 70
     8
 71
     3
 72
    12
 73
     8
 74
     0
 42
0.000000001
 43
0.00000001
 40
0.0
 40
0.0
 40
0.0
 40
0.0
 40
0.3203327810444944
 40
0.561924528418876
 40
0.7389282580768914
 40
0.8801325065351024
 40
1.0
 40
1.0
 40
1.0
 40
1.0
 10
296.6259521886975
 20
337.4794414504299
 30
0.0
 10
296.5392701254786
 20
337.5410961268905
 30
0.0
 10
296.3872133258658
 20
337.6492501374852
 30
0.0
 10
296.1198110538672
 20
337.6768033118785
 30
0.0
 10
295.9039260518099
 20
337.6286777505184
 30
0.0
 10
295.7344105210752
 20
337.5380069715549
 30
0.0
 10
295.6523581157358
 20
337.4525986548052
 30
0.0
 10
295.614684884277
 20
337.4133846028575
 30
0.0
  0
LINE
  5
B9
330
1F
100
AcDbEntity
  8
0
  6
Continuous
 62
     7
370
    25
100
AcDbLine
 10
294.2379218981
 20
335.7660910352
 30
0.0
 11
295.6146848843
 21
337.4133846029
 31
0.0
  0
SPLINE
  5
BA
330
1F
100
AcDbEntity
  8
0
  6
Continuous
 62
     7
370
    25
100
AcDbSpline
210
0.0
220
0.0
230
1.0
 70
     8
 71
     3
 72
    12
 73
     8
 74
     0
 42
0.000000001
 43
0.00000001
 40
0.0
 40
0.0
 40
0.0
 40
0.0
 40
0.136918971890664
 40
0.2732877600683179
 40
0.4609264886065451
 40
0.7173075421717939
 40
1.0
 40
1.0
 40
1.0
 40
1.0
 10
294.2379218980939
 20
335.7660910352001
 30
0.0
 10
294.2018887070657
 20
335.7153262838527
 30
0.0
 10
294.1299671177622
 20
335.6140007699772
 30
0.0
 10
294.0736897957879
 20
335.4217080163456
 30
0.0
 10
294.0712875727899
 20
335.1944570959814
 30
0.0
 10
294.1554146043789
 20
334.94684042558
 30
0.0
 10
294.2846456541997
 20
334.823723179665
 30
0.0
 10
294.3524149701268
 20
334.759159968687
 30
0.0
  0
SPLINE
  5
BB
330
1F
100
AcDbEntity
  8
0
  6
Continuous
 62
     7
370
    25
100
AcDbSpline
210
0.0
220
0.0
230
1.0
 70
     8
 71
     3
 72
    11
 73
     7
 74
     0
 42
0.000000001
 43
0.00000001
 40
0.0
 40
0.0
 40
0.0
 40
0.0
 40
0.2603304724812954
 40
0.5282091104428941
 40
0.7614184193907596
 40
1.0
 40
1.0
 40
1.0
 40
1.0
 10
307.600940530029
 20
324.7255822880992
 30
0.0
 10
306.3279997869308
 20
325.689632671252
 30
0.0
 10
303.7452099538783
 20
327.6456856467399
 30
0.0
 10
300.222770017629
 20
330.3133453298948
 30
0.0
 10
297.0259094316917
 20
332.7344183134075
 30
0.0
 10
295.2503193247829
 20
334.0791419714681
 30
0.0
 10
294.3524149701268
 20
334.759159968687
 30
0.0
  0
SPLINE
  5
BC
330
1F
100
AcDbEntity
  8
0
  6
Continuous
 62
     7
370
    25
100
AcDbSpline
210
0.0
220
0.0
230
1.0
 70
     8
 71
     3
 72
    12
 73
     8
 74
     0
 42
0.000000001
 43
0.00000001
 40
0.0
 40
0.0
 40
0.0
 40
0.0
 40
0.2228955708517867
 40
0.4458214141001654
 40
0.6679304927620627
 40
0.888907901129477
 40
1.0
 40
1.0
 40
1.0
 40
1.0
 10
307.600940530029
 20
324.7255822880992
 30
0.0
 10
307.6685714670156
 20
324.684132394566
 30
0.0
 10
307.8038425262343
 20
324.6012269780131
 30
0.0
 10
308.0450077132932
 20
324.5710603235878
 30
0.0
 10
308.2792027064008
 20
324.6179692593039
 30
0.0
 10
308.4536680094728
 20
324.719188125714
 30
0.0
 10
308.533842699128
 20
324.8057571747802
 30
0.0
 10
308.5606647178799
 20
324.834718392683
 30
0.0
  0
LINE
  5
BD
330
1F
100
AcDbEntity
  8
0
  6
Continuous
 62
     7
370
    25
100
AcDbLine
 10
308.9147610113
 20
325.2583882077
 30
0.0
 11
308.5606647179
 21
324.8347183927
 31
0.0
  0
SPLINE
  5
BE
330
1F
100
AcDbEntity
  8
0
  6
Continuous
 62
     7
370
    25
100
AcDbSpline
210
0.0
220
0.0
230
1.0
 70
     8
 71
     3
 72
    12
 73
     8
 74
     0
 42
0.000000001
 43
0.00000001
 40
0.0
 40
0.0
 40
0.0
 40
0.0
 40
0.2201310162680935
 40
0.4402739255985025
 40
0.6607588721813987
 40
0.8834169045114805
 40
1.0
 40
1.0
 40
1.0
 40
1.0
 10
308.9147610113293
 20
325.2583882077465
 30
0.0
 10
308.959160806464
 20
325.3235069450025
 30
0.0
 10
309.0479627955298
 20
325.4537479376975
 30
0.0
 10
309.090089910998
 20
325.6910671987264
 30
0.0
 10
309.056204441632
 20
325.9262071239568
 30
0.0
 10
308.9643106533911
 20
326.1070814072016
 30
0.0
 10
308.8805787761995
 20
326.1927977641636
 30
0.0
 10
308.8518036052853
 20
326.2222549184093
 30
0.0
  0
SPLINE
  5
BF
330
1F
100
AcDbEntity
  8
0
  6
Continuous
 62
     7
370
    25
100
AcDbSpline
210
0.0
220
0.0
230
1.0
 70
     8
 71
     3
 72
    11
 73
     7
 74
     0
 42
0.000000001
 43
0.00000001
 40
0.0
 40
0.0
 40
0.0
 40
0.0
 40
0.2832268816539349
 40
0.5762691880360821
 40
0.7861905366808074
 40
0.9999999999999999
 40
0.9999999999999999
 40
0.9999999999999999
 40
0.9999999999999999
 10
296.6259521886975
 20
337.4794414504299
 30
0.0
 10
297.6171769018837
 20
336.5667533349964
 30
0.0
 10
299.6339779106492
 20
334.7097472621983
 30
0.0
 10
302.8663499441356
 20
331.7334615249269
 30
0.0
 10
305.973261679293
 20
328.8727367281134
 30
0.0
 10
307.8864379206392
 20
327.1111369471069
 30
0.0
 10
308.8518036052853
 20
326.2222549184093
 30
0.0
  0
SPLINE
  5
C0
330
1F
100
AcDbEntity
  8
0
  6
Continuous
 62
     7
370
    25
100
AcDbSpline
210
0.0
220
0.0
230
1.0
 70
     8
 71
     3
 72
    12
 73
     8
 74
     0
 42
0.000000001
 43
0.00000001
 40
0.0
 40
0.0
 40
0.0
 40
0.0
 40
0.3203339498822163
 40
0.5619256599048367
 40
0.7389339383773202
 40
0.8801357262540042
 40
1.0
 40
1.0
 40
1.0
 40
1.0
 10
288.5880721256406
 20
323.4610101445446
 30
0.0
 10
288.4832235950077
 20
323.4789434058482
 30
0.0
 10
288.2992996625379
 20
323.5104017002188
 30
0.0
 10
288.0464226397944
 20
323.4192090721081
 30
0.0
 10
287.8728076774625
 20
323.2821671065029
 30
0.0
 10
287.7594077448264
 20
323.1269388192198
 30
0.0
 10
287.7225384163892
 20
323.0143901989214
 30
0.0
 10
287.7056104585797
 20
322.9627153142223
 30
0.0
  0
LINE
  5
C1
330
1F
100
AcDbEntity
  8
0
  6
Continuous
 62
     7
370
    25
100
AcDbLine
 10
287.179927294
 20
320.8812019094
 30
0.0
 11
287.7056104586
 21
322.9627153142
 31
0.0
  0
SPLINE
  5
C2
330
1F
100
AcDbEntity
  8
0
  6
Continuous
 62
     7
370
    25
100
AcDbSpline
210
0.0
220
0.0
230
1.0
 70
     8
 71
     3
 72
    12
 73
     8
 74
     0
 42
0.000000001
 43
0.00000001
 40
0.0
 40
0.0
 40
0.0
 40
0.0
 40
0.1369345626844393
 40
0.2732991254632998
 40
0.4609217955248954
 40
0.7173114009680011
 40
1.0
 40
1.0
 40
1.0
 40
1.0
 10
287.1799272939832
 20
320.8812019093761
 30
0.0
 10
287.1694867187293
 20
320.8198229308761
 30
0.0
 10
287.1486490278624
 20
320.6973204682615
 30
0.0
 10
287.1813743507213
 20
320.4996503006925
 30
0.0
 10
287.2778231387333
 20
320.2938869327307
 30
0.0
 10
287.461039442949
 20
320.1072584043838
 30
0.0
 10
287.6309010271772
 20
320.0524244189321
 30
0.0
 10
287.7199751779706
 20
320.0236698849926
 30
0.0
  0
SPLINE
  5
C3
330
1F
100
AcDbEntity
  8
0
  6
Continuous
 62
     7
370
    25
100
AcDbSpline
210
0.0
220
0.0
230
1.0
 70
     8
 71
     3
 72
    11
 73
     7
 74
     0
 42
0.000000001
 43
0.00000001
 40
0.0
 40
0.0
 40
0.0
 40
0.0
 40
0.2603298002728894
 40
0.5282091521838991
 40
0.7614185225127286
 40
1.0
 40
1.0
 40
1.0
 40
1.0
 10
304.0098798916013
 20
316.732033179594
 30
0.0
 10
302.4447196293817
 20
317.0483055576998
 30
0.0
 10
299.2690095329108
 20
317.6900221976056
 30
0.0
 10
294.9379478078161
 20
318.5651845463389
 30
0.0
 10
291.007203754597
 20
319.3594009979507
 30
0.0
 10
288.8240044633386
 20
319.8005724375355
 30
0.0
 10
287.7199751779706
 20
320.0236698849926
 30
0.0
  0
SPLINE
  5
C4
330
1F
100
AcDbEntity
  8
0
  6
Continuous
 62
     7
370
    25
100
AcDbSpline
210
0.0
220
0.0
230
1.0
 70
     8
 71
     3
 72
    12
 73
     8
 74
     0
 42
0.000000001
 43
0.00000001
 40
0.0
 40
0.0
 40
0.0
 40
0.0
 40
0.2228970051649244
 40
0.4458334175270336
 40
0.6679439845254443
 40
0.8889107373564612
 40
1.0
 40
1.0
 40
1.0
 40
1.0
 10
304.0098798916013
 20
316.732033179594
 30
0.0
 10
304.0887993804324
 20
316.7240244498761
 30
0.0
 10
304.2466523107087
 20
316.7080055745328
 30
0.0
 10
304.4770200125835
 20
316.7855011138014
 30
0.0
 10
304.6676770346128
 20
316.9293704357418
 30
0.0
 10
304.7809273216296
 20
317.0962734309254
 30
0.0
 10
304.8156066289098
 20
317.2090496380465
 30
0.0
 10
304.8272085830839
 20
317.2467788918742
 30
0.0
  0
LINE
  5
C5
330
1F
100
AcDbEntity
  8
0
  6
Continuous
 62
     7
370
    25
100
AcDbLine
 10
304.9624217198
 20
317.7821180089
 30
0.0
 11
304.8272085831
 21
317.2467788919
 31
0.0
  0
SPLINE
  5
C6
330
1F
100
AcDbEntity
  8
0
  6
Continuous
 62
     7
370
    25
100
AcDbSpline
210
0.0
220
0.0
230
1.0
 70
     8
 71
     3
 72
    12
 73
     8
 74
     0
 42
0.000000001
 43
0.00000001
 40
0.0
 40
0.0
 40
0.0
 40
0.0
 40
0.2200816632650204
 40
0.4401704316329142
 40
0.5885473465373164
 40
0.8110178766521736
 40
1.0
 40
1.0
 40
1.0
 40
1.0
 10
304.9624217197568
 20
317.7821180089244
 30
0.0
 10
304.9741913479677
 20
317.860030823756
 30
0.0
 10
304.9977309843596
 20
318.0158589687517
 30
0.0
 10
304.9395008755175
 20
318.2229462435095
 30
0.0
 10
304.8322264991888
 20
318.4029545910051
 30
0.0
 10
304.6854372716251
 20
318.5444016317107
 30
0.0
 10
304.549793655782
 20
318.5984186740925
 30
0.0
 10
304.4874919101865
 20
318.6232289536723
 30
0.0
  0
SPLINE
  5
C7
330
1F
100
AcDbEntity
  8
0
  6
Continuous
 62
     7
370
    25
100
AcDbSpline
210
0.0
220
0.0
230
1.0
 70
     8
 71
     3
 72
    11
 73
     7
 74
     0
 42
0.000000001
 43
0.00000001
 40
0.0
 40
0.0
 40
0.0
 40
0.0
 40
0.2832271680483958
 40
0.5762693258050866
 40
0.786191169318056
 40
1.0
 40
1.0
 40
1.0
 40
1.0
 10
288.5880721256406
 20
323.4610101445445
 30
0.0
 10
289.8771358923298
 20
323.0687769349754
 30
0.0
 10
292.4999348027183
 20
322.2707180171312
 30
0.0
 10
296.7035658417099
 20
320.9916572792284
 30
0.0
 10
300.744014906456
 20
319.7622593739771
 30
0.0
 10
303.2320584276654
 20
319.0052205956233
 30
0.0
 10
304.4874919101865
 20
318.6232289536724
 30
0.0
  0
SPLINE
  5
C8
330
1F
100
AcDbEntity
  8
0
  6
Continuous
 62
     7
370
    25
100
AcDbSpline
210
0.0
220
0.0
230
1.0
 70
     8
 71
     3
 72
    12
 73
     8
 74
     0
 42
0.000000001
 43
0.00000001
 40
0.0
 40
0.0
 40
0.0
 40
0.0
 40
0.3203306179350915
 40
0.5619261142495144
 40
0.7389241639005076
 40
0.8801253213283577
 40
1.0
 40
1.0
 40
1.0
 40
1.0
 10
287.4285606190831
 20
307.3433181508312
 30
0.0
 10
287.3263155448089
 20
307.3139830265705
 30
0.0
 10
287.1469565510967
 20
307.2625231552253
 30
0.0
 10
286.9586864850634
 20
307.0706369323196
 30
0.0
 10
286.8617159800033
 20
306.8718503966745
 30
0.0
 10
286.8269007425863
 20
306.6827872204116
 30
0.0
 10
286.8425224164158
 20
306.5653827563401
 30
0.0
 10
286.8496952101857
 20
306.5114757283458
 30
0.0
  0
LINE
  5
C9
330
1F
100
AcDbEntity
  8
0
  6
Continuous
 62
     7
370
    25
100
AcDbLine
 10
287.2791988299
 20
304.4080278142
 30
0.0
 11
286.8496952102
 21
306.5114757283
 31
0.0
  0
SPLINE
  5
CA
330
1F
100
AcDbEntity
  8
0
  6
Continuous
 62
     7
370
    25
100
AcDbSpline
210
0.0
220
0.0
230
1.0
 70
     8
 71
     3
 72
    12
 73
     8
 74
     0
 42
0.000000001
 43
0.00000001
 40
0.0
 40
0.0
 40
0.0
 40
0.0
 40
0.1369226440415586
 40
0.273302829536784
 40
0.4609329198593828
 40
0.7173081416889397
 40
1.0
 40
1.0
 40
1.0
 40
1.0
 10
287.2791988298566
 20
304.4080278142223
 30
0.0
 10
287.2964220636586
 20
304.3482023805934
 30
0.0
 10
287.3308002964543
 20
304.2287885290462
 30
0.0
 10
287.4460533301468
 20
304.0648863450488
 30
0.0
 10
287.6222196580902
 20
303.9213105262317
 30
0.0
 10
287.8682784190486
 20
303.8327390058173
 30
0.0
 10
288.0451092408898
 20
303.8570102158982
 30
0.0
 10
288.1378409907491
 20
303.8697382672557
 30
0.0
  0
SPLINE
  5
CB
330
1F
100
AcDbEntity
  8
0
  6
Continuous
 62
     7
370
    25
100
AcDbSpline
210
0.0
220
0.0
230
1.0
 70
     8
 71
     3
 72
    11
 73
     7
 74
     0
 42
0.000000001
 43
0.00000001
 40
0.0
 40
0.0
 40
0.0
 40
0.0
 40
0.260329840124881
 40
0.5282089716658153
 40
0.7614184931744867
 40
1.0
 40
1.0
 40
1.0
 40
1.0
 10
304.2427179858357
 20
307.9719981415996
 30
0.0
 10
302.6953329042389
 20
307.5778492877301
 30
0.0
 10
299.5556902020069
 20
306.7781216779956
 30
0.0
 10
295.2738225656085
 20
305.6874415591038
 30
0.0
 10
291.3877404320223
 20
304.6975486267454
 30
0.0
 10
289.2293329437088
 20
304.1477617453008
 30
0.0
 10
288.1378409907491
 20
303.8697382672557
 30
0.0
  0
SPLINE
  5
CC
330
1F
100
AcDbEntity
  8
0
  6
Continuous
 62
     7
370
    25
100
AcDbSpline
210
0.0
220
0.0
230
1.0
 70
     8
 71
     3
 72
    12
 73
     8
 74
     0
 42
0.000000001
 43
0.00000001
 40
0.0
 40
0.0
 40
0.0
 40
0.0
 40
0.2229016031824284
 40
0.4458348570305928
 40
0.6679253484235634
 40
0.8888959645922111
 40
0.9999999999999999
 40
0.9999999999999999
 40
0.9999999999999999
 40
0.9999999999999999
 10
304.2427179858357
 20
307.9719981415996
 30
0.0
 10
304.3172977347381
 20
307.9990290740549
 30
0.0
 10
304.4664678224115
 20
308.0530947771928
 30
0.0
 10
304.6403898468616
 20
308.2228622236334
 30
0.0
 10
304.7497798009592
 20
308.4351863139043
 30
0.0
 10
304.7793702429422
 20
308.6347052062391
 30
0.0
 10
304.7616883455868
 20
308.7513674055464
 30
0.0
 10
304.7557724163205
 20
308.7903997166881
 30
0.0
  0
LINE
  5
CD
330
1F
100
AcDbEntity
  8
0
  6
Continuous
 62
     7
370
    25
100
AcDbLine
 10
304.6453101084
 20
309.331401275
 30
0.0
 11
304.7557724163
 21
308.7903997167
 31
0.0
  0
SPLINE
  5
CE
330
1F
100
AcDbEntity
  8
0
  6
Continuous
 62
     7
370
    25
100
AcDbSpline
210
0.0
220
0.0
230
1.0
 70
     8
 71
     3
 72
    13
 73
     9
 74
     0
 42
0.000000001
 43
0.00000001
 40
0.0
 40
0.0
 40
0.0
 40
0.0
 40
0.2200516746773706
 40
0.2941629861233009
 40
0.5152132862836835
 40
0.7362251863982338
 40
0.9580085020800916
 40
1.0
 40
1.0
 40
1.0
 40
1.0
 10
304.6453101083905
 20
309.3314012749919
 30
0.0
 10
304.6224770233031
 20
309.4069151105682
 30
0.0
 10
304.59195397229
 20
309.5078612878664
 30
0.0
 10
304.4881668008806
 20
309.6590620329363
 30
0.0
 10
304.3524737823662
 20
309.7869679918072
 30
0.0
 10
304.1336695210918
 20
309.8828073339365
 30
0.0
 10
303.9593164549006
 20
309.8974767587763
 30
0.0
 10
303.8671511370317
 20
309.8851017091206
 30
0.0
 10
303.8524789259106
 20
309.8831316693553
 30
0.0
  0
SPLINE
  5
CF
330
1F
100
AcDbEntity
  8
0
  6
Continuous
 62
     7
370
    25
100
AcDbSpline
210
0.0
220
0.0
230
1.0
 70
     8
 71
     3
 72
    11
 73
     7
 74
     0
 42
0.000000001
 43
0.00000001
 40
0.0
 40
0.0
 40
0.0
 40
0.0
 40
0.2832270592630327
 40
0.5762691221498792
 40
0.7861908537107573
 40
1.0
 40
1.0
 40
1.0
 40
1.0
 10
287.4285606190831
 20
307.3433181508312
 30
0.0
 10
288.7601489519667
 20
307.5492386249648
 30
0.0
 10
291.4694707295275
 20
307.968215579958
 30
0.0
 10
295.8117765453889
 20
308.6396913284048
 30
0.0
 10
299.9855103497061
 20
309.2851382420771
 30
0.0
 10
302.5556297577008
 20
309.6825851007764
 30
0.0
 10
303.8524789259106
 20
309.8831316693554
 30
0.0
  0
ARC
  5
D0
330
1F
100
AcDbEntity
  8
0
  6
Continuous
 62
     7
370
    25
100
AcDbCircle
 10
323.3164179149
 20
312.8620895522
 30
0.0
 40
16.42261912900009
100
AcDbArc
 50
307.2549368278
 51
127.2549368278
  0
ARC
  5
D1
330
1F
100
AcDbEntity
  8
0
  6
Continuous
 62
     7
370
    25
100
AcDbCircle
 10
323.3164179149
 20
312.8620895522
 30
0.0
 40
16.42261912900009
100
AcDbArc
 50
127.2549368278
 51
307.2549368278
  0
SPLINE
  5
D2
330
1F
100
AcDbEntity
  8
0
  6
Continuous
 62
     7
370
    25
100
AcDbSpline
210
0.0
220
0.0
230
1.0
 70
     8
 71
     3
 72
    12
 73
     8
 74
     0
 42
0.000000001
 43
0.00000001
 40
0.0
 40
0.0
 40
0.0
 40
0.0
 40
0.3203344522771944
 40
0.5619273253357925
 40
0.7389190392726914
 40
0.880125603147118
 40
1.0
 40
1.0
 40
1.0
 40
1.0
 10
320.7110268518597
 20
276.6459724171886
 30
0.0
 10
320.7168736755113
 20
276.5397624632936
 30
0.0
 10
320.7271301120351
 20
276.3534500798084
 30
0.0
 10
320.8722966083583
 20
276.127199762441
 30
0.0
 10
321.0445266315875
 20
275.9884402462863
 30
0.0
 10
321.221103763905
 20
275.912442745732
 30
0.0
 10
321.3390380164876
 20
275.9015191458938
 30
0.0
 10
321.3931871101529
 20
275.8965036137828
 30
0.0
  0
LINE
  5
D3
330
1F
100
AcDbEntity
  8
0
  6
Continuous
 62
     7
370
    25
100
AcDbLine
 10
323.5394907639
 20
275.8471807702
 30
0.0
 11
321.3931871102
 21
275.8965036138
 31
0.0
  0
SPLINE
  5
D4
330
1F
100
AcDbEntity
  8
0
  6
Continuous
 62
     7
370
    25
100
AcDbSpline
210
0.0
220
0.0
230
1.0
 70
     8
 71
     3
 72
    12
 73
     8
 74
     0
 42
0.000000001
 43
0.00000001
 40
0.0
 40
0.0
 40
0.0
 40
0.0
 40
0.1369209662429114
 40
0.2732842282084965
 40
0.4609258039464834
 40
0.7173097454630889
 40
1.0
 40
1.0
 40
1.0
 40
1.0
 10
323.5394907638699
 20
275.8471807702312
 30
0.0
 10
323.6016478615423
 20
275.8506632216817
 30
0.0
 10
323.7257088795968
 20
275.8576139399175
 30
0.0
 10
323.9111358110346
 20
275.9335037690515
 30
0.0
 10
324.0903272598536
 20
276.0732986801769
 30
0.0
 10
324.2314324769553
 20
276.2934924511825
 30
0.0
 10
324.2471271628774
 20
276.4712871918357
 30
0.0
 10
324.2553574487836
 20
276.564522670103
 30
0.0
  0
SPLINE
  5
D5
330
1F
100
AcDbEntity
  8
0
  6
Continuous
 62
     7
370
    25
100
AcDbSpline
210
0.0
220
0.0
230
1.0
 70
     8
 71
     3
 72
    11
 73
     7
 74
     0
 42
0.000000001
 43
0.00000001
 40
0.0
 40
0.0
 40
0.0
 40
0.0
 40
0.2603293136501276
 40
0.5282081371337137
 40
0.7614188266925693
 40
1.0
 40
1.0
 40
1.0
 40
1.0
 10
323.839600150314
 20
293.1784531338939
 30
0.0
 10
323.8795463703664
 20
291.5821612512287
 30
0.0
 10
323.9605972446747
 20
288.3432852681826
 30
0.0
 10
324.0711336487597
 20
283.9260778062658
 30
0.0
 10
324.1714552799484
 20
279.9171408075968
 30
0.0
 10
324.2271786232026
 20
277.6905107470201
 30
0.0
 10
324.2553574487836
 20
276.564522670103
 30
0.0
  0
SPLINE
  5
D6
330
1F
100
AcDbEntity
  8
0
  6
Continuous
 62
     7
370
    25
100
AcDbSpline
210
0.0
220
0.0
230
1.0
 70
     8
 71
     3
 72
    12
 73
     8
 74
     0
 42
0.000000001
 43
0.00000001
 40
0.0
 40
0.0
 40
0.0
 40
0.0
 40
0.22284602242454
 40
0.4114664372800727
 40
0.6323027971166768
 40
0.8531368568557364
 40
1.0
 40
1.0
 40
1.0
 40
1.0
 10
323.839600150314
 20
293.1784531338939
 30
0.0
 10
323.8299070226531
 20
293.2572085408412
 30
0.0
 10
323.8120094776966
 20
293.4026237758119
 30
0.0
 10
323.6982795265235
 20
293.6006687381764
 30
0.0
 10
323.5334598825688
 20
293.7553600783847
 30
0.0
 10
323.3383997595589
 20
293.8443966257387
 30
0.0
 10
323.2079917587853
 20
293.8560807202223
 30
0.0
 10
323.155905072418
 20
293.8607475026378
 30
0.0
  0
LINE
  5
D7
330
1F
100
AcDbEntity
  8
0
  6
Continuous
 62
     7
370
    25
100
AcDbLine
 10
322.6038766548
 20
293.873443292
 30
0.0
 11
323.1559050724
 21
293.8607475026
 31
0.0
  0
SPLINE
  5
D8
330
1F
100
AcDbEntity
  8
0
  6
Continuous
 62
     7
370
    25
100
AcDbSpline
210
0.0
220
0.0
230
1.0
 70
     8
 71
     3
 72
    12
 73
     8
 74
     0
 42
0.000000001
 43
0.00000001
 40
0.0
 40
0.0
 40
0.0
 40
0.0
 40
0.2201304819583406
 40
0.4402527031438558
 40
0.6607575618463644
 40
0.882161826210028
 40
1.0
 40
1.0
 40
1.0
 40
1.0
 10
322.6038766548306
 20
293.873443291975
 30
0.0
 10
322.5252805482342
 20
293.8675659212697
 30
0.0
 10
322.3680912844946
 20
293.8558114004178
 30
0.0
 10
322.1562791021126
 20
293.740777419401
 30
0.0
 10
321.9938954982096
 20
293.5679802283654
 30
0.0
 10
321.9096148444916
 20
293.3834859621621
 30
0.0
 10
321.8947300318384
 20
293.2645789782978
 30
0.0
 10
321.8895596906812
 20
293.223275826765
 30
0.0
  0
SPLINE
  5
D9
330
1F
100
AcDbEntity
  8
0
  6
Continuous
 62
     7
370
    25
100
AcDbSpline
210
0.0
220
0.0
230
1.0
 70
     8
 71
     3
 72
    11
 73
     7
 74
     0
 42
0.000000001
 43
0.00000001
 40
0.0
 40
0.0
 40
0.0
 40
0.0
 40
0.2832271481348287
 40
0.5762696449533806
 40
0.78619122113822
 40
1.0
 40
1.0
 40
1.0
 40
1.0
 10
320.7110268518597
 20
276.6459724171886
 30
0.0
 10
320.8065794628513
 20
277.9899974112929
 30
0.0
 10
321.0009960983085
 20
280.7246251165164
 30
0.0
 10
321.3125824876277
 20
285.107485750418
 30
0.0
 10
321.6120789554498
 20
289.3201988981681
 30
0.0
 10
321.7965021605594
 20
291.9143175722483
 30
0.0
 10
321.8895596906812
 20
293.223275826765
 30
0.0
  0
SPLINE
  5
DA
330
1F
100
AcDbEntity
  8
0
  6
Continuous
 62
     7
370
    25
100
AcDbSpline
210
0.0
220
0.0
230
1.0
 70
     8
 71
     3
 72
    12
 73
     8
 74
     0
 42
0.000000001
 43
0.00000001
 40
0.0
 40
0.0
 40
0.0
 40
0.0
 40
0.3203356479805429
 40
0.5619240260888714
 40
0.7389233724244645
 40
0.8801305552643913
 40
1.0
 40
1.0
 40
1.0
 40
1.0
 10
305.255467955795
 20
281.3629349931011
 30
0.0
 10
305.2146502031056
 20
281.2647032294989
 30
0.0
 10
305.143048818521
 20
281.0923877583948
 30
0.0
 10
305.175677633376
 20
280.8255575943798
 30
0.0
 10
305.2706455714108
 20
280.6258050639632
 30
0.0
 10
305.3967443098514
 20
280.4806943791854
 30
0.0
 10
305.4982763059872
 20
280.4197080660671
 30
0.0
 10
305.5448932096631
 20
280.3917071088085
 30
0.0
  0
LINE
  5
DB
330
1F
100
AcDbEntity
  8
0
  6
Continuous
 62
     7
370
    25
100
AcDbLine
 10
307.4572337315
 20
279.4160386785
 30
0.0
 11
305.5448932097
 21
280.3917071088
 31
0.0
  0
SPLINE
  5
DC
330
1F
100
AcDbEntity
  8
0
  6
Continuous
 62
     7
370
    25
100
AcDbSpline
210
0.0
220
0.0
230
1.0
 70
     8
 71
     3
 72
    12
 73
     8
 74
     0
 42
0.000000001
 43
0.00000001
 40
0.0
 40
0.0
 40
0.0
 40
0.0
 40
0.1369275060678239
 40
0.2732867007556383
 40
0.4609284605470318
 40
0.7173031423719243
 40
0.9999999999999999
 40
0.9999999999999999
 40
0.9999999999999999
 40
0.9999999999999999
 10
307.4572337314755
 20
279.4160386784801
 30
0.0
 10
307.5147482325557
 20
279.3922033476105
 30
0.0
 10
307.6295385233978
 20
279.3446316133268
 30
0.0
 10
307.8295324988237
 20
279.3325421368725
 30
0.0
 10
308.0516218488589
 20
279.3807773735004
 30
0.0
 10
308.2743158596073
 20
279.5178805082659
 30
0.0
 10
308.3655806686466
 20
279.6712846845604
 30
0.0
 10
308.4134412452847
 20
279.7517320378551
 30
0.0
  0
SPLINE
  5
DD
330
1F
100
AcDbEntity
  8
0
  6
Continuous
 62
     7
370
    25
100
AcDbSpline
210
0.0
220
0.0
230
1.0
 70
     8
 71
     3
 72
    11
 73
     7
 74
     0
 42
0.000000001
 43
0.00000001
 40
0.0
 40
0.0
 40
0.0
 40
0.0
 40
0.2603307654896702
 40
0.5282090263899334
 40
0.7614186423416668
 40
1.0
 40
1.0
 40
1.0
 40
1.0
 10
315.2473819896848
 20
294.9007591470012
 30
0.0
 10
314.590764812413
 20
293.4452078994906
 30
0.0
 10
313.2584938483368
 20
290.4919061417743
 30
0.0
 10
311.441518713754
 20
286.464182302292
 30
0.0
 10
309.7925136401311
 20
282.8087350602585
 30
0.0
 10
308.8766081646439
 20
280.7784385962994
 30
0.0
 10
308.4134412452847
 20
279.7517320378551
 30
0.0
  0
SPLINE
  5
DE
330
1F
100
AcDbEntity
  8
0
  6
Continuous
 62
     7
370
    25
100
AcDbSpline
210
0.0
220
0.0
230
1.0
 70
     8
 71
     3
 72
    13
 73
     9
 74
     0
 42
0.000000001
 43
0.00000001
 40
0.0
 40
0.0
 40
0.0
 40
0.0
 40
0.2228821002688544
 40
0.4457834268111183
 40
0.6678627301042821
 40
0.7057916637441782
 40
0.9258699611782757
 40
1.0
 40
1.0
 40
1.0
 40
1.0
 10
315.2473819896848
 20
294.9007591470012
 30
0.0
 10
315.2727571112924
 20
294.9759445997265
 30
0.0
 10
315.3235095434185
 20
295.1263219908308
 30
0.0
 10
315.2991936788858
 20
295.3677935148431
 30
0.0
 10
315.2283131544519
 20
295.5267916072019
 30
0.0
 10
315.129168319608
 20
295.6649754476921
 30
0.0
 10
315.041746630611
 20
295.748780832111
 30
0.0
 10
314.9504322366982
 20
295.7993918029828
 30
0.0
 10
314.9274242565305
 20
295.8121439679393
 30
0.0
  0
LINE
  5
DF
330
1F
100
AcDbEntity
  8
0
  6
Continuous
 62
     7
370
    25
100
AcDbLine
 10
314.435581629
 20
296.0630795224
 30
0.0
 11
314.9274242565
 21
295.8121439679
 31
0.0
  0
SPLINE
  5
E0
330
1F
100
AcDbEntity
  8
0
  6
Continuous
 62
     7
370
    25
100
AcDbSpline
210
0.0
220
0.0
230
1.0
 70
     8
 71
     3
 72
    12
 73
     8
 74
     0
 42
0.000000001
 43
0.00000001
 40
0.0
 40
0.0
 40
0.0
 40
0.0
 40
0.2201342736249929
 40
0.4402601817156023
 40
0.660753718681619
 40
0.882175279453829
 40
0.9999999999999999
 40
0.9999999999999999
 40
0.9999999999999999
 40
0.9999999999999999
 10
314.4355816290051
 20
296.0630795224437
 30
0.0
 10
314.3622152833164
 20
296.0918749780482
 30
0.0
 10
314.2154853800041
 20
296.1494647949734
 30
0.0
 10
313.9747486026829
 20
296.1377413448535
 30
0.0
 10
313.7534570817152
 20
296.0525332903669
 30
0.0
 10
313.5975040504737
 20
295.9228522837486
 30
0.0
 10
313.5324876502276
 20
295.8221904223071
 30
0.0
 10
313.5099065944821
 20
295.7872292264232
 30
0.0
  0
SPLINE
  5
E1
330
1F
100
AcDbEntity
  8
0
  6
Continuous
 62
     7
370
    25
100
AcDbSpline
210
0.0
220
0.0
230
1.0
 70
     8
 71
     3
 72
    11
 73
     7
 74
     0
 42
0.000000001
 43
0.00000001
 40
0.0
 40
0.0
 40
0.0
 40
0.0
 40
0.2832265843854759
 40
0.5762684878709445
 40
0.7861897518070583
 40
1.0
 40
1.0
 40
1.0
 40
1.0
 10
305.255467955795
 20
281.3629349931011
 30
0.0
 10
305.9247037841167
 20
282.5323992664904
 30
0.0
 10
307.2863680489766
 20
284.9118560180783
 30
0.0
 10
309.4687459536511
 20
288.725477057988
 30
0.0
 10
311.5664312227154
 20
292.3910467582458
 30
0.0
 10
312.8581297581155
 20
294.6482628690464
 30
0.0
 10
313.5099065944821
 20
295.7872292264232
 30
0.0
  0
SPLINE
  5
E2
330
1F
100
AcDbEntity
  8
0
  6
Continuous
 62
     7
370
    25
100
AcDbSpline
210
0.0
220
0.0
230
1.0
 70
     8
 71
     3
 72
    12
 73
     8
 74
     0
 42
0.000000001
 43
0.00000001
 40
0.0
 40
0.0
 40
0.0
 40
0.0
 40
0.3203333801949102
 40
0.5619228289855752
 40
0.7389205799756342
 40
0.8801240587129583
 40
1.0
 40
1.0
 40
1.0
 40
1.0
 10
336.6826278612286
 20
279.1020712121257
 30
0.0
 10
336.7339702218765
 20
279.0089059502268
 30
0.0
 10
336.824034031413
 20
278.8454771889233
 30
0.0
 10
337.0530148318392
 20
278.704653318715
 30
0.0
 10
337.2683924881057
 20
278.6543443912249
 30
0.0
 10
337.4604655242208
 20
278.6624684697992
 30
0.0
 10
337.5714535704532
 20
278.7038200633061
 30
0.0
 10
337.6224142954023
 20
278.7228068574199
 30
0.0
  0
LINE
  5
E3
330
1F
100
AcDbEntity
  8
0
  6
Continuous
 62
     7
370
    25
100
AcDbLine
 10
339.5775658533
 20
279.6096047624
 30
0.0
 11
337.6224142954
 21
278.7228068574
 31
0.0
  0
SPLINE
  5
E4
330
1F
100
AcDbEntity
  8
0
  6
Continuous
 62
     7
370
    25
100
AcDbSpline
210
0.0
220
0.0
230
1.0
 70
     8
 71
     3
 72
    12
 73
     8
 74
     0
 42
0.000000001
 43
0.00000001
 40
0.0
 40
0.0
 40
0.0
 40
0.0
 40
0.1369247938256394
 40
0.2732883019231049
 40
0.4609182842488047
 40
0.7173134828050443
 40
1.0
 40
1.0
 40
1.0
 40
1.0
 10
339.5775658533246
 20
279.6096047623882
 30
0.0
 10
339.6320556955343
 20
279.6397146876831
 30
0.0
 10
339.7408120137547
 20
279.6998111108725
 30
0.0
 10
339.8749543030164
 20
279.8486294355031
 30
0.0
 10
339.9757369715649
 20
280.0523186869315
 30
0.0
 10
340.0073504931744
 20
280.3119405923444
 30
0.0
 10
339.9443360866944
 20
280.4789306180152
 30
0.0
 10
339.911292259422
 20
280.5664977296123
 30
0.0
  0
SPLINE
  5
E5
330
1F
100
AcDbEntity
  8
0
  6
Continuous
 62
     7
370
    25
100
AcDbSpline
210
0.0
220
0.0
230
1.0
 70
     8
 71
     3
 72
    11
 73
     7
 74
     0
 42
0.000000001
 43
0.00000001
 40
0.0
 40
0.0
 40
0.0
 40
0.0
 40
0.2603287167626588
 40
0.5282085588292662
 40
0.7614187857610463
 40
1.0
 40
1.0
 40
1.0
 40
1.0
 10
332.3281956360013
 20
295.354737923933
 30
0.0
 10
333.0567938534985
 20
293.9338672559568
 30
0.0
 10
334.5351240938794
 20
291.0509119786919
 30
0.0
 10
336.55126501828
 20
287.119098696918
 30
0.0
 10
338.3810558328103
 20
283.5506984916082
 30
0.0
 10
339.3973568454481
 20
281.5687523010798
 30
0.0
 10
339.911292259422
 20
280.5664977296123
 30
0.0
  0
SPLINE
  5
E6
330
1F
100
AcDbEntity
  8
0
  6
Continuous
 62
     7
370
    25
100
AcDbSpline
210
0.0
220
0.0
230
1.0
 70
     8
 71
     3
 72
    12
 73
     8
 74
     0
 42
0.000000001
 43
0.00000001
 40
0.0
 40
0.0
 40
0.0
 40
0.0
 40
0.1165938518357168
 40
0.338897602258025
 40
0.5612388337314314
 40
0.7827182226866881
 40
1.0
 40
1.0
 40
1.0
 40
1.0
 10
332.3281956360013
 20
295.354737923933
 30
0.0
 10
332.3074931269935
 20
295.3903402466721
 30
0.0
 10
332.2473181644805
 20
295.493823763351
 30
0.0
 10
332.09720236204
 20
295.6310713096897
 30
0.0
 10
331.8785777043583
 20
295.7268250648125
 30
0.0
 10
331.6383704309504
 20
295.7487459000082
 30
0.0
 10
331.4897529804367
 20
295.697985367364
 30
0.0
 10
331.4161551639706
 20
295.6728479130992
 30
0.0
  0
LINE
  5
E7
330
1F
100
AcDbEntity
  8
0
  6
Continuous
 62
     7
370
    25
100
AcDbLine
 10
330.9133154795
 20
295.4447707399
 30
0.0
 11
331.416155164
 21
295.6728479131
 31
0.0
  0
SPLINE
  5
E8
330
1F
100
AcDbEntity
  8
0
  6
Continuous
 62
     7
370
    25
100
AcDbSpline
210
0.0
220
0.0
230
1.0
 70
     8
 71
     3
 72
    12
 73
     8
 74
     0
 42
0.000000001
 43
0.00000001
 40
0.0
 40
0.0
 40
0.0
 40
0.0
 40
0.2201465558257115
 40
0.4402658708651892
 40
0.660758286788054
 40
0.88215102964317
 40
1.0
 40
1.0
 40
1.0
 40
1.0
 10
330.9133154794843
 20
295.4447707398662
 30
0.0
 10
330.8450524280489
 20
295.4053607831182
 30
0.0
 10
330.7085347720018
 20
295.3265457461839
 30
0.0
 10
330.5676146672978
 20
295.1310030869171
 30
0.0
 10
330.4962422658733
 20
294.9048769965412
 30
0.0
 10
330.5003943328631
 20
294.7020866719916
 30
0.0
 10
330.5385673196518
 20
294.5884932776587
 30
0.0
 10
330.5518282100827
 20
294.5490321381816
 30
0.0
  0
SPLINE
  5
E9
330
1F
100
AcDbEntity
  8
0
  6
Continuous
 62
     7
370
    25
100
AcDbSpline
210
0.0
220
0.0
230
1.0
 70
     8
 71
     3
 72
    11
 73
     7
 74
     0
 42
0.000000001
 43
0.00000001
 40
0.0
 40
0.0
 40
0.0
 40
0.0
 40
0.283226308062797
 40
0.5762694674199164
 40
0.786191032845235
 40
1.0
 40
1.0
 40
1.0
 40
1.0
 10
336.6826278612286
 20
279.1020712121257
 30
0.0
 10
336.1855665388136
 20
280.3544445322921
 30
0.0
 10
335.1742153493623
 20
282.9025994376731
 30
0.0
 10
333.5533051005978
 20
286.9866199591722
 30
0.0
 10
331.9953164944084
 20
290.9120906287263
 30
0.0
 10
331.0359248649567
 20
293.3293262092748
 30
0.0
 10
330.5518282100827
 20
294.5490321381816
 30
0.0
  0
SPLINE
  5
EA
330
1F
100
AcDbEntity
  8
0
  6
Continuous
 62
     7
370
    25
100
AcDbSpline
210
0.0
220
0.0
230
1.0
 70
     8
 71
     3
 72
    12
 73
     8
 74
     0
 42
0.000000001
 43
0.00000001
 40
0.0
 40
0.0
 40
0.0
 40
0.0
 40
0.3203246131394668
 40
0.561922867061971
 40
0.7389237293867615
 40
0.8801389947932619
 40
1.0
 40
1.0
 40
1.0
 40
1.0
 10
350.0068885728986
 20
288.2447382672557
 30
0.0
 10
350.093565444017
 20
288.1830876511984
 30
0.0
 10
350.2456165631909
 20
288.0749383254518
 30
0.0
 10
350.5130162901589
 20
288.047407575512
 30
0.0
 10
350.7289163118435
 20
288.0954764198403
 30
0.0
 10
350.8984207290983
 20
288.1861744217571
 30
0.0
 10
350.9804814985295
 20
288.2715732984581
 30
0.0
 10
351.018155877319
 20
288.3107802136669
 30
0.0
  0
LINE
  5
EB
330
1F
100
AcDbEntity
  8
0
  6
Continuous
 62
     7
370
    25
100
AcDbLine
 10
352.3949188635
 20
289.9580737813
 30
0.0
 11
351.0181558773
 21
288.3107802137
 31
0.0
  0
SPLINE
  5
EC
330
1F
100
AcDbEntity
  8
0
  6
Continuous
 62
     7
370
    25
100
AcDbSpline
210
0.0
220
0.0
230
1.0
 70
     8
 71
     3
 72
    13
 73
     9
 74
     0
 42
0.000000001
 43
0.00000001
 40
0.0
 40
0.0
 40
0.0
 40
0.0
 40
0.1368242690423596
 40
0.2731086738917531
 40
0.4606174956131355
 40
0.7168116953045001
 40
0.8076601339790912
 40
1.0
 40
1.0
 40
1.0
 40
1.0
 10
352.3949188635022
 20
289.9580737813243
 30
0.0
 10
352.4309598993084
 20
290.0088461677625
 30
0.0
 10
352.5028997646816
 20
290.1101906092678
 30
0.0
 10
352.5590441852688
 20
290.3023600267194
 30
0.0
 10
352.5622019078484
 20
290.5303957028543
 30
0.0
 10
352.4971517996192
 20
290.7094476350876
 30
0.0
 10
352.3982200394545
 20
290.861109621399
 30
0.0
 10
352.3280663338247
 20
290.9229816930298
 30
0.0
 10
352.2804183408887
 20
290.9650048478373
 30
0.0
  0
SPLINE
  5
ED
330
1F
100
AcDbEntity
  8
0
  6
Continuous
 62
     7
370
    25
100
AcDbSpline
210
0.0
220
0.0
230
1.0
 70
     8
 71
     3
 72
    11
 73
     7
 74
     0
 42
0.000000001
 43
0.00000001
 40
0.0
 40
0.0
 40
0.0
 40
0.0
 40
0.2603293146957625
 40
0.5282083591003542
 40
0.7614183232580404
 40
1.0
 40
1.0
 40
1.0
 40
1.0
 10
339.0319002315671
 20
300.9985825284252
 30
0.0
 10
340.3048384964666
 20
300.0345423520355
 30
0.0
 10
342.8876311140573
 20
298.0785041691184
 30
0.0
 10
346.4100783210373
 20
295.410858417288
 30
0.0
 10
349.6069166056302
 20
292.989739847062
 30
0.0
 10
351.3825122527375
 20
291.6450200723349
 30
0.0
 10
352.2804183408887
 20
290.9650048478374
 30
0.0
  0
SPLINE
  5
EE
330
1F
100
AcDbEntity
  8
0
  6
Continuous
 62
     7
370
    25
100
AcDbSpline
210
0.0
220
0.0
230
1.0
 70
     8
 71
     3
 72
    12
 73
     8
 74
     0
 42
0.000000001
 43
0.00000001
 40
0.0
 40
0.0
 40
0.0
 40
0.0
 40
0.2229023259212146
 40
0.4458359045321394
 40
0.6679252287023503
 40
0.8889109292887322
 40
1.0
 40
1.0
 40
1.0
 40
1.0
 10
339.0319002315671
 20
300.9985825284251
 30
0.0
 10
338.9642704522507
 20
301.0400450027983
 30
0.0
 10
338.8290014113817
 20
301.1229757649155
 30
0.0
 10
338.5878280026642
 20
301.1531311703907
 30
0.0
 10
338.3536241157315
 20
301.1062302536344
 30
0.0
 10
338.1791783665271
 20
301.0049767729618
 30
0.0
 10
338.0989986034069
 20
300.9184067267951
 30
0.0
 10
338.0721760437162
 20
300.8894464238414
 30
0.0
  0
LINE
  5
EF
330
1F
100
AcDbEntity
  8
0
  6
Continuous
 62
     7
370
    25
100
AcDbLine
 10
337.7180797503
 20
300.4657766088
 30
0.0
 11
338.0721760437
 21
300.8894464238
 31
0.0
  0
SPLINE
  5
F0
330
1F
100
AcDbEntity
  8
0
  6
Continuous
 62
     7
370
    25
100
AcDbSpline
210
0.0
220
0.0
230
1.0
 70
     8
 71
     3
 72
    12
 73
     8
 74
     0
 42
0.000000001
 43
0.00000001
 40
0.0
 40
0.0
 40
0.0
 40
0.0
 40
0.2201378042420972
 40
0.4402529883903468
 40
0.6607376682607035
 40
0.8821760553010093
 40
1.0
 40
1.0
 40
1.0
 40
1.0
 10
337.7180797502668
 20
300.4657766087779
 30
0.0
 10
337.6736741902856
 20
300.4006585742738
 30
0.0
 10
337.584867633183
 20
300.2704291964204
 30
0.0
 10
337.5427330877273
 20
300.0331176034884
 30
0.0
 10
337.576567002359
 20
299.7984203350667
 30
0.0
 10
337.6682604235303
 20
299.6174884574544
 30
0.0
 10
337.7519664967626
 20
299.531724909617
 30
0.0
 10
337.7810371563107
 20
299.5019397004375
 30
0.0
  0
SPLINE
  5
F1
330
1F
100
AcDbEntity
  8
0
  6
Continuous
 62
     7
370
    25
100
AcDbSpline
210
0.0
220
0.0
230
1.0
 70
     8
 71
     3
 72
    11
 73
     7
 74
     0
 42
0.000000001
 43
0.00000001
 40
0.0
 40
0.0
 40
0.0
 40
0.0
 40
0.2832267259726336
 40
0.5762683888339912
 40
0.786190654205441
 40
1.0
 40
1.0
 40
1.0
 40
1.0
 10
350.0068885728986
 20
288.2447382672557
 30
0.0
 10
349.0156651662572
 20
289.1574282218565
 30
0.0
 10
346.9988685042961
 20
291.0144364820645
 30
0.0
 10
343.7664761026683
 20
293.99069787263
 30
0.0
 10
340.6595884445709
 20
296.8514599653052
 30
0.0
 10
338.746404417911
 20
298.6130598064898
 30
0.0
 10
337.7810371563108
 20
299.5019397004374
 30
0.0
  0
SPLINE
  5
F2
330
1F
100
AcDbEntity
  8
0
  6
Continuous
 62
     7
370
    25
100
AcDbSpline
210
0.0
220
0.0
230
1.0
 70
     8
 71
     3
 72
    12
 73
     8
 74
     0
 42
0.000000001
 43
0.00000001
 40
0.0
 40
0.0
 40
0.0
 40
0.0
 40
0.320325654710707
 40
0.5619082266159106
 40
0.7389178970223347
 40
0.8801148064707027
 40
1.0
 40
1.0
 40
1.0
 40
1.0
 10
358.0447686359555
 20
302.2631844743022
 30
0.0
 10
358.1496137385515
 20
302.2452558093848
 30
0.0
 10
358.3335307143
 20
302.2138057392416
 30
0.0
 10
358.586412297411
 20
302.3049528744138
 30
0.0
 10
358.760034344774
 20
302.4419946759566
 30
0.0
 10
358.8734306063848
 20
302.5972359869571
 30
0.0
 10
358.9103002748968
 20
302.7097941807176
 30
0.0
 10
358.9272303030164
 20
302.7614793046245
 30
0.0
  0
LINE
  5
F3
330
1F
100
AcDbEntity
  8
0
  6
Continuous
 62
     7
370
    25
100
AcDbLine
 10
359.4529134676
 20
304.8429927095
 30
0.0
 11
358.927230303
 21
302.7614793046
 31
0.0
  0
SPLINE
  5
F4
330
1F
100
AcDbEntity
  8
0
  6
Continuous
 62
     7
370
    25
100
AcDbSpline
210
0.0
220
0.0
230
1.0
 70
     8
 71
     3
 72
    13
 73
     9
 74
     0
 42
0.000000001
 43
0.00000001
 40
0.0
 40
0.0
 40
0.0
 40
0.0
 40
0.1368467042924986
 40
0.2731462153314181
 40
0.4606938104470916
 40
0.5051897724725276
 40
0.767796470196067
 40
1.0
 40
1.0
 40
1.0
 40
1.0
 10
359.452913467613
 20
304.8429927094706
 30
0.0
 10
359.4633573834984
 20
304.904377651662
 30
0.0
 10
359.4842034543784
 20
305.0269020831024
 30
0.0
 10
359.4514116451127
 20
305.2243001884834
 30
0.0
 10
359.3903642063476
 20
305.3559608291616
 30
0.0
 10
359.2854647021314
 20
305.5036835474868
 30
0.0
 10
359.1427019394638
 20
305.631138528181
 30
0.0
 10
358.9862738411237
 20
305.6783632249219
 30
0.0
 10
358.9128655836255
 20
305.7005247338542
 30
0.0
  0
SPLINE
  5
F5
330
1F
100
AcDbEntity
  8
0
  6
Continuous
 62
     7
370
    25
100
AcDbSpline
210
0.0
220
0.0
230
1.0
 70
     8
 71
     3
 72
    11
 73
     7
 74
     0
 42
0.000000001
 43
0.00000001
 40
0.0
 40
0.0
 40
0.0
 40
0.0
 40
0.2603295786048024
 40
0.5282086558527728
 40
0.7614183814421406
 40
0.9999999999999999
 40
0.9999999999999999
 40
0.9999999999999999
 40
0.9999999999999999
 10
342.6229608699948
 20
308.9921316369304
 30
0.0
 10
344.1881215518829
 20
308.6758706586687
 30
0.0
 10
347.3638322198925
 20
308.0341772056173
 30
0.0
 10
351.6948906080932
 20
307.1590215168803
 30
0.0
 10
355.6256255013923
 20
306.3647468845889
 30
0.0
 10
357.8088327718741
 20
305.923606416469
 30
0.0
 10
358.9128655836255
 20
305.7005247338543
 30
0.0
  0
SPLINE
  5
F6
330
1F
100
AcDbEntity
  8
0
  6
Continuous
 62
     7
370
    25
100
AcDbSpline
210
0.0
220
0.0
230
1.0
 70
     8
 71
     3
 72
    12
 73
     8
 74
     0
 42
0.000000001
 43
0.00000001
 40
0.0
 40
0.0
 40
0.0
 40
0.0
 40
0.2229116488454169
 40
0.4458270216191556
 40
0.6679383129413309
 40
0.8889368509236071
 40
0.9999999999999999
 40
0.9999999999999999
 40
0.9999999999999999
 40
0.9999999999999999
 10
342.6229608699948
 20
308.9921316369304
 30
0.0
 10
342.5440370839305
 20
309.0001385751956
 30
0.0
 10
342.386188193313
 20
309.016152585489
 30
0.0
 10
342.1558121717289
 20
308.9386977579639
 30
0.0
 10
341.9651536708955
 20
308.7948156486604
 30
0.0
 10
341.8519123936151
 20
308.6279081628154
 30
0.0
 10
341.8172205118798
 20
308.5151345873791
 30
0.0
 10
341.8056172773511
 20
308.4774157269725
 30
0.0
  0
LINE
  5
F7
330
1F
100
AcDbEntity
  8
0
  6
Continuous
 62
     7
370
    25
100
AcDbLine
 10
341.6704190418
 20
307.9420468076
 30
0.0
 11
341.8056172774
 21
308.477415727
 31
0.0
  0
SPLINE
  5
F8
330
1F
100
AcDbEntity
  8
0
  6
Continuous
 62
     7
370
    25
100
AcDbSpline
210
0.0
220
0.0
230
1.0
 70
     8
 71
     3
 72
    12
 73
     8
 74
     0
 42
0.000000001
 43
0.00000001
 40
0.0
 40
0.0
 40
0.0
 40
0.0
 40
0.2201331767628439
 40
0.4402488473706849
 40
0.660747073135862
 40
0.8821520017935562
 40
1.0
 40
1.0
 40
1.0
 40
1.0
 10
341.6704190418393
 20
307.9420468076
 30
0.0
 10
341.6586659073443
 20
307.8641109179469
 30
0.0
 10
341.6351605730257
 20
307.7082453365152
 30
0.0
 10
341.7001761275233
 20
307.4761543564445
 30
0.0
 10
341.8324712143214
 20
307.2793661731031
 30
0.0
 10
341.993608376616
 20
307.156163799477
 30
0.0
 10
342.1062277072147
 20
307.1151966353508
 30
0.0
 10
342.1453488514096
 20
307.1009656651744
 30
0.0
  0
SPLINE
  5
F9
330
1F
100
AcDbEntity
  8
0
  6
Continuous
 62
     7
370
    25
100
AcDbSpline
210
0.0
220
0.0
230
1.0
 70
     8
 71
     3
 72
    11
 73
     7
 74
     0
 42
0.000000001
 43
0.00000001
 40
0.0
 40
0.0
 40
0.0
 40
0.0
 40
0.2832271658045874
 40
0.5762692472789313
 40
0.7861910891288385
 40
1.0
 40
1.0
 40
1.0
 40
1.0
 10
358.0447686359555
 20
302.2631844743022
 30
0.0
 10
356.7557057619169
 20
302.6554207251178
 30
0.0
 10
354.1329090043843
 20
303.4534857284194
 30
0.0
 10
349.929265794273
 20
304.7325032339812
 30
0.0
 10
345.8888161030268
 20
305.9618995765364
 30
0.0
 10
343.4007792217184
 20
306.7189620131197
 30
0.0
 10
342.1453488514096
 20
307.1009656651744
 30
0.0
  0
SPLINE
  5
FA
330
1F
100
AcDbEntity
  8
0
  6
Continuous
 62
     7
370
    25
100
AcDbSpline
210
0.0
220
0.0
230
1.0
 70
     8
 71
     3
 72
    12
 73
     8
 74
     0
 42
0.000000001
 43
0.00000001
 40
0.0
 40
0.0
 40
0.0
 40
0.0
 40
0.3203296154484742
 40
0.5619230414590742
 40
0.7389218039885245
 40
0.8801243663783586
 40
1.0
 40
1.0
 40
1.0
 40
1.0
 10
359.2042726919324
 20
318.3808764680156
 30
0.0
 10
359.3065218793329
 20
318.4101983714331
 30
0.0
 10
359.4858876688193
 20
318.461634930387
 30
0.0
 10
359.6741475394376
 20
318.6535302526954
 30
0.0
 10
359.7711134994767
 20
318.8523148896785
 30
0.0
 10
359.8059443527439
 20
319.0413773942038
 30
0.0
 10
359.7903145975233
 20
319.1587820362877
 30
0.0
 10
359.7831381008298
 20
319.2126890881785
 30
0.0
  0
LINE
  5
FB
330
1F
100
AcDbEntity
  8
0
  6
Continuous
 62
     7
370
    25
100
AcDbLine
 10
359.3536270306
 20
321.3161668046
 30
0.0
 11
359.7831381008
 21
319.2126890882
 31
0.0
  0
SPLINE
  5
FC
330
1F
100
AcDbEntity
  8
0
  6
Continuous
 62
     7
370
    25
100
AcDbSpline
210
0.0
220
0.0
230
1.0
 70
     8
 71
     3
 72
    12
 73
     8
 74
     0
 42
0.000000001
 43
0.00000001
 40
0.0
 40
0.0
 40
0.0
 40
0.0
 40
0.1335378112048851
 40
0.2374320140569884
 40
0.4314210011636572
 40
0.6784554386320679
 40
1.0
 40
1.0
 40
1.0
 40
1.0
 10
359.3536270305783
 20
321.3161668046245
 30
0.0
 10
359.3370271760089
 20
321.3745314604796
 30
0.0
 10
359.3075124126027
 20
321.4783045990716
 30
0.0
 10
359.2059489254146
 20
321.636360801127
 30
0.0
 10
359.0445345727412
 20
321.7833884486058
 30
0.0
 10
358.7883336652707
 20
321.890567137062
 30
0.0
 10
358.6009577371225
 20
321.8675008627062
 30
0.0
 10
358.4949923202664
 20
321.8544563515911
 30
0.0
  0
SPLINE
  5
FD
330
1F
100
AcDbEntity
  8
0
  6
Continuous
 62
     7
370
    25
100
AcDbSpline
210
0.0
220
0.0
230
1.0
 70
     8
 71
     3
 72
    11
 73
     7
 74
     0
 42
0.000000001
 43
0.00000001
 40
0.0
 40
0.0
 40
0.0
 40
0.0
 40
0.2603301272131585
 40
0.5282091547821298
 40
0.7614185857751586
 40
1.0
 40
1.0
 40
1.0
 40
1.0
 10
342.3901153251798
 20
317.7521666749248
 30
0.0
 10
343.9374998296458
 20
318.1463279536213
 30
0.0
 10
347.0771389869599
 20
318.9460801686141
 30
0.0
 10
351.359011193439
 20
320.0367512615612
 30
0.0
 10
355.2450927706651
 20
321.0266464268776
 30
0.0
 10
357.4035003309243
 20
321.5764330195673
 30
0.0
 10
358.4949923202664
 20
321.8544563515911
 30
0.0
  0
SPLINE
  5
FE
330
1F
100
AcDbEntity
  8
0
  6
Continuous
 62
     7
370
    25
100
AcDbSpline
210
0.0
220
0.0
230
1.0
 70
     8
 71
     3
 72
    12
 73
     8
 74
     0
 42
0.000000001
 43
0.00000001
 40
0.0
 40
0.0
 40
0.0
 40
0.0
 40
0.2228929674624867
 40
0.445833974514043
 40
0.6679456248930615
 40
0.888920805763758
 40
1.0
 40
1.0
 40
1.0
 40
1.0
 10
342.3901153251797
 20
317.7521666749248
 30
0.0
 10
342.315536147256
 20
317.7251467017694
 30
0.0
 10
342.1663617175361
 20
317.6711009319085
 30
0.0
 10
341.9924209403022
 20
317.501332897009
 30
0.0
 10
341.8830809351807
 20
317.2889795364513
 30
0.0
 10
341.8534421208273
 20
317.0894692225173
 30
0.0
 10
341.8711460181125
 20
316.9728173984556
 30
0.0
 10
341.8770683452756
 20
316.9337949021587
 30
0.0
  0
LINE
  5
FF
330
1F
100
AcDbEntity
  8
0
  6
Continuous
 62
     7
370
    25
100
AcDbLine
 10
341.9875306532
 20
316.3927933439
 30
0.0
 11
341.8770683453
 21
316.9337949022
 31
0.0
  0
SPLINE
  5
100
330
1F
100
AcDbEntity
  8
0
  6
Continuous
 62
     7
370
    25
100
AcDbSpline
210
0.0
220
0.0
230
1.0
 70
     8
 71
     3
 72
    12
 73
     8
 74
     0
 42
0.000000001
 43
0.00000001
 40
0.0
 40
0.0
 40
0.0
 40
0.0
 40
0.2201294224916088
 40
0.4402528054912349
 40
0.6607440742493565
 40
0.8821578499073075
 40
1.0
 40
1.0
 40
1.0
 40
1.0
 10
341.9875306532056
 20
316.3927933438548
 30
0.0
 10
342.0107558753342
 20
316.3174786681591
 30
0.0
 10
342.0572056823817
 20
316.1668513831083
 30
0.0
 10
342.2164752408599
 20
315.9859461582852
 30
0.0
 10
342.421063651337
 20
315.8660747381342
 30
0.0
 10
342.6196865065299
 20
315.8249416516927
 30
0.0
 10
342.7389278796863
 20
315.836906798995
 30
0.0
 10
342.7803469345242
 20
315.8410629494915
 30
0.0
  0
SPLINE
  5
101
330
1F
100
AcDbEntity
  8
0
  6
Continuous
 62
     7
370
    25
100
AcDbSpline
210
0.0
220
0.0
230
1.0
 70
     8
 71
     3
 72
    11
 73
     7
 74
     0
 42
0.000000001
 43
0.00000001
 40
0.0
 40
0.0
 40
0.0
 40
0.0
 40
0.2832272701105676
 40
0.5762687413926223
 40
0.786190541026248
 40
1.0
 40
1.0
 40
1.0
 40
1.0
 10
359.2042726919324
 20
318.3808764680156
 30
0.0
 10
357.8726807062096
 20
318.1749609317412
 30
0.0
 10
355.1633553034634
 20
317.7559946123056
 30
0.0
 10
350.8210650276638
 20
317.0844498130054
 30
0.0
 10
346.6473195669288
 20
316.4390675855574
 30
0.0
 10
344.0771979490565
 20
316.0416133522738
 30
0.0
 10
342.7803469345242
 20
315.8410629494915
 30
0.0
  0
SPLINE
  5
102
330
1F
100
AcDbEntity
  8
0
  6
Continuous
 62
     7
370
    25
100
AcDbSpline
210
0.0
220
0.0
230
1.0
 70
     8
 71
     3
 72
    12
 73
     8
 74
     0
 42
0.000000001
 43
0.00000001
 40
0.0
 40
0.0
 40
0.0
 40
0.0
 40
0.1369129658318771
 40
0.2732892936240113
 40
0.4609242593781807
 40
0.7173087545071661
 40
1.0
 40
1.0
 40
1.0
 40
1.0
 10
294.51608932468
 20
289.6092674000988
 30
0.0
 10
294.557566800974
 20
289.5628500643228
 30
0.0
 10
294.64035918027
 20
289.4701973281193
 30
0.0
 10
294.8152906179274
 20
289.3725140860261
 30
0.0
 10
295.0363125368747
 20
289.3196074132659
 30
0.0
 10
295.296441472469
 20
289.3465294192033
 30
0.0
 10
295.4452278191236
 20
289.4451215419122
 30
0.0
 10
295.5232513591916
 20
289.49682323773
 30
0.0
  0
SPLINE
  5
103
330
1F
100
AcDbEntity
  8
0
  6
Continuous
 62
     7
370
    25
100
AcDbSpline
210
0.0
220
0.0
230
1.0
 70
     8
 71
     3
 72
    11
 73
     7
 74
     0
 42
0.000000001
 43
0.00000001
 40
0.0
 40
0.0
 40
0.0
 40
0.0
 40
0.2603290957952178
 40
0.5282084143003262
 40
0.7614182861066966
 40
1.0
 40
1.0
 40
1.0
 40
1.0
 10
308.2533282682568
 20
300.1805087788829
 30
0.0
 10
307.0302030178121
 20
299.1540071411204
 30
0.0
 10
304.5484786947795
 20
297.0712326410094
 30
0.0
 10
301.1638810431222
 20
294.2307251354355
 30
0.0
 10
298.0921406198231
 20
291.6527404676418
 30
0.0
 10
296.3860230919618
 20
290.2208966622508
 30
0.0
 10
295.5232513591916
 20
289.49682323773
 30
0.0
  0
SPLINE
  5
104
330
1F
100
AcDbEntity
  8
0
  6
Continuous
 62
     7
370
    25
100
AcDbSpline
210
0.0
220
0.0
230
1.0
 70
     8
 71
     3
 72
    12
 73
     8
 74
     0
 42
0.000000001
 43
0.00000001
 40
0.0
 40
0.0
 40
0.0
 40
0.0
 40
0.2229109319599683
 40
0.4458496461331062
 40
0.66793025757052
 40
0.8889248460400127
 40
1.0
 40
1.0
 40
1.0
 40
1.0
 10
308.2533282682568
 20
300.1805087788829
 30
0.0
 10
308.3088026007326
 20
300.2372172479841
 30
0.0
 10
308.4197581796551
 20
300.3506412539727
 30
0.0
 10
308.5027973516269
 20
300.579064317662
 30
0.0
 10
308.5092003612514
 20
300.8178238437793
 30
0.0
 10
308.4493221684546
 20
301.0104267508588
 30
0.0
 10
308.3827615204
 20
301.1078531054659
 30
0.0
 10
308.360497419563
 20
301.1404415829905
 30
0.0
  0
SPLINE
  5
105
330
1F
100
AcDbEntity
  8
0
  6
Continuous
 62
     7
370
    25
100
AcDbSpline
210
0.0
220
0.0
230
1.0
 70
     8
 71
     3
 72
     9
 73
     5
 74
     0
 42
0.000000001
 43
0.00000001
 40
0.0
 40
0.0
 40
0.0
 40
0.0
 40
0.4999785199998403
 40
1.0
 40
1.0
 40
1.0
 40
1.0
 10
308.0262345716626
 20
301.5799364312419
 30
0.0
 10
308.0819462428709
 20
301.5066931669775
 30
0.0
 10
308.1933743722398
 20
301.3602003451171
 30
0.0
 10
308.3047881416768
 20
301.213696601633
 30
0.0
 10
308.360497419563
 20
301.1404415829906
 30
0.0
  0
SPLINE
  5
106
330
1F
100
AcDbEntity
  8
0
  6
Continuous
 62
     7
370
    25
100
AcDbSpline
210
0.0
220
0.0
230
1.0
 70
     8
 71
     3
 72
    12
 73
     8
 74
     0
 42
0.000000001
 43
0.00000001
 40
0.0
 40
0.0
 40
0.0
 40
0.0
 40
0.2201401445087836
 40
0.4402612247805385
 40
0.6607449343839172
 40
0.8821614336795038
 40
1.0
 40
1.0
 40
1.0
 40
1.0
 10
308.0262345716626
 20
301.5799364312419
 30
0.0
 10
307.972630344557
 20
301.63771965301
 30
0.0
 10
307.8654265324965
 20
301.7532810924931
 30
0.0
 10
307.6434386138816
 20
301.8471707744563
 30
0.0
 10
307.4071019487169
 20
301.8663975503619
 30
0.0
 10
307.210307565492
 20
301.8172781238649
 30
0.0
 10
307.1080604003569
 20
301.7547719674393
 30
0.0
 10
307.0725453540952
 20
301.7330607636699
 30
0.0
  0
SPLINE
  5
107
330
1F
100
AcDbEntity
  8
0
  6
Continuous
 62
     7
370
    25
100
AcDbSpline
210
0.0
220
0.0
230
1.0
 70
     8
 71
     3
 72
    11
 73
     7
 74
     0
 42
0.000000001
 43
0.00000001
 40
0.0
 40
0.0
 40
0.0
 40
0.0
 40
0.2832265669611478
 40
0.576268694976609
 40
0.7861906049908614
 40
1.0
 40
1.0
 40
1.0
 40
1.0
 10
293.3770892665059
 20
292.3186859353313
 30
0.0
 10
294.4874649212596
 20
293.0819604545841
 30
0.0
 10
296.7466976491926
 20
294.6349616996227
 30
0.0
 10
300.3676137274567
 20
297.1240358990875
 30
0.0
 10
303.8479877826045
 20
299.516460354002
 30
0.0
 10
305.9911387811542
 20
300.9896886267319
 30
0.0
 10
307.0725453540952
 20
301.7330607636699
 30
0.0
  0
SPLINE
  5
108
330
1F
100
AcDbEntity
  8
0
  6
Continuous
 62
     7
370
    25
100
AcDbSpline
210
0.0
220
0.0
230
1.0
 70
     8
 71
     3
 72
    12
 73
     8
 74
     0
 42
0.000000001
 43
0.00000001
 40
0.0
 40
0.0
 40
0.0
 40
0.0
 40
0.3203349349943213
 40
0.5619192647429462
 40
0.7389223072073732
 40
0.8801320209769374
 40
1.0
 40
1.0
 40
1.0
 40
1.0
 10
293.3770892665059
 20
292.3186859353312
 30
0.0
 10
293.2976936896434
 20
292.2478926588981
 30
0.0
 10
293.1584210118906
 20
292.1237098068381
 30
0.0
 10
293.0720483779919
 20
291.8691567662256
 30
0.0
 10
293.070930788833
 20
291.647977585514
 30
0.0
 10
293.1215894171914
 20
291.4625264607985
 30
0.0
 10
293.1866045197224
 20
291.3635265529624
 30
0.0
 10
293.2164547488362
 20
291.3180729611644
 30
0.0
  0
LINE
  5
109
330
1F
100
AcDbEntity
  8
0
  6
Continuous
 62
     7
370
    25
100
AcDbLine
 10
293.2164547488
 20
291.3180729612
 30
0.0
 11
293.8662720368
 21
290.4636701806
 31
0.0
  0
LINE
  5
10A
330
1F
100
AcDbEntity
  8
0
  6
Continuous
 62
     7
370
    25
100
AcDbLine
 10
294.5160893247
 20
289.6092674001
 30
0.0
 11
293.8662720368
 21
290.4636701806
 31
0.0
  0
SPLINE
  5
10B
330
1F
100
AcDbEntity
  8
0
  6
Continuous
 62
     7
370
    25
100
AcDbSpline
210
0.0
220
0.0
230
1.0
 70
     8
 71
     3
 72
    12
 73
     8
 74
     0
 42
0.000000001
 43
0.00000001
 40
0.0
 40
0.0
 40
0.0
 40
0.0
 40
0.2201355296433909
 40
0.4402519954494025
 40
0.6607449999272912
 40
0.8821639039655247
 40
1.0
 40
1.0
 40
1.0
 40
1.0
 10
338.6065912887723
 20
324.1442283852824
 30
0.0
 10
338.6601955769129
 20
324.0864449243195
 30
0.0
 10
338.7673995110383
 20
323.9708830064677
 30
0.0
 10
338.9893911894252
 20
323.876994936485
 30
0.0
 10
339.2257392693548
 20
323.8577562341051
 30
0.0
 10
339.4225298111349
 20
323.9069198442972
 30
0.0
 10
339.5247800360971
 20
323.9694238495391
 30
0.0
 10
339.5602954075009
 20
323.9911338551769
 30
0.0
  0
SPLINE
  5
10C
330
1F
100
AcDbEntity
  8
0
  6
Continuous
 62
     7
370
    25
100
AcDbSpline
210
0.0
220
0.0
230
1.0
 70
     8
 71
     3
 72
    11
 73
     7
 74
     0
 42
0.000000001
 43
0.00000001
 40
0.0
 40
0.0
 40
0.0
 40
0.0
 40
0.2832273983971175
 40
0.5762688378010931
 40
0.7861905186600257
 40
1.0
 40
1.0
 40
1.0
 40
1.0
 10
353.2557440445096
 20
333.4055086835155
 30
0.0
 10
352.1453706862841
 20
332.6422195798179
 30
0.0
 10
349.8861487032022
 20
331.0891928345829
 30
0.0
 10
346.2652125633829
 20
328.6001655198867
 30
0.0
 10
342.7848530465012
 20
326.2077306386138
 30
0.0
 10
340.6417025355525
 20
324.7345051420266
 30
0.0
 10
339.560295407501
 20
323.9911338551768
 30
0.0
  0
SPLINE
  5
10D
330
1F
100
AcDbEntity
  8
0
  6
Continuous
 62
     7
370
    25
100
AcDbSpline
210
0.0
220
0.0
230
1.0
 70
     8
 71
     3
 72
    12
 73
     8
 74
     0
 42
0.000000001
 43
0.00000001
 40
0.0
 40
0.0
 40
0.0
 40
0.0
 40
0.3203293394117473
 40
0.5619329243358597
 40
0.7389379867011234
 40
0.8801306530827602
 40
0.9999999999999999
 40
0.9999999999999999
 40
0.9999999999999999
 40
0.9999999999999999
 10
353.2557440445096
 20
333.4055086835155
 30
0.0
 10
353.3351443256069
 20
333.4762880684615
 30
0.0
 10
353.4744310741515
 20
333.6004517396332
 30
0.0
 10
353.5607868989179
 20
333.8550344386416
 30
0.0
 10
353.5619178299744
 20
334.0762119464944
 30
0.0
 10
353.5112359033795
 20
334.2616438723909
 30
0.0
 10
353.4462277390323
 20
334.3606377731018
 30
0.0
 10
353.4163785621793
 20
334.40609185536
 30
0.0
  0
LINE
  5
10E
330
1F
100
AcDbEntity
  8
0
  6
Continuous
 62
     7
370
    25
100
AcDbLine
 10
352.7665687248
 20
335.2605095371
 30
0.0
 11
353.4163785622
 21
334.4060918554
 31
0.0
  0
LINE
  5
10F
330
1F
100
AcDbEntity
  8
0
  6
Continuous
 62
     7
370
    25
100
AcDbLine
 10
352.7665687248
 20
335.2605095371
 30
0.0
 11
352.1167439863
 21
336.1149123176
 31
0.0
  0
SPLINE
  5
110
330
1F
100
AcDbEntity
  8
0
  6
Continuous
 62
     7
370
    25
100
AcDbSpline
210
0.0
220
0.0
230
1.0
 70
     8
 71
     3
 72
    12
 73
     8
 74
     0
 42
0.000000001
 43
0.00000001
 40
0.0
 40
0.0
 40
0.0
 40
0.0
 40
0.1369193800357137
 40
0.2732845473488247
 40
0.4609222538470091
 40
0.7173041765300766
 40
1.0
 40
1.0
 40
1.0
 40
1.0
 10
352.1167439863355
 20
336.1149123175869
 30
0.0
 10
352.0752676900161
 20
336.1613365588622
 30
0.0
 10
351.9924829822385
 20
336.2539971286049
 30
0.0
 10
351.8175429539791
 20
336.3516633036798
 30
0.0
 10
351.5965221764148
 20
336.4045729801525
 30
0.0
 10
351.3363896375708
 20
336.3776522169598
 30
0.0
 10
351.1876004856625
 20
336.2790494837493
 30
0.0
 10
351.1095745012433
 20
336.2273415787944
 30
0.0
  0
SPLINE
  5
111
330
1F
100
AcDbEntity
  8
0
  6
Continuous
 62
     7
370
    25
100
AcDbSpline
210
0.0
220
0.0
230
1.0
 70
     8
 71
     3
 72
    11
 73
     7
 74
     0
 42
0.000000001
 43
0.00000001
 40
0.0
 40
0.0
 40
0.0
 40
0.0
 40
0.2603306527214099
 40
0.5282099134905868
 40
0.7614185772047292
 40
1.0
 40
1.0
 40
1.0
 40
1.0
 10
338.379497592178
 20
325.5436560376415
 30
0.0
 10
339.6026274923275
 20
326.5701680087679
 30
0.0
 10
342.0843534511874
 20
328.6529569304628
 30
0.0
 10
345.4689520103045
 20
331.4934721577386
 30
0.0
 10
348.5406995379855
 20
334.0714206862198
 30
0.0
 10
350.2468064486266
 20
335.5032659827897
 30
0.0
 10
351.1095745012433
 20
336.2273415787944
 30
0.0
  0
SPLINE
  5
112
330
1F
100
AcDbEntity
  8
0
  6
Continuous
 62
     7
370
    25
100
AcDbSpline
210
0.0
220
0.0
230
1.0
 70
     8
 71
     3
 72
    12
 73
     8
 74
     0
 42
0.000000001
 43
0.00000001
 40
0.0
 40
0.0
 40
0.0
 40
0.0
 40
0.222881868943101
 40
0.445821763243729
 40
0.6679314934290663
 40
0.8889006159130806
 40
1.0
 40
1.0
 40
1.0
 40
1.0
 10
338.379497592178
 20
325.5436560376415
 30
0.0
 10
338.3240284035808
 20
325.4869572721453
 30
0.0
 10
338.2130755854649
 20
325.3735449801221
 30
0.0
 10
338.1300433118578
 20
325.1451209631886
 30
0.0
 10
338.1236314985088
 20
324.9063572554447
 30
0.0
 10
338.1835358519971
 20
324.7137574551851
 30
0.0
 10
338.2500798666025
 20
324.6163219895363
 30
0.0
 10
338.2723433420331
 20
324.5837232335338
 30
0.0
  0
SPLINE
  5
113
330
1F
100
AcDbEntity
  8
0
  6
Continuous
 62
     7
370
    25
100
AcDbSpline
210
0.0
220
0.0
230
1.0
 70
     8
 71
     3
 72
     9
 73
     5
 74
     0
 42
0.000000001
 43
0.00000001
 40
0.0
 40
0.0
 40
0.0
 40
0.0
 40
0.5000296490350185
 40
1.0
 40
1.0
 40
1.0
 40
1.0
 10
338.6065912887723
 20
324.1442283852825
 30
0.0
 10
338.5508812240956
 20
324.217482805509
 30
0.0
 10
338.439467701349
 20
324.3639829587855
 30
0.0
 10
338.3280492595056
 20
324.5104793709358
 30
0.0
 10
338.2723433420331
 20
324.5837232335338
 30
0.0
  0
SPLINE
  5
114
330
1F
100
AcDbEntity
  8
0
  6
Continuous
 62
     7
370
    25
100
AcDbSpline
210
0.0
220
0.0
230
1.0
 70
     8
 71
     3
 72
    19
 73
    15
 74
     0
 42
0.000000001
 43
0.00000001
 40
0.0
 40
0.0
 40
0.0
 40
0.0
 40
0.0903178324960329
 40
0.2045629276418752
 40
0.2714198323295102
 40
0.3439360751705833
 40
0.4207856050895859
 40
0.5000001142105245
 40
0.5792142004918636
 40
0.6560639267073136
 40
0.7285807201946202
 40
0.7954365241534246
 40
0.9096818554665733
 40
1.0
 40
1.0
 40
1.0
 40
1.0
 10
315.8539784595639
 20
316.2609180672893
 30
0.0
 10
316.2339565662741
 20
316.9396841767206
 30
0.0
 10
317.094577683946
 20
318.4770370857983
 30
0.0
 10
318.9867394738948
 20
319.953360901153
 30
0.0
 10
320.9964315336389
 20
320.7961294596512
 30
0.0
 10
322.8364138198445
 20
321.1235448937705
 30
0.0
 10
324.8081918606007
 20
321.009056926498
 30
0.0
 10
326.7504736419346
 20
320.4018912422395
 30
0.0
 10
328.4834458083197
 20
319.3351513630712
 30
0.0
 10
329.8640698271525
 20
317.9227397576969
 30
0.0
 10
330.8248203636296
 20
316.3197197400266
 30
0.0
 10
331.5081947215055
 20
314.2503923759153
 30
0.0
 10
331.6364125770192
 20
311.8538631181934
 30
0.0
 10
331.0415180402268
 20
310.1954800126171
 30
0.0
 10
330.7788623020322
 20
309.4632765515575
 30
0.0
  0
SPLINE
  5
115
330
1F
100
AcDbEntity
  8
0
  6
Continuous
 62
     7
370
    25
100
AcDbSpline
210
0.0
220
0.0
230
1.0
 70
     8
 71
     3
 72
    19
 73
    15
 74
     0
 42
0.000000001
 43
0.00000001
 40
0.0
 40
0.0
 40
0.0
 40
0.0
 40
0.0903186217973096
 40
0.2045634788519889
 40
0.2714202442072685
 40
0.3439363359217085
 40
0.4207857056833412
 40
0.5000000497182026
 40
0.5792150734188798
 40
0.6560634039533269
 40
0.7285800463128524
 40
0.7954368122221473
 40
0.909680766687874
 40
1.0
 40
1.0
 40
1.0
 40
1.0
 10
330.7788623020322
 20
309.4632765515575
 30
0.0
 10
330.3988858961329
 20
308.7844993565827
 30
0.0
 10
329.5382738326886
 20
307.2471306323229
 30
0.0
 10
327.6461006242519
 20
305.7708042701229
 30
0.0
 10
325.6364094260065
 20
304.9280353496984
 30
0.0
 10
323.7964266686346
 20
304.6006196009409
 30
0.0
 10
321.8246498417188
 20
304.7151092840591
 30
0.0
 10
319.8823544376138
 20
305.3222710228228
 30
0.0
 10
318.1494014559185
 20
306.3890387639196
 30
0.0
 10
316.7687624148231
 20
307.8014300593004
 30
0.0
 10
315.8080131706422
 20
309.404453446861
 30
0.0
 10
315.1246588004033
 20
311.4737849683889
 30
0.0
 10
314.9964085602491
 20
313.8703220616192
 30
0.0
 10
315.5913142575699
 20
315.528704876713
 30
0.0
 10
315.8539784595639
 20
316.2609180672893
 30
0.0
  0
SPLINE
  5
116
330
1F
100
AcDbEntity
  8
0
  6
Continuous
 62
     7
370
    25
100
AcDbSpline
210
0.0
220
0.0
230
1.0
 70
     8
 71
     3
 72
     9
 73
     5
 74
     0
 42
0.000000001
 43
0.00000001
 40
0.0
 40
0.0
 40
0.0
 40
0.0
 40
0.7733884511024676
 40
1.0
 40
1.0
 40
1.0
 40
1.0
 10
331.4879191562803
 20
309.1403385861644
 30
0.0
 10
331.5029824164806
 20
309.133486489211
 30
0.0
 10
331.5224593820065
 20
309.1246266504799
 30
0.0
 10
331.4958067047448
 20
309.1367312718236
 30
0.0
 10
331.4897669002683
 20
309.1394743188151
 30
0.0
  0
SPLINE
  5
117
330
1F
100
AcDbEntity
  8
0
  6
Continuous
 62
     7
370
    25
100
AcDbSpline
210
0.0
220
0.0
230
1.0
 70
     8
 71
     3
 72
    13
 73
     9
 74
     0
 42
0.000000001
 43
0.00000001
 40
0.0
 40
0.0
 40
0.0
 40
0.0
 40
0.2017281901745175
 40
0.3473452903323854
 40
0.5000029334818883
 40
0.6526513609603022
 40
0.7982652917523998
 40
0.9999999999999999
 40
0.9999999999999999
 40
0.9999999999999999
 40
0.9999999999999999
 10
315.2066422149808
 20
316.5557524426708
 30
0.0
 10
315.1713136455452
 20
316.5718430610132
 30
0.0
 10
315.1104832172496
 20
316.5995486607857
 30
0.0
 10
315.1367257496833
 20
316.587571297222
 30
0.0
 10
315.2220003572096
 20
316.5487313059727
 30
0.0
 10
315.3689125311718
 20
316.4818314213618
 30
0.0
 10
315.5805870556551
 20
316.3854100452651
 30
0.0
 10
315.7535337176547
 20
316.3066567570168
 30
0.0
 10
315.853978459564
 20
316.2609180672893
 30
0.0
  0
ARC
  5
118
330
1F
100
AcDbEntity
  8
0
  6
Continuous
 62
     7
370
    25
100
AcDbCircle
 10
323.3164179149
 20
312.8620895522
 30
0.0
 40
8.91131119600008
100
AcDbArc
 50
335.5127920349
 51
33.6929108129
  0
CIRCLE
  5
119
330
1F
100
AcDbEntity
  8
0
  6
Continuous
 62
     7
370
    25
100
AcDbCircle
 10
323.3164179149
 20
312.8620895522
 30
0.0
 40
57.00000000000007
  0
SPLINE
  5
11A
330
1F
100
AcDbEntity
  8
0
  6
Continuous
 62
     7
370
    25
100
AcDbSpline
210
0.0
220
0.0
230
1.0
 70
     8
 71
     3
 72
    35
 73
    31
 74
     0
 42
0.000000001
 43
0.00000001
 40
0.0
 40
0.0
 40
0.0
 40
0.0
 40
0.028254557826087
 40
0.0583833648248879
 40
0.0903494080192933
 40
0.1258615081003969
 40
0.1640103461868375
 40
0.2048404991418707
 40
0.2374624033821017
 40
0.2716127042766358
 40
0.3071914039782317
 40
0.3440550097692514
 40
0.3820150703343054
 40
0.4208413087397755
 40
0.4602672497496949
 40
0.4999999813405377
 40
0.5397327801602795
 40
0.5791586199638175
 40
0.6179849345298489
 40
0.6559450531181825
 40
0.6928086135340203
 40
0.7283872880133822
 40
0.7625375651067433
 40
0.7951595624300221
 40
0.8359928774659051
 40
0.8741416145712961
 40
0.9096505095489127
 40
0.941619911571772
 40
0.9717471236477414
 40
1.0
 40
1.0
 40
1.0
 40
1.0
 10
367.3242730543286
 20
308.2164665921459
 30
0.0
 10
367.4281971661275
 20
309.5218224755251
 30
0.0
 10
367.6429391334449
 20
312.219124243075
 30
0.0
 10
367.4921467108871
 20
316.4103000275414
 30
0.0
 10
366.9183763249504
 20
320.9005950104134
 30
0.0
 10
365.7779074855196
 20
325.6692248487743
 30
0.0
 10
363.9554222239452
 20
330.6620245340073
 30
0.0
 10
361.5882211448006
 20
335.2738403699939
 30
0.0
 10
358.8126656636644
 20
339.4230107093795
 30
0.0
 10
355.7730984507508
 20
343.0727766319768
 30
0.0
 10
352.2105504779695
 20
346.5054105841688
 30
0.0
 10
348.1402031202467
 20
349.6193011096411
 30
0.0
 10
343.6025298475983
 20
352.3116694448593
 30
0.0
 10
338.6644319002397
 20
354.4866209180132
 30
0.0
 10
333.4176762648517
 20
356.063459460971
 30
0.0
 10
327.9741307729402
 20
356.984405304431
 30
0.0
 10
322.4582799468459
 20
357.2203886685253
 30
0.0
 10
316.9979278840229
 20
356.7738024629096
 30
0.0
 10
311.7145402218149
 20
355.6778807241074
 30
0.0
 10
306.7147109101402
 20
353.9923299789972
 30
0.0
 10
302.0838974486426
 20
351.7969703540923
 30
0.0
 10
297.8831448000204
 20
349.1838571251124
 30
0.0
 10
294.1485051398715
 20
346.2491940653375
 30
0.0
 10
290.5676790894349
 20
342.7709039990582
 30
0.0
 10
287.2896258103009
 20
338.7548883617653
 30
0.0
 10
284.4648357215872
 20
334.2526658523829
 30
0.0
 10
282.3538528699549
 20
329.8272567816848
 30
0.0
 10
280.8551794393127
 20
325.5557971138584
 30
0.0
 10
279.8326866588701
 20
321.4884623693194
 30
0.0
 10
279.4794891689244
 20
318.805931262134
 30
0.0
 10
279.3085602566869
 20
317.5077280267009
 30
0.0
  0
SPLINE
  5
11B
330
1F
100
AcDbEntity
  8
0
  6
Continuous
 62
     7
370
    25
100
AcDbSpline
210
0.0
220
0.0
230
1.0
 70
     8
 71
     3
 72
    35
 73
    31
 74
     0
 42
0.000000001
 43
0.00000001
 40
0.0
 40
0.0
 40
0.0
 40
0.0
 40
0.0282545482591694
 40
0.0583835629157226
 40
0.0903495921057912
 40
0.1258616842594748
 40
0.1640105138298924
 40
0.2048405867443175
 40
0.2374625728407379
 40
0.2716126669833872
 40
0.3071915075649722
 40
0.3440550399659271
 40
0.3820151381722051
 40
0.420841367910435
 40
0.460267330985746
 40
0.500000053706991
 40
0.5397327273450712
 40
0.5791586477511964
 40
0.6179848922059799
 40
0.6559449680614625
 40
0.6928085687006648
 40
0.7283872918836861
 40
0.7625374709959971
 40
0.7951594972984183
 40
0.8359928371242615
 40
0.8741416280468494
 40
0.9096505150977613
 40
0.9416197076902431
 40
0.9717469258500236
 40
1.0
 40
1.0
 40
1.0
 40
1.0
 10
279.3085602566869
 20
317.5077280267009
 30
0.0
 10
279.2046392815012
 20
316.2023720789452
 30
0.0
 10
278.9899029941832
 20
313.5050601133056
 30
0.0
 10
279.140694661843
 20
309.3138753768503
 30
0.0
 10
279.7144539151278
 20
304.8235689094096
 30
0.0
 10
280.8549280553045
 20
300.0549408730955
 30
0.0
 10
282.6774039995129
 20
295.0621400926871
 30
0.0
 10
285.0446318789185
 20
290.4503384808088
 30
0.0
 10
287.8201587486329
 20
286.3011581931771
 30
0.0
 10
290.859756556098
 20
282.6514162758712
 30
0.0
 10
294.4222658783489
 20
279.2187506015883
 30
0.0
 10
298.4926385290084
 20
276.104880304231
 30
0.0
 10
303.0303080622253
 20
273.4125099253158
 30
0.0
 10
307.9684118066711
 20
271.2375622024774
 30
0.0
 10
313.2151615452275
 20
269.6607045517422
 30
0.0
 10
318.6587050607411
 20
268.7397468158804
 30
0.0
 10
324.1745540893587
 20
268.5038313213968
 30
0.0
 10
329.6349095469265
 20
268.9503346998234
 30
0.0
 10
334.9182831106789
 20
270.0463332827885
 30
0.0
 10
339.918118900441
 20
271.731845641608
 30
0.0
 10
344.548940936025
 20
273.9272037837508
 30
0.0
 10
348.749672645682
 20
276.5403468244432
 30
0.0
 10
352.4843512435052
 20
279.4749615252622
 30
0.0
 10
356.0651445591793
 20
282.953285443652
 30
0.0
 10
359.3432240098017
 20
286.9692858988877
 30
0.0
 10
362.1679920610822
 20
291.4715293037437
 30
0.0
 10
364.2789751347653
 20
295.8969295531236
 30
0.0
 10
365.7776558718283
 20
300.168377167814
 30
0.0
 10
366.8001608633897
 20
304.2357102842987
 30
0.0
 10
367.1533483725505
 20
306.9182531238874
 30
0.0
 10
367.3242730543287
 20
308.2164665921458
 30
0.0
  0
SPLINE
  5
11C
330
1F
100
AcDbEntity
  8
0
  6
Continuous
 62
     7
370
    25
100
AcDbSpline
210
0.0
220
0.0
230
1.0
 70
     8
 71
     3
 72
    11
 73
     7
 74
     0
 42
0.000000001
 43
0.00000001
 40
0.0
 40
0.0
 40
0.0
 40
0.0
 40
0.270699752937862
 40
0.562317075881708
 40
0.7892985776993607
 40
1.0
 40
1.0
 40
1.0
 40
1.0
 10
279.3085602566869
 20
317.5077280267009
 30
0.0
 10
279.8468137792605
 20
317.4509031250772
 30
0.0
 10
280.9649128673157
 20
317.3328623357099
 30
0.0
 10
282.2485250940293
 20
317.1973516225936
 30
0.0
 10
283.0181513617686
 20
317.1161275691759
 30
0.0
 10
283.1305391520859
 20
317.1042567675951
 30
0.0
 10
283.1846428558499
 20
317.0985421403179
 30
0.0
  0
ARC
  5
11D
330
1F
100
AcDbEntity
  8
0
  6
Continuous
 62
     7
370
    25
100
AcDbCircle
 10
323.3164179149
 20
312.8620895522
 30
0.0
 40
40.35476230894866
100
AcDbArc
 50
173.973964907
 51
353.973964907
  0
SPLINE
  5
11E
330
1F
100
AcDbEntity
  8
0
  6
Continuous
 62
     7
370
    25
100
AcDbSpline
210
0.0
220
0.0
230
1.0
 70
     8
 71
     3
 72
    11
 73
     7
 74
     0
 42
0.000000001
 43
0.00000001
 40
0.0
 40
0.0
 40
0.0
 40
0.0
 40
0.2706998707727632
 40
0.5623151815815294
 40
0.7892984574263251
 40
1.0
 40
1.0
 40
1.0
 40
1.0
 10
363.4481979057462
 20
308.6256226762065
 30
0.0
 10
363.5324608528135
 20
308.6167290224878
 30
0.0
 10
363.7074972658178
 20
308.5982545529894
 30
0.0
 10
364.756413082974
 20
308.4875319609239
 30
0.0
 10
366.0382803902766
 20
308.3521926357917
 30
0.0
 10
366.9063730885743
 20
308.260572527255
 30
0.0
 10
367.3242730543287
 20
308.2164665921458
 30
0.0
  0
ARC
  5
11F
330
1F
100
AcDbEntity
  8
0
  6
Continuous
 62
     7
370
    25
100
AcDbCircle
 10
323.3164179149
 20
312.8620895522
 30
0.0
 40
40.35476230894866
100
AcDbArc
 50
353.973964907
 51
173.973964907
  0
CIRCLE
  5
120
330
1F
100
AcDbEntity
  8
0
  6
Continuous
 62
     7
370
    25
100
AcDbCircle
 10
323.3164179149
 20
312.8620895522
 30
0.0
 40
39.93812333100008
  0
ARC
  5
121
330
1F
100
AcDbEntity
  8
0
  6
Continuous
 62
     7
370
    25
100
AcDbCircle
 10
358.3164179149
 20
432.8620895522
 30
0.0
 40
63.95796437412247
100
AcDbArc
 50
0.0
 51
90.0
  0
LINE
  5
122
330
1F
100
AcDbEntity
  8
0
  6
Continuous
 62
     7
370
    25
100
AcDbLine
 10
358.3164168045
 20
496.8200540407
 30
0.0
 11
358.3164168045
 21
497.862092243
 31
0.0
  0
ARC
  5
123
330
1F
100
AcDbEntity
  8
0
  6
Continuous
 62
     7
370
    25
100
AcDbCircle
 10
358.3164179149
 20
432.8620895522
 30
0.0
 40
65.0
100
AcDbArc
 50
0.0
 51
90.0
  0
LINE
  5
124
330
1F
100
AcDbEntity
  8
0
  6
Continuous
 62
     7
370
    25
100
AcDbLine
 10
422.274376218
 20
432.8620871766
 30
0.0
 11
423.3164144203
 21
432.8620871766
 31
0.0
  0
ARC
  5
125
330
1F
100
AcDbEntity
  8
0
  6
Continuous
 62
     7
370
    25
100
AcDbCircle
 10
358.3164179149
 20
432.8620895522
 30
0.0
 40
51.5
100
AcDbArc
 50
0.0
 51
90.0
  0
LINE
  5
126
330
1F
100
AcDbEntity
  8
0
  6
Continuous
 62
     7
370
    25
100
AcDbLine
 10
288.3164165065
 20
484.3620872362
 30
0.0
 11
358.3164168045
 21
484.3620872362
 31
0.0
  0
ARC
  5
127
330
1F
100
AcDbEntity
  8
0
  6
Continuous
 62
     7
370
    25
100
AcDbCircle
 10
288.3164179149
 20
432.8620895522
 30
0.0
 40
51.49999999999994
100
AcDbArc
 50
90.0
 51
180.0
  0
LINE
  5
128
330
1F
100
AcDbEntity
  8
0
  6
Continuous
 62
     7
370
    25
100
AcDbLine
 10
236.8164164469
 20
192.8620776399
 30
0.0
 11
236.8164164469
 21
432.8620871766
 31
0.0
  0
ARC
  5
129
330
1F
100
AcDbEntity
  8
0
  6
Continuous
 62
     7
370
    25
100
AcDbCircle
 10
288.3164179149
 20
192.8620895522
 30
0.0
 40
51.5
100
AcDbArc
 50
180.0
 51
270.0
  0
LINE
  5
12A
330
1F
100
AcDbEntity
  8
0
  6
Continuous
 62
     7
370
    25
100
AcDbLine
 10
358.3164168045
 20
141.3620850309
 30
0.0
 11
288.3164165065
 21
141.3620850309
 31
0.0
  0
ARC
  5
12B
330
1F
100
AcDbEntity
  8
0
  6
Continuous
 62
     7
370
    25
100
AcDbCircle
 10
358.3164179149
 20
192.8620895522
 30
0.0
 40
51.5
100
AcDbArc
 50
270.0
 51
0.0
  0
LINE
  5
12C
330
1F
100
AcDbEntity
  8
0
  6
Continuous
 62
     7
370
    25
100
AcDbLine
 10
409.8164243147
 20
432.8620871766
 30
0.0
 11
409.8164243147
 21
192.8620776399
 31
0.0
  0
LINE
  5
12D
330
1F
100
AcDbEntity
  8
0
  6
Continuous
 62
     7
370
    25
100
AcDbLine
 10
422.274376218
 20
192.8620776399
 30
0.0
 11
422.274376218
 21
432.8620871766
 31
0.0
  0
ARC
  5
12E
330
1F
100
AcDbEntity
  8
0
  6
Continuous
 62
     7
370
    25
100
AcDbCircle
 10
358.3164179149
 20
192.8620895522
 30
0.0
 40
63.95796437412241
100
AcDbArc
 50
270.0
 51
0.0
  0
LINE
  5
12F
330
1F
100
AcDbEntity
  8
0
  6
Continuous
 62
     7
370
    25
100
AcDbLine
 10
288.3164165065
 20
128.9041182264
 30
0.0
 11
358.3164168045
 21
128.9041182264
 31
0.0
  0
ARC
  5
130
330
1F
100
AcDbEntity
  8
0
  6
Continuous
 62
     7
370
    25
100
AcDbCircle
 10
288.3164179149
 20
192.8620895522
 30
0.0
 40
63.95796437412247
100
AcDbArc
 50
180.0
 51
270.0
  0
LINE
  5
131
330
1F
100
AcDbEntity
  8
0
  6
Continuous
 62
     7
370
    25
100
AcDbLine
 10
224.3584533677
 20
432.8620871766
 30
0.0
 11
224.3584533677
 21
192.8620776399
 31
0.0
  0
ARC
  5
132
330
1F
100
AcDbEntity
  8
0
  6
Continuous
 62
     7
370
    25
100
AcDbCircle
 10
288.3164179149
 20
432.8620895522
 30
0.0
 40
63.95796437412253
100
AcDbArc
 50
90.0
 51
180.0
  0
LINE
  5
133
330
1F
100
AcDbEntity
  8
0
  6
Continuous
 62
     7
370
    25
100
AcDbLine
 10
358.3164168045
 20
496.8200540407
 30
0.0
 11
288.3164165065
 21
496.8200540407
 31
0.0
  0
LINE
  5
134
330
1F
100
AcDbEntity
  8
0
  6
Continuous
 62
     7
370
    25
100
AcDbLine
 10
288.3164165065
 20
497.862092243
 30
0.0
 11
288.3164165065
 21
496.8200540407
 31
0.0
  0
LINE
  5
135
330
1F
100
AcDbEntity
  8
0
  6
Continuous
 62
     7
370
    25
100
AcDbLine
 10
288.3164165065
 20
497.862092243
 30
0.0
 11
358.3164168045
 21
497.862092243
 31
0.0
  0
LINE
  5
136
330
1F
100
AcDbEntity
  8
0
  6
Continuous
 62
     7
370
    25
100
AcDbLine
 10
288.3164165065
 20
142.8620955213
 30
0.0
 11
358.3164168045
 21
142.8620955213
 31
0.0
  0
LINE
  5
137
330
1F
100
AcDbEntity
  8
0
  6
Continuous
 62
     7
370
    25
100
AcDbLine
 10
358.3164168045
 20
142.8620955213
 30
0.0
 11
358.3164168045
 21
141.3620850309
 31
0.0
  0
LINE
  5
138
330
1F
100
AcDbEntity
  8
0
  6
Continuous
 62
     7
370
    25
100
AcDbLine
 10
288.3164165065
 20
142.8620955213
 30
0.0
 11
288.3164165065
 21
141.3620850309
 31
0.0
  0
LINE
  5
139
330
1F
100
AcDbEntity
  8
0
  6
Continuous
 62
     7
370
    25
100
AcDbLine
 10
358.3164168045
 20
128.9041182264
 30
0.0
 11
358.3164168045
 21
127.8620800241
 31
0.0
  0
LINE
  5
13A
330
1F
100
AcDbEntity
  8
0
  6
Continuous
 62
     7
370
    25
100
AcDbLine
 10
358.3164168045
 20
127.8620800241
 30
0.0
 11
288.3164165065
 21
127.8620800241
 31
0.0
  0
LINE
  5
13B
330
1F
100
AcDbEntity
  8
0
  6
Continuous
 62
     7
370
    25
100
AcDbLine
 10
288.3164165065
 20
127.8620800241
 30
0.0
 11
288.3164165065
 21
128.9041182264
 31
0.0
  0
LINE
  5
13C
330
1F
100
AcDbEntity
  8
0
  6
Continuous
 62
     7
370
    25
100
AcDbLine
 10
422.274376218
 20
192.8620776399
 30
0.0
 11
423.3164144203
 21
192.8620776399
 31
0.0
  0
ARC
  5
13D
330
1F
100
AcDbEntity
  8
0
  6
Continuous
 62
     7
370
    25
100
AcDbCircle
 10
358.3164179149
 20
192.8620895522
 30
0.0
 40
65.0
100
AcDbArc
 50
270.0
 51
0.0
  0
ARC
  5
13E
330
1F
100
AcDbEntity
  8
0
  6
Continuous
 62
     7
370
    25
100
AcDbCircle
 10
288.3164179149
 20
192.8620895522
 30
0.0
 40
65.00000000000003
100
AcDbArc
 50
180.0
 51
270.0
  0
LINE
  5
13F
330
1F
100
AcDbEntity
  8
0
  6
Continuous
 62
     7
370
    25
100
AcDbLine
 10
223.3164188907
 20
192.8620776399
 30
0.0
 11
224.3584533677
 21
192.8620776399
 31
0.0
  0
LINE
  5
140
330
1F
100
AcDbEntity
  8
0
  6
Continuous
 62
     7
370
    25
100
AcDbLine
 10
423.3164144203
 20
432.8620871766
 30
0.0
 11
423.3164144203
 21
192.8620776399
 31
0.0
  0
LINE
  5
141
330
1F
100
AcDbEntity
  8
0
  6
Continuous
 62
     7
370
    25
100
AcDbLine
 10
223.3164188907
 20
192.8620776399
 30
0.0
 11
223.3164188907
 21
432.8620871766
 31
0.0
  0
LINE
  5
142
330
1F
100
AcDbEntity
  8
0
  6
Continuous
 62
     7
370
    25
100
AcDbLine
 10
223.3164188907
 20
432.8620871766
 30
0.0
 11
224.3584533677
 21
432.8620871766
 31
0.0
  0
LINE
  5
143
330
1F
100
AcDbEntity
  8
0
  6
Continuous
 62
     7
370
    25
100
AcDbLine
 10
358.3164168045
 20
484.3620872362
 30
0.0
 11
358.3164168045
 21
482.862091647
 31
0.0
  0
LINE
  5
144
330
1F
100
AcDbEntity
  8
0
  6
Continuous
 62
     7
370
    25
100
AcDbLine
 10
358.3164168045
 20
482.862091647
 30
0.0
 11
288.3164165065
 21
482.862091647
 31
0.0
  0
LINE
  5
145
330
1F
100
AcDbEntity
  8
0
  6
Continuous
 62
     7
370
    25
100
AcDbLine
 10
288.3164165065
 20
484.3620872362
 30
0.0
 11
288.3164165065
 21
482.862091647
 31
0.0
  0
ARC
  5
146
330
1F
100
AcDbEntity
  8
0
  6
Continuous
 62
     7
370
    25
100
AcDbCircle
 10
288.3164179149
 20
432.8620895522
 30
0.0
 40
65.00000000000006
100
AcDbArc
 50
90.0
 51
180.0
  0
LINE
  5
147
330
1F
100
AcDbEntity
  8
0
  6
Continuous
 62
     7
370
    25
100
AcDbLine
 10
409.8164243147
 20
432.8620871766
 30
0.0
 11
408.3164138243
 21
432.8620871766
 31
0.0
  0
ARC
  5
148
330
1F
100
AcDbEntity
  8
0
  6
Continuous
 62
     7
370
    25
100
AcDbCircle
 10
358.3164179149
 20
432.8620895522
 30
0.0
 40
50.0
100
AcDbArc
 50
0.0
 51
90.0
  0
ARC
  5
149
330
1F
100
AcDbEntity
  8
0
  6
Continuous
 62
     7
370
    25
100
AcDbCircle
 10
288.3164179149
 20
432.8620895522
 30
0.0
 40
50.0
100
AcDbArc
 50
90.0
 51
180.0
  0
LINE
  5
14A
330
1F
100
AcDbEntity
  8
0
  6
Continuous
 62
     7
370
    25
100
AcDbLine
 10
238.3164194867
 20
432.8620871766
 30
0.0
 11
236.8164164469
 21
432.8620871766
 31
0.0
  0
LINE
  5
14B
330
1F
100
AcDbEntity
  8
0
  6
Continuous
 62
     7
370
    25
100
AcDbLine
 10
409.8164243147
 20
192.8620776399
 30
0.0
 11
408.3164138243
 21
192.8620776399
 31
0.0
  0
LINE
  5
14C
330
1F
100
AcDbEntity
  8
0
  6
Continuous
 62
     7
370
    25
100
AcDbLine
 10
408.3164138243
 20
192.8620776399
 30
0.0
 11
408.3164138243
 21
432.8620871766
 31
0.0
  0
ARC
  5
14D
330
1F
100
AcDbEntity
  8
0
  6
Continuous
 62
     7
370
    25
100
AcDbCircle
 10
358.3164179149
 20
192.8620895522
 30
0.0
 40
50.0
100
AcDbArc
 50
270.0
 51
0.0
  0
ARC
  5
14E
330
1F
100
AcDbEntity
  8
0
  6
Continuous
 62
     7
370
    25
100
AcDbCircle
 10
288.3164179149
 20
192.8620895522
 30
0.0
 40
50.0
100
AcDbArc
 50
180.0
 51
270.0
  0
LINE
  5
14F
330
1F
100
AcDbEntity
  8
0
  6
Continuous
 62
     7
370
    25
100
AcDbLine
 10
238.3164194867
 20
192.8620776399
 30
0.0
 11
236.8164164469
 21
192.8620776399
 31
0.0
  0
LINE
  5
150
330
1F
100
AcDbEntity
  8
0
  6
Continuous
 62
     7
370
    25
100
AcDbLine
 10
238.3164194867
 20
432.8620871766
 30
0.0
 11
238.3164194867
 21
192.8620776399
 31
0.0
  0
LINE
  5
151
330
1F
100
AcDbEntity
  8
0
  6
Continuous
 62
     7
370
    25
100
AcDbLine
 10
238.3164194867
 20
432.8620871766
 30
0.0
 11
240.4122827098
 21
432.8620871766
 31
0.0
  0
SPLINE
  5
152
330
1F
100
AcDbEntity
  8
0
  6
Continuous
 62
     7
370
    25
100
AcDbSpline
210
0.0
220
0.0
230
1.0
 70
     8
 71
     3
 72
    24
 73
    20
 74
     0
 42
0.000000001
 43
0.00000001
 40
0.0
 40
0.0
 40
0.0
 40
0.0
 40
0.0568129280669762
 40
0.1174893982931859
 40
0.1820314166162422
 40
0.2498913224937277
 40
0.2891073145087673
 40
0.3310655080610424
 40
0.3828317179145271
 40
0.4444061092373808
 40
0.5127417351951081
 40
0.5709741605181907
 40
0.6381464709218789
 40
0.6973550082253396
 40
0.7486003526712313
 40
0.815834651451077
 40
0.8803956334322868
 40
0.9417832026766565
 40
1.0
 40
1.0
 40
1.0
 40
1.0
 10
241.2153994187982
 20
343.8825449212322
 30
0.0
 10
241.202257143005
 20
345.5693693396727
 30
0.0
 10
241.1750788558144
 20
349.0577300472073
 30
0.0
 10
241.1277511896895
 20
354.4596722563998
 30
0.0
 10
241.0743736597404
 20
360.1874171781294
 30
0.0
 10
241.024472098516
 20
365.2768080087114
 30
0.0
 10
240.9791803700394
 20
369.6949690463205
 30
0.0
 10
240.938279344583
 20
373.6355097359357
 30
0.0
 10
240.8904325615971
 20
378.238470682382
 30
0.0
 10
240.8346724069855
 20
383.6230096627247
 30
0.0
 10
240.7771337416592
 20
389.1988600985783
 30
0.0
 10
240.7192027713073
 20
394.9410595120181
 30
0.0
 10
240.6657356509846
 20
400.4135231238426
 30
0.0
 10
240.6162451264989
 20
405.6798301018599
 30
0.0
 10
240.5691115460324
 20
410.9492546720962
 30
0.0
 10
240.5239447664291
 20
416.3793306636253
 30
0.0
 10
240.4804931484795
 20
422.1125427665767
 30
0.0
 10
240.4429154689481
 20
427.5801633377472
 30
0.0
 10
240.4223115561547
 20
431.132840314915
 30
0.0
 10
240.4122827098043
 20
432.8620871766338
 30
0.0
  0
SPLINE
  5
153
330
1F
100
AcDbEntity
  8
0
  6
Continuous
 62
     7
370
    25
100
AcDbSpline
210
0.0
220
0.0
230
1.0
 70
     8
 71
     3
 72
    18
 73
    14
 74
     0
 42
0.000000001
 43
0.00000001
 40
0.0
 40
0.0
 40
0.0
 40
0.0
 40
0.0897544566824189
 40
0.1869555145694419
 40
0.2834431397323884
 40
0.3810103241279723
 40
0.4702422779014636
 40
0.5512778777880606
 40
0.6362990316707046
 40
0.733331792358345
 40
0.8240315040229662
 40
0.9121086473098693
 40
1.0
 40
1.0
 40
1.0
 40
1.0
 10
241.2157160684735
 20
281.8378051980266
 30
0.0
 10
241.2335730243179
 20
283.6963898222236
 30
0.0
 10
241.270768462761
 20
287.5677590848894
 30
0.0
 10
241.3576121428
 20
293.4168977889402
 30
0.0
 10
241.4564004649368
 20
299.4192744184162
 30
0.0
 10
241.5290382509093
 20
305.2782393123879
 30
0.0
 10
241.5653399103329
 20
310.8350253477835
 30
0.0
 10
241.5590510277536
 20
316.1376688640515
 30
0.0
 10
241.5135197789826
 20
321.5915081388978
 30
0.0
 10
241.4397252851839
 20
327.2291307612696
 30
0.0
 10
241.3525646638399
 20
332.9183789605842
 30
0.0
 10
241.2653666822256
 20
338.4168474948013
 30
0.0
 10
241.2324111369042
 20
342.0620975650443
 30
0.0
 10
241.2159507617623
 20
343.8827982409725
 30
0.0
  0
SPLINE
  5
154
330
1F
100
AcDbEntity
  8
0
  6
Continuous
 62
     7
370
    25
100
AcDbSpline
210
0.0
220
0.0
230
1.0
 70
     8
 71
     3
 72
    23
 73
    19
 74
     0
 42
0.000000001
 43
0.00000001
 40
0.0
 40
0.0
 40
0.0
 40
0.0
 40
0.0730920553563878
 40
0.1511193542437708
 40
0.234087417719276
 40
0.3020181564195058
 40
0.3476932441154122
 40
0.3982621969824743
 40
0.4537251611385957
 40
0.5164439454804308
 40
0.5835918721298141
 40
0.6409139596195036
 40
0.6884098906537005
 40
0.7260803538312366
 40
0.7584624055239964
 40
0.8121474217400023
 40
0.9106662088343225
 40
1.0
 40
1.0
 40
1.0
 40
1.0
 10
240.4122827098043
 20
192.8620776398906
 30
0.0
 10
240.4250195440997
 20
195.0330202449856
 30
0.0
 10
240.4513532155837
 20
199.5214895181865
 30
0.0
 10
240.5012948536622
 20
206.4698451209903
 30
0.0
 10
240.5558169833922
 20
213.2619372639002
 30
0.0
 10
240.6074649973565
 20
219.0914704949086
 30
0.0
 10
240.6529114405558
 20
223.9589182322146
 30
0.0
 10
240.6962719554017
 20
228.456032410534
 30
0.0
 10
240.7458776201595
 20
233.4577506250135
 30
0.0
 10
240.8020237876626
 20
238.9501166437055
 30
0.0
 10
240.8593057049665
 20
244.4976529690964
 30
0.0
 10
240.9121952622015
 20
249.5942676430673
 30
0.0
 10
240.9560611617555
 20
253.8174957487257
 30
0.0
 10
240.9921435279988
 20
257.3017776851498
 30
0.0
 10
241.0293301755511
 20
260.9701742281512
 30
0.0
 10
241.08289271911
 20
266.4439405175523
 30
0.0
 10
241.1498340468016
 20
273.6090392634781
 30
0.0
 10
241.194091770666
 20
279.1859357301071
 30
0.0
 10
241.2151386484773
 20
281.8380436166057
 30
0.0
  0
LINE
  5
155
330
1F
100
AcDbEntity
  8
0
  6
Continuous
 62
     7
370
    25
100
AcDbLine
 10
238.3164194867
 20
192.8620776399
 30
0.0
 11
240.4102412507
 21
192.8620776399
 31
0.0
  0
LINE
  5
156
330
1F
100
AcDbEntity
  8
0
  6
Continuous
 62
     7
370
    25
100
AcDbLine
 10
358.3164168045
 20
142.8620955213
 30
0.0
 11
358.3164168045
 21
144.8554238542
 31
0.0
  0
SPLINE
  5
157
330
1F
100
AcDbEntity
  8
0
  6
Continuous
 62
     7
370
    25
100
AcDbSpline
210
0.0
220
0.0
230
1.0
 70
     8
 71
     3
 72
    21
 73
    17
 74
     0
 42
0.000000001
 43
0.00000001
 40
0.0
 40
0.0
 40
0.0
 40
0.0
 40
0.067501078650757
 40
0.133552151349574
 40
0.1981500896429841
 40
0.2612922420407538
 40
0.3229767643898115
 40
0.3832012277636829
 40
0.4419633347166969
 40
0.4992616966244957
 40
0.5832874765304376
 40
0.6670894878826208
 40
0.7506649722925267
 40
0.8340106415462298
 40
0.9171232983465167
 40
1.0
 40
1.0
 40
1.0
 40
1.0
 10
406.2205506012112
 20
192.8620776398906
 30
0.0
 10
406.1740331101465
 20
191.166693061641
 30
0.0
 10
406.0819973807736
 20
187.8123428450824
 30
0.0
 10
405.2822656334
 20
182.8888363914451
 30
0.0
 10
404.0464527888727
 20
178.1767148584243
 30
0.0
 10
402.3726029788936
 20
173.7162368448253
 30
0.0
 10
400.3203020078615
 20
169.5401339941058
 30
0.0
 10
397.9345177162612
 20
165.6738908687477
 30
0.0
 10
395.2641171303064
 20
162.1357699058319
 30
0.0
 10
391.8800981032893
 20
158.4138855453394
 30
0.0
 10
387.6230393288936
 20
154.6676222660736
 30
0.0
 10
382.3601570085776
 20
151.1491434836671
 30
0.0
 10
376.6955134807722
 20
148.355771576978
 30
0.0
 10
370.7306422144693
 20
146.3503562997322
 30
0.0
 10
364.5705004690456
 20
145.0863184733194
 30
0.0
 10
360.3991348165998
 20
144.9323157552147
 30
0.0
 10
358.3164168045193
 20
144.855423854185
 30
0.0
  0
LINE
  5
158
330
1F
100
AcDbEntity
  8
0
  6
Continuous
 62
     7
370
    25
100
AcDbLine
 10
408.3164138243
 20
192.8620776399
 30
0.0
 11
406.2205506012
 21
192.8620776399
 31
0.0
  0
LINE
  5
159
330
1F
100
AcDbEntity
  8
0
  6
Continuous
 62
     7
370
    25
100
AcDbLine
 10
288.3164165065
 20
482.862091647
 30
0.0
 11
288.3164165065
 21
480.8687484129
 31
0.0
  0
SPLINE
  5
15A
330
1F
100
AcDbEntity
  8
0
  6
Continuous
 62
     7
370
    25
100
AcDbSpline
210
0.0
220
0.0
230
1.0
 70
     8
 71
     3
 72
    21
 73
    17
 74
     0
 42
0.000000001
 43
0.00000001
 40
0.0
 40
0.0
 40
0.0
 40
0.0
 40
0.0675014733388489
 40
0.1335523279244474
 40
0.1981502715085091
 40
0.2612925672117689
 40
0.3229769487186289
 40
0.3832012172686149
 40
0.4419635349824634
 40
0.4992618837556008
 40
0.5832854774646541
 40
0.6670864378769666
 40
0.7506615129148223
 40
0.8340074868528545
 40
0.9171214135274219
 40
1.0
 40
1.0
 40
1.0
 40
1.0
 10
240.4122827098043
 20
432.8620871766338
 30
0.0
 10
240.4588052404823
 20
434.557481504122
 30
0.0
 10
240.550850524321
 20
437.9118358313131
 30
0.0
 10
241.3505672220979
 20
442.8353500967328
 30
0.0
 10
242.5863966113556
 20
447.5474654296792
 30
0.0
 10
244.2602178319716
 20
452.007955420776
 30
0.0
 10
246.312545941483
 20
456.1840406152414
 30
0.0
 10
248.6983114460501
 20
460.0502908115134
 30
0.0
 10
251.3687102951924
 20
463.5884150905596
 30
0.0
 10
254.7527086101246
 20
467.3102519723038
 30
0.0
 10
259.0097041868497
 20
471.0564596844736
 30
0.0
 10
264.2724774190498
 20
474.5749378168031
 30
0.0
 10
269.9370912505822
 20
477.3683090521826
 30
0.0
 10
275.9019827406817
 20
479.3737549716677
 30
0.0
 10
282.0622053713122
 20
480.6378399238239
 30
0.0
 10
286.2336508532036
 20
480.7918517012888
 30
0.0
 10
288.3164165064961
 20
480.86874841292
 30
0.0
  0
LINE
  5
15B
330
1F
100
AcDbEntity
  8
0
  6
Continuous
 62
     7
370
    25
100
AcDbLine
 10
408.3164138243
 20
432.8620871766
 30
0.0
 11
406.2225920603
 21
432.8620871766
 31
0.0
  0
SPLINE
  5
15C
330
1F
100
AcDbEntity
  8
0
  6
Continuous
 62
     7
370
    25
100
AcDbSpline
210
0.0
220
0.0
230
1.0
 70
     8
 71
     3
 72
    21
 73
    17
 74
     0
 42
0.000000001
 43
0.00000001
 40
0.0
 40
0.0
 40
0.0
 40
0.0
 40
0.0828004438764071
 40
0.1658363787304163
 40
0.2491049849199565
 40
0.3117267019190954
 40
0.374476496776961
 40
0.4373528395663551
 40
0.5003542284947637
 40
0.577119873680613
 40
0.6564898640723359
 40
0.7384593587289711
 40
0.8016594518263083
 40
0.8663180426564472
 40
0.9324324125004142
 40
1.0
 40
1.0
 40
1.0
 40
1.0
 10
358.3164168045193
 20
480.86874841292
 30
0.0
 10
360.3972541047457
 20
480.7920006524009
 30
0.0
 10
364.5648467702125
 20
480.6382868546929
 30
0.0
 10
370.7193724248237
 20
479.3765262775614
 30
0.0
 10
376.1819562259903
 20
477.5420619410964
 30
0.0
 10
380.9278159093191
 20
475.3008022609988
 30
0.0
 10
384.9904795328349
 20
472.8691375934931
 30
0.0
 10
388.8006671277416
 20
470.0418099251552
 30
0.0
 10
392.5731418833749
 20
466.6149408525625
 30
0.0
 10
396.2241264604289
 20
462.4797089290224
 30
0.0
 10
399.6103196003792
 20
457.5339415064258
 30
0.0
 10
402.1866093060895
 20
452.5013291966057
 30
0.0
 10
404.0421220576375
 20
447.5614000920664
 30
0.0
 10
405.2804091430639
 20
442.8449922975391
 30
0.0
 10
406.0817027741932
 20
437.9168265516738
 30
0.0
 10
406.1739337867063
 20
434.5591670148854
 30
0.0
 10
406.2205506012112
 20
432.8620871766338
 30
0.0
  0
LINE
  5
15D
330
1F
100
AcDbEntity
  8
0
  6
Continuous
 62
     7
370
    25
100
AcDbLine
 10
358.3164168045
 20
482.862091647
 30
0.0
 11
358.3164168045
 21
480.8687484129
 31
0.0
  0
SPLINE
  5
15E
330
1F
100
AcDbEntity
  8
0
  6
Continuous
 62
     7
370
    25
100
AcDbSpline
210
0.0
220
0.0
230
1.0
 70
     8
 71
     3
 72
    24
 73
    20
 74
     0
 42
0.000000001
 43
0.00000001
 40
0.0
 40
0.0
 40
0.0
 40
0.0
 40
0.056832569884266
 40
0.1175217588005393
 40
0.1820695851287945
 40
0.2499275414036575
 40
0.2890990129130634
 40
0.3310433126225917
 40
0.3828143980963912
 40
0.4444126580439118
 40
0.5127771213090802
 40
0.570999921206607
 40
0.6381651591256992
 40
0.6973730090853232
 40
0.7486232305723097
 40
0.815850515757678
 40
0.8804052470942613
 40
0.9417873049985822
 40
1.0
 40
1.0
 40
1.0
 40
1.0
 10
405.4176909372479
 20
281.8380436166057
 30
0.0
 10
405.4308393312693
 20
280.1507079290985
 30
0.0
 10
405.4580283602705
 20
276.6615351169842
 30
0.0
 10
405.5053706239201
 20
271.258682765285
 30
0.0
 10
405.5587348172178
 20
265.5306784124363
 30
0.0
 10
405.6085976497582
 20
260.4427004337861
 30
0.0
 10
405.6538523097767
 20
256.0265020518671
 30
0.0
 10
405.6947441577061
 20
252.0877096570118
 30
0.0
 10
405.7425621901573
 20
247.484486279576
 30
0.0
 10
405.7983201477294
 20
242.0984525678843
 30
0.0
 10
405.8558386213914
 20
236.5215460274658
 30
0.0
 10
405.9137593035759
 20
230.7792096427211
 30
0.0
 10
405.9671942461453
 20
225.3074781747744
 30
0.0
 10
406.0166739326484
 20
220.0414629783399
 30
0.0
 10
406.0637656916886
 20
214.7723307473836
 30
0.0
 10
406.1089309493686
 20
209.3427216978882
 30
0.0
 10
406.1523504647744
 20
203.6102994370881
 30
0.0
 10
406.1899270102102
 20
198.1433739287208
 30
0.0
 10
406.2105246895649
 20
194.5911305771687
 30
0.0
 10
406.2205506012112
 20
192.8620776398906
 30
0.0
  0
SPLINE
  5
15F
330
1F
100
AcDbEntity
  8
0
  6
Continuous
 62
     7
370
    25
100
AcDbSpline
210
0.0
220
0.0
230
1.0
 70
     8
 71
     3
 72
    18
 73
    14
 74
     0
 42
0.000000001
 43
0.00000001
 40
0.0
 40
0.0
 40
0.0
 40
0.0
 40
0.0896963718822484
 40
0.1868271115914476
 40
0.2832699303117281
 40
0.380818813003425
 40
0.4700178506473135
 40
0.5510620361402102
 40
0.6361099301520378
 40
0.7331596161412901
 40
0.8239103072438952
 40
0.9120493871946351
 40
1.0
 40
1.0
 40
1.0
 40
1.0
 10
405.4168862745435
 20
343.8827982409725
 30
0.0
 10
405.3990456284301
 20
342.0254125604061
 30
0.0
 10
405.3618856373141
 20
338.1566941883065
 30
0.0
 10
405.2751372575436
 20
332.3110928234632
 30
0.0
 10
405.176438322657
 20
326.3114285559149
 30
0.0
 10
405.1038417942139
 20
320.4544505014443
 30
0.0
 10
405.0675126227984
 20
314.8985620729313
 30
0.0
 10
405.0737657228777
 20
309.5958651012984
 30
0.0
 10
405.1192793788987
 20
304.140932952067
 30
0.0
 10
405.1931225651742
 20
298.5013593723872
 30
0.0
 10
405.280356484775
 20
292.8094605654665
 30
0.0
 10
405.367646331106
 20
287.3074856341967
 30
0.0
 10
405.400643678034
 20
283.6597306241002
 30
0.0
 10
405.4171246931226
 20
281.8378051980266
 30
0.0
  0
SPLINE
  5
160
330
1F
100
AcDbEntity
  8
0
  6
Continuous
 62
     7
370
    25
100
AcDbSpline
210
0.0
220
0.0
230
1.0
 70
     8
 71
     3
 72
    23
 73
    19
 74
     0
 42
0.000000001
 43
0.00000001
 40
0.0
 40
0.0
 40
0.0
 40
0.0
 40
0.0730973890695511
 40
0.151131872198749
 40
0.2341086458795764
 40
0.3020361803188765
 40
0.3477113137980505
 40
0.3982839664942089
 40
0.4537546469640452
 40
0.5164721503463948
 40
0.5835857698701696
 40
0.6408923493833876
 40
0.6883915982494551
 40
0.7260836919940288
 40
0.7584999523031253
 40
0.8121858427552469
 40
0.9106933954212251
 40
1.0
 40
1.0
 40
1.0
 40
1.0
 10
406.2205506012112
 20
432.8620871766338
 30
0.0
 10
406.2078152033881
 20
430.690895955199
 30
0.0
 10
406.181484242177
 20
426.2018683938356
 30
0.0
 10
406.1315176942476
 20
419.2525987677183
 30
0.0
 10
406.0769814554388
 20
412.4598565033343
 30
0.0
 10
406.0252963087173
 20
406.6299263127571
 30
0.0
 10
405.9798375887863
 20
401.7622718782056
 30
0.0
 10
405.9364692045169
 20
397.2646393995175
 30
0.0
 10
405.8868135019827
 20
392.2624257986452
 30
0.0
 10
405.8306599055593
 20
386.7706705595149
 30
0.0
 10
405.7733719160663
 20
381.2244319294158
 30
0.0
 10
405.7204686582808
 20
376.1289929492407
 30
0.0
 10
405.6765824693313
 20
371.905318081215
 30
0.0
 10
405.6404796011306
 20
368.4191454482172
 30
0.0
 10
405.6032597837268
 20
364.748917762713
 30
0.0
 10
405.5496782138197
 20
359.2742289433243
 30
0.0
 10
405.4827114600479
 20
352.1099493191879
 30
0.0
 10
405.4384731588605
 20
346.5339577798105
 30
0.0
 10
405.4174376175076
 20
343.8825449212322
 30
0.0
  0
SPLINE
  5
161
330
1F
100
AcDbEntity
  8
0
  6
Continuous
 62
     7
370
    25
100
AcDbSpline
210
0.0
220
0.0
230
1.0
 70
     8
 71
     3
 72
    21
 73
    17
 74
     0
 42
0.000000001
 43
0.00000001
 40
0.0
 40
0.0
 40
0.0
 40
0.0
 40
0.0827986814302577
 40
0.1658336665197682
 40
0.2491019781836245
 40
0.3117239830699959
 40
0.3744742507553286
 40
0.4373514791514448
 40
0.5003543460524303
 40
0.577119926205947
 40
0.6564901797502914
 40
0.7384594723066998
 40
0.8016597999082928
 40
0.8663182271631247
 40
0.9324325893809786
 40
1.0
 40
1.0
 40
1.0
 40
1.0
 10
288.3164165064961
 20
144.855423854185
 30
0.0
 10
286.2356244469844
 20
144.9321728304544
 30
0.0
 10
282.0681018423558
 20
145.08588982107
 30
0.0
 10
275.9136463881008
 20
146.3476038951353
 30
0.0
 10
270.4510817111328
 20
148.1820459746647
 30
0.0
 10
265.7052003682563
 20
150.4232830526128
 30
0.0
 10
261.6424850435295
 20
152.854939882712
 30
0.0
 10
257.8322311243617
 20
155.6822987733789
 30
0.0
 10
254.0597334069847
 20
159.1092256702293
 30
0.0
 10
250.4086921820557
 20
163.2444618062781
 30
0.0
 10
247.0225255015172
 20
168.1902473758681
 30
0.0
 10
244.4462253470358
 20
173.2228597554738
 30
0.0
 10
242.5907176622693
 20
178.1627858515011
 30
0.0
 10
241.3524127413742
 20
182.8791899087108
 30
0.0
 10
240.5511452274592
 20
187.8073498464894
 30
0.0
 10
240.45890441822
 20
191.1650030852554
 30
0.0
 10
240.4122827098043
 20
192.8620776398906
 30
0.0
  0
LINE
  5
162
330
1F
100
AcDbEntity
  8
0
  6
Continuous
 62
     7
370
    25
100
AcDbLine
 10
288.3164165065
 20
142.8620955213
 30
0.0
 11
288.3164165065
 21
144.8554238542
 31
0.0
  0
SPLINE
  5
163
330
1F
100
AcDbEntity
  8
0
  6
Continuous
 62
     7
370
    25
100
AcDbSpline
210
0.0
220
0.0
230
1.0
 70
     8
 71
     3
 72
     9
 73
     5
 74
     0
 42
0.000000001
 43
0.00000001
 40
0.0
 40
0.0
 40
0.0
 40
0.0
 40
0.4999574803067284
 40
1.0
 40
1.0
 40
1.0
 40
1.0
 10
288.3164165064961
 20
480.86874841292
 30
0.0
 10
299.9820910324531
 20
480.8562433223181
 30
0.0
 10
323.315424336717
 20
480.8312310140829
 30
0.0
 10
346.6487578977946
 20
480.8562419043374
 30
0.0
 10
358.3164168045193
 20
480.86874841292
 30
0.0
  0
SPLINE
  5
164
330
1F
100
AcDbEntity
  8
0
  6
Continuous
 62
     7
370
    25
100
AcDbSpline
210
0.0
220
0.0
230
1.0
 70
     8
 71
     3
 72
     9
 73
     5
 74
     0
 42
0.000000001
 43
0.00000001
 40
0.0
 40
0.0
 40
0.0
 40
0.0
 40
0.4999999467838007
 40
1.0
 40
1.0
 40
1.0
 40
1.0
 10
358.3164168045193
 20
144.855423854185
 30
0.0
 10
346.6497513299717
 20
144.8677620147781
 30
0.0
 10
323.3164178974536
 20
144.8924383385904
 30
0.0
 10
299.9830844646228
 20
144.867762016529
 30
0.0
 10
288.3164165064961
 20
144.855423854185
 30
0.0
  0
SPLINE
  5
165
330
1F
100
AcDbEntity
  8
0
  6
Continuous
 62
     7
370
    25
100
AcDbSpline
210
0.0
220
0.0
230
1.0
 70
     8
 71
     3
 72
     9
 73
     5
 74
     0
 42
0.000000001
 43
0.00000001
 40
0.0
 40
0.0
 40
0.0
 40
0.0
 40
0.4999631614759595
 40
1.0
 40
1.0
 40
1.0
 40
1.0
 10
358.5571152612836
 20
462.0053610070476
 30
0.0
 10
346.8110812512507
 20
462.0076221471987
 30
0.0
 10
323.3172822774283
 20
462.0121447607139
 30
0.0
 10
299.823483110221
 20
462.0076223693351
 30
0.0
 10
288.0757180497319
 20
462.0053610070476
 30
0.0
  0
SPLINE
  5
166
330
1F
100
AcDbEntity
  8
0
  6
Continuous
 62
     7
370
    25
100
AcDbSpline
210
0.0
220
0.0
230
1.0
 70
     8
 71
     3
 72
    15
 73
    11
 74
     0
 42
0.000000001
 43
0.00000001
 40
0.0
 40
0.0
 40
0.0
 40
0.0
 40
0.1250000701187447
 40
0.2499999927136625
 40
0.3750001420489442
 40
0.5000001876151439
 40
0.6250000871683038
 40
0.7500002218794964
 40
0.8750002322520485
 40
0.9999999999999999
 40
0.9999999999999999
 40
0.9999999999999999
 40
0.9999999999999999
 10
288.0757180497319
 20
462.0053610070476
 30
0.0
 10
288.0787189457956
 20
463.176765616953
 30
0.0
 10
288.0847207343813
 20
465.5195734542839
 30
0.0
 10
288.1029180104703
 20
468.8845756535178
 30
0.0
 10
288.1272076904847
 20
472.0069585422575
 30
0.0
 10
288.1574955178488
 20
474.7858484743523
 30
0.0
 10
288.1927012799389
 20
477.1398259276534
 30
0.0
 10
288.2317416923923
 20
478.980548186464
 30
0.0
 10
288.27341330795
 20
480.3071298156293
 30
0.0
 10
288.3020821162552
 20
480.6815423349454
 30
0.0
 10
288.3164165064961
 20
480.86874841292
 30
0.0
  0
SPLINE
  5
167
330
1F
100
AcDbEntity
  8
0
  6
Continuous
 62
     7
370
    25
100
AcDbSpline
210
0.0
220
0.0
230
1.0
 70
     8
 71
     3
 72
    15
 73
    11
 74
     0
 42
0.000000001
 43
0.00000001
 40
0.0
 40
0.0
 40
0.0
 40
0.0
 40
0.1250000699662946
 40
0.2499999910826766
 40
0.3750001402655081
 40
0.5000001879382128
 40
0.6250000847116234
 40
0.7500002221843963
 40
0.8750002324044983
 40
1.0
 40
1.0
 40
1.0
 40
1.0
 10
358.5571152612836
 20
462.0053610070476
 30
0.0
 10
358.5541136026214
 20
463.1767656135028
 30
0.0
 10
358.5481102888713
 20
465.5195734315063
 30
0.0
 10
358.5299244518635
 20
468.8845756713853
 30
0.0
 10
358.5056360059186
 20
472.0069585807676
 30
0.0
 10
358.4753318029606
 20
474.7858484016971
 30
0.0
 10
358.4401456088099
 20
477.1398259972041
 30
0.0
 10
358.4010879983052
 20
478.9805481528863
 30
0.0
 10
358.3594209082235
 20
480.3071298214465
 30
0.0
 10
358.3307514964795
 20
480.6815423368845
 30
0.0
 10
358.3164168045193
 20
480.86874841292
 30
0.0
  0
SPLINE
  5
168
330
1F
100
AcDbEntity
  8
0
  6
Continuous
 62
     7
370
    25
100
AcDbSpline
210
0.0
220
0.0
230
1.0
 70
     8
 71
     3
 72
    15
 73
    11
 74
     0
 42
0.000000001
 43
0.00000001
 40
0.0
 40
0.0
 40
0.0
 40
0.0
 40
0.1179242743491707
 40
0.2417112926624799
 40
0.3697398996918013
 40
0.5000001536623825
 40
0.6302599095568294
 40
0.7582885524219833
 40
0.8820756111370223
 40
1.0
 40
1.0
 40
1.0
 40
1.0
 10
240.4122827098043
 20
192.8620776398906
 30
0.0
 10
240.5926599867375
 20
192.8093247873929
 30
0.0
 10
240.9623822090287
 20
192.7011964123044
 30
0.0
 10
242.2788555851977
 20
192.5406361753715
 30
0.0
 10
244.1881287177789
 20
192.3851945188106
 30
0.0
 10
246.6960045146657
 20
192.2435558639802
 30
0.0
 10
249.6715054026951
 20
192.1231016662101
 30
0.0
 10
252.9565368615324
 20
192.0303297706799
 30
0.0
 10
256.3664551230417
 20
191.9649950684082
 30
0.0
 10
258.675182298955
 20
191.9451070476664
 30
0.0
 10
259.8015469953687
 20
191.9354042275676
 30
0.0
  0
SPLINE
  5
169
330
1F
100
AcDbEntity
  8
0
  6
Continuous
 62
     7
370
    25
100
AcDbSpline
210
0.0
220
0.0
230
1.0
 70
     8
 71
     3
 72
    15
 73
    11
 74
     0
 42
0.000000001
 43
0.00000001
 40
0.0
 40
0.0
 40
0.0
 40
0.0
 40
0.1234195709005501
 40
0.2492402252224842
 40
0.3737187506203678
 40
0.4988932849217098
 40
0.6240564960181301
 40
0.7492861430254674
 40
0.8746307784024652
 40
0.9999999999999999
 40
0.9999999999999999
 40
0.9999999999999999
 40
0.9999999999999999
 10
259.8015469953687
 20
191.9354042275676
 30
0.0
 10
259.8990096633335
 20
190.1105731013851
 30
0.0
 10
260.0958311004613
 20
186.4254094149128
 30
0.0
 10
261.7742642838323
 20
181.1125260825485
 30
0.0
 10
264.3782958429578
 20
176.1867038762235
 30
0.0
 10
267.9242678496778
 20
171.8868833768566
 30
0.0
 10
272.2340726869696
 20
168.3350776867361
 30
0.0
 10
277.1643365862461
 20
165.7242532597976
 30
0.0
 10
282.510714494953
 20
164.0327677031118
 30
0.0
 10
286.2205955951426
 20
163.8234652824263
 30
0.0
 10
288.0757180497319
 20
163.7188038094768
 30
0.0
  0
SPLINE
  5
16A
330
1F
100
AcDbEntity
  8
0
  6
Continuous
 62
     7
370
    25
100
AcDbSpline
210
0.0
220
0.0
230
1.0
 70
     8
 71
     3
 72
    15
 73
    11
 74
     0
 42
0.000000001
 43
0.00000001
 40
0.0
 40
0.0
 40
0.0
 40
0.0
 40
0.118159825994071
 40
0.241993762784109
 40
0.3699220559011234
 40
0.500000295427683
 40
0.6300785772420802
 40
0.7580061893136764
 40
0.8818402820970593
 40
1.0
 40
1.0
 40
1.0
 40
1.0
 10
288.3164165064961
 20
144.855423854185
 30
0.0
 10
288.3028682903609
 20
145.0294300758008
 30
0.0
 10
288.2751212640429
 20
145.3857984096437
 30
0.0
 10
288.2339113449426
 20
146.6587727002528
 30
0.0
 10
288.1939629623581
 20
148.5051133332785
 30
0.0
 10
288.1574295476918
 20
150.9324081872595
 30
0.0
 10
288.1261807209225
 20
153.8176519070654
 30
0.0
 10
288.1017793740646
 20
157.0134079451168
 30
0.0
 10
288.084254488516
 20
160.3438265201047
 30
0.0
 10
288.0785186975627
 20
162.6115361228235
 30
0.0
 10
288.0757180497319
 20
163.7188038094767
 30
0.0
  0
SPLINE
  5
16B
330
1F
100
AcDbEntity
  8
0
  6
Continuous
 62
     7
370
    25
100
AcDbSpline
210
0.0
220
0.0
230
1.0
 70
     8
 71
     3
 72
    15
 73
    11
 74
     0
 42
0.000000001
 43
0.00000001
 40
0.0
 40
0.0
 40
0.0
 40
0.0
 40
0.1234198687995958
 40
0.2492402130384607
 40
0.3737189981370197
 40
0.4988931290180571
 40
0.624056303108292
 40
0.7492862989565259
 40
0.8746308483725547
 40
0.9999999999999999
 40
0.9999999999999999
 40
0.9999999999999999
 40
0.9999999999999999
 10
386.8312937662274
 20
433.7887605889568
 30
0.0
 10
386.7338330482808
 20
435.6135972507545
 30
0.0
 10
386.5370160338067
 20
439.2987630410812
 30
0.0
 10
384.8585593284695
 20
444.6116439242541
 30
0.0
 10
382.2545469255388
 20
449.5374696354833
 30
0.0
 10
378.7085679422157
 20
453.8372854825558
 30
0.0
 10
374.39876092732
 20
457.3890851402281
 30
0.0
 10
369.4685060270734
 20
459.9999380941157
 30
0.0
 10
364.1221176291568
 20
461.6914124138898
 30
0.0
 10
360.4122373991585
 20
461.9007046301368
 30
0.0
 10
358.5571152612836
 20
462.0053610070476
 30
0.0
  0
SPLINE
  5
16C
330
1F
100
AcDbEntity
  8
0
  6
Continuous
 62
     7
370
    25
100
AcDbSpline
210
0.0
220
0.0
230
1.0
 70
     8
 71
     3
 72
    15
 73
    11
 74
     0
 42
0.000000001
 43
0.00000001
 40
0.0
 40
0.0
 40
0.0
 40
0.0
 40
0.117924146591239
 40
0.2417114774153042
 40
0.3697399241943384
 40
0.4999996702586074
 40
0.6302599676143261
 40
0.7582887337625043
 40
0.882075704232764
 40
1.0
 40
1.0
 40
1.0
 40
1.0
 10
386.8312937662274
 20
433.7887605889568
 30
0.0
 10
387.9576558317465
 20
433.7790633639664
 30
0.0
 10
390.2663826432695
 20
433.7591867683158
 30
0.0
 10
393.6763007044546
 20
433.6938573191248
 30
0.0
 10
396.9613281361252
 20
433.6010455162097
 30
0.0
 10
399.9368305235211
 20
433.4806570060917
 30
0.0
 10
402.4447023045407
 20
433.3389749320036
 30
0.0
 10
404.3539888040631
 20
433.1835514994906
 30
0.0
 10
405.6704486511007
 20
433.022963048845
 30
0.0
 10
406.0401724853616
 20
432.9148382834228
 30
0.0
 10
406.2205506012112
 20
432.8620871766338
 30
0.0
  0
SPLINE
  5
16D
330
1F
100
AcDbEntity
  8
0
  6
Continuous
 62
     7
370
    25
100
AcDbSpline
210
0.0
220
0.0
230
1.0
 70
     8
 71
     3
 72
    15
 73
    11
 74
     0
 42
0.000000001
 43
0.00000001
 40
0.0
 40
0.0
 40
0.0
 40
0.0
 40
0.125647555039262
 40
0.2512918620621478
 40
0.3764394353960862
 40
0.5015636619656426
 40
0.6267410640918137
 40
0.751264012721007
 40
0.8768180528716477
 40
0.9999999999999999
 40
0.9999999999999999
 40
0.9999999999999999
 40
0.9999999999999999
 10
288.0757180497319
 20
462.0053610070476
 30
0.0
 10
286.2164692967317
 20
461.9001992135919
 30
0.0
 10
282.4980198527123
 20
461.6898783451358
 30
0.0
 10
277.1454642726409
 20
459.9924692848086
 30
0.0
 10
272.215166033505
 20
457.3762172545659
 30
0.0
 10
267.9093882677787
 20
453.8223210868652
 30
0.0
 10
264.3664412653214
 20
449.5198569603173
 30
0.0
 10
261.7676908787981
 20
444.5948681414407
 30
0.0
 10
260.0945528265358
 20
439.2877644442809
 30
0.0
 10
259.898592675246
 20
435.6100709897164
 30
0.0
 10
259.8015469953687
 20
433.7887605889568
 30
0.0
  0
SPLINE
  5
16E
330
1F
100
AcDbEntity
  8
0
  6
Continuous
 62
     7
370
    25
100
AcDbSpline
210
0.0
220
0.0
230
1.0
 70
     8
 71
     3
 72
    15
 73
    11
 74
     0
 42
0.000000001
 43
0.00000001
 40
0.0
 40
0.0
 40
0.0
 40
0.0
 40
0.1179242722692753
 40
0.2417113119037421
 40
0.3697399166749524
 40
0.5000001880746004
 40
0.6302599081829087
 40
0.7582885619960671
 40
0.8820756185278055
 40
1.0
 40
1.0
 40
1.0
 40
1.0
 10
240.4122827098043
 20
432.8620871766338
 30
0.0
 10
240.5926600209549
 20
432.914838300467
 30
0.0
 10
240.9623823493346
 20
433.0229631427981
 30
0.0
 10
242.2788553297848
 20
433.1835512981482
 30
0.0
 10
244.1881290694907
 20
433.3389750628366
 30
0.0
 10
246.6960036826483
 20
433.4806569662707
 30
0.0
 10
249.6715062196893
 20
433.6010456648912
 30
0.0
 10
252.9565365591349
 20
433.6938571055709
 30
0.0
 10
256.3664550757476
 20
433.7591869117908
 30
0.0
 10
258.6751823009077
 20
433.7790633969676
 30
0.0
 10
259.8015469953687
 20
433.7887605889568
 30
0.0
  0
SPLINE
  5
16F
330
1F
100
AcDbEntity
  8
0
  6
Continuous
 62
     7
370
    25
100
AcDbSpline
210
0.0
220
0.0
230
1.0
 70
     8
 71
     3
 72
    15
 73
    11
 74
     0
 42
0.000000001
 43
0.00000001
 40
0.0
 40
0.0
 40
0.0
 40
0.0
 40
0.1181598258506504
 40
0.2419937656090476
 40
0.3699220556442302
 40
0.5000002950129028
 40
0.6300785766694128
 40
0.7580061903823082
 40
0.8818402830153832
 40
1.0
 40
1.0
 40
1.0
 40
1.0
 10
358.3164168045193
 20
144.855423854185
 30
0.0
 10
358.3299640325812
 20
145.0294300808843
 30
0.0
 10
358.3577090356622
 20
145.3857984297304
 30
0.0
 10
358.3989348671714
 20
146.6587726485214
 30
0.0
 10
358.4388666059401
 20
148.5051133701137
 30
0.0
 10
358.4754054314103
 20
150.9324081780449
 30
0.0
 10
358.5066497160337
 20
153.8176519384449
 30
0.0
 10
358.5310634750612
 20
157.0134079150031
 30
0.0
 10
358.5485877478924
 20
160.3438265106082
 30
0.0
 10
358.5543175417155
 20
162.6115361222047
 30
0.0
 10
358.5571152612836
 20
163.7188038094768
 30
0.0
  0
SPLINE
  5
170
330
1F
100
AcDbEntity
  8
0
  6
Continuous
 62
     7
370
    25
100
AcDbSpline
210
0.0
220
0.0
230
1.0
 70
     8
 71
     3
 72
    15
 73
    11
 74
     0
 42
0.000000001
 43
0.00000001
 40
0.0
 40
0.0
 40
0.0
 40
0.0
 40
0.1256477418145761
 40
0.2512921663264741
 40
0.3764394521997572
 40
0.5015641253113015
 40
0.6267412869572374
 40
0.7512639582620065
 40
0.8768180178726142
 40
0.9999999999999999
 40
0.9999999999999999
 40
0.9999999999999999
 40
0.9999999999999999
 10
358.5571152612836
 20
163.7188038094768
 30
0.0
 10
360.4163672466108
 20
163.8239634881539
 30
0.0
 10
364.1348221300192
 20
164.0342800691234
 30
0.0
 10
369.4873662762912
 20
165.7317179796893
 30
0.0
 10
374.4176842387361
 20
168.3479421211723
 30
0.0
 10
378.7234299034373
 20
171.9018759638097
 30
0.0
 10
382.2663933721634
 20
176.2043193793688
 30
0.0
 10
384.8651455962984
 20
181.1293007129843
 30
0.0
 10
386.5382782020544
 20
186.436400824096
 30
0.0
 10
386.7342448584765
 20
190.1140938970685
 30
0.0
 10
386.8312937662274
 20
191.9354042275676
 30
0.0
  0
SPLINE
  5
171
330
1F
100
AcDbEntity
  8
0
  6
Continuous
 62
     7
370
    25
100
AcDbSpline
210
0.0
220
0.0
230
1.0
 70
     8
 71
     3
 72
    15
 73
    11
 74
     0
 42
0.000000001
 43
0.00000001
 40
0.0
 40
0.0
 40
0.0
 40
0.0
 40
0.1179241539820347
 40
0.2417114869894095
 40
0.3697399228204132
 40
0.4999997046708324
 40
0.6302599845974852
 40
0.7582887530037816
 40
0.8820757021528641
 40
0.9999999999999999
 40
0.9999999999999999
 40
0.9999999999999999
 40
0.9999999999999999
 10
386.8312937662274
 20
191.9354042275676
 30
0.0
 10
387.9576558336992
 20
191.9451070806662
 30
0.0
 10
390.2663825959751
 20
191.9649952119039
 30
0.0
 10
393.6763004020563
 20
192.0303295571494
 30
0.0
 10
396.9613289531191
 20
192.1231018149099
 30
0.0
 10
399.9368296915039
 20
192.2435558241642
 30
0.0
 10
402.444702656253
 20
192.3851946496294
 30
0.0
 10
404.3539885486501
 20
192.5406359740392
 30
0.0
 10
405.6704487914063
 20
192.7011965062547
 30
0.0
 10
406.0401725195788
 20
192.8093248044356
 30
0.0
 10
406.2205506012112
 20
192.8620776398906
 30
0.0
  0
SPLINE
  5
172
330
1F
100
AcDbEntity
  8
0
  6
Continuous
 62
     7
370
    25
100
AcDbSpline
210
0.0
220
0.0
230
1.0
 70
     8
 71
     3
 72
    10
 73
     6
 74
     0
 42
0.000000001
 43
0.00000001
 40
0.0
 40
0.0
 40
0.0
 40
0.0
 40
0.33355610453087
 40
0.6664440011731936
 40
1.0
 40
1.0
 40
1.0
 40
1.0
 10
288.0757180497319
 20
163.7188038094768
 30
0.0
 10
295.9120455383907
 20
163.7191495857462
 30
0.0
 10
311.5690021196243
 20
163.7198404455968
 30
0.0
 10
335.0638361586035
 20
163.7198404457243
 30
0.0
 10
350.7207902561408
 20
163.7191495857524
 30
0.0
 10
358.5571152612836
 20
163.7188038094768
 30
0.0
  0
SPLINE
  5
173
330
1F
100
AcDbEntity
  8
0
  6
Continuous
 62
     7
370
    25
100
AcDbSpline
210
0.0
220
0.0
230
1.0
 70
     8
 71
     3
 72
    15
 73
    11
 74
     0
 42
0.000000001
 43
0.00000001
 40
0.0
 40
0.0
 40
0.0
 40
0.0
 40
0.1183408051359034
 40
0.2422101826211847
 40
0.3700609359814255
 40
0.499999003195979
 40
0.6299374290113189
 40
0.7577883487186731
 40
0.8816587228869671
 40
1.0
 40
1.0
 40
1.0
 40
1.0
 10
241.2157458707959
 20
281.8417689069041
 30
0.0
 10
241.3787484652424
 20
281.8209839716334
 30
0.0
 10
241.7123687082623
 20
281.778443083375
 30
0.0
 10
242.8106248467695
 20
281.715217072949
 30
0.0
 10
244.3707960750022
 20
281.6538443266564
 30
0.0
 10
246.3967223858008
 20
281.5975896031814
 30
0.0
 10
248.788294740358
 20
281.5492132236516
 30
0.0
 10
251.4269276985513
 20
281.511020392833
 30
0.0
 10
254.1720669995064
 20
281.4832348804865
 30
0.0
 10
256.0391389828808
 20
281.4736331346271
 30
0.0
 10
256.9513646409184
 20
281.4689418538341
 30
0.0
  0
SPLINE
  5
174
330
1F
100
AcDbEntity
  8
0
  6
Continuous
 62
     7
370
    25
100
AcDbSpline
210
0.0
220
0.0
230
1.0
 70
     8
 71
     3
 72
    15
 73
    11
 74
     0
 42
0.000000001
 43
0.00000001
 40
0.0
 40
0.0
 40
0.0
 40
0.0
 40
0.1170421194565771
 40
0.2385789661409381
 40
0.3660960426664211
 40
0.500541212858611
 40
0.6148608301986764
 40
0.7361189095295855
 40
0.8644743320848207
 40
1.0
 40
1.0
 40
1.0
 40
1.0
 10
256.9511783764035
 20
281.4688524468669
 30
0.0
 10
257.0745993385482
 20
277.9743416364664
 30
0.0
 10
257.3261809545112
 20
270.8511215496754
 30
0.0
 10
257.7779827742714
 20
259.9250071200095
 30
0.0
 10
258.277313167065
 20
248.4821419357963
 30
0.0
 10
258.7623654940165
 20
237.2558777815678
 30
0.0
 10
259.171682223489
 20
226.2147832950207
 30
0.0
 10
259.5008090737748
 20
215.3540155500291
 30
0.0
 10
259.7594236708252
 20
203.858418347569
 30
0.0
 10
259.7872538178655
 20
195.981090531692
 30
0.0
 10
259.8015469953687
 20
191.9354042275676
 30
0.0
  0
SPLINE
  5
175
330
1F
100
AcDbEntity
  8
0
  6
Continuous
 62
     7
370
    25
100
AcDbSpline
210
0.0
220
0.0
230
1.0
 70
     8
 71
     3
 72
    15
 73
    11
 74
     0
 42
0.000000001
 43
0.00000001
 40
0.0
 40
0.0
 40
0.0
 40
0.0
 40
0.1170372809456727
 40
0.2385661871642922
 40
0.3660721317668518
 40
0.5005029281132625
 40
0.614832776810321
 40
0.7361005976999687
 40
0.8644654290919253
 40
0.9999999999999999
 40
0.9999999999999999
 40
0.9999999999999999
 40
0.9999999999999999
 10
389.6833760187299
 20
344.2516764863262
 30
0.0
 10
389.5599778816922
 20
347.746187821985
 30
0.0
 10
389.3084458671207
 20
354.869321908956
 30
0.0
 10
388.8564805086273
 20
365.7951660426683
 30
0.0
 10
388.3569097984799
 20
377.2374945210144
 30
0.0
 10
387.8715250293071
 20
388.4637519038125
 30
0.0
 10
387.461845291395
 20
399.5054554087796
 30
0.0
 10
387.1323828752077
 20
410.3675396673119
 30
0.0
 10
386.8734683108382
 20
421.8644428666661
 30
0.0
 10
386.8456042885928
 20
429.742641845271
 30
0.0
 10
386.8312937662274
 20
433.7887605889568
 30
0.0
  0
SPLINE
  5
176
330
1F
100
AcDbEntity
  8
0
  6
Continuous
 62
     7
370
    25
100
AcDbSpline
210
0.0
220
0.0
230
1.0
 70
     8
 71
     3
 72
    15
 73
    11
 74
     0
 42
0.000000001
 43
0.00000001
 40
0.0
 40
0.0
 40
0.0
 40
0.0
 40
0.1183427140545523
 40
0.2422124712880022
 40
0.3700609680116139
 40
0.4999964478586673
 40
0.6299324931731602
 40
0.7577821909588708
 40
0.8816539808736491
 40
1.0
 40
1.0
 40
1.0
 40
1.0
 10
389.6831972047955
 20
344.251587079359
 30
0.0
 10
390.5953435969446
 20
344.2426730704188
 30
0.0
 10
392.4622369970486
 20
344.2244287352963
 30
0.0
 10
395.2071278600695
 20
344.1874587650206
 30
0.0
 10
397.8455138192419
 20
344.1435371536731
 30
0.0
 10
400.2368480955963
 20
344.0935405518667
 30
0.0
 10
402.2625774751805
 20
344.0399259923614
 30
0.0
 10
403.8225872712497
 20
343.9853868507199
 30
0.0
 10
404.9207543805944
 20
343.9322103305648
 30
0.0
 10
405.2543437502147
 20
343.8988463442358
 30
0.0
 10
405.4173333093793
 20
343.8825449212322
 30
0.0
  0
SPLINE
  5
177
330
1F
100
AcDbEntity
  8
0
  6
Continuous
 62
     7
370
    25
100
AcDbSpline
210
0.0
220
0.0
230
1.0
 70
     8
 71
     3
 72
    16
 73
    12
 74
     0
 42
0.000000001
 43
0.00000001
 40
0.0
 40
0.0
 40
0.0
 40
0.0
 40
0.101868777014526
 40
0.1997354420040572
 40
0.293620652724195
 40
0.3835646484052944
 40
0.4696374137799462
 40
0.5648972982183905
 40
0.7179466103762666
 40
0.8622591666977861
 40
0.9999999999999999
 40
0.9999999999999999
 40
0.9999999999999999
 40
0.9999999999999999
 10
386.8312937662274
 20
191.9354042275676
 30
0.0
 10
386.8378559671734
 20
194.9763469770097
 30
0.0
 10
386.8507225603028
 20
200.9387631556414
 30
0.0
 10
387.0035236417339
 20
209.7032409167406
 30
0.0
 10
387.2124578394526
 20
218.1106844185934
 30
0.0
 10
387.4653481024001
 20
226.1651855092993
 30
0.0
 10
387.757249977804
 20
234.2599546741124
 30
0.0
 10
388.1667579007067
 20
244.236620762289
 30
0.0
 10
388.6844141569969
 20
255.9507399985516
 30
0.0
 10
389.235047545959
 20
268.9353090583772
 30
0.0
 10
389.5351112901932
 20
277.3564073099919
 30
0.0
 10
389.6816474840314
 20
281.4688524468669
 30
0.0
  0
SPLINE
  5
178
330
1F
100
AcDbEntity
  8
0
  6
Continuous
 62
     7
370
    25
100
AcDbSpline
210
0.0
220
0.0
230
1.0
 70
     8
 71
     3
 72
    15
 73
    11
 74
     0
 42
0.000000001
 43
0.00000001
 40
0.0
 40
0.0
 40
0.0
 40
0.0
 40
0.1183431184404881
 40
0.2422145087657399
 40
0.3700656664489937
 40
0.5000048632327325
 40
0.6299425685058077
 40
0.7577919776092749
 40
0.8816605242689353
 40
1.0
 40
1.0
 40
1.0
 40
1.0
 10
389.6814835712582
 20
281.4656039937267
 30
0.0
 10
390.5937268913424
 20
281.4702745597078
 30
0.0
 10
392.4608280000573
 20
281.4798338721521
 30
0.0
 10
395.2059978597097
 20
281.5075706140028
 30
0.0
 10
397.844648086919
 20
281.5456636868578
 30
0.0
 10
400.2362184922669
 20
281.5939542956104
 30
0.0
 10
402.2621210520358
 20
281.6501186735936
 30
0.0
 10
403.8222670571739
 20
281.7114063229353
 30
0.0
 10
404.920511869058
 20
281.7745326751623
 30
0.0
 10
405.2541256387753
 20
281.8170377895078
 30
0.0
 10
405.4171246931226
 20
281.8378051980266
 30
0.0
  0
SPLINE
  5
179
330
1F
100
AcDbEntity
  8
0
  6
Continuous
 62
     7
370
    25
100
AcDbSpline
210
0.0
220
0.0
230
1.0
 70
     8
 71
     3
 72
    16
 73
    12
 74
     0
 42
0.000000001
 43
0.00000001
 40
0.0
 40
0.0
 40
0.0
 40
0.0
 40
0.1018754007577858
 40
0.1997488794121934
 40
0.2936412566918496
 40
0.3835926082377284
 40
0.469673063946123
 40
0.5649283011019186
 40
0.7179626448412109
 40
0.8622651874412801
 40
0.9999999999999999
 40
0.9999999999999999
 40
0.9999999999999999
 40
0.9999999999999999
 10
259.8015469953687
 20
433.7887605889568
 30
0.0
 10
259.7949735292169
 20
430.7474948053015
 30
0.0
 10
259.7820848192055
 20
424.7844318110846
 30
0.0
 10
259.6291043194772
 20
416.0189807986487
 30
0.0
 10
259.4199480088077
 20
407.6105582894793
 30
0.0
 10
259.1667903853944
 20
399.5550698401872
 30
0.0
 10
258.8746188449651
 20
391.4596644058074
 30
0.0
 10
258.4648186505329
 20
381.4829552737083
 30
0.0
 10
257.9468611659012
 20
369.7692498811628
 30
0.0
 10
257.3959850121218
 20
356.7850810734602
 30
0.0
 10
257.0959760895427
 20
348.3641123843946
 30
0.0
 10
256.9494647428662
 20
344.2516764863262
 30
0.0
  0
SPLINE
  5
17A
330
1F
100
AcDbEntity
  8
0
  6
Continuous
 62
     7
370
    25
100
AcDbSpline
210
0.0
220
0.0
230
1.0
 70
     8
 71
     3
 72
    15
 73
    11
 74
     0
 42
0.000000001
 43
0.00000001
 40
0.0
 40
0.0
 40
0.0
 40
0.0
 40
0.1183460601880828
 40
0.2422176420449021
 40
0.3700676506788048
 40
0.5000036663209825
 40
0.62993911649585
 40
0.757787584023861
 40
0.881657312970299
 40
1.0
 40
1.0
 40
1.0
 40
1.0
 10
241.2154962763459
 20
343.8825449212322
 30
0.0
 10
241.3784901847422
 20
343.8988463295753
 30
0.0
 10
241.7120881101544
 20
343.9322102513199
 30
0.0
 10
242.8102324339796
 20
343.9853870070515
 30
0.0
 10
244.3702668170783
 20
344.0399258821453
 30
0.0
 10
246.3959912333489
 20
344.0935405689254
 30
0.0
 10
248.7873273196854
 20
344.1435371491802
 30
0.0
 10
251.4257128049124
 20
344.1874587661709
 30
0.0
 10
254.170603787144
 20
344.2244287350272
 30
0.0
 10
256.0374971720682
 20
344.2426730703304
 30
0.0
 10
256.9496435568005
 20
344.251587079359
 30
0.0
  0
SPLINE
  5
17B
330
1F
100
AcDbEntity
  8
0
  6
Continuous
 62
     7
370
    25
100
AcDbSpline
210
0.0
220
0.0
230
1.0
 70
     8
 71
     3
 72
    15
 73
    11
 74
     0
 42
0.000000001
 43
0.00000001
 40
0.0
 40
0.0
 40
0.0
 40
0.0
 40
0.124999847715248
 40
0.2499997531825618
 40
0.3749999309389748
 40
0.4999997847865348
 40
0.6250000192003238
 40
0.7499999361108224
 40
0.8750001108694035
 40
1.0
 40
1.0
 40
1.0
 40
1.0
 10
256.9496435568005
 20
344.251587079359
 30
0.0
 10
255.8719287383026
 20
341.7711980365266
 30
0.0
 10
253.716498603384
 20
336.8104188048796
 30
0.0
 10
251.5484261983954
 20
328.9748937429775
 30
0.0
 10
250.1966814619419
 20
320.9703134336997
 30
0.0
 10
249.7527893323502
 20
312.8600732816461
 30
0.0
 10
250.1971296253622
 20
304.7498636134458
 30
0.0
 10
251.5493078141902
 20
296.745348031138
 30
0.0
 10
253.7178127755648
 20
288.9099414022605
 30
0.0
 10
255.8735148401055
 20
283.9492731474357
 30
0.0
 10
256.9513646409184
 20
281.4689418538341
 30
0.0
  0
SPLINE
  5
17C
330
1F
100
AcDbEntity
  8
0
  6
Continuous
 62
     7
370
    25
100
AcDbSpline
210
0.0
220
0.0
230
1.0
 70
     8
 71
     3
 72
    15
 73
    11
 74
     0
 42
0.000000001
 43
0.00000001
 40
0.0
 40
0.0
 40
0.0
 40
0.0
 40
0.1249999301937118
 40
0.2500001026884796
 40
0.3749999983810426
 40
0.5000002368769993
 40
0.6250000948004154
 40
0.7500002513450544
 40
0.8750001545485596
 40
1.0
 40
1.0
 40
1.0
 40
1.0
 10
389.681468670097
 20
281.4689418538341
 30
0.0
 10
390.7593212534094
 20
283.9492729426625
 30
0.0
 10
392.9150285093536
 20
288.9099399282165
 30
0.0
 10
395.0835360106018
 20
296.745347353727
 30
0.0
 10
396.4356975780057
 20
304.7498646297152
 30
0.0
 10
396.8800582513503
 20
312.8600732945011
 30
0.0
 10
396.4361456293792
 20
320.9703123653268
 30
0.0
 10
395.0844180742212
 20
328.9748946045507
 30
0.0
 10
392.9163412530713
 20
336.8104186884647
 30
0.0
 10
390.76091172158
 20
341.7711979977216
 30
0.0
 10
389.6831972047956
 20
344.251587079359
 30
0.0
  0
ARC
  5
17D
330
1F
100
AcDbEntity
  8
0
  6
Continuous
 62
     7
370
    25
100
AcDbCircle
 10
323.3164179149
 20
312.8620895522
 30
0.0
 40
73.41559342890345
100
AcDbArc
 50
25.3127521999
 51
154.6872478089
  0
ARC
  5
17E
330
1F
100
AcDbEntity
  8
0
  6
Continuous
 62
     7
370
    25
100
AcDbCircle
 10
323.3164179149
 20
312.8620895522
 30
0.0
 40
73.41559342890342
100
AcDbArc
 50
205.315892654
 51
334.6841073144
  0
CIRCLE
  5
17F
330
1F
100
AcDbEntity
  8
0
  6
Continuous
 62
     7
370
    25
100
AcDbCircle
 10
323.3164179149
 20
312.8620895522
 30
0.0
 40
58.61177143234619
  0
CIRCLE
  5
180
330
1F
100
AcDbEntity
  8
0
  6
Continuous
 62
     7
370
    25
100
AcDbCircle
 10
323.3164179149
 20
312.8620895522
 30
0.0
 40
57.5
  0
LINE
  5
181
330
1F
100
AcDbEntity
  8
0
  6
Continuous
 62
     8
370
    25
100
AcDbLine
 10
339.3432003901
 20
324.9073764547
 30
0.0
 11
339.8586613581
 21
324.1890808805
 31
0.0
  0
LWPOLYLINE
  5
182
330
1F
100
AcDbEntity
  8
0
  6
Continuous
 62
     8
370
    25
100
AcDbPolyline
 90
        3
 70
   128
 43
0.0
 10
342.7789015219
 20
317.6744422181
 10
342.8152305529
 20
317.5250729783
 10
343.1334001467
 20
315.9009060128
  0
LINE
  5
183
330
1F
100
AcDbEntity
  8
0
  6
Continuous
 62
     8
370
    25
100
AcDbLine
 10
342.972765629
 20
308.915599273
 30
0.0
 11
342.541615431
 21
307.1753522619
 31
0.0
  0
LWPOLYLINE
  5
184
330
1F
100
AcDbEntity
  8
0
  6
Continuous
 62
     8
370
    25
100
AcDbPolyline
 90
        3
 70
   128
 43
0.0
 10
339.32035691
 20
300.7864495977
 10
338.3705270931
 20
299.6212085946
 10
338.0403769657
 20
299.2550274595
  0
LWPOLYLINE
  5
185
330
1F
100
AcDbEntity
  8
0
  6
Continuous
 62
     8
370
    25
100
AcDbPolyline
 90
        3
 70
   128
 43
0.0
 10
332.3285383627
 20
294.9531814321
 10
331.8490338967
 20
294.7198292478
 10
330.6861621782
 20
294.2171534761
  0
LINE
  5
186
330
1F
100
AcDbEntity
  8
0
  6
Continuous
 62
     8
370
    25
100
AcDbLine
 10
323.8432360336
 20
292.8204080327
 30
0.0
 11
322.0587176726
 21
292.8529521688
 31
0.0
  0
LINE
  5
187
330
1F
100
AcDbEntity
  8
0
  6
Continuous
 62
     8
370
    25
100
AcDbLine
 10
315.1015443251
 20
294.5737680658
 30
0.0
 11
313.4930533812
 21
295.3850170835
 31
0.0
  0
LINE
  5
188
330
1F
100
AcDbEntity
  8
0
  6
Continuous
 62
     8
370
    25
100
AcDbLine
 10
307.9817695067
 20
299.9471565946
 30
0.0
 11
307.2896254704
 21
300.8167883619
 31
0.0
  0
LINE
  5
189
330
1F
100
AcDbEntity
  8
0
  6
Continuous
 62
     8
370
    25
100
AcDbLine
 10
307.2896254704
 20
300.8167883619
 30
0.0
 11
306.7741645023
 21
301.535083936
 31
0.0
  0
LWPOLYLINE
  5
18A
330
1F
100
AcDbEntity
  8
0
  6
Continuous
 62
     8
370
    25
100
AcDbPolyline
 90
        3
 70
   128
 43
0.0
 10
303.8957369969
 20
307.8837236627
 10
303.8176102087
 20
308.1990918382
 10
303.4994406149
 20
309.8232588037
  0
LINE
  5
18B
330
1F
100
AcDbEntity
  8
0
  6
Continuous
 62
     8
370
    25
100
AcDbLine
 10
303.6600602314
 20
316.8085953458
 30
0.0
 11
304.0936616704
 21
318.557067798
 31
0.0
  0
LWPOLYLINE
  5
18C
330
1F
100
AcDbEntity
  8
0
  6
Continuous
 62
     8
370
    25
100
AcDbPolyline
 90
        3
 70
   128
 43
0.0
 10
307.3124838516
 20
324.9377450212
 10
308.2623136685
 20
326.1029860242
 10
308.5924488947
 20
326.4691373571
  0
LWPOLYLINE
  5
18D
330
1F
100
AcDbEntity
  8
0
  6
Continuous
 62
     8
370
    25
100
AcDbPolyline
 90
        3
 70
   128
 43
0.0
 10
314.1389144108
 20
330.6867918237
 10
314.7838068649
 20
331.0043355687
 10
315.9466785834
 20
331.5070411428
  0
LINE
  5
18E
330
1F
100
AcDbEntity
  8
0
  6
Continuous
 62
     8
370
    25
100
AcDbLine
 10
322.789604728
 20
332.9037865861
 30
0.0
 11
324.5741081879
 21
332.8712126477
 31
0.0
  0
LINE
  5
18F
330
1F
100
AcDbEntity
  8
0
  6
Continuous
 62
     8
370
    25
100
AcDbLine
 10
331.5312964365
 20
331.1504265531
 30
0.0
 11
333.1397873804
 21
330.3391775354
 31
0.0
  0
LINE
  5
190
330
1F
100
AcDbEntity
  8
0
  6
Continuous
 62
     8
370
    25
100
AcDbLine
 10
338.6510712549
 20
325.7770082219
 30
0.0
 11
339.3432003901
 21
324.9073764547
 31
0.0
  0
LINE
  5
191
330
1F
100
AcDbEntity
  8
0
  6
Continuous
 62
     8
370
    25
100
AcDbLine
 10
339.82981271
 20
325.273110555
 30
0.0
 11
339.1161215946
 21
326.1697730287
 31
0.0
  0
LINE
  5
192
330
1F
100
AcDbEntity
  8
0
  6
Continuous
 62
     8
370
    25
100
AcDbLine
 10
333.6047483132
 20
330.7750961049
 30
0.0
 11
331.7858976767
 21
331.7033490403
 31
0.0
  0
LWPOLYLINE
  5
193
330
1F
100
AcDbEntity
  8
0
  6
Continuous
 62
     8
370
    25
100
AcDbPolyline
 90
        3
 70
   128
 43
0.0
 10
324.806611006
 20
333.4655901654
 10
323.5228163645
 20
333.5183998807
 10
322.7731389448
 20
333.5122904046
  0
LWPOLYLINE
  5
194
330
1F
100
AcDbEntity
  8
0
  6
Continuous
 62
     8
370
    25
100
AcDbPolyline
 90
        3
 70
   128
 43
0.0
 10
315.7243532583
 20
332.0737025007
 10
315.6022829458
 20
332.0250055059
 10
313.8602477953
 20
331.2280019983
  0
LWPOLYLINE
  5
195
330
1F
100
AcDbEntity
  8
0
  6
Continuous
 62
     8
370
    25
100
AcDbPolyline
 90
        3
 70
   128
 43
0.0
 10
308.1444454834
 20
326.881243871
 10
307.054321234
 20
325.6006082757
 10
306.8274957583
 20
325.3055950864
  0
LWPOLYLINE
  5
196
330
1F
100
AcDbEntity
  8
0
  6
Continuous
 62
     8
370
    25
100
AcDbPolyline
 90
        3
 70
   128
 43
0.0
 10
303.5622043059
 20
318.9033111795
 10
303.4173799202
 20
318.4076985582
 10
303.0633730337
 20
316.9289967283
  0
LINE
  5
197
330
1F
100
AcDbEntity
  8
0
  6
Continuous
 62
     8
370
    25
100
AcDbLine
 10
302.897925441
 20
309.72991793
 30
0.0
 11
303.3055765078
 21
307.7345332368
 31
0.0
  0
LINE
  5
198
330
1F
100
AcDbEntity
  8
0
  6
Continuous
 62
     8
370
    25
100
AcDbLine
 10
306.273187463
 20
301.1893173917
 30
0.0
 11
306.8030280516
 21
300.4510840638
 31
0.0
  0
LINE
  5
199
330
1F
100
AcDbEntity
  8
0
  6
Continuous
 62
     8
370
    25
100
AcDbLine
 10
306.8030280516
 20
300.4510840638
 30
0.0
 11
307.5167042658
 21
299.5543917878
 31
0.0
  0
LINE
  5
19A
330
1F
100
AcDbEntity
  8
0
  6
Continuous
 62
     8
370
    25
100
AcDbLine
 10
313.0280775473
 20
294.9490985139
 30
0.0
 11
314.8469281838
 21
294.0208157762
 31
0.0
  0
LWPOLYLINE
  5
19B
330
1F
100
AcDbEntity
  8
0
  6
Continuous
 62
     8
370
    25
100
AcDbPolyline
 90
        3
 70
   128
 43
0.0
 10
321.8262297556
 20
292.2585746511
 10
323.1100243971
 20
292.2057947381
 10
323.8597018168
 20
292.2119042142
  0
LWPOLYLINE
  5
19C
330
1F
100
AcDbEntity
  8
0
  6
Continuous
 62
     8
370
    25
100
AcDbPolyline
 90
        3
 70
   128
 43
0.0
 10
330.9084726021
 20
293.6504623159
 10
331.0305578158
 20
293.6991593107
 10
332.7725929663
 20
294.4961926206
  0
LWPOLYLINE
  5
19D
330
1F
100
AcDbEntity
  8
0
  6
Continuous
 62
     8
370
    25
100
AcDbPolyline
 90
        3
 70
   128
 43
0.0
 10
338.488380377
 20
298.8429209455
 10
339.5785195276
 20
300.1235863431
 10
339.8053450033
 20
300.4185697301
  0
LWPOLYLINE
  5
19E
330
1F
100
AcDbEntity
  8
0
  6
Continuous
 62
     8
370
    25
100
AcDbPolyline
 90
        3
 70
   128
 43
0.0
 10
343.0706364557
 20
306.8208536371
 10
343.2154608414
 20
307.3164960607
 10
343.5694677279
 20
308.7951978906
  0
LINE
  5
19F
330
1F
100
AcDbEntity
  8
0
  6
Continuous
 62
     8
370
    25
100
AcDbLine
 10
343.7349153206
 20
315.9942766889
 30
0.0
 11
343.3272493527
 21
317.9896315797
 31
0.0
  0
LINE
  5
1A0
330
1F
100
AcDbEntity
  8
0
  6
Continuous
 62
     8
370
    25
100
AcDbLine
 10
340.3596532986
 20
324.5348474248
 30
0.0
 11
339.82981271
 21
325.273110555
 31
0.0
  0
LINE
  5
1A1
330
1F
100
AcDbEntity
  8
0
  6
Continuous
 62
     8
370
    25
100
AcDbLine
 10
305.6936366007
 20
299.6173044904
 30
0.0
 11
306.4535511181
 21
298.6624082788
 31
0.0
  0
LINE
  5
1A2
330
1F
100
AcDbEntity
  8
0
  6
Continuous
 62
     8
370
    25
100
AcDbLine
 10
312.3376471445
 20
293.7452635034
 30
0.0
 11
314.279074733
 21
292.7545449003
 31
0.0
  0
LWPOLYLINE
  5
1A3
330
1F
100
AcDbEntity
  8
0
  6
Continuous
 62
     8
370
    25
100
AcDbPolyline
 90
        3
 70
   128
 43
0.0
 10
321.7255426094
 20
290.8744653924
 10
323.096151416
 20
290.8180793985
 10
323.8929910109
 20
290.8245167001
  0
LWPOLYLINE
  5
1A4
330
1F
100
AcDbEntity
  8
0
  6
Continuous
 62
     8
370
    25
100
AcDbPolyline
 90
        3
 70
   128
 43
0.0
 10
331.4253789827
 20
292.3625251516
 10
331.5488053009
 20
292.4117883905
 10
333.4012580559
 20
293.2589492067
  0
LWPOLYLINE
  5
1A5
330
1F
100
AcDbEntity
  8
0
  6
Continuous
 62
     8
370
    25
100
AcDbPolyline
 90
        3
 70
   128
 43
0.0
 10
339.5112705872
 20
297.9050418599
 10
340.6710130617
 20
299.2678126558
 10
340.9116072104
 20
299.5806774362
  0
LWPOLYLINE
  5
1A6
330
1F
100
AcDbEntity
  8
0
  6
Continuous
 62
     8
370
    25
100
AcDbPolyline
 90
        3
 70
   128
 43
0.0
 10
344.3963033602
 20
306.4102968438
 10
344.5522887156
 20
306.9439372285
 10
344.9317914889
 20
308.5304936631
  0
LINE
  5
1A7
330
1F
100
AcDbEntity
  8
0
  6
Continuous
 62
     8
370
    25
100
AcDbLine
 10
345.1072824642
 20
316.2004789575
 30
0.0
 11
344.6728540108
 21
318.3292588456
 31
0.0
  0
LINE
  5
1A8
330
1F
100
AcDbEntity
  8
0
  6
Continuous
 62
     8
370
    25
100
AcDbLine
 10
341.5008140251
 20
325.3246089681
 30
0.0
 11
340.9391892597
 21
326.1068901284
 31
0.0
  0
LINE
  5
1A9
330
1F
100
AcDbEntity
  8
0
  6
Continuous
 62
     8
370
    25
100
AcDbLine
 10
340.9391892597
 20
326.1068901284
 30
0.0
 11
340.1792747423
 21
327.0617565377
 31
0.0
  0
LINE
  5
1AA
330
1F
100
AcDbEntity
  8
0
  6
Continuous
 62
     8
370
    25
100
AcDbLine
 10
334.2951936171
 20
331.9789311155
 30
0.0
 11
332.3537511274
 21
332.9696497186
 31
0.0
  0
LWPOLYLINE
  5
1AB
330
1F
100
AcDbEntity
  8
0
  6
Continuous
 62
     8
370
    25
100
AcDbPolyline
 90
        3
 70
   128
 43
0.0
 10
324.9072981522
 20
334.8497292264
 10
323.5366744444
 20
334.9061003192
 10
322.7398348496
 20
334.8996630176
  0
LWPOLYLINE
  5
1AC
330
1F
100
AcDbEntity
  8
0
  6
Continuous
 62
     8
370
    25
100
AcDbPolyline
 90
        3
 70
   128
 43
0.0
 10
315.2074617788
 20
333.361639665
 10
315.0840354607
 20
333.3123764261
 10
313.2315827057
 20
332.4652156099
  0
LWPOLYLINE
  5
1AD
330
1F
100
AcDbEntity
  8
0
  6
Continuous
 62
     8
370
    25
100
AcDbPolyline
 90
        3
 70
   128
 43
0.0
 10
307.1215701744
 20
327.8191527589
 10
305.9618127987
 20
326.4563819631
 10
305.7212335512
 20
326.1435171827
  0
LWPOLYLINE
  5
1AE
330
1F
100
AcDbEntity
  8
0
  6
Continuous
 62
     8
370
    25
100
AcDbPolyline
 90
        3
 70
   128
 43
0.0
 10
302.2365374014
 20
319.3138679727
 10
302.0805445954
 20
318.7802573903
 10
301.7010492727
 20
317.1937009557
  0
LINE
  5
1AF
330
1F
100
AcDbEntity
  8
0
  6
Continuous
 62
     8
370
    25
100
AcDbLine
 10
301.5255508468
 20
309.523685859
 30
0.0
 11
301.9599867508
 21
307.3949357732
 31
0.0
  0
LINE
  5
1B0
330
1F
100
AcDbEntity
  8
0
  6
Continuous
 62
     8
370
    25
100
AcDbLine
 10
305.1320118353
 20
300.3995558484
 30
0.0
 11
305.6936366007
 21
299.6173044904
 31
0.0
  0
LINE
  5
1B1
330
1F
100
AcDbEntity
  8
0
  6
Continuous
 62
     8
370
    25
100
AcDbLine
 10
344.6358842299
 20
328.885211633
 30
0.0
 11
345.3143937037
 21
327.9401799901
 31
0.0
  0
LWPOLYLINE
  5
1B2
330
1F
100
AcDbEntity
  8
0
  6
Continuous
 62
     8
370
    25
100
AcDbPolyline
 90
        3
 70
   128
 43
0.0
 10
349.1518301413
 20
319.4795986875
 10
349.5593470976
 20
317.6127216085
 10
349.677990143
 20
316.9028004869
  0
LWPOLYLINE
  5
1B3
330
1F
100
AcDbEntity
  8
0
  6
Continuous
 62
     8
370
    25
100
AcDbPolyline
 90
        3
 70
   128
 43
0.0
 10
349.464441602
 20
307.614102052
 10
348.9000452206
 20
305.3296050294
 10
348.8208008454
 20
305.0655266507
  0
LINE
  5
1B4
330
1F
100
AcDbEntity
  8
0
  6
Continuous
 62
     8
370
    25
100
AcDbLine
 10
344.5974690363
 20
296.7879912122
 30
0.0
 11
342.9131311819
 21
294.7726091607
 31
0.0
  0
LWPOLYLINE
  5
1B5
330
1F
100
AcDbEntity
  8
0
  6
Continuous
 62
     8
370
    25
100
AcDbPolyline
 90
        3
 70
   128
 43
0.0
 10
335.5148536608
 20
289.1459008916
 10
335.3940350458
 20
289.0841206773
 10
333.1253630564
 20
288.0619904264
  0
LWPOLYLINE
  5
1B6
330
1F
100
AcDbEntity
  8
0
  6
Continuous
 62
     8
370
    25
100
AcDbPolyline
 90
        3
 70
   128
 43
0.0
 10
324.0157020733
 20
286.2017890676
 10
323.4378350422
 20
286.1929079755
 10
321.3957352087
 20
286.2618705495
  0
LWPOLYLINE
  5
1B7
330
1F
100
AcDbEntity
  8
0
  6
Continuous
 62
     8
370
    25
100
AcDbPolyline
 90
        3
 70
   128
 43
0.0
 10
312.3779547856
 20
288.5390362008
 10
311.4558113262
 20
288.9751335843
 10
310.0460124657
 20
289.7286555036
  0
LINE
  5
1B8
330
1F
100
AcDbEntity
  8
0
  6
Continuous
 62
     8
370
    25
100
AcDbLine
 10
302.9085052654
 20
295.6930240854
 30
0.0
 11
301.9969565317
 21
296.8389531835
 31
0.0
  0
LINE
  5
1B9
330
1F
100
AcDbEntity
  8
0
  6
Continuous
 62
     8
370
    25
100
AcDbLine
 10
301.9969565317
 20
296.8389531835
 30
0.0
 11
301.3184396073
 21
297.7839848264
 31
0.0
  0
LWPOLYLINE
  5
1BA
330
1F
100
AcDbEntity
  8
0
  6
Continuous
 62
     8
370
    25
100
AcDbPolyline
 90
        3
 70
   128
 43
0.0
 10
297.4810031697
 20
306.2445959314
 10
297.0734862134
 20
308.1114432081
 10
296.954843168
 20
308.821394132
  0
LWPOLYLINE
  5
1BB
330
1F
100
AcDbEntity
  8
0
  6
Continuous
 62
     8
370
    25
100
AcDbPolyline
 90
        3
 70
   128
 43
0.0
 10
297.1683991596
 20
318.1100627645
 10
297.732795541
 20
320.3945895894
 10
297.8120250151
 20
320.6586381658
  0
LINE
  5
1BC
330
1F
100
AcDbEntity
  8
0
  6
Continuous
 62
     8
370
    25
100
AcDbLine
 10
302.0353568241
 20
328.9361736043
 30
0.0
 11
303.7197021291
 21
330.9515556558
 31
0.0
  0
LWPOLYLINE
  5
1BD
330
1F
100
AcDbEntity
  8
0
  6
Continuous
 62
     8
370
    25
100
AcDbPolyline
 90
        3
 70
   128
 43
0.0
 10
311.1179871008
 20
336.5782937272
 10
311.2388057158
 20
336.6400441392
 10
313.5074777052
 20
337.6621892913
  0
LWPOLYLINE
  5
1BE
330
1F
100
AcDbEntity
  8
0
  6
Continuous
 62
     8
370
    25
100
AcDbPolyline
 90
        3
 70
   128
 43
0.0
 10
322.6171386883
 20
339.5223757489
 10
323.1949908182
 20
339.5312717422
 10
325.2370906517
 20
339.462294267
  0
LWPOLYLINE
  5
1BF
330
1F
100
AcDbEntity
  8
0
  6
Continuous
 62
     8
370
    25
100
AcDbPolyline
 90
        3
 70
   128
 43
0.0
 10
334.2548710749
 20
337.1851286157
 10
335.1770145342
 20
336.7490312322
 10
336.5868282959
 20
335.9955391153
  0
LINE
  5
1C0
330
1F
100
AcDbEntity
  8
0
  6
Continuous
 62
     8
370
    25
100
AcDbLine
 10
343.724320595
 20
330.0311705335
 30
0.0
 11
344.6358842299
 21
328.885211633
 31
0.0
  0
SPLINE
  5
1C1
330
1F
100
AcDbEntity
  8
0
  6
Continuous
 62
     8
370
    25
100
AcDbSpline
210
0.0
220
0.0
230
1.0
 70
     8
 71
     3
 72
     9
 73
     5
 74
     0
 42
0.000000001
 43
0.00000001
 40
0.0
 40
0.0
 40
0.0
 40
0.0
 40
0.4794754322657385
 40
1.0
 40
1.0
 40
1.0
 40
1.0
 10
317.9067624256284
 20
319.9748834832439
 30
0.0
 10
317.1883416013137
 20
320.9194828606209
 30
0.0
 10
315.6899940824016
 20
322.8895512182705
 30
0.0
 10
314.1673542864033
 20
324.8915759648978
 30
0.0
 10
313.3747828647763
 20
325.9336790307293
 30
0.0
  0
SPLINE
  5
1C2
330
1F
100
AcDbEntity
  8
0
  6
Continuous
 62
     8
370
    25
100
AcDbSpline
210
0.0
220
0.0
230
1.0
 70
     8
 71
     3
 72
     9
 73
     5
 74
     0
 42
0.000000001
 43
0.00000001
 40
0.0
 40
0.0
 40
0.0
 40
0.0
 40
0.6626720687191265
 40
1.0
 40
1.0
 40
1.0
 40
1.0
 10
333.2580578968198
 20
299.7905155881176
 30
0.0
 10
332.2489065964905
 20
301.1173659142911
 30
0.0
 10
330.7260548754577
 20
303.1196388163892
 30
0.0
 10
329.2305529176287
 20
305.0860019332464
 30
0.0
 10
328.7260783359677
 20
305.7493111356029
 30
0.0
  0
SPLINE
  5
1C3
330
1F
100
AcDbEntity
  8
0
  6
Continuous
 62
     8
370
    25
100
AcDbSpline
210
0.0
220
0.0
230
1.0
 70
     8
 71
     3
 72
    12
 73
     8
 74
     0
 42
0.000000001
 43
0.00000001
 40
0.0
 40
0.0
 40
0.0
 40
0.0
 40
0.3049371326975558
 40
0.5250549452171938
 40
0.755787170223859
 40
0.9865462770624571
 40
1.0
 40
1.0
 40
1.0
 40
1.0
 10
330.7788623020322
 20
309.4632765515575
 30
0.0
 10
330.8791381823771
 20
309.4175985638835
 30
0.0
 10
331.0517978594568
 20
309.338948079098
 30
0.0
 10
331.265152512027
 20
309.2417726553549
 30
0.0
 10
331.4059364361998
 20
309.1776948677522
 30
0.0
 10
331.4812212245142
 20
309.1432842608976
 30
0.0
 10
331.4875694325102
 20
309.1404923907282
 30
0.0
 10
331.4879191562802
 20
309.1403385861644
 30
0.0
  0
ARC
  5
1C4
330
1F
100
AcDbEntity
  8
0
  6
Continuous
 62
     8
370
    25
100
AcDbCircle
 10
323.3164179149
 20
312.8620895522
 30
0.0
 40
8.911311196
100
AcDbArc
 50
155.512792029
 51
224.0391494799
  0
LWPOLYLINE
  5
1C5
330
1F
100
AcDbEntity
  8
0
  6
Continuous
 62
     8
370
    25
100
AcDbPolyline
 90
        3
 70
   128
 43
0.0
 10
321.1146099016
 20
282.2602233155
 10
323.4132630274
 20
282.1812769635
 10
324.1120082781
 20
282.1914395555
  0
LWPOLYLINE
  5
1C6
330
1F
100
AcDbEntity
  8
0
  6
Continuous
 62
     8
370
    25
100
AcDbPolyline
 90
        3
 70
   128
 43
0.0
 10
334.6103978798
 20
284.3354484304
 10
336.2868530199
 20
285.0575885041
 10
337.3392177269
 20
285.5731984838
  0
LWPOLYLINE
  5
1C7
330
1F
100
AcDbEntity
  8
0
  6
Continuous
 62
     8
370
    25
100
AcDbPolyline
 90
        3
 70
   128
 43
0.0
 10
345.8682549641
 20
292.0597633584
 10
346.7628759787
 20
293.0735489591
 10
347.7904749558
 20
294.3595787748
  0
LWPOLYLINE
  5
1C8
330
1F
100
AcDbEntity
  8
0
  6
Continuous
 62
     8
370
    25
100
AcDbPolyline
 90
        3
 70
   128
 43
0.0
 10
352.6600701258
 20
303.9025804265
 10
352.9048365996
 20
304.7474166616
 10
353.3949953959
 20
306.8122109636
  0
LWPOLYLINE
  5
1C9
330
1F
100
AcDbEntity
  8
0
  6
Continuous
 62
     8
370
    25
100
AcDbPolyline
 90
        3
 70
   128
 43
0.0
 10
353.6418927357
 20
317.5191423162
 10
353.57740051
 20
317.9212650522
 10
353.0402732536
 20
320.4656979306
  0
LINE
  5
1CA
330
1F
100
AcDbEntity
  8
0
  6
Continuous
 62
     8
370
    25
100
AcDbLine
 10
348.6193073437
 20
330.2139183744
 30
0.0
 11
346.7954797194
 21
332.611932443
 31
0.0
  0
LWPOLYLINE
  5
1CB
330
1F
100
AcDbEntity
  8
0
  6
Continuous
 62
     8
370
    25
100
AcDbPolyline
 90
        3
 70
   128
 43
0.0
 10
338.5858786747
 20
339.4734701379
 10
336.1110640213
 20
340.7479217513
 10
335.9003019974
 20
340.843661712
  0
LWPOLYLINE
  5
1CC
330
1F
100
AcDbEntity
  8
0
  6
Continuous
 62
     8
370
    25
100
AcDbPolyline
 90
        3
 70
   128
 43
0.0
 10
325.5271268532
 20
343.4633156522
 10
323.219562833
 20
343.5429176553
 10
322.5141418621
 20
343.5325762494
  0
LWPOLYLINE
  5
1CD
330
1F
100
AcDbEntity
  8
0
  6
Continuous
 62
     8
370
    25
100
AcDbPolyline
 90
        3
 70
   128
 43
0.0
 10
312.0284927532
 20
341.3911154731
 10
310.3459728405
 20
340.6665912135
 10
309.2878562853
 20
340.1480159028
  0
LWPOLYLINE
  5
1CE
330
1F
100
AcDbEntity
  8
0
  6
Continuous
 62
     8
370
    25
100
AcDbPolyline
 90
        3
 70
   128
 43
0.0
 10
300.7651743934
 20
333.6650571092
 10
299.8699573323
 20
332.6506158574
 10
298.8396612451
 20
331.3610395654
  0
LWPOLYLINE
  5
1CF
330
1F
100
AcDbEntity
  8
0
  6
Continuous
 62
     8
370
    25
100
AcDbPolyline
 90
        3
 70
   128
 43
0.0
 10
293.9717499063
 20
321.8182465299
 10
293.728004162
 20
320.976748155
 10
293.2376963541
 20
318.9112982019
  0
LWPOLYLINE
  5
1D0
330
1F
100
AcDbEntity
  8
0
  6
Continuous
 62
     8
370
    25
100
AcDbPolyline
 90
        3
 70
   128
 43
0.0
 10
292.9918644473
 20
308.1990620359
 10
293.055432801
 20
307.8028997644
 10
293.5913530633
 20
305.2632054551
  0
LINE
  5
1D1
330
1F
100
AcDbEntity
  8
0
  6
Continuous
 62
     8
370
    25
100
AcDbLine
 10
298.0173853681
 20
295.5046436055
 30
0.0
 11
299.8318103597
 21
293.1188484891
 31
0.0
  0
LWPOLYLINE
  5
1D2
330
1F
100
AcDbEntity
  8
0
  6
Continuous
 62
     8
370
    25
100
AcDbPolyline
 90
        3
 70
   128
 43
0.0
 10
308.051968877
 20
286.2478336557
 10
310.5217767403
 20
284.9762579664
 10
310.7251030848
 20
284.883870767
  0
ENDSEC
  0
SECTION
  2
OBJECTS
  0
DICTIONARY
  5
C
330
0
100
AcDbDictionary
281
     1
  3
ACAD_GROUP
350
D
  3
ACAD_LAYOUT
350
1A
  3
ACAD_MLINESTYLE
350
17
  3
ACAD_PLOTSETTINGS
350
19
  3
ACAD_PLOTSTYLENAME
350
E
  3
ACAD_SCALELIST
350
47
  0
DICTIONARY
  5
D
102
{ACAD_REACTORS
330
C
102
}
330
C
100
AcDbDictionary
281
     1
  0
DICTIONARY
  5
1A
102
{ACAD_REACTORS
330
C
102
}
330
C
100
AcDbDictionary
281
     1
  3
Layout1
350
1E
  3
Layout2
350
26
  3
Model
350
22
  0
DICTIONARY
  5
17
102
{ACAD_REACTORS
330
C
102
}
330
C
100
AcDbDictionary
281
     1
  3
Standard
350
18
  0
DICTIONARY
  5
19
102
{ACAD_REACTORS
330
C
102
}
330
C
100
AcDbDictionary
281
     1
  0
ACDBDICTIONARYWDFLT
  5
E
102
{ACAD_REACTORS
330
C
102
}
330
C
100
AcDbDictionary
281
     1
  3
Normal
350
F
100
AcDbDictionaryWithDefault
340
F
  0
DICTIONARY
  5
47
102
{ACAD_REACTORS
330
C
102
}
330
C
100
AcDbDictionary
281
     1
  3
A0
350
48
  3
A1
350
49
  3
A2
350
4A
  3
A3
350
4B
  3
A4
350
4C
  3
A5
350
4D
  3
A6
350
4E
  3
A7
350
4F
  3
A8
350
50
  3
A9
350
51
  3
B0
350
52
  3
B1
350
53
  3
B2
350
54
  3
B3
350
55
  3
B4
350
56
  3
B5
350
57
  3
B6
350
58
  3
B7
350
59
  3
B8
350
5A
  3
B9
350
5B
  3
C0
350
5C
  3
C1
350
5D
  3
C2
350
5E
  3
C3
350
5F
  3
C4
350
60
  3
C5
350
61
  3
C6
350
62
  3
C7
350
63
  3
C8
350
64
  3
C9
350
65
  3
D0
350
66
  3
D1
350
67
  3
D2
350
68
  0
LAYOUT
  5
1E
102
{ACAD_REACTORS
330
1A
102
}
330
1A
100
AcDbPlotSettings
  1

  2
none_device
  4

  6

 40
0.0
 41
0.0
 42
0.0
 43
0.0
 44
0.0
 45
0.0
 46
0.0
 47
0.0
 48
0.0
 49
0.0
140
0.0
141
0.0
142
1.0
143
1.0
 70
   688
 72
     1
 73
     0
 74
     5
  7

 75
    16
147
1.0
148
0.0
149
0.0
100
AcDbLayout
  1
Layout1
 70
     1
 71
     1
 10
0.0
 20
0.0
 11
420.0
 21
297.0
 12
0.0
 22
0.0
 32
0.0
 14
1.0000000000E+20
 24
1.0000000000E+20
 34
1.0000000000E+20
 15
-1.0000000000E+20
 25
-1.0000000000E+20
 35
-1.0000000000E+20
146
0.0
 13
0.0
 23
0.0
 33
0.0
 16
1.0
 26
0.0
 36
0.0
 17
0.0
 27
1.0
 37
0.0
 76
     0
330
1B
  0
LAYOUT
  5
26
102
{ACAD_REACTORS
330
1A
102
}
330
1A
100
AcDbPlotSettings
  1

  2
none_device
  4

  6

 40
0.0
 41
0.0
 42
0.0
 43
0.0
 44
0.0
 45
0.0
 46
0.0
 47
0.0
 48
0.0
 49
0.0
140
0.0
141
0.0
142
1.0
143
1.0
 70
   688
 72
     1
 73
     0
 74
     5
  7

 75
    16
147
1.0
148
0.0
149
0.0
100
AcDbLayout
  1
Layout2
 70
     1
 71
     2
 10
0.0
 20
0.0
 11
0.0
 21
0.0
 12
0.0
 22
0.0
 32
0.0
 14
0.0
 24
0.0
 34
0.0
 15
0.0
 25
0.0
 35
0.0
146
0.0
 13
0.0
 23
0.0
 33
0.0
 16
1.0
 26
0.0
 36
0.0
 17
0.0
 27
1.0
 37
0.0
 76
     0
330
23
  0
LAYOUT
  5
22
102
{ACAD_REACTORS
330
1A
102
}
330
1A
100
AcDbPlotSettings
  1

  2
none_device
  4
Letter_(8.50_x_11.00_Inches)
  6

 40
6.35
 41
6.35
 42
6.35000508
 43
6.35000508
 44
215.9
 45
279.4
 46
0.0
 47
0.0
 48
0.0
 49
0.0
140
0.0
141
0.0
142
1.0
143
1.0
 70
  1712
 72
     1
 73
     0
 74
     0
  7

 75
     0
147
1.0
148
0.0
149
0.0
100
AcDbLayout
  1
Model
 70
     1
 71
     0
 10
0.0
 20
0.0
 11
650.0
 21
650.0
 12
0.0
 22
0.0
 32
0.0
 14
0.0
 24
0.0
 34
0.0
 15
650.0
 25
650.0
 35
0.0
146
0.0
 13
0.0
 23
0.0
 33
0.0
 16
1.0
 26
0.0
 36
0.0
 17
0.0
 27
1.0
 37
0.0
 76
     0
330
1F
331
29
  0
MLINESTYLE
  5
18
102
{ACAD_REACTORS
330
17
102
}
330
17
100
AcDbMlineStyle
  2
Standard
 70
     0
  3

 62
   256
 51
90.0
 52
90.0
 71
     2
 49
0.5
 62
   256
  6
BYLAYER
 49
-0.5
 62
   256
  6
BYLAYER
  0
ACDBPLACEHOLDER
  5
F
102
{ACAD_REACTORS
330
E
102
}
330
E
  0
SCALE
  5
48
102
{ACAD_REACTORS
330
47
102
}
330
47
100
AcDbScale
 70
     0
300
1:1
140
1.0
141
1.0
290
     1
  0
SCALE
  5
49
102
{ACAD_REACTORS
330
47
102
}
330
47
100
AcDbScale
 70
     0
300
1:2
140
1.0
141
2.0
290
     0
  0
SCALE
  5
4A
102
{ACAD_REACTORS
330
47
102
}
330
47
100
AcDbScale
 70
     0
300
1:4
140
1.0
141
4.0
290
     0
  0
SCALE
  5
4B
102
{ACAD_REACTORS
330
47
102
}
330
47
100
AcDbScale
 70
     0
300
1:5
140
1.0
141
5.0
290
     0
  0
SCALE
  5
4C
102
{ACAD_REACTORS
330
47
102
}
330
47
100
AcDbScale
 70
     0
300
1:8
140
1.0
141
8.0
290
     0
  0
SCALE
  5
4D
102
{ACAD_REACTORS
330
47
102
}
330
47
100
AcDbScale
 70
     0
300
1:10
140
1.0
141
10.0
290
     0
  0
SCALE
  5
4E
102
{ACAD_REACTORS
330
47
102
}
330
47
100
AcDbScale
 70
     0
300
1:16
140
1.0
141
16.0
290
     0
  0
SCALE
  5
4F
102
{ACAD_REACTORS
330
47
102
}
330
47
100
AcDbScale
 70
     0
300
1:20
140
1.0
141
20.0
290
     0
  0
SCALE
  5
50
102
{ACAD_REACTORS
330
47
102
}
330
47
100
AcDbScale
 70
     0
300
1:30
140
1.0
141
30.0
290
     0
  0
SCALE
  5
51
102
{ACAD_REACTORS
330
47
102
}
330
47
100
AcDbScale
 70
     0
300
1:40
140
1.0
141
40.0
290
     0
  0
SCALE
  5
52
102
{ACAD_REACTORS
330
47
102
}
330
47
100
AcDbScale
 70
     0
300
1:50
140
1.0
141
50.0
290
     0
  0
SCALE
  5
53
102
{ACAD_REACTORS
330
47
102
}
330
47
100
AcDbScale
 70
     0
300
1:100
140
1.0
141
100.0
290
     0
  0
SCALE
  5
54
102
{ACAD_REACTORS
330
47
102
}
330
47
100
AcDbScale
 70
     0
300
2:1
140
2.0
141
1.0
290
     0
  0
SCALE
  5
55
102
{ACAD_REACTORS
330
47
102
}
330
47
100
AcDbScale
 70
     0
300
4:1
140
4.0
141
1.0
290
     0
  0
SCALE
  5
56
102
{ACAD_REACTORS
330
47
102
}
330
47
100
AcDbScale
 70
     0
300
8:1
140
8.0
141
1.0
290
     0
  0
SCALE
  5
57
102
{ACAD_REACTORS
330
47
102
}
330
47
100
AcDbScale
 70
     0
300
10:1
140
10.0
141
1.0
290
     0
  0
SCALE
  5
58
102
{ACAD_REACTORS
330
47
102
}
330
47
100
AcDbScale
 70
     0
300
100:1
140
100.0
141
1.0
290
     0
  0
SCALE
  5
59
102
{ACAD_REACTORS
330
47
102
}
330
47
100
AcDbScale
 70
     0
300
1/128" = 1'-0"
140
0.0078125
141
12.0
290
     0
  0
SCALE
  5
5A
102
{ACAD_REACTORS
330
47
102
}
330
47
100
AcDbScale
 70
     0
300
1/64" = 1'-0"
140
0.015625
141
12.0
290
     0
  0
SCALE
  5
5B
102
{ACAD_REACTORS
330
47
102
}
330
47
100
AcDbScale
 70
     0
300
1/32" = 1'-0"
140
0.03125
141
12.0
290
     0
  0
SCALE
  5
5C
102
{ACAD_REACTORS
330
47
102
}
330
47
100
AcDbScale
 70
     0
300
1/16" = 1'-0"
140
0.0625
141
12.0
290
     0
  0
SCALE
  5
5D
102
{ACAD_REACTORS
330
47
102
}
330
47
100
AcDbScale
 70
     0
300
3/32" = 1'-0"
140
0.09375
141
12.0
290
     0
  0
SCALE
  5
5E
102
{ACAD_REACTORS
330
47
102
}
330
47
100
AcDbScale
 70
     0
300
1/8" = 1'-0"
140
0.125
141
12.0
290
     0
  0
SCALE
  5
5F
102
{ACAD_REACTORS
330
47
102
}
330
47
100
AcDbScale
 70
     0
300
3/16" = 1'-0"
140
0.1875
141
12.0
290
     0
  0
SCALE
  5
60
102
{ACAD_REACTORS
330
47
102
}
330
47
100
AcDbScale
 70
     0
300
1/4" = 1'-0"
140
0.25
141
12.0
290
     0
  0
SCALE
  5
61
102
{ACAD_REACTORS
330
47
102
}
330
47
100
AcDbScale
 70
     0
300
3/8" = 1'-0"
140
0.375
141
12.0
290
     0
  0
SCALE
  5
62
102
{ACAD_REACTORS
330
47
102
}
330
47
100
AcDbScale
 70
     0
300
1/2" = 1'-0"
140
0.5
141
12.0
290
     0
  0
SCALE
  5
63
102
{ACAD_REACTORS
330
47
102
}
330
47
100
AcDbScale
 70
     0
300
3/4" = 1'-0"
140
0.75
141
12.0
290
     0
  0
SCALE
  5
64
102
{ACAD_REACTORS
330
47
102
}
330
47
100
AcDbScale
 70
     0
300
1" = 1'-0"
140
1.0
141
12.0
290
     0
  0
SCALE
  5
65
102
{ACAD_REACTORS
330
47
102
}
330
47
100
AcDbScale
 70
     0
300
1-1/2" = 1'-0"
140
1.5
141
12.0
290
     0
  0
SCALE
  5
66
102
{ACAD_REACTORS
330
47
102
}
330
47
100
AcDbScale
 70
     0
300
3" = 1'-0"
140
3.0
141
12.0
290
     0
  0
SCALE
  5
67
102
{ACAD_REACTORS
330
47
102
}
330
47
100
AcDbScale
 70
     0
300
6" = 1'-0"
140
6.0
141
12.0
290
     0
  0
SCALE
  5
68
102
{ACAD_REACTORS
330
47
102
}
330
47
100
AcDbScale
 70
     0
300
1'-0" = 1'-0"
140
12.0
141
12.0
290
     0
  0
ENDSEC
  0
EOF
