  0
SECTION
  2
HEADER
  9
$ACADVER
  1
AC1015
  9
$ACADMAINTVER
 70
     6
  9
$DWGCODEPAGE
  3
ANSI_1252
  9
$INSBASE
 10
0.0
 20
0.0
 30
0.0
  9
$EXTMIN
 10
0.0
 20
0.0
 30
0.0
  9
$EXTMAX
 10
650.0
 20
650.0
 30
0.0
  9
$LIMMIN
 10
0.0
 20
0.0
  9
$LIMMAX
 10
650.0
 20
650.0
  9
$ORTHOMODE
 70
     0
  9
$REGENMODE
 70
     1
  9
$FILLMODE
 70
     1
  9
$QTEXTMODE
 70
     0
  9
$MIRRTEXT
 70
     1
  9
$LTSCALE
 40
1.0
  9
$ATTMODE
 70
     1
  9
$TEXTSIZE
 40
5.0
  9
$TRACEWID
 40
1.0
  9
$TEXTSTYLE
  7
Standard
  9
$CLAYER
  8
0
  9
$CELTYPE
  6
ByLayer
  9
$CECOLOR
 62
   256
  9
$CELTSCALE
 40
1.0
  9
$DISPSILH
 70
     0
  9
$DIMSCALE
 40
1.0
  9
$DIMASZ
 40
6.0
  9
$DIMEXO
 40
1.0
  9
$DIMDLI
 40
3.75
  9
$DIMRND
 40
0.0
  9
$DIMDLE
 40
0.0
  9
$DIMEXE
 40
1.0
  9
$DIMTP
 40
0.0
  9
$DIMTM
 40
0.0
  9
$DIMTXT
 40
5.0
  9
$DIMCEN
 40
2.5
  9
$DIMTSZ
 40
0.0
  9
$DIMTOL
 70
     0
  9
$DIMLIM
 70
     0
  9
$DIMTIH
 70
     1
  9
$DIMTOH
 70
     1
  9
$DIMSE1
 70
     0
  9
$DIMSE2
 70
     0
  9
$DIMTAD
 70
     1
  9
$DIMZIN
 70
     0
  9
$DIMBLK
  1

  9
$DIMASO
 70
     1
  9
$DIMSHO
 70
     1
  9
$DIMPOST
  1

  9
$DIMAPOST
  1

  9
$DIMALT
 70
     0
  9
$DIMALTD
 70
     3
  9
$DIMALTF
 40
0.0393700787
  9
$DIMLFAC
 40
1.0
  9
$DIMTOFL
 70
     1
  9
$DIMTVP
 40
0.0
  9
$DIMTIX
 70
     0
  9
$DIMSOXD
 70
     0
  9
$DIMSAH
 70
     0
  9
$DIMBLK1
  1

  9
$DIMBLK2
  1

  9
$DIMSTYLE
  2
ISO-25
  9
$DIMCLRD
 70
     0
  9
$DIMCLRE
 70
     0
  9
$DIMCLRT
 70
     0
  9
$DIMTFAC
 40
1.0
  9
$DIMGAP
 40
1.524
  9
$DIMJUST
 70
     0
  9
$DIMSD1
 70
     0
  9
$DIMSD2
 70
     0
  9
$DIMTOLJ
 70
     0
  9
$DIMTZIN
 70
     0
  9
$DIMALTZ
 70
     0
  9
$DIMALTTZ
 70
     0
  9
$DIMUPT
 70
     0
  9
$DIMDEC
 70
     2
  9
$DIMTDEC
 70
     2
  9
$DIMALTU
 70
     2
  9
$DIMALTTD
 70
     3
  9
$DIMTXSTY
  7
Standard
  9
$DIMAUNIT
 70
     0
  9
$DIMADEC
 70
     2
  9
$DIMALTRND
 40
0.0
  9
$DIMAZIN
 70
     0
  9
$DIMDSEP
 70
    44
  9
$DIMATFIT
 70
     3
  9
$DIMFRAC
 70
     0
  9
$DIMLDRBLK
  1

  9
$DIMLUNIT
 70
     2
  9
$DIMLWD
 70
    -2
  9
$DIMLWE
 70
    -2
  9
$DIMTMOVE
 70
     0
  9
$LUNITS
 70
     2
  9
$LUPREC
 70
     2
  9
$SKETCHINC
 40
1.0
  9
$FILLETRAD
 40
10.0
  9
$AUNITS
 70
     0
  9
$AUPREC
 70
     2
  9
$MENU
  1
.
  9
$ELEVATION
 40
0.0
  9
$PELEVATION
 40
0.0
  9
$THICKNESS
 40
0.0
  9
$LIMCHECK
 70
     0
  9
$CHAMFERA
 40
0.0
  9
$CHAMFERB
 40
0.0
  9
$CHAMFERC
 40
0.0
  9
$CHAMFERD
 40
0.0
  9
$SKPOLY
 70
     0
  9
$TDCREATE
 40
2458569.638452639
  9
$TDUCREATE
 40
2458569.555119305
  9
$TDUPDATE
 40
2458569.638455428
  9
$TDUUPDATE
 40
2458569.555122095
  9
$TDINDWG
 40
0.0000000116
  9
$TDUSRTIMER
 40
0.0000000116
  9
$USRTIMER
 70
     1
  9
$ANGBASE
 50
0.0
  9
$ANGDIR
 70
     0
  9
$PDMODE
 70
     0
  9
$PDSIZE
 40
-1.0
  9
$PLINEWID
 40
0.0
  9
$SPLFRAME
 70
     0
  9
$SPLINETYPE
 70
     6
  9
$SPLINESEGS
 70
     8
  9
$HANDSEED
  5
252
  9
$SURFTAB1
 70
     6
  9
$SURFTAB2
 70
     6
  9
$SURFTYPE
 70
     6
  9
$SURFU
 70
     6
  9
$SURFV
 70
     6
  9
$UCSBASE
  2

  9
$UCSNAME
  2

  9
$UCSORG
 10
0.0
 20
0.0
 30
0.0
  9
$UCSXDIR
 10
1.0
 20
0.0
 30
0.0
  9
$UCSYDIR
 10
0.0
 20
1.0
 30
0.0
  9
$UCSORTHOREF
  2

  9
$UCSORTHOVIEW
 70
     0
  9
$UCSORGTOP
 10
0.0
 20
0.0
 30
0.0
  9
$UCSORGBOTTOM
 10
0.0
 20
0.0
 30
0.0
  9
$UCSORGLEFT
 10
0.0
 20
0.0
 30
0.0
  9
$UCSORGRIGHT
 10
0.0
 20
0.0
 30
0.0
  9
$UCSORGFRONT
 10
0.0
 20
0.0
 30
0.0
  9
$UCSORGBACK
 10
0.0
 20
0.0
 30
0.0
  9
$PUCSBASE
  2

  9
$PUCSNAME
  2

  9
$PUCSORG
 10
0.0
 20
0.0
 30
0.0
  9
$PUCSXDIR
 10
1.0
 20
0.0
 30
0.0
  9
$PUCSYDIR
 10
0.0
 20
1.0
 30
0.0
  9
$PUCSORTHOREF
  2

  9
$PUCSORTHOVIEW
 70
     0
  9
$PUCSORGTOP
 10
0.0
 20
0.0
 30
0.0
  9
$PUCSORGBOTTOM
 10
0.0
 20
0.0
 30
0.0
  9
$PUCSORGLEFT
 10
0.0
 20
0.0
 30
0.0
  9
$PUCSORGRIGHT
 10
0.0
 20
0.0
 30
0.0
  9
$PUCSORGFRONT
 10
0.0
 20
0.0
 30
0.0
  9
$PUCSORGBACK
 10
0.0
 20
0.0
 30
0.0
  9
$USERI1
 70
     0
  9
$USERI2
 70
     0
  9
$USERI3
 70
     0
  9
$USERI4
 70
     0
  9
$USERI5
 70
     0
  9
$USERR1
 40
0.0
  9
$USERR2
 40
0.0
  9
$USERR3
 40
0.0
  9
$USERR4
 40
0.0
  9
$USERR5
 40
0.0
  9
$WORLDVIEW
 70
     1
  9
$SHADEDGE
 70
     3
  9
$SHADEDIF
 70
    70
  9
$TILEMODE
 70
     1
  9
$MAXACTVP
 70
    64
  9
$PINSBASE
 10
0.0
 20
0.0
 30
0.0
  9
$PLIMCHECK
 70
     0
  9
$PEXTMIN
 10
1.0000000000E+20
 20
1.0000000000E+20
 30
1.0000000000E+20
  9
$PEXTMAX
 10
-1.0000000000E+20
 20
-1.0000000000E+20
 30
-1.0000000000E+20
  9
$PLIMMIN
 10
0.0
 20
0.0
  9
$PLIMMAX
 10
420.0
 20
297.0
  9
$UNITMODE
 70
     0
  9
$VISRETAIN
 70
     1
  9
$PLINEGEN
 70
     0
  9
$PSLTSCALE
 70
     1
  9
$TREEDEPTH
 70
  3020
  9
$CMLSTYLE
  2
Standard
  9
$CMLJUST
 70
     0
  9
$CMLSCALE
 40
20.0
  9
$PROXYGRAPHICS
 70
     1
  9
$MEASUREMENT
 70
     1
  9
$CELWEIGHT
370
    -1
  9
$ENDCAPS
280
     0
  9
$JOINSTYLE
280
     0
  9
$LWDISPLAY
290
     1
  9
$INSUNITS
 70
     4
  9
$HYPERLINKBASE
  1

  9
$STYLESHEET
  1

  9
$XEDIT
290
     1
  9
$CEPSNTYPE
380
     0
  9
$PSTYLEMODE
290
     1
  9
$FINGERPRINTGUID
  2
{D249466B-21A2-412A-BCC5-B53AE220261E}
  9
$VERSIONGUID
  2
{FAEB1C32-E019-11D5-929B-00C0DF256EC4}
  9
$EXTNAMES
290
     1
  9
$PSVPSCALE
 40
0.0
  9
$OLESTARTUP
290
     0
  0
ENDSEC
  0
SECTION
  2
CLASSES
  0
CLASS
  1
ACDBDICTIONARYWDFLT
  2
AcDbDictionaryWithDefault
  3
ObjectDBX Classes
 90
        0
280
     0
281
     0
  0
CLASS
  1
VISUALSTYLE
  2
AcDbVisualStyle
  3
ObjectDBX Classes
 90
     4095
280
     0
281
     0
  0
CLASS
  1
MATERIAL
  2
AcDbMaterial
  3
ObjectDBX Classes
 90
     1153
280
     0
281
     0
  0
CLASS
  1
SCALE
  2
AcDbScale
  3
ObjectDBX Classes
 90
     1153
280
     0
281
     0
  0
CLASS
  1
TABLESTYLE
  2
AcDbTableStyle
  3
ObjectDBX Classes
 90
     4095
280
     0
281
     0
  0
CLASS
  1
MLEADERSTYLE
  2
AcDbMLeaderStyle
  3
ACDB_MLEADERSTYLE_CLASS
 90
     4095
280
     0
281
     0
  0
CLASS
  1
SUN
  2
AcDbSun
  3
SCENEOE
 90
     1153
280
     0
281
     0
  0
CLASS
  1
ACDBPLACEHOLDER
  2
AcDbPlaceHolder
  3
ObjectDBX Classes
 90
        0
280
     0
281
     0
  0
CLASS
  1
LAYOUT
  2
AcDbLayout
  3
ObjectDBX Classes
 90
        0
280
     0
281
     0
  0
ENDSEC
  0
SECTION
  2
TABLES
  0
TABLE
  2
VPORT
  5
8
330
0
100
AcDbSymbolTable
 70
     1
  0
VPORT
  5
29
330
8
100
AcDbSymbolTableRecord
100
AcDbViewportTableRecord
  2
*Active
 70
     0
 10
0.0
 20
0.0
 11
1.0
 21
1.0
 12
325.0
 22
325.0
 13
0.0
 23
0.0
 14
10.0
 24
10.0
 15
10.0
 25
10.0
 16
0.0
 26
0.0
 36
1.0
 17
0.0
 27
0.0
 37
0.0
 40
650.0
 41
1.0
 42
50.0
 43
0.0
 44
0.0
 50
0.0
 51
0.0
 71
     0
 72
  2000
 73
     1
 74
     3
 75
     0
 76
     0
 77
     0
 78
     0
281
     0
 65
     1
110
0.0
120
0.0
130
0.0
111
1.0
121
0.0
131
0.0
112
0.0
122
1.0
132
0.0
 79
     0
146
0.0
  0
ENDTAB
  0
TABLE
  2
LTYPE
  5
5
330
0
100
AcDbSymbolTable
 70
     6
  0
LTYPE
  5
14
330
5
100
AcDbSymbolTableRecord
100
AcDbLinetypeTableRecord
  2
ByBlock
 70
     0
  3

 72
    65
 73
     0
 40
0.0
  0
LTYPE
  5
15
330
5
100
AcDbSymbolTableRecord
100
AcDbLinetypeTableRecord
  2
ByLayer
 70
     0
  3

 72
    65
 73
     0
 40
0.0
  0
LTYPE
  5
16
330
5
100
AcDbSymbolTableRecord
100
AcDbLinetypeTableRecord
  2
Continuous
 70
     0
  3
Solid line
 72
    65
 73
     0
 40
0.0
  0
LTYPE
  5
6E
330
5
100
AcDbSymbolTableRecord
100
AcDbLinetypeTableRecord
  2
HIDDEN
 70
     0
  3
Hidden __ __ __ __ __ __ __ __ __ __ __ __ __ __
 72
    65
 73
     2
 40
1.905
 49
1.27
 74
     0
 49
-0.635
 74
     0
  0
LTYPE
  5
6F
330
5
100
AcDbSymbolTableRecord
100
AcDbLinetypeTableRecord
  2
PHANTOM
 70
     0
  3
Phantom ______  __  __  ______  __  __  ______
 72
    65
 73
     6
 40
12.7
 49
6.35
 74
     0
 49
-1.27
 74
     0
 49
1.27
 74
     0
 49
-1.27
 74
     0
 49
1.27
 74
     0
 49
-1.27
 74
     0
  0
LTYPE
  5
70
330
5
100
AcDbSymbolTableRecord
100
AcDbLinetypeTableRecord
  2
CENTER
 70
     0
  3
Center ____ _ ____ _ ____ _ ____ _ ____ _ ____
 72
    65
 73
     4
 40
10.16
 49
6.35
 74
     0
 49
-1.27
 74
     0
 49
1.27
 74
     0
 49
-1.27
 74
     0
  0
LTYPE
  5
71
330
5
100
AcDbSymbolTableRecord
100
AcDbLinetypeTableRecord
  2
CENTERX2
 70
     0
  3
Center (2x) ________  __  ________  __  _____
 72
    65
 73
     4
 40
20.32
 49
12.7
 74
     0
 49
-2.54
 74
     0
 49
2.54
 74
     0
 49
-2.54
 74
     0
  0
LTYPE
  5
72
330
5
100
AcDbSymbolTableRecord
100
AcDbLinetypeTableRecord
  2
DOT2
 70
     0
  3
Dot (.5x) ........................................
 72
    65
 73
     2
 40
0.635
 49
0.0
 74
     0
 49
-0.635
 74
     0
  0
ENDTAB
  0
TABLE
  2
LAYER
  5
2
330
0
100
AcDbSymbolTable
 70
     2
  0
LAYER
  5
10
330
2
100
AcDbSymbolTableRecord
100
AcDbLayerTableRecord
  2
0
 70
     0
 62
     7
  6
Continuous
370
    -3
390
F
  0
LAYER
  5
73
330
2
100
AcDbSymbolTableRecord
100
AcDbLayerTableRecord
  2
TABLE_BL1
 70
     0
 62
   179
  6
Continuous
370
    -3
390
F
  0
ENDTAB
  0
TABLE
  2
STYLE
  5
3
330
0
100
AcDbSymbolTable
 70
     1
  0
STYLE
  5
11
330
3
100
AcDbSymbolTableRecord
100
AcDbTextStyleTableRecord
  2
Standard
 70
     0
 40
0.0
 41
1.0
 50
0.0
 71
     0
 42
5.0
  3
txt
  4

  0
ENDTAB
  0
TABLE
  2
VIEW
  5
6
330
0
100
AcDbSymbolTable
 70
     0
  0
ENDTAB
  0
TABLE
  2
UCS
  5
7
330
0
100
AcDbSymbolTable
 70
     0
  0
ENDTAB
  0
TABLE
  2
APPID
  5
9
330
0
100
AcDbSymbolTable
 70
     1
  0
APPID
  5
12
330
9
100
AcDbSymbolTableRecord
100
AcDbRegAppTableRecord
  2
ACAD
 70
     0
  0
ENDTAB
  0
TABLE
  2
DIMSTYLE
  5
A
330
0
100
AcDbSymbolTable
 70
     1
100
AcDbDimStyleTable
  0
DIMSTYLE
105
27
330
A
100
AcDbSymbolTableRecord
100
AcDbDimStyleTableRecord
  2
ISO-25
 70
     0
 41
2.5
 42
0.625
 43
3.75
 44
1.25
 73
     0
 74
     0
 77
     1
 78
     8
140
2.5
141
2.5
143
0.0393700787
147
0.625
171
     3
172
     1
178
     0
271
     2
272
     2
274
     3
278
    44
283
     0
284
     8
340
11
  0
ENDTAB
  0
TABLE
  2
BLOCK_RECORD
  5
1
330
0
100
AcDbSymbolTable
 70
     1
  0
BLOCK_RECORD
  5
1F
330
1
100
AcDbSymbolTableRecord
100
AcDbBlockTableRecord
  2
*Model_Space
340
22
  0
BLOCK_RECORD
  5
1B
330
1
100
AcDbSymbolTableRecord
100
AcDbBlockTableRecord
  2
*Paper_Space
340
1E
  0
BLOCK_RECORD
  5
23
330
1
100
AcDbSymbolTableRecord
100
AcDbBlockTableRecord
  2
*Paper_Space0
340
26
  0
ENDTAB
  0
ENDSEC
  0
SECTION
  2
BLOCKS
  0
BLOCK
  5
20
330
1F
100
AcDbEntity
  8
0
100
AcDbBlockBegin
  2
*Model_Space
 70
     0
 10
0.0
 20
0.0
 30
0.0
  3
*Model_Space
  1

  0
ENDBLK
  5
21
330
1F
100
AcDbEntity
  8
0
100
AcDbBlockEnd
  0
BLOCK
  5
1C
330
1B
100
AcDbEntity
 67
     1
  8
0
100
AcDbBlockBegin
  2
*Paper_Space
 70
     0
 10
0.0
 20
0.0
 30
0.0
  3
*Paper_Space
  1

  0
ENDBLK
  5
1D
330
1B
100
AcDbEntity
 67
     1
  8
0
100
AcDbBlockEnd
  0
BLOCK
  5
24
330
23
100
AcDbEntity
  8
0
100
AcDbBlockBegin
  2
*Paper_Space0
 70
     0
 10
0.0
 20
0.0
 30
0.0
  3
*Paper_Space0
  1

  0
ENDBLK
  5
25
330
23
100
AcDbEntity
  8
0
100
AcDbBlockEnd
  0
ENDSEC
  0
SECTION
  2
ENTITIES
  0
LWPOLYLINE
  5
74
330
1F
100
AcDbEntity
  8
0
  6
CENTERX2
 62
     7
100
AcDbPolyline
 90
       17
 70
   128
 43
0.0
 10
458.985830939
 20
199.7216153816
 10
458.8740783821
 20
199.6122120938
 10
458.7011866477
 20
199.4232733969
 10
458.4934769352
 20
199.1835634948
 10
458.2825711653
 20
198.9295760471
 10
458.1005778296
 20
198.6999783402
 10
457.9752037638
 20
198.5297245439
 10
457.9255360328
 20
198.4447342551
 10
457.9591360984
 20
198.457946475
 10
458.0708886553
 20
198.5673497627
 10
458.2437803896
 20
198.7562884596
 10
458.4514901022
 20
198.9959983617
 10
458.6623958721
 20
199.2499858095
 10
458.8443892078
 20
199.4795835163
 10
458.9697632736
 20
199.6498373126
 10
459.0194310046
 20
199.7348276014
 10
458.985830939
 20
199.7216153816
  0
LWPOLYLINE
  5
75
330
1F
100
AcDbEntity
  8
0
  6
CENTERX2
 62
     7
100
AcDbPolyline
 90
       17
 70
   128
 43
0.0
 10
191.8032571726
 20
180.6956914491
 10
191.6938538848
 20
180.807444006
 10
191.5049151879
 20
180.9803357403
 10
191.2652052858
 20
181.1880454529
 10
191.0112178381
 20
181.3989512228
 10
190.7816201313
 20
181.5809445585
 10
190.6113663349
 20
181.7063186243
 10
190.5263760462
 20
181.7559863553
 10
190.539588266
 20
181.7223862897
 10
190.6489915538
 20
181.6106337328
 10
190.8379302507
 20
181.4377419984
 10
191.0776401528
 20
181.2300322859
 10
191.3316276005
 20
181.019126516
 10
191.5612253073
 20
180.8371331803
 10
191.7314791037
 20
180.7117591145
 10
191.8164693925
 20
180.6620913835
 10
191.8032571726
 20
180.6956914491
  0
LWPOLYLINE
  5
76
330
1F
100
AcDbEntity
  8
0
  6
CENTERX2
 62
     7
100
AcDbPolyline
 90
       17
 70
   128
 43
0.0
 10
172.7773332401
 20
447.8782652155
 10
172.889085797
 20
447.9876685032
 10
173.0619775314
 20
448.1766072001
 10
173.2696872439
 20
448.4163171022
 10
173.4805930138
 20
448.67030455
 10
173.6625863495
 20
448.8999022568
 10
173.7879604153
 20
449.0701560531
 10
173.8376281463
 20
449.1551463419
 10
173.8040280807
 20
449.141934122
 10
173.6922755238
 20
449.0325308343
 10
173.5193837895
 20
448.8435921374
 10
173.3116740769
 20
448.6038822353
 10
173.100768307
 20
448.3498947876
 10
172.9187749714
 20
448.1202970807
 10
172.7934009055
 20
447.9500432844
 10
172.7437331745
 20
447.8650529956
 10
172.7773332401
 20
447.8782652155
  0
LWPOLYLINE
  5
77
330
1F
100
AcDbEntity
  8
0
  6
CENTERX2
 62
     7
100
AcDbPolyline
 90
       17
 70
   128
 43
0.0
 10
439.9599070065
 20
466.9041891479
 10
440.0693102943
 20
466.7924365911
 10
440.2582489912
 20
466.6195448567
 10
440.4979588933
 20
466.4118351441
 10
440.751946341
 20
466.2009293742
 10
440.9815440478
 20
466.0189360386
 10
441.1517978442
 20
465.8935619727
 10
441.2367881329
 20
465.8438942417
 10
441.2235759131
 20
465.8774943073
 10
441.1141726253
 20
465.9892468642
 10
440.9252339284
 20
466.1621385986
 10
440.6855240263
 20
466.3698483111
 10
440.4315365786
 20
466.580754081
 10
440.2019388718
 20
466.7627474167
 10
440.0316850754
 20
466.8881214825
 10
439.9466947866
 20
466.9377892136
 10
439.9599070065
 20
466.9041891479
  0
LINE
  5
78
330
1F
100
AcDbEntity
  8
0
  6
CENTERX2
 62
     7
100
AcDbLine
 10
458.4724835187
 20
199.0897809283
 30
0.0
 11
457.9260419407
 21
198.4387152614
 31
0.0
  0
LINE
  5
79
330
1F
100
AcDbEntity
  8
0
  6
CENTERX2
 62
     7
100
AcDbLine
 10
458.4724835187
 20
199.0897809283
 30
0.0
 11
459.0189250967
 21
199.7408465951
 31
0.0
  0
LINE
  5
7A
330
1F
100
AcDbEntity
  8
0
  6
CENTERX2
 62
     7
100
AcDbLine
 10
458.4724835187
 20
199.0897809283
 30
0.0
 11
458.1664536089
 21
199.3465081047
 31
0.0
  0
LINE
  5
7B
330
1F
100
AcDbEntity
  8
0
  6
CENTERX2
 62
     7
100
AcDbLine
 10
191.1714227193
 20
181.2090388694
 30
0.0
 11
190.5203570524
 21
181.7554804474
 31
0.0
  0
LINE
  5
7C
330
1F
100
AcDbEntity
  8
0
  6
CENTERX2
 62
     7
100
AcDbLine
 10
191.1714227193
 20
181.2090388694
 30
0.0
 11
191.8224883862
 21
180.6625972914
 31
0.0
  0
LINE
  5
7D
330
1F
100
AcDbEntity
  8
0
  6
CENTERX2
 62
     7
100
AcDbLine
 10
191.1714227193
 20
181.2090388694
 30
0.0
 11
191.4281498957
 21
181.5150687792
 31
0.0
  0
LINE
  5
7E
330
1F
100
AcDbEntity
  8
0
  6
CENTERX2
 62
     7
100
AcDbLine
 10
173.2906806604
 20
448.5100996688
 30
0.0
 11
173.8371222384
 21
449.1611653356
 31
0.0
  0
LINE
  5
7F
330
1F
100
AcDbEntity
  8
0
  6
CENTERX2
 62
     7
100
AcDbLine
 10
173.2906806604
 20
448.5100996688
 30
0.0
 11
172.7442390824
 21
447.8590340019
 31
0.0
  0
LINE
  5
80
330
1F
100
AcDbEntity
  8
0
  6
CENTERX2
 62
     7
100
AcDbLine
 10
173.2906806604
 20
448.5100996688
 30
0.0
 11
173.5967105702
 21
448.2533724923
 31
0.0
  0
LINE
  5
81
330
1F
100
AcDbEntity
  8
0
  6
CENTERX2
 62
     7
100
AcDbLine
 10
440.5917414598
 20
466.3908417276
 30
0.0
 11
441.2428071267
 21
465.8444001496
 31
0.0
  0
LINE
  5
82
330
1F
100
AcDbEntity
  8
0
  6
CENTERX2
 62
     7
100
AcDbLine
 10
440.5917414598
 20
466.3908417276
 30
0.0
 11
439.9406757929
 21
466.9372833056
 31
0.0
  0
LINE
  5
83
330
1F
100
AcDbEntity
  8
0
  6
CENTERX2
 62
     7
100
AcDbLine
 10
440.5917414598
 20
466.3908417276
 30
0.0
 11
440.3350142834
 21
466.0848118178
 31
0.0
  0
LINE
  5
84
330
1F
100
AcDbEntity
  8
0
  6
Continuous
 62
     7
370
    25
100
AcDbLine
 10
355.3815820896
 20
413.913730662
 30
0.0
 11
355.3815820896
 21
413.93467036
 31
0.0
  0
LINE
  5
85
330
1F
100
AcDbEntity
  8
0
  6
Continuous
 62
     7
370
    25
100
AcDbLine
 10
276.3815820896
 20
413.93467036
 30
0.0
 11
276.3815820896
 21
413.913730662
 31
0.0
  0
SPLINE
  5
86
330
1F
100
AcDbEntity
  8
0
  6
Continuous
 62
     7
370
    25
100
AcDbSpline
210
0.0
220
0.0
230
1.0
 70
     8
 71
     3
 72
    18
 73
    14
 74
     0
 42
0.000000001
 43
0.00000001
 40
0.0
 40
0.0
 40
0.0
 40
0.0
 40
0.1181385712700092
 40
0.2416946426887843
 40
0.3519601796231078
 40
0.4393134631358133
 40
0.5540129934015634
 40
0.6249822817350348
 40
0.7018504868877826
 40
0.7811784347184024
 40
0.8592634776708904
 40
0.9329171848529138
 40
1.0
 40
1.0
 40
1.0
 40
1.0
 10
324.3343522339104
 20
410.8505927157098
 30
0.0
 10
324.596667649055
 20
411.9384709432016
 30
0.0
 10
325.1333275210475
 20
414.164114411342
 30
0.0
 10
324.3200152348901
 20
417.4878478246167
 30
0.0
 10
322.6253047256658
 20
420.0316706706456
 30
0.0
 10
320.3038533990792
 20
421.8715655667548
 30
0.0
 10
317.845497003073
 20
422.7758898506315
 30
0.0
 10
315.3721731823652
 20
422.9255538429415
 30
0.0
 10
313.253997937832
 20
422.5608507377823
 30
0.0
 10
311.2231659985132
 20
421.6660359704215
 30
0.0
 10
309.5062810058918
 20
420.3187187080995
 30
0.0
 10
308.1976172667982
 20
418.7067104707196
 30
0.0
 10
307.6756321871688
 20
417.4912085245033
 30
0.0
 10
307.4268252106512
 20
416.9118330289352
 30
0.0
  0
SPLINE
  5
87
330
1F
100
AcDbEntity
  8
0
  6
Continuous
 62
     7
370
    25
100
AcDbSpline
210
0.0
220
0.0
230
1.0
 70
     8
 71
     3
 72
    18
 73
    14
 74
     0
 42
0.000000001
 43
0.00000001
 40
0.0
 40
0.0
 40
0.0
 40
0.0
 40
0.1181899127048587
 40
0.241768582524182
 40
0.3520337411118746
 40
0.439376106792191
 40
0.5540546913950986
 40
0.6250104794545555
 40
0.7018654950045592
 40
0.7811825666193416
 40
0.8592608363976652
 40
0.9329130374076633
 40
1.0
 40
1.0
 40
1.0
 40
1.0
 10
307.4268252106531
 20
416.9118330289342
 30
0.0
 10
307.1653516439297
 20
415.8236700230484
 30
0.0
 10
306.6304828708888
 20
413.5977302497851
 30
0.0
 10
307.445348279505
 20
410.2749957630495
 30
0.0
 10
309.1406370357744
 20
407.7326900029877
 30
0.0
 10
311.4616654638565
 20
405.894484899386
 30
0.0
 10
313.9187079634572
 20
404.9906962038017
 30
0.0
 10
316.3907306383433
 20
404.8409876663425
 30
0.0
 10
318.5078584789331
 20
405.2052652678403
 30
0.0
 10
320.5378663982307
 20
406.0993067342175
 30
0.0
 10
322.2543296780705
 20
407.4456371619514
 30
0.0
 10
323.5629951173291
 20
409.0566366329805
 30
0.0
 10
324.085355599208
 20
410.2714977442645
 30
0.0
 10
324.3343522339084
 20
410.8505927157101
 30
0.0
  0
LINE
  5
88
330
1F
100
AcDbEntity
  8
0
  6
Continuous
 62
     7
370
    25
100
AcDbLine
 10
372.8815820896
 20
413.6371039945
 30
0.0
 11
372.8815820896
 21
413.6580436926
 31
0.0
  0
LINE
  5
89
330
1F
100
AcDbEntity
  8
0
  6
Continuous
 62
     7
370
    25
100
AcDbLine
 10
258.8815820896
 20
413.6580436926
 30
0.0
 11
258.8815820896
 21
413.6371039945
 31
0.0
  0
LWPOLYLINE
  5
8A
330
1F
100
AcDbEntity
  8
0
  6
Continuous
 62
     7
370
    25
100
AcDbPolyline
 90
        3
 70
   128
 43
0.0
 10
324.0555487639
 20
431.9580810305
 10
322.7792159801
 20
432.4978321382
 10
322.4828676687
 20
432.6080654843
  0
LWPOLYLINE
  5
8B
330
1F
100
AcDbEntity
  8
0
  6
Continuous
 62
     7
370
    25
100
AcDbPolyline
 90
        3
 70
   128
 43
0.0
 10
315.3869530625
 20
433.7618795935
 10
315.0055326751
 20
433.7483695236
 10
314.0929619618
 20
433.685406128
  0
LINE
  5
8C
330
1F
100
AcDbEntity
  8
0
  6
Continuous
 62
     7
370
    25
100
AcDbLine
 10
307.2841044323
 20
431.7545314657
 30
0.0
 11
305.6148298417
 21
430.8217110197
 31
0.0
  0
LWPOLYLINE
  5
8D
330
1F
100
AcDbEntity
  8
0
  6
Continuous
 62
     7
370
    25
100
AcDbPolyline
 90
        3
 70
   128
 43
0.0
 10
300.3673503926
 20
425.9871585737
 10
299.5842239026
 20
424.8552477021
 10
299.5460967277
 20
424.7954767652
  0
LWPOLYLINE
  5
8E
330
1F
100
AcDbEntity
  8
0
  6
Continuous
 62
     7
370
    25
100
AcDbPolyline
 90
        3
 70
   128
 43
0.0
 10
296.885561899
 20
418.1119943931
 10
296.7774937208
 20
417.5032238962
 10
296.6641226617
 20
416.6895275393
  0
LINE
  5
8F
330
1F
100
AcDbEntity
  8
0
  6
Continuous
 62
     7
370
    25
100
AcDbLine
 10
297.1642585609
 20
409.5253999749
 30
0.0
 11
297.4669921406
 21
408.4900912669
 31
0.0
  0
LINE
  5
90
330
1F
100
AcDbEntity
  8
0
  6
Continuous
 62
     7
370
    25
100
AcDbLine
 10
301.1960412585
 20
401.8377652494
 30
0.0
 11
301.9549693044
 21
401.0041846769
 31
0.0
  0
LINE
  5
91
330
1F
100
AcDbEntity
  8
0
  6
Continuous
 62
     7
370
    25
100
AcDbLine
 10
325.2428670423
 20
397.5054613005
 30
0.0
 11
325.6616984083
 21
397.7436957689
 31
0.0
  0
LINE
  5
92
330
1F
100
AcDbEntity
  8
0
  6
Continuous
 62
     7
370
    25
100
AcDbLine
 10
331.2354427959
 20
402.6608506614
 30
0.0
 11
332.019892493
 21
403.7604681192
 31
0.0
  0
LWPOLYLINE
  5
93
330
1F
100
AcDbEntity
  8
0
  6
Continuous
 62
     7
370
    25
100
AcDbPolyline
 90
        3
 70
   128
 43
0.0
 10
334.8151789231
 20
410.4397487561
 10
334.9856704583
 20
411.3567484655
 10
335.0663505597
 20
411.9082003635
  0
LWPOLYLINE
  5
94
330
1F
100
AcDbEntity
  8
0
  6
Continuous
 62
     7
370
    25
100
AcDbPolyline
 90
        3
 70
   128
 43
0.0
 10
334.6898807189
 20
418.9736880459
 10
334.6291954161
 20
419.2176309726
 10
334.2698728228
 20
420.450705376
  0
LINE
  5
95
330
1F
100
AcDbEntity
  8
0
  6
Continuous
 62
     7
370
    25
100
AcDbLine
 10
330.7399692889
 20
426.8180323135
 30
0.0
 11
329.7114581651
 21
427.9552938328
 31
0.0
  0
LWPOLYLINE
  5
96
330
1F
100
AcDbEntity
  8
0
  6
Continuous
 62
     7
370
    25
100
AcDbPolyline
 90
        3
 70
   128
 43
0.0
 10
296.6659406804
 20
416.7258575582
 10
296.77749372
 20
417.5241635888
 10
296.9003427787
 20
418.2082970454
  0
LWPOLYLINE
  5
97
330
1F
100
AcDbEntity
  8
0
  6
Continuous
 62
     7
370
    25
100
AcDbPolyline
 90
        3
 70
   128
 43
0.0
 10
299.4910379714
 20
424.7292397089
 10
299.5842239002
 20
424.8761873963
 10
300.3649727819
 20
426.0049097944
  0
LINE
  5
98
330
1F
100
AcDbEntity
  8
0
  6
Continuous
 62
     7
370
    25
100
AcDbLine
 10
305.642073712
 20
430.8596623522
 30
0.0
 11
306.9776341875
 21
431.6201639505
 31
0.0
  0
LWPOLYLINE
  5
99
330
1F
100
AcDbEntity
  8
0
  6
Continuous
 62
     7
370
    25
100
AcDbPolyline
 90
        3
 70
   128
 43
0.0
 10
313.8580719025
 20
433.6831087097
 10
315.005532673
 20
433.7693092216
 10
315.5905119291
 20
433.7869503967
  0
LWPOLYLINE
  5
9A
330
1F
100
AcDbEntity
  8
0
  6
Continuous
 62
     7
370
    25
100
AcDbPolyline
 90
        3
 70
   128
 43
0.0
 10
322.4147338337
 20
432.6535734002
 10
322.7792159791
 20
432.5187718366
 10
324.0580888039
 20
431.9778374375
  0
LINE
  5
9B
330
1F
100
AcDbEntity
  8
0
  6
Continuous
 62
     7
370
    25
100
AcDbLine
 10
329.9041304393
 20
427.7766188534
 30
0.0
 11
330.8704474034
 21
426.6809715473
 31
0.0
  0
LWPOLYLINE
  5
9C
330
1F
100
AcDbEntity
  8
0
  6
Continuous
 62
     7
370
    25
100
AcDbPolyline
 90
        3
 70
   128
 43
0.0
 10
334.2586444248
 20
420.5057894482
 10
334.6291954164
 20
419.2385706692
 10
334.7121757766
 20
418.9014412915
  0
SPLINE
  5
9D
330
1F
100
AcDbEntity
  8
0
  6
Continuous
 62
     7
370
    25
100
AcDbSpline
210
0.0
220
0.0
230
1.0
 70
     8
 71
     3
 72
     9
 73
     5
 74
     0
 42
0.000000001
 43
0.00000001
 40
0.0
 40
0.0
 40
0.0
 40
0.0
 40
0.560000000440572
 40
1.0
 40
1.0
 40
1.0
 40
1.0
 10
331.3094032009014
 20
428.2547384822998
 30
0.0
 10
331.2427303682894
 20
428.1911953033309
 30
0.0
 10
331.1236717387185
 20
428.0777253409759
 30
0.0
 10
330.9369455279482
 20
427.9083583310659
 30
0.0
 10
330.8547859952914
 20
427.8338368467802
 30
0.0
  0
SPLINE
  5
9E
330
1F
100
AcDbEntity
  8
0
  6
Continuous
 62
     7
370
    25
100
AcDbSpline
210
0.0
220
0.0
230
1.0
 70
     8
 71
     3
 72
     9
 73
     5
 74
     0
 42
0.000000001
 43
0.00000001
 40
0.0
 40
0.0
 40
0.0
 40
0.0
 40
0.5599999995281739
 40
0.9999999999999999
 40
0.9999999999999999
 40
0.9999999999999999
 40
0.9999999999999999
 10
300.9083781838126
 20
401.1854796381775
 30
0.0
 10
300.8041583188451
 20
401.0946714234057
 30
0.0
 10
300.6180514169606
 20
400.9325138968908
 30
0.0
 10
300.5039608345272
 20
400.8386031689324
 30
0.0
 10
300.4537609782026
 20
400.7972824485865
 30
0.0
  0
SPLINE
  5
9F
330
1F
100
AcDbEntity
  8
0
  6
Continuous
 62
     7
370
    25
100
AcDbSpline
210
0.0
220
0.0
230
1.0
 70
     8
 71
     3
 72
     9
 73
     5
 74
     0
 42
0.000000001
 43
0.00000001
 40
0.0
 40
0.0
 40
0.0
 40
0.0
 40
0.5600000000440138
 40
1.0
 40
1.0
 40
1.0
 40
1.0
 10
299.4173077437482
 20
399.9089980186331
 30
0.0
 10
299.6559443645759
 20
400.1178424987104
 30
0.0
 10
300.0820811874493
 20
400.4907790702478
 30
0.0
 10
300.3401921532478
 20
400.7036286385358
 30
0.0
 10
300.4537609781878
 20
400.7972824485732
 30
0.0
  0
SPLINE
  5
A0
330
1F
100
AcDbEntity
  8
0
  6
Continuous
 62
     7
370
    25
100
AcDbSpline
210
0.0
220
0.0
230
1.0
 70
     8
 71
     3
 72
     9
 73
     5
 74
     0
 42
0.000000001
 43
0.00000001
 40
0.0
 40
0.0
 40
0.0
 40
0.0
 40
0.5599999999792347
 40
1.0
 40
1.0
 40
1.0
 40
1.0
 10
331.3094032009163
 20
428.2547384823129
 30
0.0
 10
331.4610166182961
 20
428.3989540392653
 30
0.0
 10
331.7317548636274
 20
428.6564818195469
 30
0.0
 10
332.1582142889954
 20
429.041610892013
 30
0.0
 10
332.3458564361662
 20
429.211067683906
 30
0.0
  0
SPLINE
  5
A1
330
1F
100
AcDbEntity
  8
0
  6
Continuous
 62
     7
370
    25
100
AcDbSpline
210
0.0
220
0.0
230
1.0
 70
     8
 71
     3
 72
    11
 73
     7
 74
     0
 42
0.000000001
 43
0.00000001
 40
0.0
 40
0.0
 40
0.0
 40
0.0
 40
0.2723457484540766
 40
0.5618939965505388
 40
0.7876533507594822
 40
1.0
 40
1.0
 40
1.0
 40
1.0
 10
336.0463891780319
 20
432.5462589180877
 30
0.0
 10
336.0421827836723
 20
432.540743943349
 30
0.0
 10
336.0335043014445
 20
432.5293656449384
 30
0.0
 10
335.9691245594213
 20
432.4677311323039
 30
0.0
 10
335.8871685769694
 20
432.3919184610926
 30
0.0
 10
335.828138172461
 20
432.3386532574867
 30
0.0
 10
335.7995265841651
 20
432.3128360182392
 30
0.0
  0
SPLINE
  5
A2
330
1F
100
AcDbEntity
  8
0
  6
Continuous
 62
     7
370
    25
100
AcDbSpline
210
0.0
220
0.0
230
1.0
 70
     8
 71
     3
 72
    11
 73
     7
 74
     0
 42
0.000000001
 43
0.00000001
 40
0.0
 40
0.0
 40
0.0
 40
0.0
 40
0.2723457483393563
 40
0.5618939964056996
 40
0.7876533506639525
 40
1.0
 40
1.0
 40
1.0
 40
1.0
 10
295.9636375949389
 20
396.864143601106
 30
0.0
 10
295.9270269701966
 20
396.8320662208051
 30
0.0
 10
295.8514932401025
 20
396.7658853183258
 30
0.0
 10
295.7711023149649
 20
396.6980652056884
 30
0.0
 10
295.7245827676113
 20
396.6609410636903
 30
0.0
 10
295.7193239230512
 20
396.6591057161726
 30
0.0
 10
295.7167750010721
 20
396.6582161371836
 30
0.0
  0
LWPOLYLINE
  5
A3
330
1F
100
AcDbEntity
  8
0
  6
Continuous
 62
     7
370
    25
100
AcDbPolyline
 90
        3
 70
   128
 43
0.0
 10
289.7163146803
 20
407.9445555616
 10
289.8034813822
 20
407.6113102112
 10
290.488023912
 20
405.4335577129
  0
LINE
  5
A4
330
1F
100
AcDbEntity
  8
0
  6
Continuous
 62
     7
370
    25
100
AcDbLine
 10
295.1480969941
 20
397.317612221
 30
0.0
 11
295.7167750083
 21
396.6582161288
 31
0.0
  0
LINE
  5
A5
330
1F
100
AcDbEntity
  8
0
  6
Continuous
 62
     7
370
    25
100
AcDbLine
 10
295.7167750083
 20
396.6582161288
 30
0.0
 11
296.9207919469
 21
395.3918650811
 31
0.0
  0
LWPOLYLINE
  5
A6
330
1F
100
AcDbEntity
  8
0
  6
Continuous
 62
     7
370
    25
100
AcDbPolyline
 90
        3
 70
   128
 43
0.0
 10
304.5773424138
 20
390.0975052988
 10
305.919823207
 20
389.5224384052
 10
307.0073139091
 20
389.1178230883
  0
LWPOLYLINE
  5
A7
330
1F
100
AcDbEntity
  8
0
  6
Continuous
 62
     7
370
    25
100
AcDbPolyline
 90
        3
 70
   128
 43
0.0
 10
316.1656923015
 20
387.620179118
 10
318.2420833851
 20
387.7220047074
 10
318.7854184284
 20
387.7751970437
  0
LINE
  5
A8
330
1F
100
AcDbEntity
  8
0
  6
Continuous
 62
     7
370
    25
100
AcDbLine
 10
327.708065969
 20
390.3449349508
 30
0.0
 11
330.0031154132
 21
391.6036010754
 31
0.0
  0
LWPOLYLINE
  5
A9
330
1F
100
AcDbEntity
  8
0
  6
Continuous
 62
     7
370
    25
100
AcDbPolyline
 90
        3
 70
   128
 43
0.0
 10
336.9884546547
 20
397.7750382738
 10
337.0653469886
 20
397.8718230213
 10
338.5204324364
 20
399.8978577453
  0
LWPOLYLINE
  5
AA
330
1F
100
AcDbEntity
  8
0
  6
Continuous
 62
     7
370
    25
100
AcDbPolyline
 90
        3
 70
   128
 43
0.0
 10
342.1877704066
 20
408.5244574977
 10
342.3252589847
 20
409.1528577929
 10
342.6543283163
 20
411.1086468601
  0
LINE
  5
AB
330
1F
100
AcDbEntity
  8
0
  6
Continuous
 62
     7
370
    25
100
AcDbLine
 10
336.0463891782
 20
432.569444753
 30
0.0
 11
337.005419498
 21
431.4313470191
 31
0.0
  0
LWPOLYLINE
  5
AC
330
1F
100
AcDbEntity
  8
0
  6
Continuous
 62
     7
370
    25
100
AcDbPolyline
 90
        3
 70
   128
 43
0.0
 10
341.5201650499
 20
423.0856704024
 10
341.8995550978
 20
421.836641469
 10
342.226860744
 20
420.5316703325
  0
LWPOLYLINE
  5
AD
330
1F
100
AcDbEntity
  8
0
  6
Continuous
 62
     7
370
    25
100
AcDbPolyline
 90
        3
 70
   128
 43
0.0
 10
289.0184633524
 20
417.3390688381
 10
289.1069890476
 20
418.1048492001
 10
289.4099930726
 20
419.9377261653
  0
LWPOLYLINE
  5
AE
330
1F
100
AcDbEntity
  8
0
  6
Continuous
 62
     7
370
    25
100
AcDbPolyline
 90
        3
 70
   128
 43
0.0
 10
292.8871846306
 20
428.7680460566
 10
293.3902362347
 20
429.5541735948
 10
294.3844542918
 20
430.9517349862
  0
LWPOLYLINE
  5
AF
330
1F
100
AcDbEntity
  8
0
  6
Continuous
 62
     7
370
    25
100
AcDbPolyline
 90
        3
 70
   128
 43
0.0
 10
301.4100650693
 20
437.4057298924
 10
302.2887782729
 20
437.9400715265
 10
303.730266018
 20
438.7218432936
  0
LWPOLYLINE
  5
B0
330
1F
100
AcDbEntity
  8
0
  6
Continuous
 62
     7
370
    25
100
AcDbPolyline
 90
        3
 70
   128
 43
0.0
 10
312.9003692552
 20
441.4439858009
 10
313.9766063713
 20
441.5417303859
 10
315.5779209069
 20
441.6072690835
  0
LWPOLYLINE
  5
B1
330
1F
100
AcDbEntity
  8
0
  6
Continuous
 62
     7
370
    25
100
AcDbPolyline
 90
        3
 70
   128
 43
0.0
 10
325.013978424
 20
440.0185919993
 10
326.0553414736
 20
439.6200784564
 10
327.4812197176
 20
438.9918835829
  0
LINE
  5
B2
330
1F
100
AcDbEntity
  8
0
  6
Continuous
 62
     7
370
    25
100
AcDbLine
 10
335.2429591405
 20
433.4324898171
 30
0.0
 11
336.0463891782
 21
432.569444753
 31
0.0
  0
ARC
  5
B3
330
1F
100
AcDbEntity
  8
0
  6
Continuous
 62
     7
370
    25
100
AcDbCircle
 10
315.8805058305
 20
413.9149262936
 30
0.0
 40
39.48922426024717
100
AcDbArc
 50
221.9945936088
 51
41.9899254217
  0
ARC
  5
B4
330
1F
100
AcDbEntity
  8
0
  6
Continuous
 62
     7
370
    25
100
AcDbCircle
 10
315.8826583486
 20
413.9125350305
 30
0.0
 40
39.48922426024426
100
AcDbArc
 50
41.9945935853
 51
221.9899254555
  0
ARC
  5
B5
330
1F
100
AcDbEntity
  8
0
  6
Continuous
 62
     7
370
    25
100
AcDbCircle
 10
315.8838160532
 20
413.9127398457
 30
0.0
 40
39.50224005131311
100
AcDbArc
 50
42.0180688803
 51
179.9681910197
  0
ARC
  5
B6
330
1F
100
AcDbEntity
  8
0
  6
Continuous
 62
     7
370
    25
100
AcDbCircle
 10
315.9192404574
 20
413.9330297407
 30
0.0
 40
39.46234166632006
100
AcDbArc
 50
0.0023820321
 51
42.0306101942
  0
SPLINE
  5
B7
330
1F
100
AcDbEntity
  8
0
  6
Continuous
 62
     7
370
    25
100
AcDbSpline
210
0.0
220
0.0
230
1.0
 70
     8
 71
     3
 72
     9
 73
     5
 74
     0
 42
0.000000001
 43
0.00000001
 40
0.0
 40
0.0
 40
0.0
 40
0.0
 40
0.5599999999871729
 40
1.0
 40
1.0
 40
1.0
 40
1.0
 10
287.4241834062535
 20
388.3164790381875
 30
0.0
 10
287.2796178459003
 20
388.1803559689163
 30
0.0
 10
287.0214650595493
 20
387.9372790594979
 30
0.0
 10
286.6814198657383
 20
387.6296178641813
 30
0.0
 10
286.5317999804571
 20
387.4942469382379
 30
0.0
  0
SPLINE
  5
B8
330
1F
100
AcDbEntity
  8
0
  6
Continuous
 62
     7
370
    25
100
AcDbSpline
210
0.0
220
0.0
230
1.0
 70
     8
 71
     3
 72
     9
 73
     5
 74
     0
 42
0.000000001
 43
0.00000001
 40
0.0
 40
0.0
 40
0.0
 40
0.0
 40
0.5600000000054094
 40
1.0
 40
1.0
 40
1.0
 40
1.0
 10
345.2313641986468
 20
440.3332143857803
 30
0.0
 10
345.0401015711415
 20
440.162185926628
 30
0.0
 10
344.6985611648852
 20
439.8567779638591
 30
0.0
 10
344.448852558931
 20
439.6429541956188
 30
0.0
 10
344.3389807723125
 20
439.5488717375943
 30
0.0
  0
ARC
  5
B9
330
1F
100
AcDbEntity
  8
0
  6
Continuous
 62
     7
370
    25
100
AcDbCircle
 10
315.88289093
 20
413.9312213786
 30
0.0
 40
38.28854997303657
100
AcDbArc
 50
41.9951869938
 51
221.9893320235
  0
SPLINE
  5
BA
330
1F
100
AcDbEntity
  8
0
  6
Continuous
 62
     7
370
    25
100
AcDbSpline
210
0.0
220
0.0
230
1.0
 70
     8
 71
     3
 72
    12
 73
     8
 74
     0
 42
0.000000001
 43
0.00000001
 40
0.0
 40
0.0
 40
0.0
 40
0.0
 40
0.3203755331913491
 40
0.5620058561934336
 40
0.7625110883901904
 40
0.896463502254964
 40
1.0
 40
1.0
 40
1.0
 40
1.0
 10
331.2694299083788
 20
446.8719524587477
 30
0.0
 10
331.301940161254
 20
446.969729154288
 30
0.0
 10
331.3589699610025
 20
447.1412499784454
 30
0.0
 10
331.302858192499
 20
447.4047405408041
 30
0.0
 10
331.183721615413
 20
447.5973395255235
 30
0.0
 10
331.0396287297904
 20
447.7247203710967
 30
0.0
 10
330.9427387976933
 20
447.7712068345755
 30
0.0
 10
330.900498323525
 20
447.7914732360194
 30
0.0
  0
LINE
  5
BB
330
1F
100
AcDbEntity
  8
0
  6
Continuous
 62
     7
370
    25
100
AcDbLine
 10
328.9138521887
 20
448.6047922552
 30
0.0
 11
330.9004983235
 21
447.791473236
 31
0.0
  0
SPLINE
  5
BC
330
1F
100
AcDbEntity
  8
0
  6
Continuous
 62
     7
370
    25
100
AcDbSpline
210
0.0
220
0.0
230
1.0
 70
     8
 71
     3
 72
    12
 73
     8
 74
     0
 42
0.000000001
 43
0.00000001
 40
0.0
 40
0.0
 40
0.0
 40
0.0
 40
0.1369201212178404
 40
0.2732892266835644
 40
0.4609277195254603
 40
0.7173042691150178
 40
1.0
 40
1.0
 40
1.0
 40
1.0
 10
328.9138521886713
 20
448.6047922552427
 30
0.0
 10
328.8545632040775
 20
448.6238711691259
 30
0.0
 10
328.7362238350617
 20
448.6619522164895
 30
0.0
 10
328.5359172761945
 20
448.6599572218246
 30
0.0
 10
328.3185954360995
 20
448.5982348292669
 30
0.0
 10
328.10803701483
 20
448.4505662569194
 30
0.0
 10
328.0297927654141
 20
448.2960602505385
 30
0.0
 10
327.9887605771949
 20
448.2150355160418
 30
0.0
  0
SPLINE
  5
BD
330
1F
100
AcDbEntity
  8
0
  6
Continuous
 62
     7
370
    25
100
AcDbSpline
210
0.0
220
0.0
230
1.0
 70
     8
 71
     3
 72
    11
 73
     7
 74
     0
 42
0.000000001
 43
0.00000001
 40
0.0
 40
0.0
 40
0.0
 40
0.0
 40
0.2603296700639507
 40
0.5282089223352201
 40
0.7614183595322344
 40
1.0
 40
1.0
 40
1.0
 40
1.0
 10
322.4340440957072
 20
432.8283978187038
 30
0.0
 10
322.9677504250461
 20
434.3234439113583
 30
0.0
 10
324.0506406119169
 20
437.3568925584085
 30
0.0
 10
325.5274943887455
 20
441.4579895052253
 30
0.0
 10
326.8678415122627
 20
445.1562273037654
 30
0.0
 10
327.6122952336972
 20
447.1877220191502
 30
0.0
 10
327.9887605771949
 20
448.2150355160418
 30
0.0
  0
SPLINE
  5
BE
330
1F
100
AcDbEntity
  8
0
  6
Continuous
 62
     7
370
    25
100
AcDbSpline
210
0.0
220
0.0
230
1.0
 70
     8
 71
     3
 72
    12
 73
     8
 74
     0
 42
0.000000001
 43
0.00000001
 40
0.0
 40
0.0
 40
0.0
 40
0.0
 40
0.2229001245800365
 40
0.4458326905764233
 40
0.6679313583905858
 40
0.8889145851688925
 40
1.0
 40
1.0
 40
1.0
 40
1.0
 10
322.4340440957072
 20
432.8283978187038
 30
0.0
 10
322.4149895424794
 20
432.7517450477377
 30
0.0
 10
322.3768776627787
 20
432.5984283495785
 30
0.0
 10
322.4211184531332
 20
432.3603182381538
 30
0.0
 10
322.5366751358245
 20
432.1519226438564
 30
0.0
 10
322.685954401458
 20
432.0165950680079
 30
0.0
 10
322.792721337461
 20
431.966420036835
 30
0.0
 10
322.8284375957583
 20
431.9496352114898
 30
0.0
  0
LINE
  5
BF
330
1F
100
AcDbEntity
  8
0
  6
Continuous
 62
     7
370
    25
100
AcDbLine
 10
323.3393898428
 20
431.7404549387
 30
0.0
 11
322.8284375958
 21
431.9496352115
 31
0.0
  0
SPLINE
  5
C0
330
1F
100
AcDbEntity
  8
0
  6
Continuous
 62
     7
370
    25
100
AcDbSpline
210
0.0
220
0.0
230
1.0
 70
     8
 71
     3
 72
    12
 73
     8
 74
     0
 42
0.000000001
 43
0.00000001
 40
0.0
 40
0.0
 40
0.0
 40
0.0
 40
0.2201335749264502
 40
0.4402546066784568
 40
0.660743848110988
 40
0.8821597119404022
 40
1.0
 40
1.0
 40
1.0
 40
1.0
 10
323.3393898427767
 20
431.7404549386728
 30
0.0
 10
323.4148909354756
 20
431.7178223691271
 30
0.0
 10
323.5658888188337
 20
431.672558519636
 30
0.0
 10
323.8048286883248
 20
431.7037747809319
 30
0.0
 10
324.0182876723966
 20
431.8063547413182
 30
0.0
 10
324.1629832578849
 20
431.9477245192675
 30
0.0
 10
324.219417256798
 20
432.0529155158712
 30
0.0
 10
324.2390195503784
 20
432.0894535042673
 30
0.0
  0
SPLINE
  5
C1
330
1F
100
AcDbEntity
  8
0
  6
Continuous
 62
     7
370
    25
100
AcDbSpline
210
0.0
220
0.0
230
1.0
 70
     8
 71
     3
 72
    11
 73
     7
 74
     0
 42
0.000000001
 43
0.00000001
 40
0.0
 40
0.0
 40
0.0
 40
0.0
 40
0.2832270505253232
 40
0.576269081745935
 40
0.7861908663395994
 40
1.0
 40
1.0
 40
1.0
 40
1.0
 10
331.2694299083788
 20
446.8719524587477
 30
0.0
 10
330.6994307860365
 20
445.6913131447204
 30
0.0
 10
329.5396797304119
 20
443.2891205147941
 30
0.0
 10
327.6809175753993
 20
439.3868556091896
 30
0.0
 10
325.8943111055671
 20
435.6120173045926
 30
0.0
 10
324.7941477377095
 20
433.2708009539678
 30
0.0
 10
324.2390195503784
 20
432.0894535042673
 30
0.0
  0
SPLINE
  5
C2
330
1F
100
AcDbEntity
  8
0
  6
Continuous
 62
     7
370
    25
100
AcDbSpline
210
0.0
220
0.0
230
1.0
 70
     8
 71
     3
 72
    13
 73
     9
 74
     0
 42
0.000000001
 43
0.00000001
 40
0.0
 40
0.0
 40
0.0
 40
0.0
 40
0.3201770901877733
 40
0.4946667587106282
 40
0.6890181118666849
 40
0.8387695944501025
 40
0.9672348183767482
 40
0.9999999999999999
 40
0.9999999999999999
 40
0.9999999999999999
 40
0.9999999999999999
 10
315.4760601089907
 20
450.2894874246171
 30
0.0
 10
315.4616247740817
 20
450.3915001483672
 30
0.0
 10
315.4393224902857
 20
450.5491076254518
 30
0.0
 10
315.2997992292608
 20
450.743031351409
 30
0.0
 10
315.1471166763194
 20
450.866600745361
 30
0.0
 10
314.9616686323625
 20
450.9407787578631
 30
0.0
 10
314.8214556395275
 20
450.9591112824806
 30
0.0
 10
314.7488792835967
 20
450.9562061800058
 30
0.0
 10
314.7341303441797
 20
450.955615806187
 30
0.0
  0
LINE
  5
C3
330
1F
100
AcDbEntity
  8
0
  6
Continuous
 62
     7
370
    25
100
AcDbLine
 10
312.5911230956
 20
450.8269425639
 30
0.0
 11
314.7341303442
 21
450.9556158062
 31
0.0
  0
SPLINE
  5
C4
330
1F
100
AcDbEntity
  8
0
  6
Continuous
 62
     7
370
    25
100
AcDbSpline
210
0.0
220
0.0
230
1.0
 70
     8
 71
     3
 72
    12
 73
     8
 74
     0
 42
0.000000001
 43
0.00000001
 40
0.0
 40
0.0
 40
0.0
 40
0.0
 40
0.1369201143547847
 40
0.2732892131935767
 40
0.4609276901287082
 40
0.7173042183016193
 40
1.0
 40
1.0
 40
1.0
 40
1.0
 10
312.5911230956332
 20
450.8269425638571
 30
0.0
 10
312.5294681069356
 20
450.8184336242463
 30
0.0
 10
312.4064062512687
 20
450.8014499880414
 30
0.0
 10
312.2279087320968
 20
450.7130481152303
 30
0.0
 10
312.0609444199662
 20
450.5636683629523
 30
0.0
 10
311.9385384970442
 20
450.3400491478785
 30
0.0
 10
311.9376486927672
 20
450.1674922994123
 30
0.0
 10
311.9371820690674
 20
450.0770014834841
 30
0.0
  0
SPLINE
  5
C5
330
1F
100
AcDbEntity
  8
0
  6
Continuous
 62
     7
370
    25
100
AcDbSpline
210
0.0
220
0.0
230
1.0
 70
     8
 71
     3
 72
    11
 73
     7
 74
     0
 42
0.000000001
 43
0.00000001
 40
0.0
 40
0.0
 40
0.0
 40
0.0
 40
0.2603296700649097
 40
0.5282089223371708
 40
0.7614183595020905
 40
1.0
 40
1.0
 40
1.0
 40
1.0
 10
313.7286333948734
 20
433.8319463155657
 30
0.0
 10
313.5565077940896
 20
435.4094705758649
 30
0.0
 10
313.2072649357017
 20
438.6102674319651
 30
0.0
 10
312.7309649004517
 20
442.9395951241405
 30
0.0
 10
312.2986896188277
 20
446.8449681367717
 30
0.0
 10
312.0585958875732
 20
448.9915096025471
 30
0.0
 10
311.9371820690674
 20
450.0770014834841
 30
0.0
  0
SPLINE
  5
C6
330
1F
100
AcDbEntity
  8
0
  6
Continuous
 62
     7
370
    25
100
AcDbSpline
210
0.0
220
0.0
230
1.0
 70
     8
 71
     3
 72
    12
 73
     8
 74
     0
 42
0.000000001
 43
0.00000001
 40
0.0
 40
0.0
 40
0.0
 40
0.0
 40
0.2229001236196396
 40
0.4458326887125145
 40
0.6679313556061395
 40
0.8889145814683811
 40
1.0
 40
1.0
 40
1.0
 40
1.0
 10
313.7286333948734
 20
433.8319463155657
 30
0.0
 10
313.7448765413232
 20
433.7546522502508
 30
0.0
 10
313.7773651982932
 20
433.6000528700382
 30
0.0
 10
313.9209180694143
 20
433.4047793256258
 30
0.0
 10
314.1157286345653
 20
433.2671798768685
 30
0.0
 10
314.3090771713841
 20
433.2100072216372
 30
0.0
 10
314.4270649557522
 20
433.2110997387088
 30
0.0
 10
314.4665348744856
 20
433.211465213493
 30
0.0
  0
LINE
  5
C7
330
1F
100
AcDbEntity
  8
0
  6
Continuous
 62
     7
370
    25
100
AcDbLine
 10
315.0177021636
 20
433.2445591203
 30
0.0
 11
314.4665348745
 21
433.2114652135
 31
0.0
  0
SPLINE
  5
C8
330
1F
100
AcDbEntity
  8
0
  6
Continuous
 62
     7
370
    25
100
AcDbSpline
210
0.0
220
0.0
230
1.0
 70
     8
 71
     3
 72
    12
 73
     8
 74
     0
 42
0.000000001
 43
0.00000001
 40
0.0
 40
0.0
 40
0.0
 40
0.0
 40
0.2201335711101322
 40
0.4402545990408618
 40
0.6607438366209056
 40
0.8821596965545282
 40
1.0
 40
1.0
 40
1.0
 40
1.0
 10
315.0177021636366
 20
433.244559120263
 30
0.0
 10
315.0955399903754
 20
433.2569038363327
 30
0.0
 10
315.2512112086649
 20
433.2815925650719
 30
0.0
 10
315.4527610506729
 20
433.4132864773929
 30
0.0
 10
315.6002772649159
 20
433.5982064768047
 30
0.0
 10
315.6689689873434
 20
433.7882508485343
 30
0.0
 10
315.6739435350075
 20
433.9074494131069
 30
0.0
 10
315.6756714393745
 20
433.9488529203553
 30
0.0
  0
SPLINE
  5
C9
330
1F
100
AcDbEntity
  8
0
  6
Continuous
 62
     7
370
    25
100
AcDbSpline
210
0.0
220
0.0
230
1.0
 70
     8
 71
     3
 72
    11
 73
     7
 74
     0
 42
0.000000001
 43
0.00000001
 40
0.0
 40
0.0
 40
0.0
 40
0.0
 40
0.28322705054099
 40
0.5762690817789545
 40
0.7861908663567672
 40
1.0
 40
1.0
 40
1.0
 40
1.0
 10
315.4760601089907
 20
450.2894874246171
 30
0.0
 10
315.4922438417524
 20
448.982520364268
 30
0.0
 10
315.5251721400931
 20
446.3232944663742
 30
0.0
 10
315.5779471515011
 20
442.0090758844371
 30
0.0
 10
315.6286734781694
 20
437.8382756214372
 30
0.0
 10
315.659909930213
 20
435.2532323011627
 30
0.0
 10
315.6756714393745
 20
433.9488529203553
 30
0.0
  0
SPLINE
  5
CA
330
1F
100
AcDbEntity
  8
0
  6
Continuous
 62
     7
370
    25
100
AcDbSpline
210
0.0
220
0.0
230
1.0
 70
     8
 71
     3
 72
    13
 73
     9
 74
     0
 42
0.000000001
 43
0.00000001
 40
0.0
 40
0.0
 40
0.0
 40
0.0
 40
0.1923255843130426
 40
0.4540879704407333
 40
0.6566903155945423
 40
0.8131117782651964
 40
0.9441977497085008
 40
0.9999999999999999
 40
0.9999999999999999
 40
0.9999999999999999
 40
0.9999999999999999
 10
299.7630089095589
 20
446.5202680416388
 30
0.0
 10
299.7303533142709
 20
446.5725781906617
 30
0.0
 10
299.6532522200984
 20
446.6960844287323
 30
0.0
 10
299.4700396771237
 20
446.8262546111927
 30
0.0
 10
299.246993436964
 20
446.8917555916652
 30
0.0
 10
299.042176854006
 20
446.8879801663763
 30
0.0
 10
298.8923835241358
 20
446.8465325139467
 30
0.0
 10
298.8174141219491
 20
446.8078951075838
 30
0.0
 10
298.795029290491
 20
446.7963585099295
 30
0.0
  0
LINE
  5
CB
330
1F
100
AcDbEntity
  8
0
  6
Continuous
 62
     7
370
    25
100
AcDbLine
 10
296.9201096944
 20
445.7511783231
 30
0.0
 11
298.7950292905
 21
446.7963585099
 31
0.0
  0
SPLINE
  5
CC
330
1F
100
AcDbEntity
  8
0
  6
Continuous
 62
     7
370
    25
100
AcDbSpline
210
0.0
220
0.0
230
1.0
 70
     8
 71
     3
 72
    12
 73
     8
 74
     0
 42
0.000000001
 43
0.00000001
 40
0.0
 40
0.0
 40
0.0
 40
0.0
 40
0.136920122572592
 40
0.2732892293761675
 40
0.4609277253893037
 40
0.7173042792486649
 40
0.9999999999999999
 40
0.9999999999999999
 40
0.9999999999999999
 40
0.9999999999999999
 10
296.9201096943978
 20
445.7511783231122
 30
0.0
 10
296.8683002266681
 20
445.716787633591
 30
0.0
 10
296.7648897911222
 20
445.6481446550399
 30
0.0
 10
296.6435549380641
 20
445.49134967489
 30
0.0
 10
296.5600174942676
 20
445.2848293449466
 30
0.0
 10
296.5500081131525
 20
445.0310056246681
 30
0.0
 10
296.6266489967055
 20
444.8757279515788
 30
0.0
 10
296.6668403603416
 20
444.7942985481796
 30
0.0
  0
SPLINE
  5
CD
330
1F
100
AcDbEntity
  8
0
  6
Continuous
 62
     7
370
    25
100
AcDbSpline
210
0.0
220
0.0
230
1.0
 70
     8
 71
     3
 72
    11
 73
     7
 74
     0
 42
0.000000001
 43
0.00000001
 40
0.0
 40
0.0
 40
0.0
 40
0.0
 40
0.2603296700613603
 40
0.5282089223299593
 40
0.761418359463563
 40
1.0
 40
1.0
 40
1.0
 40
1.0
 10
305.4496405884782
 20
430.9612770526707
 30
0.0
 10
304.6057746436341
 20
432.3070491358457
 30
0.0
 10
302.8935705709596
 20
435.0376208051756
 30
0.0
 10
300.5584537871821
 20
438.7256518531022
 30
0.0
 10
298.4391735213057
 20
442.0490037301686
 30
0.0
 10
297.2620858452577
 20
443.8722798322992
 30
0.0
 10
296.6668403603416
 20
444.7942985481796
 30
0.0
  0
SPLINE
  5
CE
330
1F
100
AcDbEntity
  8
0
  6
Continuous
 62
     7
370
    25
100
AcDbSpline
210
0.0
220
0.0
230
1.0
 70
     8
 71
     3
 72
    12
 73
     8
 74
     0
 42
0.000000001
 43
0.00000001
 40
0.0
 40
0.0
 40
0.0
 40
0.0
 40
0.2229001220214023
 40
0.4458326855483494
 40
0.6679313506030174
 40
0.8889145746354904
 40
1.0
 40
1.0
 40
1.0
 40
1.0
 10
305.4496405884782
 20
430.9612770526707
 30
0.0
 10
305.4979642804435
 20
430.8987109694506
 30
0.0
 10
305.5946186975391
 20
430.7735696969681
 30
0.0
 10
305.8090512429211
 20
430.6599542136214
 30
0.0
 10
306.0445310690455
 20
430.6205059116117
 30
0.0
 10
306.2436538297152
 20
430.6528576995628
 30
0.0
 10
306.3494935352062
 20
430.7050062617444
 30
0.0
 10
306.3848996138177
 20
430.7224512847015
 30
0.0
  0
LINE
  5
CF
330
1F
100
AcDbEntity
  8
0
  6
Continuous
 62
     7
370
    25
100
AcDbLine
 10
306.8671165306
 20
430.991264714
 30
0.0
 11
306.3848996138
 21
430.7224512847
 31
0.0
  0
SPLINE
  5
D0
330
1F
100
AcDbEntity
  8
0
  6
Continuous
 62
     7
370
    25
100
AcDbSpline
210
0.0
220
0.0
230
1.0
 70
     8
 71
     3
 72
    12
 73
     8
 74
     0
 42
0.000000001
 43
0.00000001
 40
0.0
 40
0.0
 40
0.0
 40
0.0
 40
0.2201335757473505
 40
0.4402546082627352
 40
0.660743850465246
 40
0.8821597150738477
 40
1.0
 40
1.0
 40
1.0
 40
1.0
 10
306.8671165306173
 20
430.9912647139593
 30
0.0
 10
306.9318743543787
 20
431.0361361325709
 30
0.0
 10
307.0613863119948
 20
431.1258764130166
 30
0.0
 10
307.1856267016968
 20
431.3318845268199
 30
0.0
 10
307.2379827419057
 20
431.5623962769686
 30
0.0
 10
307.2170653489445
 20
431.7633381779928
 30
0.0
 10
307.169595175204
 20
431.8728432942498
 30
0.0
 10
307.1531064577356
 20
431.9108797870837
 30
0.0
  0
SPLINE
  5
D1
330
1F
100
AcDbEntity
  8
0
  6
Continuous
 62
     7
370
    25
100
AcDbSpline
210
0.0
220
0.0
230
1.0
 70
     8
 71
     3
 72
    11
 73
     7
 74
     0
 42
0.000000001
 43
0.00000001
 40
0.0
 40
0.0
 40
0.0
 40
0.0
 40
0.2832270505044771
 40
0.5762690817061515
 40
0.7861908663338459
 40
1.0
 40
1.0
 40
1.0
 40
1.0
 10
299.7630089095589
 20
446.5202680416388
 30
0.0
 10
300.3621701109066
 20
445.3536638896125
 30
0.0
 10
301.5812559103721
 20
442.9800279596924
 30
0.0
 10
303.5351153502685
 20
439.1235315941543
 30
0.0
 10
305.4131275033886
 20
435.3926851306939
 30
0.0
 10
306.5695770125148
 20
433.0785582440259
 30
0.0
 10
307.1531064577356
 20
431.9108797870837
 30
0.0
  0
SPLINE
  5
D2
330
1F
100
AcDbEntity
  8
0
  6
Continuous
 62
     7
370
    25
100
AcDbSpline
210
0.0
220
0.0
230
1.0
 70
     8
 71
     3
 72
    12
 73
     8
 74
     0
 42
0.000000001
 43
0.00000001
 40
0.0
 40
0.0
 40
0.0
 40
0.0
 40
0.3203291957399261
 40
0.5619245719158965
 40
0.7389290157734937
 40
0.8801315585623979
 40
1.0
 40
1.0
 40
1.0
 40
1.0
 10
287.2424388100495
 20
436.3108344332806
 30
0.0
 10
287.1509459239207
 20
436.3615898588395
 30
0.0
 10
286.9904482185758
 20
436.4506255170277
 30
0.0
 10
286.7216873570954
 20
436.4485876914169
 30
0.0
 10
286.5105351824092
 20
436.3783803844302
 30
0.0
 10
286.3491115372018
 20
436.271765404367
 30
0.0
 10
286.2744224314266
 20
436.1797440816543
 30
0.0
 10
286.2401295867882
 20
436.1374933023681
 30
0.0
  0
LINE
  5
D3
330
1F
100
AcDbEntity
  8
0
  6
Continuous
 62
     7
370
    25
100
AcDbLine
 10
285.0046485085
 20
434.3828169285
 30
0.0
 11
286.2401295868
 21
436.1374933024
 31
0.0
  0
SPLINE
  5
D4
330
1F
100
AcDbEntity
  8
0
  6
Continuous
 62
     7
370
    25
100
AcDbSpline
210
0.0
220
0.0
230
1.0
 70
     8
 71
     3
 72
    12
 73
     8
 74
     0
 42
0.000000001
 43
0.00000001
 40
0.0
 40
0.0
 40
0.0
 40
0.0
 40
0.1369201157522455
 40
0.2732892159078255
 40
0.4609276959963806
 40
0.7173042284140216
 40
0.9999999999999999
 40
0.9999999999999999
 40
0.9999999999999999
 40
0.9999999999999999
 10
285.0046485084609
 20
434.3828169285489
 30
0.0
 10
284.9729460612837
 20
434.329376804068
 30
0.0
 10
284.9096687489338
 20
434.2227116173116
 30
0.0
 10
284.8695284058257
 20
434.0290834372749
 30
0.0
 10
284.885963425171
 20
433.807256755341
 30
0.0
 10
284.9903330248414
 20
433.5749569993666
 30
0.0
 10
285.1293249342571
 20
433.4688661087733
 30
0.0
 10
285.2022139044093
 20
433.4132308146731
 30
0.0
  0
SPLINE
  5
D5
330
1F
100
AcDbEntity
  8
0
  6
Continuous
 62
     7
370
    25
100
AcDbSpline
210
0.0
220
0.0
230
1.0
 70
     8
 71
     3
 72
    11
 73
     7
 74
     0
 42
0.000000001
 43
0.00000001
 40
0.0
 40
0.0
 40
0.0
 40
0.0
 40
0.2603296700661917
 40
0.5282089223397664
 40
0.7614183594655056
 40
1.0
 40
1.0
 40
1.0
 40
1.0
 10
299.2368217345319
 20
424.7849612840454
 30
0.0
 10
297.8883534453825
 20
425.6306522062339
 30
0.0
 10
295.1523111739048
 20
427.3465591580928
 30
0.0
 10
291.4208761593316
 20
429.6507828379496
 30
0.0
 10
288.0343403574686
 20
431.7182336536671
 30
0.0
 10
286.1533953871233
 20
432.8439589479242
 30
0.0
 10
285.2022139044093
 20
433.4132308146731
 30
0.0
  0
SPLINE
  5
D6
330
1F
100
AcDbEntity
  8
0
  6
Continuous
 62
     7
370
    25
100
AcDbSpline
210
0.0
220
0.0
230
1.0
 70
     8
 71
     3
 72
    12
 73
     8
 74
     0
 42
0.000000001
 43
0.00000001
 40
0.0
 40
0.0
 40
0.0
 40
0.0
 40
0.2229001272209481
 40
0.4458326959109242
 40
0.6679313662889954
 40
0.8889145956180541
 40
1.0
 40
1.0
 40
1.0
 40
1.0
 10
299.2368217345319
 20
424.7849612840454
 30
0.0
 10
299.3076548721103
 20
424.7495754021243
 30
0.0
 10
299.4493314565078
 20
424.6787984881281
 30
0.0
 10
299.692172680159
 20
424.6694891792367
 30
0.0
 10
299.9216820996699
 20
424.7361069858659
 30
0.0
 10
300.0871403690279
 20
424.8516213206458
 30
0.0
 10
300.1598691387931
 20
424.9445021354575
 30
0.0
 10
300.1841987621884
 20
424.9755731305026
 30
0.0
  0
LINE
  5
D7
330
1F
100
AcDbEntity
  8
0
  6
Continuous
 62
     7
370
    25
100
AcDbLine
 10
300.5019563218
 20
425.426864286
 30
0.0
 11
300.1841987622
 21
424.9755731305
 31
0.0
  0
SPLINE
  5
D8
330
1F
100
AcDbEntity
  8
0
  6
Continuous
 62
     7
370
    25
100
AcDbSpline
210
0.0
220
0.0
230
1.0
 70
     8
 71
     3
 72
    12
 73
     8
 74
     0
 42
0.000000001
 43
0.00000001
 40
0.0
 40
0.0
 40
0.0
 40
0.0
 40
0.22013640547267
 40
0.4402602676309819
 40
0.6607523441707838
 40
0.8834152975165496
 40
1.0
 40
1.0
 40
1.0
 40
1.0
 10
300.5019563218258
 20
425.4268642860312
 30
0.0
 10
300.5408082152838
 20
425.4953695116136
 30
0.0
 10
300.6185097884292
 20
425.6323760593687
 30
0.0
 10
300.6408311421335
 20
425.8718159567786
 30
0.0
 10
300.5875659729306
 20
426.102574466743
 30
0.0
 10
300.4809845056647
 20
426.2744088405186
 30
0.0
 10
300.3904395098012
 20
426.352383257358
 30
0.0
 10
300.3593231226348
 20
426.3791796818354
 30
0.0
  0
SPLINE
  5
D9
330
1F
100
AcDbEntity
  8
0
  6
Continuous
 62
     7
370
    25
100
AcDbSpline
210
0.0
220
0.0
230
1.0
 70
     8
 71
     3
 72
    11
 73
     7
 74
     0
 42
0.000000001
 43
0.00000001
 40
0.0
 40
0.0
 40
0.0
 40
0.0
 40
0.2832270505599113
 40
0.576269081753951
 40
0.7861908663431407
 40
1.0
 40
1.0
 40
1.0
 40
1.0
 10
287.2424388100495
 20
436.3108344332806
 30
0.0
 10
288.305906256052
 20
435.5234832483943
 30
0.0
 10
290.4696946631677
 20
433.921495926084
 30
0.0
 10
293.937652706735
 20
431.3017401724722
 30
0.0
 10
297.2709873462489
 20
428.7596250230699
 30
0.0
 10
299.3236009043684
 20
427.177499653432
 30
0.0
 10
300.3593231226348
 20
426.3791796818354
 30
0.0
  0
SPLINE
  5
DA
330
1F
100
AcDbEntity
  8
0
  6
Continuous
 62
     7
370
    25
100
AcDbSpline
210
0.0
220
0.0
230
1.0
 70
     8
 71
     3
 72
    12
 73
     8
 74
     0
 42
0.000000001
 43
0.00000001
 40
0.0
 40
0.0
 40
0.0
 40
0.0
 40
0.3203291896136281
 40
0.5619245569549439
 40
0.7389289952628294
 40
0.8801315335581663
 40
1.0
 40
1.0
 40
1.0
 40
1.0
 10
280.3942022731977
 20
421.6832901376134
 30
0.0
 10
280.2882293673782
 20
421.689002740629
 30
0.0
 10
280.1023306729018
 20
421.6990238439897
 30
0.0
 10
279.8578871038925
 20
421.5799218107518
 30
0.0
 10
279.6962187297461
 20
421.424672483074
 30
0.0
 10
279.5960800558424
 20
421.2583939685339
 30
0.0
 10
279.5686687187429
 20
421.1430830673121
 30
0.0
 10
279.5560830432691
 20
421.0901390764334
 30
0.0
  0
LINE
  5
DB
330
1F
100
AcDbEntity
  8
0
  6
Continuous
 62
     7
370
    25
100
AcDbLine
 10
279.20474267
 20
418.973501735
 30
0.0
 11
279.5560830433
 21
421.0901390764
 31
0.0
  0
SPLINE
  5
DC
330
1F
100
AcDbEntity
  8
0
  6
Continuous
 62
     7
370
    25
100
AcDbSpline
210
0.0
220
0.0
230
1.0
 70
     8
 71
     3
 72
    12
 73
     8
 74
     0
 42
0.000000001
 43
0.00000001
 40
0.0
 40
0.0
 40
0.0
 40
0.0
 40
0.1369201147335042
 40
0.2732892139410168
 40
0.4609276917774132
 40
0.7173042211628766
 40
1.0
 40
1.0
 40
1.0
 40
1.0
 10
279.2047426699993
 20
418.9735017349641
 30
0.0
 10
279.1994263019167
 20
418.9116174549068
 30
0.0
 10
279.1888149607188
 20
418.7880979392749
 30
0.0
 10
279.2378194196648
 20
418.5964917039016
 30
0.0
 10
279.3509717535929
 20
418.4042244722006
 30
0.0
 10
279.5490486751573
 20
418.2409141052918
 30
0.0
 10
279.722862557065
 20
418.2061756017548
 30
0.0
 10
279.814012575289
 20
418.1879583270716
 30
0.0
  0
SPLINE
  5
DD
330
1F
100
AcDbEntity
  8
0
  6
Continuous
 62
     7
370
    25
100
AcDbSpline
210
0.0
220
0.0
230
1.0
 70
     8
 71
     3
 72
    11
 73
     7
 74
     0
 42
0.000000001
 43
0.00000001
 40
0.0
 40
0.0
 40
0.0
 40
0.0
 40
0.260329670065432
 40
0.5282089223382244
 40
0.7614183595481318
 40
1.0
 40
1.0
 40
1.0
 40
1.0
 10
296.3207018040282
 20
416.5262940950701
 30
0.0
 10
294.7347118531573
 20
416.7026220796722
 30
0.0
 10
291.5167381101789
 20
417.0603915751789
 30
0.0
 10
287.1280413317656
 20
417.5123771830852
 30
0.0
 10
283.1449949425094
 20
417.8987936196434
 30
0.0
 10
280.9327368973576
 20
418.0908411539316
 30
0.0
 10
279.814012575289
 20
418.1879583270716
 30
0.0
  0
SPLINE
  5
DE
330
1F
100
AcDbEntity
  8
0
  6
Continuous
 62
     7
370
    25
100
AcDbSpline
210
0.0
220
0.0
230
1.0
 70
     8
 71
     3
 72
    12
 73
     8
 74
     0
 42
0.000000001
 43
0.00000001
 40
0.0
 40
0.0
 40
0.0
 40
0.0
 40
0.2229001214508964
 40
0.4458326844630986
 40
0.6679313492014233
 40
0.8889145729193677
 40
1.0
 40
1.0
 40
1.0
 40
1.0
 10
296.3207018040282
 20
416.5262940950701
 30
0.0
 10
296.4000150155821
 20
416.5251572609855
 30
0.0
 10
296.5586529821759
 20
416.5228834273577
 30
0.0
 10
296.7818052017527
 20
416.619869289533
 30
0.0
 10
296.9598870591582
 20
416.7794604739422
 30
0.0
 10
297.0589098117388
 20
416.9553041095181
 30
0.0
 10
297.0841228253877
 20
417.0705258895944
 30
0.0
 10
297.0925572210539
 20
417.1090705116717
 30
0.0
  0
LINE
  5
DF
330
1F
100
AcDbEntity
  8
0
  6
Continuous
 62
     7
370
    25
100
AcDbLine
 10
297.1829196399
 20
417.6534556283
 30
0.0
 11
297.0925572211
 21
417.1090705117
 31
0.0
  0
SPLINE
  5
E0
330
1F
100
AcDbEntity
  8
0
  6
Continuous
 62
     7
370
    25
100
AcDbSpline
210
0.0
220
0.0
230
1.0
 70
     8
 71
     3
 72
    12
 73
     8
 74
     0
 42
0.000000001
 43
0.00000001
 40
0.0
 40
0.0
 40
0.0
 40
0.0
 40
0.2200858061118206
 40
0.4401590717532048
 40
0.5885344628988751
 40
0.8110242970585007
 40
1.0
 40
1.0
 40
1.0
 40
1.0
 10
297.1829196399106
 20
417.6534556283279
 30
0.0
 10
297.188198092356
 20
417.7320009280876
 30
0.0
 10
297.1987546964811
 20
417.8890870521024
 30
0.0
 10
297.1235328967796
 20
418.0901347906328
 30
0.0
 10
297.0017184376181
 20
418.2600109302022
 30
0.0
 10
296.8437194283084
 20
418.3881051501032
 30
0.0
 10
296.7040569735194
 20
418.4300907355726
 30
0.0
 10
296.6399135442683
 20
418.4493736519096
 30
0.0
  0
SPLINE
  5
E1
330
1F
100
AcDbEntity
  8
0
  6
Continuous
 62
     7
370
    25
100
AcDbSpline
210
0.0
220
0.0
230
1.0
 70
     8
 71
     3
 72
    11
 73
     7
 74
     0
 42
0.000000001
 43
0.00000001
 40
0.0
 40
0.0
 40
0.0
 40
0.0
 40
0.2832270505644752
 40
0.5762690817601855
 40
0.7861908663719649
 40
1.0
 40
1.0
 40
1.0
 40
1.0
 10
280.3942022731977
 20
421.6832901376134
 30
0.0
 10
281.7113431934264
 20
421.4389662782434
 30
0.0
 10
284.3912693768057
 20
420.9418517342382
 30
0.0
 10
288.6864544021607
 20
420.0929033414836
 30
0.0
 10
292.8149037223772
 20
419.2528542038078
 30
0.0
 10
295.3571360407354
 20
418.7188335551502
 30
0.0
 10
296.6399135442683
 20
418.4493736519096
 30
0.0
  0
SPLINE
  5
E2
330
1F
100
AcDbEntity
  8
0
  6
Continuous
 62
     7
370
    25
100
AcDbSpline
210
0.0
220
0.0
230
1.0
 70
     8
 71
     3
 72
    12
 73
     8
 74
     0
 42
0.000000001
 43
0.00000001
 40
0.0
 40
0.0
 40
0.0
 40
0.0
 40
0.320329200804352
 40
0.5619245726364758
 40
0.7389290150957558
 40
0.8801315566607071
 40
0.9999999999999999
 40
0.9999999999999999
 40
0.9999999999999999
 40
0.9999999999999999
 10
280.5746765331975
 20
405.534799697042
 30
0.0
 10
280.475212841391
 20
405.4936513008279
 30
0.0
 10
280.300732674204
 20
405.4214683874399
 30
0.0
 10
280.1290214457598
 20
405.2074395981124
 30
0.0
 10
280.0488572760574
 20
404.9970271948842
 30
0.0
 10
280.0298372787723
 20
404.8035680703745
 30
0.0
 10
280.0551328594686
 20
404.6877745685738
 30
0.0
 10
280.0667471025549
 20
404.634609002072
 30
0.0
  0
LINE
  5
E3
330
1F
100
AcDbEntity
  8
0
  6
Continuous
 62
     7
370
    25
100
AcDbLine
 10
280.6691346971
 20
402.5752365764
 30
0.0
 11
280.0667471026
 21
404.6346090021
 31
0.0
  0
SPLINE
  5
E4
330
1F
100
AcDbEntity
  8
0
  6
Continuous
 62
     7
370
    25
100
AcDbSpline
210
0.0
220
0.0
230
1.0
 70
     8
 71
     3
 72
    12
 73
     8
 74
     0
 42
0.000000001
 43
0.00000001
 40
0.0
 40
0.0
 40
0.0
 40
0.0
 40
0.1369201213241878
 40
0.273289227016448
 40
0.4609277204781251
 40
0.7173042709071776
 40
1.0
 40
1.0
 40
1.0
 40
1.0
 10
280.6691346970554
 20
402.5752365764317
 30
0.0
 10
280.691257383632
 20
402.5171858912898
 30
0.0
 10
280.7354137271672
 20
402.4013181377648
 30
0.0
 10
280.8638570668975
 20
402.250188534027
 30
0.0
 10
281.0513155235532
 20
402.1264919620309
 30
0.0
 10
281.3038681948845
 20
402.0659722288495
 30
0.0
 10
281.478078061817
 20
402.1106194890909
 30
0.0
 10
281.5694357279751
 20
402.1340330279899
 30
0.0
  0
SPLINE
  5
E5
330
1F
100
AcDbEntity
  8
0
  6
Continuous
 62
     7
370
    25
100
AcDbSpline
210
0.0
220
0.0
230
1.0
 70
     8
 71
     3
 72
    11
 73
     7
 74
     0
 42
0.000000001
 43
0.00000001
 40
0.0
 40
0.0
 40
0.0
 40
0.0
 40
0.2603296700663251
 40
0.5282089223400351
 40
0.7614183594802432
 40
1.0
 40
1.0
 40
1.0
 40
1.0
 10
297.2788541121243
 20
407.8210058089166
 30
0.0
 10
295.769467260144
 20
407.2912646177399
 30
0.0
 10
292.7069212112222
 20
406.2164196965318
 30
0.0
 10
288.5301978906547
 20
404.7145949958211
 30
0.0
 10
284.7395321001939
 20
403.3277932107265
 30
0.0
 10
282.6341258177462
 20
402.5349623647953
 30
0.0
 10
281.5694357279751
 20
402.1340330279899
 30
0.0
  0
SPLINE
  5
E6
330
1F
100
AcDbEntity
  8
0
  6
Continuous
 62
     7
370
    25
100
AcDbSpline
210
0.0
220
0.0
230
1.0
 70
     8
 71
     3
 72
    12
 73
     8
 74
     0
 42
0.000000001
 43
0.00000001
 40
0.0
 40
0.0
 40
0.0
 40
0.0
 40
0.2229001266620221
 40
0.4458326948082985
 40
0.6679313644651836
 40
0.8889145930765693
 40
1.0
 40
1.0
 40
1.0
 40
1.0
 10
297.2788541121243
 20
407.8210058089166
 30
0.0
 10
297.3509384435051
 20
407.854403426025
 30
0.0
 10
297.4951175976145
 20
407.9212035210207
 30
0.0
 10
297.6543827793205
 20
408.105420488269
 30
0.0
 10
297.7457657789142
 20
408.3264778017175
 30
0.0
 10
297.7587403351142
 20
408.5278685119671
 30
0.0
 10
297.731443847907
 20
408.6426150341621
 30
0.0
 10
297.7223124784715
 20
408.6810006651643
 30
0.0
  0
LINE
  5
E7
330
1F
100
AcDbEntity
  8
0
  6
Continuous
 62
     7
370
    25
100
AcDbLine
 10
297.567382373
 20
409.2106576334
 30
0.0
 11
297.7223124785
 21
408.6810006652
 31
0.0
  0
SPLINE
  5
E8
330
1F
100
AcDbEntity
  8
0
  6
Continuous
 62
     7
370
    25
100
AcDbSpline
210
0.0
220
0.0
230
1.0
 70
     8
 71
     3
 72
    13
 73
     9
 74
     0
 42
0.000000001
 43
0.00000001
 40
0.0
 40
0.0
 40
0.0
 40
0.0
 40
0.2200615389988256
 40
0.2941794150061842
 40
0.5152195009116501
 40
0.736229689360371
 40
0.9580130281334034
 40
1.0
 40
1.0
 40
1.0
 40
1.0
 10
297.5673823730248
 20
409.2106576333806
 30
0.0
 10
297.5383725543882
 20
409.2839539041141
 30
0.0
 10
297.4995920772781
 20
409.3819367417541
 30
0.0
 10
297.3836247789797
 20
409.5236872824528
 30
0.0
 10
297.2377938970371
 20
409.639463319428
 30
0.0
 10
297.011798529944
 20
409.7160862429566
 30
0.0
 10
296.8368325488968
 20
409.7156100271075
 30
0.0
 10
296.7460096053794
 20
409.6952913586491
 30
0.0
 10
296.731552404472
 20
409.6920570319394
 30
0.0
  0
SPLINE
  5
E9
330
1F
100
AcDbEntity
  8
0
  6
Continuous
 62
     7
370
    25
100
AcDbSpline
210
0.0
220
0.0
230
1.0
 70
     8
 71
     3
 72
    11
 73
     7
 74
     0
 42
0.000000001
 43
0.00000001
 40
0.0
 40
0.0
 40
0.0
 40
0.0
 40
0.2832270505631131
 40
0.5762690817613804
 40
0.7861908663724599
 40
1.0
 40
1.0
 40
1.0
 40
1.0
 10
280.5746765331975
 20
405.534799697042
 30
0.0
 10
281.8846150146538
 20
405.889724299319
 30
0.0
 10
284.5498867264196
 20
406.6118730991673
 30
0.0
 10
288.821584662034
 20
407.717068700854
 30
0.0
 10
292.9274586427966
 20
408.7553052245335
 30
0.0
 10
295.4557894323403
 20
409.377902506621
 30
0.0
 10
296.731552404472
 20
409.6920570319394
 30
0.0
  0
ARC
  5
EA
330
1F
100
AcDbEntity
  8
0
  6
Continuous
 62
     7
370
    25
100
AcDbCircle
 10
315.8820064609
 20
414.2781380697
 30
0.0
 40
16.41709659280862
100
AcDbArc
 50
312.0249893387
 51
132.0289769524
  0
ARC
  5
EB
330
1F
100
AcDbEntity
  8
0
  6
Continuous
 62
     7
370
    25
100
AcDbCircle
 10
315.8811577182
 20
414.2773731344
 30
0.0
 40
16.4170965928086
100
AcDbArc
 50
132.0249893387
 51
312.0289769524
  0
SPLINE
  5
EC
330
1F
100
AcDbEntity
  8
0
  6
Continuous
 62
     7
370
    25
100
AcDbSpline
210
0.0
220
0.0
230
1.0
 70
     8
 71
     3
 72
    12
 73
     8
 74
     0
 42
0.000000001
 43
0.00000001
 40
0.0
 40
0.0
 40
0.0
 40
0.0
 40
0.3203291947014537
 40
0.56192456011703
 40
0.7389289982560343
 40
0.8801315363483986
 40
1.0
 40
1.0
 40
1.0
 40
1.0
 10
316.2871040701236
 20
377.7188301264072
 30
0.0
 10
316.3017301438543
 20
377.6100672008346
 30
0.0
 10
316.3273873433332
 20
377.4192742287285
 30
0.0
 10
316.4908154300526
 20
377.1986438776626
 30
0.0
 10
316.673953713479
 20
377.0703005657473
 30
0.0
 10
316.8562257194642
 20
377.0069512547172
 30
0.0
 10
316.9746571027291
 20
377.0057063548908
 30
0.0
 10
317.0290338349791
 20
377.0051347700399
 30
0.0
  0
LINE
  5
ED
330
1F
100
AcDbEntity
  8
0
  6
Continuous
 62
     7
370
    25
100
AcDbLine
 10
319.1720410836
 20
377.1338080124
 30
0.0
 11
317.029033835
 21
377.00513477
 31
0.0
  0
SPLINE
  5
EE
330
1F
100
AcDbEntity
  8
0
  6
Continuous
 62
     7
370
    25
100
AcDbSpline
210
0.0
220
0.0
230
1.0
 70
     8
 71
     3
 72
    12
 73
     8
 74
     0
 42
0.000000001
 43
0.00000001
 40
0.0
 40
0.0
 40
0.0
 40
0.0
 40
0.1369201143734441
 40
0.2732892132302827
 40
0.4609276902131035
 40
0.7173042184500424
 40
0.9999999999999999
 40
0.9999999999999999
 40
0.9999999999999999
 40
0.9999999999999999
 10
319.1720410835853
 20
377.1338080123734
 30
0.0
 10
319.2336960722861
 20
377.1425270920497
 30
0.0
 10
319.3567579279592
 20
377.1599301627068
 30
0.0
 10
319.5352554471266
 20
377.2534285999228
 30
0.0
 10
319.7022197592412
 20
377.4122025559302
 30
0.0
 10
319.8246256820842
 20
377.6505201533971
 30
0.0
 10
319.8255154863432
 20
377.8347196910631
 30
0.0
 10
319.8259821100333
 20
377.9313160684251
 30
0.0
  0
SPLINE
  5
EF
330
1F
100
AcDbEntity
  8
0
  6
Continuous
 62
     7
370
    25
100
AcDbSpline
210
0.0
220
0.0
230
1.0
 70
     8
 71
     3
 72
    11
 73
     7
 74
     0
 42
0.000000001
 43
0.00000001
 40
0.0
 40
0.0
 40
0.0
 40
0.0
 40
0.2603296700636641
 40
0.5282089223346401
 40
0.7614183595005978
 40
1.0
 40
1.0
 40
1.0
 40
1.0
 10
318.0345307842164
 20
394.7107358678315
 30
0.0
 10
318.2066563850003
 20
393.1152140553735
 30
0.0
 10
318.5558992433886
 20
389.8779001644375
 30
0.0
 10
319.0321992786407
 20
385.4268840287419
 30
0.0
 10
319.4644745602686
 20
381.3634866868841
 30
0.0
 10
319.704568291526
 20
379.0840248868906
 30
0.0
 10
319.8259821100333
 20
377.9313160684251
 30
0.0
  0
SPLINE
  5
F0
330
1F
100
AcDbEntity
  8
0
  6
Continuous
 62
     7
370
    25
100
AcDbSpline
210
0.0
220
0.0
230
1.0
 70
     8
 71
     3
 72
    12
 73
     8
 74
     0
 42
0.000000001
 43
0.00000001
 40
0.0
 40
0.0
 40
0.0
 40
0.0
 40
0.2228401656766435
 40
0.4114692604660934
 40
0.6322887730400454
 40
0.8531344551548633
 40
1.0
 40
1.0
 40
1.0
 40
1.0
 10
318.0345307842164
 20
394.7107358678315
 30
0.0
 10
318.0183430122491
 20
394.7886712165395
 30
0.0
 10
317.9884526621869
 20
394.9325770523643
 30
0.0
 10
317.8587126842612
 20
395.1211128350661
 30
0.0
 10
317.6816157780773
 20
395.2620178771693
 30
0.0
 10
317.4798585471872
 20
395.3348418877819
 30
0.0
 10
317.3489248298592
 20
395.335714643881
 30
0.0
 10
317.2966293046642
 20
395.3360632266562
 30
0.0
  0
LINE
  5
F1
330
1F
100
AcDbEntity
  8
0
  6
Continuous
 62
     7
370
    25
100
AcDbLine
 10
316.7454620222
 20
395.3029693203
 30
0.0
 11
317.2966293047
 21
395.3360632267
 31
0.0
  0
SPLINE
  5
F2
330
1F
100
AcDbEntity
  8
0
  6
Continuous
 62
     7
370
    25
100
AcDbSpline
210
0.0
220
0.0
230
1.0
 70
     8
 71
     3
 72
    12
 73
     8
 74
     0
 42
0.000000001
 43
0.00000001
 40
0.0
 40
0.0
 40
0.0
 40
0.0
 40
0.220133570039281
 40
0.440254596899686
 40
0.6607438333972168
 40
0.8821596922327237
 40
1.0
 40
1.0
 40
1.0
 40
1.0
 10
316.7454620222471
 20
395.3029693202915
 30
0.0
 10
316.6676241953915
 20
395.2905684162266
 30
0.0
 10
316.5119529768685
 20
395.2657673146985
 30
0.0
 10
316.3104031335744
 20
395.133266947298
 30
0.0
 10
316.1628869175527
 20
394.9471087409509
 30
0.0
 10
316.0941951926014
 20
394.7556866511212
 30
0.0
 10
316.0892206443335
 20
394.6355563950674
 30
0.0
 10
316.0874927397098
 20
394.5938292645416
 30
0.0
  0
SPLINE
  5
F3
330
1F
100
AcDbEntity
  8
0
  6
Continuous
 62
     7
370
    25
100
AcDbSpline
210
0.0
220
0.0
230
1.0
 70
     8
 71
     3
 72
    11
 73
     7
 74
     0
 42
0.000000001
 43
0.00000001
 40
0.0
 40
0.0
 40
0.0
 40
0.0
 40
0.2832270505560747
 40
0.576269081755136
 40
0.7861908663644722
 40
1.0
 40
1.0
 40
1.0
 40
1.0
 10
316.2871040701236
 20
377.7188301264072
 30
0.0
 10
316.2709203373568
 20
379.1048612072402
 30
0.0
 10
316.2379920390088
 20
381.9249550389118
 30
0.0
 10
316.185217027596
 20
386.3925798526753
 30
0.0
 10
316.1344907009218
 20
390.6627187303574
 30
0.0
 10
316.1032542488726
 20
393.2754692100472
 30
0.0
 10
316.0874927397098
 20
394.5938292645416
 30
0.0
  0
SPLINE
  5
F4
330
1F
100
AcDbEntity
  8
0
  6
Continuous
 62
     7
370
    25
100
AcDbSpline
210
0.0
220
0.0
230
1.0
 70
     8
 71
     3
 72
    12
 73
     8
 74
     0
 42
0.000000001
 43
0.00000001
 40
0.0
 40
0.0
 40
0.0
 40
0.0
 40
0.3203291954782881
 40
0.5619245703249858
 40
0.7389290134330818
 40
0.8801315555716154
 40
1.0
 40
1.0
 40
1.0
 40
1.0
 10
300.4937342697895
 20
381.136365091165
 30
0.0
 10
300.4611979632929
 20
381.0316875717159
 30
0.0
 10
300.4041224600104
 20
380.8480612555093
 30
0.0
 10
300.4587629213265
 20
380.5776885020848
 30
0.0
 10
300.5699520095685
 20
380.3822078093107
 30
0.0
 10
300.707658106002
 20
380.2458700784888
 30
0.0
 10
300.8138902856991
 20
380.1933784219848
 30
0.0
 10
300.8626658555009
 20
380.169277340155
 30
0.0
  0
LINE
  5
F5
330
1F
100
AcDbEntity
  8
0
  6
Continuous
 62
     7
370
    25
100
AcDbLine
 10
302.8493119903
 20
379.355958321
 30
0.0
 11
300.8626658555
 21
380.1692773402
 31
0.0
  0
SPLINE
  5
F6
330
1F
100
AcDbEntity
  8
0
  6
Continuous
 62
     7
370
    25
100
AcDbSpline
210
0.0
220
0.0
230
1.0
 70
     8
 71
     3
 72
    12
 73
     8
 74
     0
 42
0.000000001
 43
0.00000001
 40
0.0
 40
0.0
 40
0.0
 40
0.0
 40
0.1369201211910042
 40
0.2732892266307524
 40
0.4609277194041146
 40
0.7173042689015615
 40
1.0
 40
1.0
 40
1.0
 40
1.0
 10
302.84931199028
 20
379.3559583209617
 30
0.0
 10
302.9086009748626
 20
379.3370895473513
 30
0.0
 10
303.0269403438566
 20
379.2994279348533
 30
0.0
 10
303.2272469027042
 20
379.3065194946444
 30
0.0
 10
303.444568742788
 20
379.3776360918399
 30
0.0
 10
303.6551271641641
 20
379.5400030463109
 30
0.0
 10
303.7333714136282
 20
379.7061517410132
 30
0.0
 10
303.7744036018943
 20
379.7932820358003
 30
0.0
  0
SPLINE
  5
F7
330
1F
100
AcDbEntity
  8
0
  6
Continuous
 62
     7
370
    25
100
AcDbSpline
210
0.0
220
0.0
230
1.0
 70
     8
 71
     3
 72
    11
 73
     7
 74
     0
 42
0.000000001
 43
0.00000001
 40
0.0
 40
0.0
 40
0.0
 40
0.0
 40
0.2603296700652882
 40
0.5282089223379378
 40
0.7614183595338949
 40
1.0
 40
1.0
 40
1.0
 40
1.0
 10
309.3291200833451
 20
395.7142843644182
 30
0.0
 10
308.7954137540066
 20
394.2012407196075
 30
0.0
 10
307.7125235671367
 20
391.1312750377271
 30
0.0
 10
306.2356697903155
 20
386.9084896474274
 30
0.0
 10
304.8953226668114
 20
383.0522275197308
 30
0.0
 10
304.1508689453865
 20
380.887812470182
 30
0.0
 10
303.7744036018943
 20
379.7932820358003
 30
0.0
  0
SPLINE
  5
F8
330
1F
100
AcDbEntity
  8
0
  6
Continuous
 62
     7
370
    25
100
AcDbSpline
210
0.0
220
0.0
230
1.0
 70
     8
 71
     3
 72
    13
 73
     9
 74
     0
 42
0.000000001
 43
0.00000001
 40
0.0
 40
0.0
 40
0.0
 40
0.0
 40
0.2228776829879357
 40
0.4457878041258592
 40
0.66786411104194
 40
0.70580505730074
 40
0.9258788050832866
 40
1.0
 40
1.0
 40
1.0
 40
1.0
 10
309.3291200833451
 20
395.7142843644182
 30
0.0
 10
309.3481732609961
 20
395.7915690376994
 30
0.0
 10
309.3862823893433
 20
395.9461496324578
 30
0.0
 10
309.3420622110179
 20
396.1853717704087
 30
0.0
 10
309.2582070717287
 20
396.3382098971636
 30
0.0
 10
309.1479845328667
 20
396.4679162267031
 30
0.0
 10
309.0538969187994
 20
396.5442369403796
 30
0.0
 10
308.9587088277692
 20
396.5870952543464
 30
0.0
 10
308.9347265832607
 20
396.5978932286902
 30
0.0
  0
LINE
  5
F9
330
1F
100
AcDbEntity
  8
0
  6
Continuous
 62
     7
370
    25
100
AcDbLine
 10
308.4237743362
 20
396.8070735015
 30
0.0
 11
308.9347265833
 21
396.5978932287
 31
0.0
  0
SPLINE
  5
FA
330
1F
100
AcDbEntity
  8
0
  6
Continuous
 62
     7
370
    25
100
AcDbSpline
210
0.0
220
0.0
230
1.0
 70
     8
 71
     3
 72
    12
 73
     8
 74
     0
 42
0.000000001
 43
0.00000001
 40
0.0
 40
0.0
 40
0.0
 40
0.0
 40
0.2201335749437916
 40
0.4402546067132318
 40
0.6607438481633594
 40
0.8821597120108907
 40
1.0
 40
1.0
 40
1.0
 40
1.0
 10
308.4237743361743
 20
396.8070735015346
 30
0.0
 10
308.34827324347
 20
396.829649882297
 30
0.0
 10
308.1972753601012
 20
396.8748013574233
 30
0.0
 10
307.9583354906175
 20
396.8427786389883
 30
0.0
 10
307.7448765065696
 20
396.7389604701368
 30
0.0
 10
307.6001809211364
 20
396.5962129750917
 30
0.0
 10
307.5437469222526
 20
396.4900902887966
 30
0.0
 10
307.524144628691
 20
396.4532286789261
 30
0.0
  0
SPLINE
  5
FB
330
1F
100
AcDbEntity
  8
0
  6
Continuous
 62
     7
370
    25
100
AcDbSpline
210
0.0
220
0.0
230
1.0
 70
     8
 71
     3
 72
    11
 73
     7
 74
     0
 42
0.000000001
 43
0.00000001
 40
0.0
 40
0.0
 40
0.0
 40
0.0
 40
0.2832270505599692
 40
0.5762690817591564
 40
0.7861908663459309
 40
1.0
 40
1.0
 40
1.0
 40
1.0
 10
300.4937342697895
 20
381.136365091165
 30
0.0
 10
301.0637333923347
 20
382.396068425685
 30
0.0
 10
302.223484448257
 20
384.9591289894184
 30
0.0
 10
304.082246603402
 20
389.0148001267082
 30
0.0
 10
305.8688530733617
 20
392.8889770457799
 30
0.0
 10
306.9690164413121
 20
395.2579005555509
 30
0.0
 10
307.524144628691
 20
396.4532286789261
 30
0.0
  0
SPLINE
  5
FC
330
1F
100
AcDbEntity
  8
0
  6
Continuous
 62
     7
370
    25
100
AcDbSpline
210
0.0
220
0.0
230
1.0
 70
     8
 71
     3
 72
    12
 73
     8
 74
     0
 42
0.000000001
 43
0.00000001
 40
0.0
 40
0.0
 40
0.0
 40
0.0
 40
0.3203291874988889
 40
0.5619245577985492
 40
0.7389289972586511
 40
0.880131536531609
 40
0.9999999999999999
 40
0.9999999999999999
 40
0.9999999999999999
 40
0.9999999999999999
 10
332.0001552693417
 20
381.4880495105974
 30
0.0
 10
332.0590468487657
 20
381.3960562905608
 30
0.0
 10
332.1623550267816
 20
381.2346808945404
 30
0.0
 10
332.4022017963539
 20
381.1060393258052
 30
0.0
 10
332.6210164927264
 20
381.0693832689761
 30
0.0
 10
332.8117531944356
 20
381.091118897155
 30
0.0
 10
332.9189269826951
 20
381.1413355363395
 30
0.0
 10
332.9681348885439
 20
381.1643920662352
 30
0.0
  0
LINE
  5
FD
330
1F
100
AcDbEntity
  8
0
  6
Continuous
 62
     7
370
    25
100
AcDbLine
 10
334.8430544846
 20
382.209572253
 30
0.0
 11
332.9681348885
 21
381.1643920662
 31
0.0
  0
SPLINE
  5
FE
330
1F
100
AcDbEntity
  8
0
  6
Continuous
 62
     7
370
    25
100
AcDbSpline
210
0.0
220
0.0
230
1.0
 70
     8
 71
     3
 72
    12
 73
     8
 74
     0
 42
0.000000001
 43
0.00000001
 40
0.0
 40
0.0
 40
0.0
 40
0.0
 40
0.1369201225457499
 40
0.2732892293233341
 40
0.4609277252679591
 40
0.717304279035193
 40
1.0
 40
1.0
 40
1.0
 40
1.0
 10
334.8430544845621
 20
382.2095722529502
 30
0.0
 10
334.8948639522947
 20
382.2441730827812
 30
0.0
 10
334.9982743878465
 20
382.3132354962722
 30
0.0
 10
335.1196092409359
 20
382.4751270417185
 30
0.0
 10
335.2031466847849
 20
382.6910415765216
 30
0.0
 10
335.2131560659979
 20
382.9595636789712
 30
0.0
 10
335.1365151824438
 20
383.1264840402097
 30
0.0
 10
335.0963238187857
 20
383.2140190036568
 30
0.0
  0
SPLINE
  5
FF
330
1F
100
AcDbEntity
  8
0
  6
Continuous
 62
     7
370
    25
100
AcDbSpline
210
0.0
220
0.0
230
1.0
 70
     8
 71
     3
 72
    11
 73
     7
 74
     0
 42
0.000000001
 43
0.00000001
 40
0.0
 40
0.0
 40
0.0
 40
0.0
 40
0.2603296700627194
 40
0.5282089223327185
 40
0.7614183594652437
 40
0.9999999999999999
 40
0.9999999999999999
 40
0.9999999999999999
 40
0.9999999999999999
 10
326.3135235907088
 20
397.5814051304636
 30
0.0
 10
327.1573895355521
 20
396.2176354951324
 30
0.0
 10
328.8695936082249
 20
393.4505467909718
 30
0.0
 10
331.2047103919905
 20
389.6408272995699
 30
0.0
 10
333.3239906578459
 20
386.1594510933473
 30
0.0
 10
334.5010783338782
 20
384.2032546570483
 30
0.0
 10
335.0963238187857
 20
383.2140190036568
 30
0.0
  0
SPLINE
  5
100
330
1F
100
AcDbEntity
  8
0
  6
Continuous
 62
     7
370
    25
100
AcDbSpline
210
0.0
220
0.0
230
1.0
 70
     8
 71
     3
 72
    12
 73
     8
 74
     0
 42
0.000000001
 43
0.00000001
 40
0.0
 40
0.0
 40
0.0
 40
0.0
 40
0.1165847777148089
 40
0.3388935665353099
 40
0.5612376805370402
 40
0.7827183635946244
 40
1.0
 40
1.0
 40
1.0
 40
1.0
 10
326.3135235907088
 20
397.5814051304637
 30
0.0
 10
326.2899393865844
 20
397.6153023066818
 30
0.0
 10
326.2213838237889
 20
397.7138360532756
 30
0.0
 10
326.0604278847537
 20
397.8388044626169
 30
0.0
 10
325.8346078191211
 20
397.9166485066849
 30
0.0
 10
325.5934115480965
 20
397.9190287893408
 30
0.0
 10
325.4495212059942
 20
397.856193919116
 30
0.0
 10
325.3782645651935
 20
397.8250771553919
 30
0.0
  0
LINE
  5
101
330
1F
100
AcDbEntity
  8
0
  6
Continuous
 62
     7
370
    25
100
AcDbLine
 10
324.8960476483
 20
397.5562637261
 30
0.0
 11
325.3782645652
 21
397.8250771554
 31
0.0
  0
SPLINE
  5
102
330
1F
100
AcDbEntity
  8
0
  6
Continuous
 62
     7
370
    25
100
AcDbSpline
210
0.0
220
0.0
230
1.0
 70
     8
 71
     3
 72
    12
 73
     8
 74
     0
 42
0.000000001
 43
0.00000001
 40
0.0
 40
0.0
 40
0.0
 40
0.0
 40
0.2201335757646673
 40
0.4402546082974813
 40
0.660743850517656
 40
0.8821597151442042
 40
0.9999999999999999
 40
0.9999999999999999
 40
0.9999999999999999
 40
0.9999999999999999
 10
324.8960476483425
 20
397.5562637261057
 30
0.0
 10
324.8312898245916
 20
397.5113361187099
 30
0.0
 10
324.7017778669966
 20
397.4214834638975
 30
0.0
 10
324.5775374773434
 20
397.2146688929753
 30
0.0
 10
324.5251814371889
 20
396.9829189343924
 30
0.0
 10
324.5460988301959
 20
396.7805993163253
 30
0.0
 10
324.5935690039418
 20
396.6701625104028
 30
0.0
 10
324.6100577214046
 20
396.6318023961107
 30
0.0
  0
SPLINE
  5
103
330
1F
100
AcDbEntity
  8
0
  6
Continuous
 62
     7
370
    25
100
AcDbSpline
210
0.0
220
0.0
230
1.0
 70
     8
 71
     3
 72
    11
 73
     7
 74
     0
 42
0.000000001
 43
0.00000001
 40
0.0
 40
0.0
 40
0.0
 40
0.0
 40
0.2832270505582946
 40
0.5762690817572602
 40
0.7861908663604447
 40
1.0
 40
1.0
 40
1.0
 40
1.0
 10
332.0001552693417
 20
381.4880495105974
 30
0.0
 10
331.4009940677976
 20
382.7337176830879
 30
0.0
 10
330.1819082680558
 20
385.2682215467563
 30
0.0
 10
328.2280488282708
 20
389.2781241435022
 30
0.0
 10
326.3500366754011
 20
393.108309220681
 30
0.0
 10
325.1935871665064
 20
395.4501432658345
 30
0.0
 10
324.6100577214046
 20
396.6318023961107
 30
0.0
  0
SPLINE
  5
104
330
1F
100
AcDbEntity
  8
0
  6
Continuous
 62
     7
370
    25
100
AcDbSpline
210
0.0
220
0.0
230
1.0
 70
     8
 71
     3
 72
    12
 73
     8
 74
     0
 42
0.000000001
 43
0.00000001
 40
0.0
 40
0.0
 40
0.0
 40
0.0
 40
0.3203291956777092
 40
0.5619245718616223
 40
0.7389290157161565
 40
0.880131558501376
 40
1.0
 40
1.0
 40
1.0
 40
1.0
 10
344.5207253690371
 20
391.6974831186114
 30
0.0
 10
344.6122182551511
 20
391.6397932621041
 30
0.0
 10
344.7727159604858
 20
391.5385931580983
 30
0.0
 10
345.0414768219571
 20
391.5259672456723
 30
0.0
 10
345.2526289966565
 20
391.587388538909
 30
0.0
 10
345.4140526418987
 20
391.689453500486
 30
0.0
 10
345.4887417476922
 20
391.7811538613343
 30
0.0
 10
345.5230345923487
 20
391.8232572738216
 30
0.0
  0
LINE
  5
105
330
1F
100
AcDbEntity
  8
0
  6
Continuous
 62
     7
370
    25
100
AcDbLine
 10
346.7585156707
 20
393.5779336477
 30
0.0
 11
345.5230345923
 21
391.8232572738
 31
0.0
  0
SPLINE
  5
106
330
1F
100
AcDbEntity
  8
0
  6
Continuous
 62
     7
370
    25
100
AcDbSpline
210
0.0
220
0.0
230
1.0
 70
     8
 71
     3
 72
    13
 73
     9
 74
     0
 42
0.000000001
 43
0.00000001
 40
0.0
 40
0.0
 40
0.0
 40
0.0
 40
0.1368258648470836
 40
0.2731010933964144
 40
0.4606104098961528
 40
0.7168104619180613
 40
0.8076499722265658
 40
1.0
 40
1.0
 40
1.0
 40
1.0
 10
346.7585156707095
 20
393.5779336477484
 30
0.0
 10
346.7902251640595
 20
393.6315923610696
 30
0.0
 10
346.8535165403983
 20
393.7386938458266
 30
0.0
 10
346.8935385685998
 20
393.9372767248954
 30
0.0
 10
346.8778044317453
 20
394.169338004332
 30
0.0
 10
346.7981136768458
 20
394.3477113687232
 30
0.0
 10
346.6869673893478
 20
394.4962265311183
 30
0.0
 10
346.6119226808419
 20
394.5550989738078
 30
0.0
 10
346.5609502760591
 20
394.5950867362906
 30
0.0
  0
SPLINE
  5
107
330
1F
100
AcDbEntity
  8
0
  6
Continuous
 62
     7
370
    25
100
AcDbSpline
210
0.0
220
0.0
230
1.0
 70
     8
 71
     3
 72
    11
 73
     7
 74
     0
 42
0.000000001
 43
0.00000001
 40
0.0
 40
0.0
 40
0.0
 40
0.0
 40
0.2603296700330334
 40
0.5282089222724897
 40
0.7614183595165434
 40
1.0
 40
1.0
 40
1.0
 40
1.0
 10
332.5263424444345
 20
403.7577208993088
 30
0.0
 10
333.8748107335852
 20
402.8940324249618
 30
0.0
 10
336.6108530050657
 20
401.1416084382677
 30
0.0
 10
340.3422880203702
 20
398.7156963144422
 30
0.0
 10
343.7288238227643
 20
396.4902211691819
 30
0.0
 10
345.6097687934912
 20
395.2315755404701
 30
0.0
 10
346.5609502760591
 20
394.5950867362906
 30
0.0
  0
SPLINE
  5
108
330
1F
100
AcDbEntity
  8
0
  6
Continuous
 62
     7
370
    25
100
AcDbSpline
210
0.0
220
0.0
230
1.0
 70
     8
 71
     3
 72
    12
 73
     8
 74
     0
 42
0.000000001
 43
0.00000001
 40
0.0
 40
0.0
 40
0.0
 40
0.0
 40
0.2229001272671217
 40
0.4458326960033385
 40
0.6679313664265843
 40
0.8889145958008411
 40
1.0
 40
1.0
 40
1.0
 40
1.0
 10
332.5263424444345
 20
403.7577208993088
 30
0.0
 10
332.4555093068477
 20
403.7937150642589
 30
0.0
 10
332.3138327224333
 20
403.8657086328442
 30
0.0
 10
332.0709914987799
 20
403.8764838807935
 30
0.0
 10
331.841482079284
 20
403.8108934525311
 30
0.0
 10
331.6760238100171
 20
403.6958413538966
 30
0.0
 10
331.6032950402985
 20
403.6030098192336
 30
0.0
 10
331.5789654169487
 20
403.5719553096898
 30
0.0
  0
LINE
  5
109
330
1F
100
AcDbEntity
  8
0
  6
Continuous
 62
     7
370
    25
100
AcDbLine
 10
331.2612078573
 20
403.1206641542
 30
0.0
 11
331.5789654169
 21
403.5719553097
 31
0.0
  0
SPLINE
  5
10A
330
1F
100
AcDbEntity
  8
0
  6
Continuous
 62
     7
370
    25
100
AcDbSpline
210
0.0
220
0.0
230
1.0
 70
     8
 71
     3
 72
    12
 73
     8
 74
     0
 42
0.000000001
 43
0.00000001
 40
0.0
 40
0.0
 40
0.0
 40
0.0
 40
0.2201335703051014
 40
0.4402545974574358
 40
0.6607438342490668
 40
0.8821596933820123
 40
1.0
 40
1.0
 40
1.0
 40
1.0
 10
331.2612078573442
 20
403.1206641542078
 30
0.0
 10
331.2223561146948
 20
403.0521027474501
 30
0.0
 10
331.144654843158
 20
402.9149838405456
 30
0.0
 10
331.1223312260201
 20
402.674737372542
 30
0.0
 10
331.1755051019975
 20
402.4431739661021
 30
0.0
 10
331.2818886532606
 20
402.2698922465004
 30
0.0
 10
331.372401503822
 20
402.1909299723365
 30
0.0
 10
331.4038410564074
 20
402.1635025014809
 30
0.0
  0
SPLINE
  5
10B
330
1F
100
AcDbEntity
  8
0
  6
Continuous
 62
     7
370
    25
100
AcDbSpline
210
0.0
220
0.0
230
1.0
 70
     8
 71
     3
 72
    11
 73
     7
 74
     0
 42
0.000000001
 43
0.00000001
 40
0.0
 40
0.0
 40
0.0
 40
0.0
 40
0.2832270505602063
 40
0.5762690817528358
 40
0.7861908663425549
 40
1.0
 40
1.0
 40
1.0
 40
1.0
 10
344.5207253690372
 20
391.6974831186115
 30
0.0
 10
343.4572579230295
 20
392.5638983235606
 30
0.0
 10
341.29346951591
 20
394.3267535790356
 30
0.0
 10
337.8255114723339
 20
397.099915564089
 30
0.0
 10
334.4921768328107
 20
399.7413693277095
 30
0.0
 10
332.4395632746796
 20
401.3512018563059
 30
0.0
 10
331.4038410564074
 20
402.1635025014809
 30
0.0
  0
SPLINE
  5
10C
330
1F
100
AcDbEntity
  8
0
  6
Continuous
 62
     7
370
    25
100
AcDbSpline
210
0.0
220
0.0
230
1.0
 70
     8
 71
     3
 72
    12
 73
     8
 74
     0
 42
0.000000001
 43
0.00000001
 40
0.0
 40
0.0
 40
0.0
 40
0.0
 40
0.3203291896669101
 40
0.5619245570102617
 40
0.7389289953257665
 40
0.8801315336280644
 40
1.0
 40
1.0
 40
1.0
 40
1.0
 10
351.3689619059213
 20
406.3250274142664
 30
0.0
 10
351.4749348117511
 20
406.3123803802244
 30
0.0
 10
351.6608335062328
 20
406.2901948310119
 30
0.0
 10
351.9052770752413
 20
406.394633126234
 30
0.0
 10
352.0669454493763
 20
406.5410964402421
 30
0.0
 10
352.1670841232533
 20
406.7028249359598
 30
0.0
 10
352.1944954603522
 20
406.817814875565
 30
0.0
 10
352.2070811358215
 20
406.870611499709
 30
0.0
  0
LINE
  5
10D
330
1F
100
AcDbEntity
  8
0
  6
Continuous
 62
     7
370
    25
100
AcDbLine
 10
352.5584215091
 20
408.9872488411
 30
0.0
 11
352.2070811358
 21
406.8706114997
 31
0.0
  0
SPLINE
  5
10E
330
1F
100
AcDbEntity
  8
0
  6
Continuous
 62
     7
370
    25
100
AcDbSpline
210
0.0
220
0.0
230
1.0
 70
     8
 71
     3
 72
    13
 73
     9
 74
     0
 42
0.000000001
 43
0.00000001
 40
0.0
 40
0.0
 40
0.0
 40
0.0
 40
0.1368520550563117
 40
0.2731533684839343
 40
0.4606985757378441
 40
0.5051868322059629
 40
0.7677990591362961
 40
0.9999999999999999
 40
0.9999999999999999
 40
0.9999999999999999
 40
0.9999999999999999
 10
352.5584215090763
 20
408.9872488410883
 30
0.0
 10
352.563739141408
 20
409.0493590300367
 30
0.0
 10
352.5743530060163
 20
409.173329454313
 30
0.0
 10
352.525327318942
 20
409.3697674740836
 30
0.0
 10
352.4535604936227
 20
409.4988094117178
 30
0.0
 10
352.3367979495681
 20
409.6417761380675
 30
0.0
 10
352.1839577214104
 20
409.7624890324859
 30
0.0
 10
352.0241462989395
 20
409.8018760716741
 30
0.0
 10
351.9491516038227
 20
409.8203592248167
 30
0.0
  0
SPLINE
  5
10F
330
1F
100
AcDbEntity
  8
0
  6
Continuous
 62
     7
370
    25
100
AcDbSpline
210
0.0
220
0.0
230
1.0
 70
     8
 71
     3
 72
    11
 73
     7
 74
     0
 42
0.000000001
 43
0.00000001
 40
0.0
 40
0.0
 40
0.0
 40
0.0
 40
0.2603296700668749
 40
0.5282089223411517
 40
0.761418359549675
 40
1.0
 40
1.0
 40
1.0
 40
1.0
 10
335.4424623751885
 20
412.0163880881844
 30
0.0
 10
337.0284523260584
 20
411.8220625514251
 30
0.0
 10
340.2464260690346
 20
411.4277760210858
 30
0.0
 10
344.6351228474257
 20
410.8541019696766
 30
0.0
 10
348.6181692366445
 20
410.3096612039297
 30
0.0
 10
350.8304272817685
 20
409.9846933354553
 30
0.0
 10
351.9491516038227
 20
409.8203592248167
 30
0.0
  0
SPLINE
  5
110
330
1F
100
AcDbEntity
  8
0
  6
Continuous
 62
     7
370
    25
100
AcDbSpline
210
0.0
220
0.0
230
1.0
 70
     8
 71
     3
 72
    12
 73
     8
 74
     0
 42
0.000000001
 43
0.00000001
 40
0.0
 40
0.0
 40
0.0
 40
0.0
 40
0.2229001214099037
 40
0.445832684381031
 40
0.6679313490790934
 40
0.8889145727567433
 40
1.0
 40
1.0
 40
1.0
 40
1.0
 10
335.4424623751885
 20
412.0163880881844
 30
0.0
 10
335.3631491636348
 20
412.0181332053273
 30
0.0
 10
335.2045111970416
 20
412.0216236936027
 30
0.0
 10
334.981358977449
 20
411.9261037705787
 30
0.0
 10
334.8032771200183
 20
411.767539964617
 30
0.0
 10
334.7042543673739
 20
411.592158565167
 30
0.0
 10
334.6790413537153
 20
411.4769860650964
 30
0.0
 10
334.6706069580366
 20
411.4384579283947
 30
0.0
  0
LINE
  5
111
330
1F
100
AcDbEntity
  8
0
  6
Continuous
 62
     7
370
    25
100
AcDbLine
 10
334.5802445392
 20
410.8940728117
 30
0.0
 11
334.670606958
 21
411.4384579284
 31
0.0
  0
SPLINE
  5
112
330
1F
100
AcDbEntity
  8
0
  6
Continuous
 62
     7
370
    25
100
AcDbSpline
210
0.0
220
0.0
230
1.0
 70
     8
 71
     3
 72
    12
 73
     8
 74
     0
 42
0.000000001
 43
0.00000001
 40
0.0
 40
0.0
 40
0.0
 40
0.0
 40
0.2201335722438313
 40
0.4402546012954399
 40
0.6607438400039382
 40
0.8821597010770083
 40
1.0
 40
1.0
 40
1.0
 40
1.0
 10
334.5802445391664
 20
410.8940728116552
 30
0.0
 10
334.57499394467
 20
410.8154514658575
 30
0.0
 10
334.5644930548557
 20
410.6582132540998
 30
0.0
 10
334.6485076870046
 20
410.4320387806368
 30
0.0
 10
334.7966797519219
 20
410.2464032775728
 30
0.0
 10
334.9674589003
 20
410.1363436033145
 30
0.0
 10
335.0830872422137
 20
410.1044030512119
 30
0.0
 10
335.1232506348997
 20
410.0933085313435
 30
0.0
  0
SPLINE
  5
113
330
1F
100
AcDbEntity
  8
0
  6
Continuous
 62
     7
370
    25
100
AcDbSpline
210
0.0
220
0.0
230
1.0
 70
     8
 71
     3
 72
    11
 73
     7
 74
     0
 42
0.000000001
 43
0.00000001
 40
0.0
 40
0.0
 40
0.0
 40
0.0
 40
0.2832270505644353
 40
0.5762690817613005
 40
0.786190866372287
 40
1.0
 40
1.0
 40
1.0
 40
1.0
 10
351.3689619059213
 20
406.3250274142663
 30
0.0
 10
350.0518209856968
 20
406.6484152936953
 30
0.0
 10
347.3718948023208
 20
407.3063977708627
 30
0.0
 10
343.0767097769765
 20
408.30875239505
 30
0.0
 10
338.9482604567718
 20
409.2481401469296
 30
0.0
 10
336.4060281384272
 20
409.8098679545326
 30
0.0
 10
335.1232506348997
 20
410.0933085313435
 30
0.0
  0
SPLINE
  5
114
330
1F
100
AcDbEntity
  8
0
  6
Continuous
 62
     7
370
    25
100
AcDbSpline
210
0.0
220
0.0
230
1.0
 70
     8
 71
     3
 72
    12
 73
     8
 74
     0
 42
0.000000001
 43
0.00000001
 40
0.0
 40
0.0
 40
0.0
 40
0.0
 40
0.3203292007421045
 40
0.5619245725821668
 40
0.7389290150383315
 40
0.8801315565995758
 40
1.0
 40
1.0
 40
1.0
 40
1.0
 10
351.1884876458851
 20
422.4735178548398
 30
0.0
 10
351.2879513376799
 20
422.507731819947
 30
0.0
 10
351.4624315048633
 20
422.5677502874316
 30
0.0
 10
351.6341427333184
 20
422.7671153387088
 30
0.0
 10
351.7143069030371
 20
422.9687417283112
 30
0.0
 10
351.733326900337
 20
423.1576508343969
 30
0.0
 10
351.7080313196282
 20
423.2731233743933
 30
0.0
 10
351.6964170765329
 20
423.326141574125
 30
0.0
  0
LINE
  5
115
330
1F
100
AcDbEntity
  8
0
  6
Continuous
 62
     7
370
    25
100
AcDbLine
 10
351.094029482
 20
425.3855139998
 30
0.0
 11
351.6964170765
 21
423.3261415741
 31
0.0
  0
SPLINE
  5
116
330
1F
100
AcDbEntity
  8
0
  6
Continuous
 62
     7
370
    25
100
AcDbSpline
210
0.0
220
0.0
230
1.0
 70
     8
 71
     3
 72
    12
 73
     8
 74
     0
 42
0.000000001
 43
0.00000001
 40
0.0
 40
0.0
 40
0.0
 40
0.0
 40
0.133549665969238
 40
0.237449672115541
 40
0.4314228611592403
 40
0.6784626707083397
 40
1.0
 40
1.0
 40
1.0
 40
1.0
 10
351.0940294820148
 20
425.3855139998257
 30
0.0
 10
351.0726435968035
 20
425.4423672721034
 30
0.0
 10
351.0346197545535
 20
425.5434516946144
 30
0.0
 10
350.92031665563
 20
425.6946011412298
 30
0.0
 10
350.7472484881367
 20
425.8318187500695
 30
0.0
 10
350.4830681817877
 20
425.9249385821519
 30
0.0
 10
350.2982470580436
 20
425.8925823621806
 30
0.0
 10
350.1937284510406
 20
425.8742845238665
 30
0.0
  0
SPLINE
  5
117
330
1F
100
AcDbEntity
  8
0
  6
Continuous
 62
     7
370
    25
100
AcDbSpline
210
0.0
220
0.0
230
1.0
 70
     8
 71
     3
 72
    11
 73
     7
 74
     0
 42
0.000000001
 43
0.00000001
 40
0.0
 40
0.0
 40
0.0
 40
0.0
 40
0.2603296700658194
 40
0.5282089223390093
 40
0.7614183594797668
 40
1.0
 40
1.0
 40
1.0
 40
1.0
 10
334.4843100668256
 20
420.7216763742975
 30
0.0
 10
335.9936969188072
 20
421.2334200133171
 30
0.0
 10
339.0562429677319
 20
422.2717478996931
 30
0.0
 10
343.2329662883142
 20
423.6518841569136
 30
0.0
 10
347.0236320787964
 20
424.8806616128285
 30
0.0
 10
349.1290383612611
 20
425.5405721245772
 30
0.0
 10
350.1937284510406
 20
425.8742845238665
 30
0.0
  0
SPLINE
  5
118
330
1F
100
AcDbEntity
  8
0
  6
Continuous
 62
     7
370
    25
100
AcDbSpline
210
0.0
220
0.0
230
1.0
 70
     8
 71
     3
 72
    12
 73
     8
 74
     0
 42
0.000000001
 43
0.00000001
 40
0.0
 40
0.0
 40
0.0
 40
0.0
 40
0.2229001267076573
 40
0.4458326948994297
 40
0.6679313646014979
 40
0.8889145932580143
 40
0.9999999999999999
 40
0.9999999999999999
 40
0.9999999999999999
 40
0.9999999999999999
 10
334.4843100668256
 20
420.7216763742975
 30
0.0
 10
334.4122257354525
 20
420.6888870402183
 30
0.0
 10
334.2680465813588
 20
420.6233035998121
 30
0.0
 10
334.108781399696
 20
420.4405525716427
 30
0.0
 10
334.0173984001527
 20
420.220522636592
 30
0.0
 10
334.0044238440067
 20
420.0195941625614
 30
0.0
 10
334.0317203311977
 20
419.9048969205244
 30
0.0
 10
334.0408517006165
 20
419.8665277750356
 30
0.0
  0
LINE
  5
119
330
1F
100
AcDbEntity
  8
0
  6
Continuous
 62
     7
370
    25
100
AcDbLine
 10
334.195781806
 20
419.3368708069
 30
0.0
 11
334.0408517006
 21
419.866527775
 31
0.0
  0
SPLINE
  5
11A
330
1F
100
AcDbEntity
  8
0
  6
Continuous
 62
     7
370
    25
100
AcDbSpline
210
0.0
220
0.0
230
1.0
 70
     8
 71
     3
 72
    12
 73
     8
 74
     0
 42
0.000000001
 43
0.00000001
 40
0.0
 40
0.0
 40
0.0
 40
0.0
 40
0.2201335730272765
 40
0.4402546029152538
 40
0.6607438424670953
 40
0.8821597043935987
 40
1.0
 40
1.0
 40
1.0
 40
1.0
 10
334.1957818060469
 20
419.336870806875
 30
0.0
 10
334.2251723036292
 20
419.2637558800799
 30
0.0
 10
334.2839516241329
 20
419.1175301925545
 30
0.0
 10
334.4576643751919
 20
418.9501444789929
 30
0.0
 10
334.6714873318551
 20
418.8470816466825
 30
0.0
 10
334.8728371705016
 20
418.8219062465702
 30
0.0
 10
334.9906793933313
 20
418.8432213655204
 30
0.0
 10
335.0316117745566
 20
418.8506251513095
 30
0.0
  0
SPLINE
  5
11B
330
1F
100
AcDbEntity
  8
0
  6
Continuous
 62
     7
370
    25
100
AcDbSpline
210
0.0
220
0.0
230
1.0
 70
     8
 71
     3
 72
    11
 73
     7
 74
     0
 42
0.000000001
 43
0.00000001
 40
0.0
 40
0.0
 40
0.0
 40
0.0
 40
0.2832270505634233
 40
0.5762690817602925
 40
0.7861908663717222
 40
1.0
 40
1.0
 40
1.0
 40
1.0
 10
351.1884876458851
 20
422.4735178548398
 30
0.0
 10
349.8785491644226
 20
422.1976572726219
 30
0.0
 10
347.2132774526521
 20
421.636376405938
 30
0.0
 10
342.9415795170279
 20
420.6845870356789
 30
0.0
 10
338.8357055362541
 20
419.7456891262017
 30
0.0
 10
336.3073747466964
 20
419.1507990030587
 30
0.0
 10
335.0316117745566
 20
418.8506251513095
 30
0.0
  0
SPLINE
  5
11C
330
1F
100
AcDbEntity
  8
0
  6
Continuous
 62
     7
370
    25
100
AcDbSpline
210
0.0
220
0.0
230
1.0
 70
     8
 71
     3
 72
    12
 73
     8
 74
     0
 42
0.000000001
 43
0.00000001
 40
0.0
 40
0.0
 40
0.0
 40
0.0
 40
0.1369201190906836
 40
0.2732892225298234
 40
0.4609277105320511
 40
0.717304253606339
 40
0.9999999999999999
 40
0.9999999999999999
 40
0.9999999999999999
 40
0.9999999999999999
 10
289.1077837805008
 20
388.4358990565157
 30
0.0
 10
289.152963848393
 20
388.3932004278658
 30
0.0
 10
289.2431421633849
 20
388.3079750051573
 30
0.0
 10
289.4255845901391
 20
388.2277598209294
 30
0.0
 10
289.6502207045035
 20
388.1980638440285
 30
0.0
 10
289.9072279774904
 20
388.2537769867254
 30
0.0
 10
290.0473294470108
 20
388.3701200575616
 30
0.0
 10
290.1208002787911
 20
388.4311317101551
 30
0.0
  0
SPLINE
  5
11D
330
1F
100
AcDbEntity
  8
0
  6
Continuous
 62
     7
370
    25
100
AcDbSpline
210
0.0
220
0.0
230
1.0
 70
     8
 71
     3
 72
    11
 73
     7
 74
     0
 42
0.000000001
 43
0.00000001
 40
0.0
 40
0.0
 40
0.0
 40
0.0
 40
0.2603296700655779
 40
0.5282089223385131
 40
0.7614183595482892
 40
1.0
 40
1.0
 40
1.0
 40
1.0
 10
301.9215048440917
 20
400.3932855332553
 30
0.0
 10
300.7876736684137
 20
399.2606145883385
 30
0.0
 10
298.487130118123
 20
396.9624251463594
 30
0.0
 10
295.3496315326481
 20
393.7921939924983
 30
0.0
 10
292.5021341904438
 20
390.8911977588002
 30
0.0
 10
290.9205812059281
 20
389.2573551539048
 30
0.0
 10
290.1208002787911
 20
388.4311317101551
 30
0.0
  0
SPLINE
  5
11E
330
1F
100
AcDbEntity
  8
0
  6
Continuous
 62
     7
370
    25
100
AcDbSpline
210
0.0
220
0.0
230
1.0
 70
     8
 71
     3
 72
    12
 73
     8
 74
     0
 42
0.000000001
 43
0.00000001
 40
0.0
 40
0.0
 40
0.0
 40
0.0
 40
0.2229001252313416
 40
0.4458326920057898
 40
0.6679313602957743
 40
0.8889145875472667
 40
1.0
 40
1.0
 40
1.0
 40
1.0
 10
301.9215048440917
 20
400.3932855332553
 30
0.0
 10
301.9720831094178
 20
400.4546630325249
 30
0.0
 10
302.0732470013803
 20
400.5774269641268
 30
0.0
 10
302.1370807223997
 20
400.8125337805678
 30
0.0
 10
302.1236653402418
 20
401.0513758532931
 30
0.0
 10
302.0480219335706
 20
401.2384715231365
 30
0.0
 10
301.9736223465908
 20
401.3300207215535
 30
0.0
 10
301.9487337909799
 20
401.3606462587164
 30
0.0
  0
SPLINE
  5
11F
330
1F
100
AcDbEntity
  8
0
  6
Continuous
 62
     7
370
    25
100
AcDbSpline
210
0.0
220
0.0
230
1.0
 70
     8
 71
     3
 72
     9
 73
     5
 74
     0
 42
0.000000001
 43
0.00000001
 40
0.0
 40
0.0
 40
0.0
 40
0.0
 40
0.4999998288440377
 40
0.9999999999999999
 40
0.9999999999999999
 40
0.9999999999999999
 40
0.9999999999999999
 10
301.5791969666748
 20
401.7706699914006
 30
0.0
 10
301.6407864163095
 20
401.702335834552
 30
0.0
 10
301.7639653577445
 20
401.5656674740716
 30
0.0
 10
301.8871442991795
 20
401.4289866794307
 30
0.0
 10
301.9487337909799
 20
401.3606462587164
 30
0.0
  0
SPLINE
  5
120
330
1F
100
AcDbEntity
  8
0
  6
Continuous
 62
     7
370
    25
100
AcDbSpline
210
0.0
220
0.0
230
1.0
 70
     8
 71
     3
 72
    12
 73
     8
 74
     0
 42
0.000000001
 43
0.00000001
 40
0.0
 40
0.0
 40
0.0
 40
0.0
 40
0.2201335735716078
 40
0.4402546039526556
 40
0.6607438440022703
 40
0.8821597064323027
 40
1.0
 40
1.0
 40
1.0
 40
1.0
 10
301.5791969666748
 20
401.7706699914006
 30
0.0
 10
301.5209865255853
 20
401.8237465666382
 30
0.0
 10
301.4045689602316
 20
401.9298966928154
 30
0.0
 10
301.1755640323202
 20
402.0046142603214
 30
0.0
 10
300.9384404439464
 20
402.003575976673
 30
0.0
 10
300.7463997203109
 20
401.9376395277934
 30
0.0
 10
300.6496837137954
 20
401.866451035084
 30
0.0
 10
300.6160895036418
 20
401.8417237818531
 30
0.0
  0
SPLINE
  5
121
330
1F
100
AcDbEntity
  8
0
  6
Continuous
 62
     7
370
    25
100
AcDbSpline
210
0.0
220
0.0
230
1.0
 70
     8
 71
     3
 72
    11
 73
     7
 74
     0
 42
0.000000001
 43
0.00000001
 40
0.0
 40
0.0
 40
0.0
 40
0.0
 40
0.2832270505181712
 40
0.5762690817323786
 40
0.7861908663323471
 40
1.0
 40
1.0
 40
1.0
 40
1.0
 10
287.7481164499977
 20
391.0637696934995
 30
0.0
 10
288.7914031107417
 20
391.9554753861879
 30
0.0
 10
290.9141306004736
 20
393.7697880366247
 30
0.0
 10
294.3162792812967
 20
396.6254220817573
 30
0.0
 10
297.5863592258301
 20
399.3461464049559
 30
0.0
 10
299.600021565668
 20
401.0047924622673
 30
0.0
 10
300.6160895036418
 20
401.8417237818531
 30
0.0
  0
SPLINE
  5
122
330
1F
100
AcDbEntity
  8
0
  6
Continuous
 62
     7
370
    25
100
AcDbSpline
210
0.0
220
0.0
230
1.0
 70
     8
 71
     3
 72
    12
 73
     8
 74
     0
 42
0.000000001
 43
0.00000001
 40
0.0
 40
0.0
 40
0.0
 40
0.0
 40
0.3203292003654317
 40
0.5619245694925803
 40
0.7389290103575951
 40
0.8801315506287711
 40
1.0
 40
1.0
 40
1.0
 40
1.0
 10
287.7481164499977
 20
391.0637696934995
 30
0.0
 10
287.6748619766715
 20
390.9832235172319
 30
0.0
 10
287.5463582737926
 20
390.8419286388011
 30
0.0
 10
287.4813889010817
 20
390.5739119540643
 30
0.0
 10
287.4986064324335
 20
390.3491411437573
 30
0.0
 10
287.56447224959
 20
390.1663677552717
 30
0.0
 10
287.6374646527213
 20
390.0729941760747
 30
0.0
 10
287.6709784728176
 20
390.0301225181938
 30
0.0
  0
LINE
  5
123
330
1F
100
AcDbEntity
  8
0
  6
Continuous
 62
     7
370
    25
100
AcDbLine
 10
287.6709784728
 20
390.0301225182
 30
0.0
 11
288.3893811259
 21
389.2335528932
 31
0.0
  0
LINE
  5
124
330
1F
100
AcDbEntity
  8
0
  6
Continuous
 62
     7
370
    25
100
AcDbLine
 10
289.1077837805
 20
388.4358990565
 30
0.0
 11
288.3893811259
 21
389.2335528932
 31
0.0
  0
ARC
  5
125
330
1F
100
AcDbEntity
  8
0
  6
Continuous
 62
     7
370
    25
100
AcDbCircle
 10
315.8802732491
 20
413.9341293977
 30
0.0
 40
38.28854997303658
100
AcDbArc
 50
221.9951869938
 51
41.9893320235
  0
SPLINE
  5
126
330
1F
100
AcDbEntity
  8
0
  6
Continuous
 62
     7
370
    25
100
AcDbSpline
210
0.0
220
0.0
230
1.0
 70
     8
 71
     3
 72
    12
 73
     8
 74
     0
 42
0.000000001
 43
0.00000001
 40
0.0
 40
0.0
 40
0.0
 40
0.0
 40
0.2201335735841748
 40
0.4402546039776962
 40
0.660743844039647
 40
0.8821597064822526
 40
1.0
 40
1.0
 40
1.0
 40
1.0
 10
330.1839672125062
 20
426.7768584486593
 30
0.0
 10
330.2421776536046
 20
426.7237256846701
 30
0.0
 10
330.3585952189761
 20
426.6174631841918
 30
0.0
 10
330.5876001469003
 20
426.5419391596553
 30
0.0
 10
330.8247237352745
 20
426.5417392349406
 30
0.0
 10
331.0167644588794
 20
426.6062979667577
 30
0.0
 10
331.1134804653713
 20
426.6765547697406
 30
0.0
 10
331.1470746755061
 20
426.7009584014497
 30
0.0
  0
SPLINE
  5
127
330
1F
100
AcDbEntity
  8
0
  6
Continuous
 62
     7
370
    25
100
AcDbSpline
210
0.0
220
0.0
230
1.0
 70
     8
 71
     3
 72
    11
 73
     7
 74
     0
 42
0.000000001
 43
0.00000001
 40
0.0
 40
0.0
 40
0.0
 40
0.0
 40
0.2832270505185693
 40
0.5762690817332498
 40
0.7861908663327891
 40
1.0
 40
1.0
 40
1.0
 40
1.0
 10
344.0150477291539
 20
436.9445478584165
 30
0.0
 10
342.9717610684092
 20
436.1319061857918
 30
0.0
 10
340.8490335786759
 20
434.478461468544
 30
0.0
 10
337.4468848978493
 20
431.7762336548085
 30
0.0
 10
334.176804953315
 20
429.1548479458223
 30
0.0
 10
332.163142613479
 20
427.5239090474614
 30
0.0
 10
331.1470746755061
 20
426.7009584014497
 30
0.0
  0
SPLINE
  5
128
330
1F
100
AcDbEntity
  8
0
  6
Continuous
 62
     7
370
    25
100
AcDbSpline
210
0.0
220
0.0
230
1.0
 70
     8
 71
     3
 72
    12
 73
     8
 74
     0
 42
0.000000001
 43
0.00000001
 40
0.0
 40
0.0
 40
0.0
 40
0.0
 40
0.3203292003935613
 40
0.5619245695284092
 40
0.7389290104027835
 40
0.8801315506835804
 40
1.0
 40
1.0
 40
1.0
 40
1.0
 10
344.0150477291539
 20
436.9445478584165
 30
0.0
 10
344.0883022024712
 20
437.0181596035626
 30
0.0
 10
344.2168059053317
 20
437.1472900361072
 30
0.0
 10
344.2817752780354
 20
437.4006429827887
 30
0.0
 10
344.2645577466381
 20
437.6166277794707
 30
0.0
 10
344.1986919295705
 20
437.7948511494448
 30
0.0
 10
344.1256995262818
 20
437.887903766767
 30
0.0
 10
344.0921857061229
 20
437.9306280578131
 30
0.0
  0
LINE
  5
129
330
1F
100
AcDbEntity
  8
0
  6
Continuous
 62
     7
370
    25
100
AcDbLine
 10
343.3737830532
 20
438.7282818959
 30
0.0
 11
344.0921857061
 21
437.9306280578
 31
0.0
  0
LINE
  5
12A
330
1F
100
AcDbEntity
  8
0
  6
Continuous
 62
     7
370
    25
100
AcDbLine
 10
343.3737830532
 20
438.7282818959
 30
0.0
 11
342.6553803988
 21
439.5248515198
 31
0.0
  0
SPLINE
  5
12B
330
1F
100
AcDbEntity
  8
0
  6
Continuous
 62
     7
370
    25
100
AcDbSpline
210
0.0
220
0.0
230
1.0
 70
     8
 71
     3
 72
    12
 73
     8
 74
     0
 42
0.000000001
 43
0.00000001
 40
0.0
 40
0.0
 40
0.0
 40
0.0
 40
0.1369201190564424
 40
0.2732892224798548
 40
0.4609277104377361
 40
0.7173042534523935
 40
1.0
 40
1.0
 40
1.0
 40
1.0
 10
342.6553803988243
 20
439.5248515197983
 30
0.0
 10
342.6102003308802
 20
439.5677602885672
 30
0.0
 10
342.5200220157785
 20
439.6534051458406
 30
0.0
 10
342.3375795891193
 20
439.7387168951091
 30
0.0
 10
342.1129434747619
 20
439.7778070764226
 30
0.0
 10
341.8559362017292
 20
439.7367923160351
 30
0.0
 10
341.715834732165
 20
439.6320919337609
 30
0.0
 10
341.6423639003346
 20
439.5771858417506
 30
0.0
  0
SPLINE
  5
12C
330
1F
100
AcDbEntity
  8
0
  6
Continuous
 62
     7
370
    25
100
AcDbSpline
210
0.0
220
0.0
230
1.0
 70
     8
 71
     3
 72
    11
 73
     7
 74
     0
 42
0.000000001
 43
0.00000001
 40
0.0
 40
0.0
 40
0.0
 40
0.0
 40
0.260329670066583
 40
0.5282089223405569
 40
0.7614183595493659
 40
1.0
 40
1.0
 40
1.0
 40
1.0
 10
329.8416593350929
 20
428.1493966500914
 30
0.0
 10
330.9754905107702
 20
429.2640700428496
 30
0.0
 10
333.2760340610593
 20
431.5257424499936
 30
0.0
 10
336.4135326465218
 20
434.5742851603355
 30
0.0
 10
339.2610299887053
 20
437.3172570648196
 30
0.0
 10
340.8425829732056
 20
438.8181793355095
 30
0.0
 10
341.6423639003346
 20
439.5771858417506
 30
0.0
  0
SPLINE
  5
12D
330
1F
100
AcDbEntity
  8
0
  6
Continuous
 62
     7
370
    25
100
AcDbSpline
210
0.0
220
0.0
230
1.0
 70
     8
 71
     3
 72
    12
 73
     8
 74
     0
 42
0.000000001
 43
0.00000001
 40
0.0
 40
0.0
 40
0.0
 40
0.0
 40
0.2229001251908063
 40
0.4458326919247032
 40
0.66793136017444
 40
0.8889145873856024
 40
1.0
 40
1.0
 40
1.0
 40
1.0
 10
329.8416593350929
 20
428.1493966500914
 30
0.0
 10
329.7910810697567
 20
428.0886274338758
 30
0.0
 10
329.6899171777742
 20
427.9670801569131
 30
0.0
 10
329.6260834567167
 20
427.7334392795971
 30
0.0
 10
329.6394988388371
 20
427.4956245852885
 30
0.0
 10
329.7151422455015
 20
427.3089911515211
 30
0.0
 10
329.7895418325263
 20
427.2174912331379
 30
0.0
 10
329.8144303881794
 20
427.1868821813675
 30
0.0
  0
SPLINE
  5
12E
330
1F
100
AcDbEntity
  8
0
  6
Continuous
 62
     7
370
    25
100
AcDbSpline
210
0.0
220
0.0
230
1.0
 70
     8
 71
     3
 72
     9
 73
     5
 74
     0
 42
0.000000001
 43
0.00000001
 40
0.0
 40
0.0
 40
0.0
 40
0.0
 40
0.4999999145895836
 40
1.0
 40
1.0
 40
1.0
 40
1.0
 10
330.1839672125062
 20
426.7768584486593
 30
0.0
 10
330.1223777523058
 20
426.8451988343103
 30
0.0
 10
329.9991988108636
 20
426.9818796289604
 30
0.0
 10
329.8760198694213
 20
427.1185479894499
 30
0.0
 10
329.8144303881794
 20
427.1868821813675
 30
0.0
  0
LINE
  5
12F
330
1F
100
AcDbEntity
  8
0
  6
Continuous
 62
     7
370
    25
100
AcDbLine
 10
324.2390195504
 20
432.0894535043
 30
0.0
 11
324.2390195521
 21
432.1105233956
 31
0.0
  0
LINE
  5
130
330
1F
100
AcDbEntity
  8
0
  6
Continuous
 62
     7
370
    25
100
AcDbLine
 10
331.2694299099
 20
446.9003500081
 30
0.0
 11
331.2694299084
 21
446.8719524587
 31
0.0
  0
SPLINE
  5
131
330
1F
100
AcDbEntity
  8
0
  6
Continuous
 62
     7
370
    25
100
AcDbSpline
210
0.0
220
0.0
230
1.0
 70
     8
 71
     3
 72
    11
 73
     7
 74
     0
 42
0.000000001
 43
0.00000001
 40
0.0
 40
0.0
 40
0.0
 40
0.0
 40
0.2671764453454528
 40
0.5421010300196669
 40
0.7687203836147407
 40
1.0
 40
1.0
 40
1.0
 40
1.0
 10
324.2390195520789
 20
432.1105233955677
 30
0.0
 10
324.9286568496237
 20
433.5777448819219
 30
0.0
 10
326.3279309841968
 20
436.5547374008216
 30
0.0
 10
328.2064436522004
 20
440.5152409076835
 30
0.0
 10
329.8821827430282
 20
444.0254075333885
 30
0.0
 10
330.8038873075373
 20
445.9355556778357
 30
0.0
 10
331.269429909892
 20
446.9003500081346
 30
0.0
  0
LINE
  5
132
330
1F
100
AcDbEntity
  8
0
  6
Continuous
 62
     7
370
    25
100
AcDbLine
 10
311.9371820691
 20
450.0770014835
 30
0.0
 11
311.9371820688
 21
450.1053990323
 31
0.0
  0
LINE
  5
133
330
1F
100
AcDbEntity
  8
0
  6
Continuous
 62
     7
370
    25
100
AcDbLine
 10
313.7286333945
 20
433.8530162072
 30
0.0
 11
313.7286333949
 21
433.8319463156
 31
0.0
  0
SPLINE
  5
134
330
1F
100
AcDbEntity
  8
0
  6
Continuous
 62
     7
370
    25
100
AcDbSpline
210
0.0
220
0.0
230
1.0
 70
     8
 71
     3
 72
    11
 73
     7
 74
     0
 42
0.000000001
 43
0.00000001
 40
0.0
 40
0.0
 40
0.0
 40
0.0
 40
0.2826844473541142
 40
0.5746028240760951
 40
0.7854345155086352
 40
0.9999999999999999
 40
0.9999999999999999
 40
0.9999999999999999
 40
0.9999999999999999
 10
311.9371820687644
 20
450.1053990323271
 30
0.0
 10
312.0833871434997
 20
448.7962133994823
 30
0.0
 10
312.3805731034047
 20
446.1350773910688
 30
0.0
 10
312.8533650626465
 20
441.8517894696905
 30
0.0
 10
313.3074222700857
 20
437.7150445052639
 30
0.0
 10
313.5874105160842
 20
435.1478698356387
 30
0.0
 10
313.7286333945015
 20
433.8530162072248
 30
0.0
  0
LINE
  5
135
330
1F
100
AcDbEntity
  8
0
  6
Continuous
 62
     7
370
    25
100
AcDbLine
 10
331.1470746755
 20
426.7009584014
 30
0.0
 11
331.1470746782
 21
426.7220282919
 31
0.0
  0
LINE
  5
136
330
1F
100
AcDbEntity
  8
0
  6
Continuous
 62
     7
370
    25
100
AcDbLine
 10
344.0150477308
 20
436.9729454064
 30
0.0
 11
344.0150477292
 21
436.9445478584
 31
0.0
  0
SPLINE
  5
137
330
1F
100
AcDbEntity
  8
0
  6
Continuous
 62
     7
370
    25
100
AcDbSpline
210
0.0
220
0.0
230
1.0
 70
     8
 71
     3
 72
    11
 73
     7
 74
     0
 42
0.000000001
 43
0.00000001
 40
0.0
 40
0.0
 40
0.0
 40
0.0
 40
0.2671764453453465
 40
0.5421010300195975
 40
0.768720383655872
 40
1.0
 40
1.0
 40
1.0
 40
1.0
 10
331.1470746781919
 20
426.7220282919035
 30
0.0
 10
332.4093387153742
 20
427.7440124277888
 30
0.0
 10
334.9704725527106
 20
429.8176183252363
 30
0.0
 10
338.4087711956765
 20
432.5653335940577
 30
0.0
 10
341.4759272177028
 20
434.9936248112544
 30
0.0
 10
343.162951003205
 20
436.3087104505544
 30
0.0
 10
344.0150477307672
 20
436.9729454064225
 30
0.0
  0
LINE
  5
138
330
1F
100
AcDbEntity
  8
0
  6
Continuous
 62
     7
370
    25
100
AcDbLine
 10
296.6668403603
 20
444.7942985482
 30
0.0
 11
296.6668403589
 21
444.8226960967
 31
0.0
  0
LINE
  5
139
330
1F
100
AcDbEntity
  8
0
  6
Continuous
 62
     7
370
    25
100
AcDbLine
 10
305.4496405865
 20
430.9823469438
 30
0.0
 11
305.4496405885
 21
430.9612770527
 31
0.0
  0
SPLINE
  5
13A
330
1F
100
AcDbEntity
  8
0
  6
Continuous
 62
     7
370
    25
100
AcDbSpline
210
0.0
220
0.0
230
1.0
 70
     8
 71
     3
 72
    11
 73
     7
 74
     0
 42
0.000000001
 43
0.00000001
 40
0.0
 40
0.0
 40
0.0
 40
0.0
 40
0.2826844473523317
 40
0.5746028240702868
 40
0.7854345154777748
 40
1.0
 40
1.0
 40
1.0
 40
1.0
 10
296.6668403589163
 20
444.8226960966903
 30
0.0
 10
297.3836278849099
 20
443.7103629031254
 30
0.0
 10
298.8406169076591
 20
441.449361987384
 30
0.0
 10
301.158534937285
 20
437.802647390418
 30
0.0
 10
303.38460364923
 20
434.2772510335998
 30
0.0
 10
304.7572788623132
 20
432.0870562278755
 30
0.0
 10
305.4496405864904
 20
430.9823469437547
 30
0.0
  0
LINE
  5
13B
330
1F
100
AcDbEntity
  8
0
  6
Continuous
 62
     7
370
    25
100
AcDbLine
 10
335.0316117746
 20
418.8506251513
 30
0.0
 11
335.0316117784
 21
418.8716950398
 31
0.0
  0
LINE
  5
13C
330
1F
100
AcDbEntity
  8
0
  6
Continuous
 62
     7
370
    25
100
AcDbLine
 10
351.188487647
 20
422.5019154014
 30
0.0
 11
351.1884876459
 21
422.4735178548
 31
0.0
  0
SPLINE
  5
13D
330
1F
100
AcDbEntity
  8
0
  6
Continuous
 62
     7
370
    25
100
AcDbSpline
210
0.0
220
0.0
230
1.0
 70
     8
 71
     3
 72
    11
 73
     7
 74
     0
 42
0.000000001
 43
0.00000001
 40
0.0
 40
0.0
 40
0.0
 40
0.0
 40
0.2671764453276944
 40
0.542101029986941
 40
0.768720383579222
 40
1.0
 40
1.0
 40
1.0
 40
1.0
 10
335.0316117784105
 20
418.8716950397586
 30
0.0
 10
336.6164956818969
 20
419.2442321044352
 30
0.0
 10
339.8322252550484
 20
420.0001098399211
 30
0.0
 10
344.1493126581967
 20
420.9787871594659
 30
0.0
 10
348.0003977451773
 20
421.8289969005726
 30
0.0
 10
350.1186050009977
 20
422.2760924640552
 30
0.0
 10
351.1884876469707
 20
422.5019154014221
 30
0.0
  0
LINE
  5
13E
330
1F
100
AcDbEntity
  8
0
  6
Continuous
 62
     7
370
    25
100
AcDbLine
 10
285.2022139044
 20
433.4132308147
 30
0.0
 11
285.2022139024
 21
433.4416283621
 31
0.0
  0
LINE
  5
13F
330
1F
100
AcDbEntity
  8
0
  6
Continuous
 62
     7
370
    25
100
AcDbLine
 10
299.2368217314
 20
424.8060311741
 30
0.0
 11
299.2368217345
 21
424.784961284
 31
0.0
  0
SPLINE
  5
140
330
1F
100
AcDbEntity
  8
0
  6
Continuous
 62
     7
370
    25
100
AcDbSpline
210
0.0
220
0.0
230
1.0
 70
     8
 71
     3
 72
    11
 73
     7
 74
     0
 42
0.000000001
 43
0.00000001
 40
0.0
 40
0.0
 40
0.0
 40
0.0
 40
0.282684447351299
 40
0.5746028240770948
 40
0.7854345155014535
 40
1.0
 40
1.0
 40
1.0
 40
1.0
 10
285.2022139024016
 20
433.4416283621391
 30
0.0
 10
286.3476153191383
 20
432.7540687245773
 30
0.0
 10
288.6758328596703
 20
431.3564902119771
 30
0.0
 10
292.3797848663157
 20
429.0833908749824
 30
0.0
 10
295.9369648729416
 20
426.8771791973945
 30
0.0
 10
298.1304518923503
 20
425.5004418117454
 30
0.0
 10
299.2368217314063
 20
424.8060311741143
 30
0.0
  0
LINE
  5
141
330
1F
100
AcDbEntity
  8
0
  6
Continuous
 62
     7
370
    25
100
AcDbLine
 10
279.8140125753
 20
418.1879583271
 30
0.0
 11
279.8140125731
 21
418.2163558738
 31
0.0
  0
LINE
  5
142
330
1F
100
AcDbEntity
  8
0
  6
Continuous
 62
     7
370
    25
100
AcDbLine
 10
296.3207018004
 20
416.547363983
 30
0.0
 11
296.320701804
 21
416.5262940951
 31
0.0
  0
SPLINE
  5
143
330
1F
100
AcDbEntity
  8
0
  6
Continuous
 62
     7
370
    25
100
AcDbSpline
210
0.0
220
0.0
230
1.0
 70
     8
 71
     3
 72
    11
 73
     7
 74
     0
 42
0.000000001
 43
0.00000001
 40
0.0
 40
0.0
 40
0.0
 40
0.0
 40
0.28268444734446
 40
0.5746028240664586
 40
0.7854345154954383
 40
1.0
 40
1.0
 40
1.0
 40
1.0
 10
279.8140125731027
 20
418.2163558738086
 30
0.0
 10
281.1611670826156
 20
418.0973592966542
 30
0.0
 10
283.8994811033962
 20
417.8554791015126
 30
0.0
 10
288.2558539662276
 20
417.4209756117788
 30
0.0
 10
292.4396021416592
 20
416.9805039811886
 30
0.0
 10
295.0194539617559
 20
416.6925863518968
 30
0.0
 10
296.3207018003534
 20
416.5473639829639
 30
0.0
  0
LINE
  5
144
330
1F
100
AcDbEntity
  8
0
  6
Continuous
 62
     7
370
    25
100
AcDbLine
 10
335.1232506349
 20
410.0933085313
 30
0.0
 11
335.1232506385
 21
410.1143784184
 31
0.0
  0
LINE
  5
145
330
1F
100
AcDbEntity
  8
0
  6
Continuous
 62
     7
370
    25
100
AcDbLine
 10
351.368961907
 20
406.3534249604
 30
0.0
 11
351.3689619059
 21
406.3250274143
 31
0.0
  0
SPLINE
  5
146
330
1F
100
AcDbEntity
  8
0
  6
Continuous
 62
     7
370
    25
100
AcDbSpline
210
0.0
220
0.0
230
1.0
 70
     8
 71
     3
 72
    11
 73
     7
 74
     0
 42
0.000000001
 43
0.00000001
 40
0.0
 40
0.0
 40
0.0
 40
0.0
 40
0.2671764453254348
 40
0.5421010299813068
 40
0.768720383574235
 40
1.0
 40
1.0
 40
1.0
 40
1.0
 10
335.1232506385448
 20
410.1143784184412
 30
0.0
 10
336.7168487140152
 20
409.7618896482862
 30
0.0
 10
339.9502593428466
 20
409.046689904068
 30
0.0
 10
344.2910834008006
 20
408.0504592246039
 30
0.0
 10
348.163342920645
 20
407.1389398105895
 30
0.0
 10
350.2931967219432
 20
406.6170338083888
 30
0.0
 10
351.3689619069732
 20
406.3534249603619
 30
0.0
  0
LINE
  5
147
330
1F
100
AcDbEntity
  8
0
  6
Continuous
 62
     7
370
    25
100
AcDbLine
 10
311.9438661542
 20
450.1775143759
 30
0.0
 11
311.9371820688
 21
450.1053990323
 31
0.0
  0
SPLINE
  5
148
330
1F
100
AcDbEntity
  8
0
  6
Continuous
 62
     7
370
    25
100
AcDbSpline
210
0.0
220
0.0
230
1.0
 70
     8
 71
     3
 72
     9
 73
     5
 74
     0
 42
0.000000001
 43
0.00000001
 40
0.0
 40
0.0
 40
0.0
 40
0.0
 40
0.8742968605686574
 40
1.0
 40
1.0
 40
1.0
 40
1.0
 10
331.269429909892
 20
446.9003500081346
 30
0.0
 10
331.3058154622937
 20
446.9797291429679
 30
0.0
 10
331.347432393616
 20
447.0705211135369
 30
0.0
 10
331.3306867256118
 20
447.1731798117421
 30
0.0
 10
331.3285817425718
 20
447.1860843323965
 30
0.0
  0
SPLINE
  5
149
330
1F
100
AcDbEntity
  8
0
  6
Continuous
 62
     7
370
    25
100
AcDbSpline
210
0.0
220
0.0
230
1.0
 70
     8
 71
     3
 72
     9
 73
     5
 74
     0
 42
0.000000001
 43
0.00000001
 40
0.0
 40
0.0
 40
0.0
 40
0.0
 40
0.2787536145307746
 40
1.0
 40
1.0
 40
1.0
 40
1.0
 10
296.5737902976882
 20
445.180402434914
 30
0.0
 10
296.5707108405411
 20
445.1433665205941
 30
0.0
 10
296.5596636038898
 20
445.0105039767944
 30
0.0
 10
296.6219305494772
 20
444.9013924157247
 30
0.0
 10
296.6668403589163
 20
444.8226960966903
 30
0.0
  0
LINE
  5
14A
330
1F
100
AcDbEntity
  8
0
  6
Continuous
 62
     7
370
    25
100
AcDbLine
 10
331.4038410564
 20
402.1635025015
 30
0.0
 11
331.4038410593
 21
402.1845723872
 31
0.0
  0
LINE
  5
14B
330
1F
100
AcDbEntity
  8
0
  6
Continuous
 62
     7
370
    25
100
AcDbLine
 10
344.5207253699
 20
391.7258806643
 30
0.0
 11
344.520725369
 21
391.6974831186
 31
0.0
  0
SPLINE
  5
14C
330
1F
100
AcDbEntity
  8
0
  6
Continuous
 62
     7
370
    25
100
AcDbSpline
210
0.0
220
0.0
230
1.0
 70
     8
 71
     3
 72
    11
 73
     7
 74
     0
 42
0.000000001
 43
0.00000001
 40
0.0
 40
0.0
 40
0.0
 40
0.0
 40
0.2671764453278396
 40
0.5421010299772664
 40
0.7687203835710261
 40
1.0
 40
1.0
 40
1.0
 40
1.0
 10
331.4038410592991
 20
402.1845723871876
 30
0.0
 10
332.6905216636893
 20
401.1750792770804
 30
0.0
 10
335.301196717906
 20
399.1268176720104
 30
0.0
 10
338.8060039891636
 20
396.3409636936196
 30
0.0
 10
341.9324894536907
 20
393.8329995115847
 30
0.0
 10
343.6521461341069
 20
392.4330030972178
 30
0.0
 10
344.5207253698638
 20
391.725880664292
 30
0.0
  0
LINE
  5
14D
330
1F
100
AcDbEntity
  8
0
  6
Continuous
 62
     7
370
    25
100
AcDbLine
 10
281.569435728
 20
402.134033028
 30
0.0
 11
281.5694357257
 21
402.1624305736
 31
0.0
  0
LINE
  5
14E
330
1F
100
AcDbEntity
  8
0
  6
Continuous
 62
     7
370
    25
100
AcDbLine
 10
297.2788541086
 20
407.8420756958
 30
0.0
 11
297.2788541121
 21
407.8210058089
 31
0.0
  0
SPLINE
  5
14F
330
1F
100
AcDbEntity
  8
0
  6
Continuous
 62
     7
370
    25
100
AcDbSpline
210
0.0
220
0.0
230
1.0
 70
     8
 71
     3
 72
    11
 73
     7
 74
     0
 42
0.000000001
 43
0.00000001
 40
0.0
 40
0.0
 40
0.0
 40
0.0
 40
0.2826844473499056
 40
0.5746028240744665
 40
0.7854345154817343
 40
1.0
 40
1.0
 40
1.0
 40
1.0
 10
281.5694357257387
 20
402.1624305736346
 30
0.0
 10
282.8515228557233
 20
402.6431756741065
 30
0.0
 10
285.4575766818356
 20
403.6203694850175
 30
0.0
 10
289.6035373278477
 20
405.1252859733312
 30
0.0
 10
293.5852110354197
 20
406.5473832842813
 30
0.0
 10
296.0404563634922
 20
407.4079936441944
 30
0.0
 10
297.2788541085711
 20
407.8420756957605
 30
0.0
  0
SPLINE
  5
150
330
1F
100
AcDbEntity
  8
0
  6
Continuous
 62
     7
370
    25
100
AcDbSpline
210
0.0
220
0.0
230
1.0
 70
     8
 71
     3
 72
    10
 73
     6
 74
     0
 42
0.000000001
 43
0.00000001
 40
0.0
 40
0.0
 40
0.0
 40
0.0
 40
0.4464845684816228
 40
0.877640878951839
 40
0.9999999999999999
 40
0.9999999999999999
 40
0.9999999999999999
 40
0.9999999999999999
 10
344.0150477307672
 20
436.9729454064225
 30
0.0
 10
344.0756719922423
 20
437.0332361843716
 30
0.0
 10
344.1948392241757
 20
437.151747898073
 30
0.0
 10
344.2741520747479
 20
437.3442477937994
 30
0.0
 10
344.2658847642259
 20
437.4694089924997
 30
0.0
 10
344.2640572075016
 20
437.4970769009088
 30
0.0
  0
SPLINE
  5
151
330
1F
100
AcDbEntity
  8
0
  6
Continuous
 62
     7
370
    25
100
AcDbSpline
210
0.0
220
0.0
230
1.0
 70
     8
 71
     3
 72
    10
 73
     6
 74
     0
 42
0.000000001
 43
0.00000001
 40
0.0
 40
0.0
 40
0.0
 40
0.0
 40
0.2020200176450412
 40
0.5853733079465862
 40
1.0
 40
1.0
 40
1.0
 40
1.0
 10
284.8843632210406
 20
434.0139686718514
 30
0.0
 10
284.8854196529274
 20
433.9619091391289
 30
0.0
 10
284.8884807705107
 20
433.8110614101008
 30
0.0
 10
284.995140656943
 20
433.6020855292849
 30
0.0
 10
285.131409331893
 20
433.4964934934583
 30
0.0
 10
285.2022139024015
 20
433.4416283621392
 30
0.0
  0
LINE
  5
152
330
1F
100
AcDbEntity
  8
0
  6
Continuous
 62
     7
370
    25
100
AcDbLine
 10
324.6100577214
 20
396.6318023961
 30
0.0
 11
324.6100577229
 21
396.6528722807
 31
0.0
  0
LINE
  5
153
330
1F
100
AcDbEntity
  8
0
  6
Continuous
 62
     7
370
    25
100
AcDbLine
 10
332.0001552698
 20
381.516447056
 30
0.0
 11
332.0001552693
 21
381.4880495106
 31
0.0
  0
SPLINE
  5
154
330
1F
100
AcDbEntity
  8
0
  6
Continuous
 62
     7
370
    25
100
AcDbSpline
210
0.0
220
0.0
230
1.0
 70
     8
 71
     3
 72
    11
 73
     7
 74
     0
 42
0.000000001
 43
0.00000001
 40
0.0
 40
0.0
 40
0.0
 40
0.0
 40
0.2671764453302261
 40
0.5421010299878483
 40
0.7687203835807679
 40
1.0
 40
1.0
 40
1.0
 40
1.0
 10
324.6100577229276
 20
396.6528722807094
 30
0.0
 10
325.3349779824198
 20
395.1845240928941
 30
0.0
 10
326.8058412497413
 20
392.2052454966405
 30
0.0
 10
328.7804616706106
 20
388.169509762577
 30
0.0
 10
330.5419342897479
 20
384.5465806654872
 30
0.0
 10
331.5107947534451
 20
382.533321568194
 30
0.0
 10
332.0001552698091
 20
381.5164470559797
 30
0.0
  0
LINE
  5
155
330
1F
100
AcDbEntity
  8
0
  6
Continuous
 62
     7
370
    25
100
AcDbLine
 10
316.0874927397
 20
394.5938292645
 30
0.0
 11
316.0874927402
 21
394.6148991487
 31
0.0
  0
LINE
  5
156
330
1F
100
AcDbEntity
  8
0
  6
Continuous
 62
     7
370
    25
100
AcDbLine
 10
316.2871040701
 20
377.7472276717
 30
0.0
 11
316.2871040701
 21
377.7188301264
 31
0.0
  0
SPLINE
  5
157
330
1F
100
AcDbEntity
  8
0
  6
Continuous
 62
     7
370
    25
100
AcDbSpline
210
0.0
220
0.0
230
1.0
 70
     8
 71
     3
 72
    11
 73
     7
 74
     0
 42
0.000000001
 43
0.00000001
 40
0.0
 40
0.0
 40
0.0
 40
0.0
 40
0.267176445332671
 40
0.5421010299938727
 40
0.7687203836769662
 40
1.0
 40
1.0
 40
1.0
 40
1.0
 10
316.0874927402439
 20
394.6148991486765
 30
0.0
 10
316.107073306843
 20
392.9767270208384
 30
0.0
 10
316.1468022781152
 20
389.652875636026
 30
0.0
 10
316.200138056971
 20
385.154554099034
 30
0.0
 10
316.2477165754595
 20
381.1189724150601
 30
0.0
 10
316.2738861251254
 20
378.878742559189
 30
0.0
 10
316.2871040701363
 20
377.7472276716708
 30
0.0
  0
LINE
  5
158
330
1F
100
AcDbEntity
  8
0
  6
Continuous
 62
     7
370
    25
100
AcDbLine
 10
290.1208002788
 20
388.4311317102
 30
0.0
 11
290.1208002771
 21
388.4595292545
 31
0.0
  0
LINE
  5
159
330
1F
100
AcDbEntity
  8
0
  6
Continuous
 62
     7
370
    25
100
AcDbLine
 10
301.9215048417
 20
400.4143554184
 30
0.0
 11
301.9215048441
 21
400.3932855333
 31
0.0
  0
SPLINE
  5
15A
330
1F
100
AcDbEntity
  8
0
  6
Continuous
 62
     7
370
    25
100
AcDbSpline
210
0.0
220
0.0
230
1.0
 70
     8
 71
     3
 72
    11
 73
     7
 74
     0
 42
0.000000001
 43
0.00000001
 40
0.0
 40
0.0
 40
0.0
 40
0.0
 40
0.2826844473518386
 40
0.574602824072581
 40
0.7854345154789457
 40
1.0
 40
1.0
 40
1.0
 40
1.0
 10
290.1208002771311
 20
388.4595292545068
 30
0.0
 10
291.083886947685
 20
389.4524084554947
 30
0.0
 10
293.0415196576235
 20
391.4705994037238
 30
0.0
 10
296.1559097340661
 20
394.6316340889339
 30
0.0
 10
299.1468896638113
 20
397.6442246161553
 30
0.0
 10
300.9912370513858
 20
399.4855911412115
 30
0.0
 10
301.9215048416629
 20
400.4143554184265
 30
0.0
  0
SPLINE
  5
15B
330
1F
100
AcDbEntity
  8
0
  6
Continuous
 62
     7
370
    25
100
AcDbSpline
210
0.0
220
0.0
230
1.0
 70
     8
 71
     3
 72
    11
 73
     7
 74
     0
 42
0.000000001
 43
0.00000001
 40
0.0
 40
0.0
 40
0.0
 40
0.0
 40
0.3111663838049575
 40
0.6116501183214629
 40
0.8319650102755037
 40
1.0
 40
1.0
 40
1.0
 40
1.0
 10
351.1884876469707
 20
422.5019154014221
 30
0.0
 10
351.2716087103061
 20
422.5287682392037
 30
0.0
 10
351.4349972087757
 20
422.5815520303236
 30
0.0
 10
351.6083787824624
 20
422.7587027879371
 30
0.0
 10
351.7084753047854
 20
422.9594715889477
 30
0.0
 10
351.7190053157487
 20
423.0994604877982
 30
0.0
 10
351.7235615429229
 20
423.1600322409765
 30
0.0
  0
LINE
  5
15C
330
1F
100
AcDbEntity
  8
0
  6
Continuous
 62
     7
370
    25
100
AcDbLine
 10
303.7744036019
 20
379.7932820358
 30
0.0
 11
303.774403601
 21
379.8216795799
 31
0.0
  0
LINE
  5
15D
330
1F
100
AcDbEntity
  8
0
  6
Continuous
 62
     7
370
    25
100
AcDbLine
 10
309.3291200818
 20
395.735354249
 30
0.0
 11
309.3291200833
 21
395.7142843644
 31
0.0
  0
SPLINE
  5
15E
330
1F
100
AcDbEntity
  8
0
  6
Continuous
 62
     7
370
    25
100
AcDbSpline
210
0.0
220
0.0
230
1.0
 70
     8
 71
     3
 72
    11
 73
     7
 74
     0
 42
0.000000001
 43
0.00000001
 40
0.0
 40
0.0
 40
0.0
 40
0.0
 40
0.2826844473503043
 40
0.5746028240727086
 40
0.7854345155045054
 40
1.0
 40
1.0
 40
1.0
 40
1.0
 10
303.7744036010359
 20
379.8216795798795
 30
0.0
 10
304.227738685641
 20
381.1376508644384
 30
0.0
 10
305.149217112583
 20
383.8125798306192
 30
0.0
 10
306.615193469545
 20
388.0184164115462
 30
0.0
 10
308.0230793652519
 20
392.0344077404595
 30
0.0
 10
308.8912331917242
 20
394.494507821863
 30
0.0
 10
309.3291200817526
 20
395.7353542490241
 30
0.0
  0
SPLINE
  5
15F
330
1F
100
AcDbEntity
  8
0
  6
Continuous
 62
     7
370
    25
100
AcDbSpline
210
0.0
220
0.0
230
1.0
 70
     8
 71
     3
 72
    12
 73
     8
 74
     0
 42
0.000000001
 43
0.00000001
 40
0.0
 40
0.0
 40
0.0
 40
0.0
 40
0.0588920302574092
 40
0.2117007713131803
 40
0.4193972095409365
 40
0.6983214791747786
 40
0.9999999999999999
 40
0.9999999999999999
 40
0.9999999999999999
 40
0.9999999999999999
 10
279.2011959934562
 20
418.8885236970167
 30
0.0
 10
279.1997128022084
 20
418.8646050471589
 30
0.0
 10
279.1943811345824
 20
418.7786240306866
 30
0.0
 10
279.2411440144733
 20
418.6220719590019
 30
0.0
 10
279.3535611799884
 20
418.429289008618
 30
0.0
 10
279.5526168146556
 20
418.2685172888993
 30
0.0
 10
279.7246335000681
 20
418.2341914307307
 30
0.0
 10
279.8140125731027
 20
418.2163558738086
 30
0.0
  0
LINE
  5
160
330
1F
100
AcDbEntity
  8
0
  6
Continuous
 62
     7
370
    25
100
AcDbLine
 10
352.55842151
 20
409.0165486184
 30
0.0
 11
352.5584215091
 21
408.9872488411
 31
0.0
  0
LINE
  5
161
330
1F
100
AcDbEntity
  8
0
  6
Continuous
 62
     7
370
    25
100
AcDbLine
 10
352.55842151
 20
409.0165486184
 30
0.0
 11
352.5619681856
 21
409.1316083949
 31
0.0
  0
LINE
  5
162
330
1F
100
AcDbEntity
  8
0
  6
Continuous
 62
     7
370
    25
100
AcDbLine
 10
352.2070811358
 20
406.8706114997
 30
0.0
 11
352.2070811349
 21
406.8999112658
 31
0.0
  0
LINE
  5
163
330
1F
100
AcDbEntity
  8
0
  6
Continuous
 62
     7
370
    25
100
AcDbLine
 10
352.2070811349
 20
406.8999112658
 30
0.0
 11
352.55842151
 21
409.0165486184
 31
0.0
  0
SPLINE
  5
164
330
1F
100
AcDbEntity
  8
0
  6
Continuous
 62
     7
370
    25
100
AcDbSpline
210
0.0
220
0.0
230
1.0
 70
     8
 71
     3
 72
    12
 73
     8
 74
     0
 42
0.000000001
 43
0.00000001
 40
0.0
 40
0.0
 40
0.0
 40
0.0
 40
0.264620560237337
 40
0.5201564353431457
 40
0.7075155241932752
 40
0.8564116087767806
 40
1.0
 40
1.0
 40
1.0
 40
1.0
 10
351.3689619069732
 20
406.3534249603619
 30
0.0
 10
351.4565665966928
 20
406.3414007794202
 30
0.0
 10
351.628768420629
 20
406.3177652195417
 30
0.0
 10
351.866805034747
 20
406.4002018176797
 30
0.0
 10
352.0429927531883
 20
406.5420746301515
 30
0.0
 10
352.1592285551009
 20
406.7101230000208
 30
0.0
 10
352.1913244220227
 20
406.8374185178828
 30
0.0
 10
352.2070811348653
 20
406.8999112658118
 30
0.0
  0
LINE
  5
165
330
1F
100
AcDbEntity
  8
0
  6
Continuous
 62
     7
370
    25
100
AcDbLine
 10
280.0667471026
 20
404.6346090021
 30
0.0
 11
280.066747103
 21
404.6639087714
 31
0.0
  0
SPLINE
  5
166
330
1F
100
AcDbEntity
  8
0
  6
Continuous
 62
     7
370
    25
100
AcDbSpline
210
0.0
220
0.0
230
1.0
 70
     8
 71
     3
 72
     9
 73
     5
 74
     0
 42
0.000000001
 43
0.00000001
 40
0.0
 40
0.0
 40
0.0
 40
0.0
 40
0.0400883079316622
 40
1.0
 40
1.0
 40
1.0
 40
1.0
 10
280.039602636181
 20
404.8608417397039
 30
0.0
 10
280.0392771525214
 20
404.8583111138491
 30
0.0
 10
280.0311579857012
 20
404.7951848312651
 30
0.0
 10
280.0493165167188
 20
404.7282042319
 30
0.0
 10
280.0667471029534
 20
404.6639087714277
 30
0.0
  0
LINE
  5
167
330
1F
100
AcDbEntity
  8
0
  6
Continuous
 62
     7
370
    25
100
AcDbLine
 10
280.6691346959
 20
402.6045363512
 30
0.0
 11
280.6691346971
 21
402.5752365764
 31
0.0
  0
LINE
  5
168
330
1F
100
AcDbEntity
  8
0
  6
Continuous
 62
     7
370
    25
100
AcDbLine
 10
280.066747103
 20
404.6639087714
 30
0.0
 11
280.6691346959
 21
402.6045363512
 31
0.0
  0
SPLINE
  5
169
330
1F
100
AcDbEntity
  8
0
  6
Continuous
 62
     7
370
    25
100
AcDbSpline
210
0.0
220
0.0
230
1.0
 70
     8
 71
     3
 72
    12
 73
     8
 74
     0
 42
0.000000001
 43
0.00000001
 40
0.0
 40
0.0
 40
0.0
 40
0.0
 40
0.1401480250266564
 40
0.2797631517916518
 40
0.4695269427721024
 40
0.7243687066003158
 40
1.0
 40
1.0
 40
1.0
 40
1.0
 10
280.6691346958884
 20
402.6045363512195
 30
0.0
 10
280.6915809212587
 20
402.5457904510496
 30
0.0
 10
280.7363880225664
 20
402.428522025874
 30
0.0
 10
280.8669788062185
 20
402.276375335683
 30
0.0
 10
281.0560229190375
 20
402.1535790737565
 30
0.0
 10
281.3074320471562
 20
402.0950925624724
 30
0.0
 10
281.4798487972636
 20
402.1394056847388
 30
0.0
 10
281.5694357257387
 20
402.1624305736346
 30
0.0
  0
LINE
  5
16A
330
1F
100
AcDbEntity
  8
0
  6
Continuous
 62
     7
370
    25
100
AcDbLine
 10
346.7585156729
 20
393.6072334233
 30
0.0
 11
346.7585156707
 21
393.5779336477
 31
0.0
  0
SPLINE
  5
16B
330
1F
100
AcDbEntity
  8
0
  6
Continuous
 62
     7
370
    25
100
AcDbSpline
210
0.0
220
0.0
230
1.0
 70
     8
 71
     3
 72
    10
 73
     6
 74
     0
 42
0.000000001
 43
0.00000001
 40
0.0
 40
0.0
 40
0.0
 40
0.0
 40
0.4180651376106873
 40
0.8345406743814459
 40
1.0
 40
1.0
 40
1.0
 40
1.0
 10
346.758515672939
 20
393.6072334233031
 30
0.0
 10
346.7899004058315
 20
393.661337930716
 30
0.0
 10
346.8525505380647
 20
393.7693412250389
 30
0.0
 10
346.8886621766622
 20
393.9155752365915
 30
0.0
 10
346.8809840504765
 20
393.9916776210387
 30
0.0
 10
346.8788009580674
 20
394.0133155224988
 30
0.0
  0
LINE
  5
16C
330
1F
100
AcDbEntity
  8
0
  6
Continuous
 62
     7
370
    25
100
AcDbLine
 10
345.5230345923
 20
391.8232572738
 30
0.0
 11
345.5230345951
 21
391.8525570492
 31
0.0
  0
LINE
  5
16D
330
1F
100
AcDbEntity
  8
0
  6
Continuous
 62
     7
370
    25
100
AcDbLine
 10
345.5230345951
 20
391.8525570492
 30
0.0
 11
346.7585156729
 21
393.6072334233
 31
0.0
  0
SPLINE
  5
16E
330
1F
100
AcDbEntity
  8
0
  6
Continuous
 62
     7
370
    25
100
AcDbSpline
210
0.0
220
0.0
230
1.0
 70
     8
 71
     3
 72
    12
 73
     8
 74
     0
 42
0.000000001
 43
0.00000001
 40
0.0
 40
0.0
 40
0.0
 40
0.0
 40
0.2646205661817675
 40
0.520156446961606
 40
0.7075155399837207
 40
0.8564116278959591
 40
1.0
 40
1.0
 40
1.0
 40
1.0
 10
344.5207253698638
 20
391.725880664292
 30
0.0
 10
344.5956356449896
 20
391.6767860992319
 30
0.0
 10
344.7428844515076
 20
391.5802824340207
 30
0.0
 10
344.9961630643551
 20
391.5506478501933
 30
0.0
 10
345.2185401379351
 20
391.6016062661224
 30
0.0
 10
345.3973777770378
 20
391.7023470691369
 30
0.0
 10
345.48165880503
 20
391.8030964891182
 30
0.0
 10
345.5230345950736
 20
391.8525570491928
 30
0.0
  0
LINE
  5
16F
330
1F
100
AcDbEntity
  8
0
  6
Continuous
 62
     7
370
    25
100
AcDbLine
 10
287.6709784728
 20
390.0301225182
 30
0.0
 11
287.6709784742
 21
390.0594222914
 31
0.0
  0
SPLINE
  5
170
330
1F
100
AcDbEntity
  8
0
  6
Continuous
 62
     7
370
    25
100
AcDbSpline
210
0.0
220
0.0
230
1.0
 70
     8
 71
     3
 72
    10
 73
     6
 74
     0
 42
0.000000001
 43
0.00000001
 40
0.0
 40
0.0
 40
0.0
 40
0.0
 40
0.2819370643466472
 40
0.6474838646833303
 40
1.0
 40
1.0
 40
1.0
 40
1.0
 10
287.4991069716033
 20
390.5335180171662
 30
0.0
 10
287.4981841660069
 20
390.4889299401889
 30
0.0
 10
287.4960648925607
 20
390.3865309864827
 30
0.0
 10
287.5531806386671
 20
390.2153916927786
 30
0.0
 10
287.6321904585469
 20
390.1107792925519
 30
0.0
 10
287.6709784741556
 20
390.0594222913713
 30
0.0
  0
LINE
  5
171
330
1F
100
AcDbEntity
  8
0
  6
Continuous
 62
     7
370
    25
100
AcDbLine
 10
289.1077837804
 20
388.4651988283
 30
0.0
 11
289.1077837805
 21
388.4358990565
 31
0.0
  0
SPLINE
  5
172
330
1F
100
AcDbEntity
  8
0
  6
Continuous
 62
     7
370
    25
100
AcDbSpline
210
0.0
220
0.0
230
1.0
 70
     8
 71
     3
 72
    12
 73
     8
 74
     0
 42
0.000000001
 43
0.00000001
 40
0.0
 40
0.0
 40
0.0
 40
0.0
 40
0.1401480157035602
 40
0.2797631400002583
 40
0.4695269242596045
 40
0.7243686793045787
 40
1.0
 40
1.0
 40
1.0
 40
1.0
 10
289.1077837803576
 20
388.4651988282596
 30
0.0
 10
289.1535567154264
 20
388.4220140237047
 30
0.0
 10
289.2449285409753
 20
388.3358086182132
 30
0.0
 10
289.4297288779805
 20
388.2556040392088
 30
0.0
 10
289.6553493049959
 20
388.2273945914877
 30
0.0
 10
289.9103157561617
 20
388.2844145850229
 30
0.0
 10
290.0488292932769
 20
388.3996522859201
 30
0.0
 10
290.1208002771311
 20
388.4595292545067
 30
0.0
  0
LINE
  5
173
330
1F
100
AcDbEntity
  8
0
  6
Continuous
 62
     7
370
    25
100
AcDbLine
 10
288.3893811241
 20
389.2628314731
 30
0.0
 11
289.1077837804
 21
388.4651988283
 31
0.0
  0
LINE
  5
174
330
1F
100
AcDbEntity
  8
0
  6
Continuous
 62
     7
370
    25
100
AcDbLine
 10
287.6709784742
 20
390.0594222914
 30
0.0
 11
288.3893811241
 21
389.2628314731
 31
0.0
  0
LINE
  5
175
330
1F
100
AcDbEntity
  8
0
  6
Continuous
 62
     7
370
    25
100
AcDbLine
 10
334.8430544806
 20
382.238872023
 30
0.0
 11
334.8430544846
 21
382.209572253
 31
0.0
  0
SPLINE
  5
176
330
1F
100
AcDbEntity
  8
0
  6
Continuous
 62
     7
370
    25
100
AcDbSpline
210
0.0
220
0.0
230
1.0
 70
     8
 71
     3
 72
    11
 73
     7
 74
     0
 42
0.000000001
 43
0.00000001
 40
0.0
 40
0.0
 40
0.0
 40
0.0
 40
0.2268353526961354
 40
0.4528081831277012
 40
0.7599486933712517
 40
1.0
 40
1.0
 40
1.0
 40
1.0
 10
334.8430544806229
 20
382.2388720230123
 30
0.0
 10
334.8955787322371
 20
382.2739649472626
 30
0.0
 10
335.0004275164365
 20
382.3440173578836
 30
0.0
 10
335.1204035314487
 20
382.5077838925361
 30
0.0
 10
335.196296024108
 20
382.6871634041192
 30
0.0
 10
335.1914846263075
 20
382.8083454574594
 30
0.0
 10
335.1893738814222
 20
382.8615076381561
 30
0.0
  0
LINE
  5
177
330
1F
100
AcDbEntity
  8
0
  6
Continuous
 62
     7
370
    25
100
AcDbLine
 10
332.9681348885
 20
381.1643920662
 30
0.0
 11
332.968134885
 21
381.1936918359
 31
0.0
  0
LINE
  5
178
330
1F
100
AcDbEntity
  8
0
  6
Continuous
 62
     7
370
    25
100
AcDbLine
 10
332.968134885
 20
381.1936918359
 30
0.0
 11
334.8430544806
 21
382.238872023
 31
0.0
  0
SPLINE
  5
179
330
1F
100
AcDbEntity
  8
0
  6
Continuous
 62
     7
370
    25
100
AcDbSpline
210
0.0
220
0.0
230
1.0
 70
     8
 71
     3
 72
    12
 73
     8
 74
     0
 42
0.000000001
 43
0.00000001
 40
0.0
 40
0.0
 40
0.0
 40
0.0
 40
0.264620561267752
 40
0.5201564372687585
 40
0.7075155267779061
 40
0.856411611887452
 40
1.0
 40
1.0
 40
1.0
 40
1.0
 10
332.0001552698091
 20
381.5164470559797
 30
0.0
 10
332.0475342316782
 20
381.4394577735679
 30
0.0
 10
332.1406655888537
 20
381.2881223268615
 30
0.0
 10
332.3590212650349
 20
381.1509058700762
 30
0.0
 10
332.5835431868946
 20
381.0999246432987
 30
0.0
 10
332.7895616897427
 20
381.1128780557759
 30
0.0
 10
332.9093349927231
 20
381.1670817863991
 30
0.0
 10
332.9681348849855
 20
381.1936918358972
 30
0.0
  0
LINE
  5
17A
330
1F
100
AcDbEntity
  8
0
  6
Continuous
 62
     7
370
    25
100
AcDbLine
 10
300.8626658555
 20
380.1692773402
 30
0.0
 11
300.8626658584
 21
380.1985771113
 31
0.0
  0
SPLINE
  5
17B
330
1F
100
AcDbEntity
  8
0
  6
Continuous
 62
     7
370
    25
100
AcDbSpline
210
0.0
220
0.0
230
1.0
 70
     8
 71
     3
 72
    11
 73
     7
 74
     0
 42
0.000000001
 43
0.00000001
 40
0.0
 40
0.0
 40
0.0
 40
0.0
 40
0.3118877731915011
 40
0.5805671816691798
 40
0.7940893127249159
 40
1.0
 40
1.0
 40
1.0
 40
1.0
 10
300.4345824364916
 20
380.8604000370423
 30
0.0
 10
300.4382782797155
 20
380.7827414802283
 30
0.0
 10
300.4451579507667
 20
380.6381830417852
 30
0.0
 10
300.5481236866327
 20
380.4415753207428
 30
0.0
 10
300.6876364225328
 20
380.2878839355014
 30
0.0
 10
300.8050328437513
 20
380.2279837164189
 30
0.0
 10
300.8626658584328
 20
380.1985771112602
 30
0.0
  0
LINE
  5
17C
330
1F
100
AcDbEntity
  8
0
  6
Continuous
 62
     7
370
    25
100
AcDbLine
 10
302.8493119879
 20
379.3852580943
 30
0.0
 11
302.8493119903
 21
379.355958321
 31
0.0
  0
LINE
  5
17D
330
1F
100
AcDbEntity
  8
0
  6
Continuous
 62
     7
370
    25
100
AcDbLine
 10
300.8626658584
 20
380.1985771113
 30
0.0
 11
302.8493119879
 21
379.3852580943
 31
0.0
  0
SPLINE
  5
17E
330
1F
100
AcDbEntity
  8
0
  6
Continuous
 62
     7
370
    25
100
AcDbSpline
210
0.0
220
0.0
230
1.0
 70
     8
 71
     3
 72
    12
 73
     8
 74
     0
 42
0.000000001
 43
0.00000001
 40
0.0
 40
0.0
 40
0.0
 40
0.0
 40
0.1401480236993972
 40
0.2797631501734367
 40
0.4695269402404498
 40
0.724368702873371
 40
1.0
 40
1.0
 40
1.0
 40
1.0
 10
302.8493119878867
 20
379.3852580942914
 30
0.0
 10
302.9093457472906
 20
379.3662082651217
 30
0.0
 10
303.0291849944256
 20
379.3281810416324
 30
0.0
 10
303.2315929237993
 20
379.3363003898617
 30
0.0
 10
303.4491027800183
 20
379.4091709317988
 30
0.0
 10
303.657127305589
 20
379.5718012252386
 30
0.0
 10
303.7343033123325
 20
379.736238663421
 30
0.0
 10
303.7744036010359
 20
379.8216795798795
 30
0.0
  0
LINE
  5
17F
330
1F
100
AcDbEntity
  8
0
  6
Continuous
 62
     7
370
    25
100
AcDbLine
 10
317.029033835
 20
377.00513477
 30
0.0
 11
317.0290338296
 21
377.0344345416
 31
0.0
  0
SPLINE
  5
180
330
1F
100
AcDbEntity
  8
0
  6
Continuous
 62
     7
370
    25
100
AcDbSpline
210
0.0
220
0.0
230
1.0
 70
     8
 71
     3
 72
    12
 73
     8
 74
     0
 42
0.000000001
 43
0.00000001
 40
0.0
 40
0.0
 40
0.0
 40
0.0
 40
0.2646205601502625
 40
0.5201564338632809
 40
0.7075155236604805
 40
0.8564116084707565
 40
1.0
 40
1.0
 40
1.0
 40
1.0
 10
316.2871040701363
 20
377.7472276716708
 30
0.0
 10
316.2975677340543
 20
377.6570442298292
 30
0.0
 10
316.318135833924
 20
377.4797734332018
 30
0.0
 10
316.4583205531607
 20
377.2607723222919
 30
0.0
 10
316.6405180024473
 20
377.1170166029437
 30
0.0
 10
316.8329128722753
 20
377.0390901572809
 30
0.0
 10
316.9644558774437
 20
377.0359675247997
 30
0.0
 10
317.0290338296326
 20
377.0344345416448
 30
0.0
  0
LINE
  5
181
330
1F
100
AcDbEntity
  8
0
  6
Continuous
 62
     7
370
    25
100
AcDbLine
 10
319.1720410894
 20
377.1631077847
 30
0.0
 11
319.1720410836
 21
377.1338080124
 31
0.0
  0
LINE
  5
182
330
1F
100
AcDbEntity
  8
0
  6
Continuous
 62
     7
370
    25
100
AcDbLine
 10
317.0290338296
 20
377.0344345416
 30
0.0
 11
319.1720410894
 21
377.1631077847
 31
0.0
  0
SPLINE
  5
183
330
1F
100
AcDbEntity
  8
0
  6
Continuous
 62
     7
370
    25
100
AcDbSpline
210
0.0
220
0.0
230
1.0
 70
     8
 71
     3
 72
    12
 73
     8
 74
     0
 42
0.000000001
 43
0.00000001
 40
0.0
 40
0.0
 40
0.0
 40
0.0
 40
0.1515184380940058
 40
0.3024607648096672
 40
0.5076203867327593
 40
0.7831378592574529
 40
1.0
 40
1.0
 40
1.0
 40
1.0
 10
319.1720410894044
 20
377.1631077846898
 30
0.0
 10
319.2344366796885
 20
377.1719872944686
 30
0.0
 10
319.3589906164601
 20
377.1897125518867
 30
0.0
 10
319.5390597819657
 20
377.2850320806954
 30
0.0
 10
319.7045485065332
 20
377.4455246442959
 30
0.0
 10
319.8159626078819
 20
377.6578788652543
 30
0.0
 10
319.8182781671925
 20
377.8141231987864
 30
0.0
 10
319.8192980249113
 20
377.8829389655965
 30
0.0
  0
LINE
  5
184
330
1F
100
AcDbEntity
  8
0
  6
Continuous
 62
     7
370
    25
100
AcDbLine
 10
315.0177021604
 20
433.2655796399
 30
0.0
 11
315.0177021636
 21
433.2445591203
 31
0.0
  0
SPLINE
  5
185
330
1F
100
AcDbEntity
  8
0
  6
Continuous
 62
     7
370
    25
100
AcDbSpline
210
0.0
220
0.0
230
1.0
 70
     8
 71
     3
 72
    12
 73
     8
 74
     0
 42
0.000000001
 43
0.00000001
 40
0.0
 40
0.0
 40
0.0
 40
0.0
 40
0.2201864975573226
 40
0.4403609588975592
 40
0.6608890621337166
 40
0.8823069488078984
 40
1.0
 40
1.0
 40
1.0
 40
1.0
 10
315.017702160434
 20
433.2655796398652
 30
0.0
 10
315.095550198423
 20
433.2779274630455
 30
0.0
 10
315.2512420189365
 20
433.3026224344277
 30
0.0
 10
315.4528147992483
 20
433.4343590738567
 30
0.0
 10
315.600330506042
 20
433.6193378633391
 30
0.0
 10
315.6689812352851
 20
433.8093888521724
 30
0.0
 10
315.6739477444732
 20
433.928562113448
 30
0.0
 10
315.67567143886
 20
433.9699228104172
 30
0.0
  0
LINE
  5
186
330
1F
100
AcDbEntity
  8
0
  6
Continuous
 62
     7
370
    25
100
AcDbLine
 10
314.4665348745
 20
433.2114652135
 30
0.0
 11
314.4665348738
 21
433.2324857333
 31
0.0
  0
SPLINE
  5
187
330
1F
100
AcDbEntity
  8
0
  6
Continuous
 62
     7
370
    25
100
AcDbSpline
210
0.0
220
0.0
230
1.0
 70
     8
 71
     3
 72
    12
 73
     8
 74
     0
 42
0.000000001
 43
0.00000001
 40
0.0
 40
0.0
 40
0.0
 40
0.0
 40
0.2228418266031766
 40
0.4457147791473571
 40
0.6677879107801056
 40
0.8887904687712648
 40
1.0
 40
1.0
 40
1.0
 40
1.0
 10
313.7286333945015
 20
433.8530162072248
 30
0.0
 10
313.7448738419538
 20
433.7757255732618
 30
0.0
 10
313.7773570052802
 20
433.6211335095903
 30
0.0
 10
313.9208708923218
 20
433.4258699077799
 30
0.0
 10
314.1156355632392
 20
433.2882529805754
 30
0.0
 10
314.3089980954795
 20
433.23103531296
 30
0.0
 10
314.4270248669714
 20
433.2321219698804
 30
0.0
 10
314.4665348738494
 20
433.2324857333033
 30
0.0
  0
LINE
  5
188
330
1F
100
AcDbEntity
  8
0
  6
Continuous
 62
     7
370
    25
100
AcDbLine
 10
322.8284375958
 20
431.9496352115
 30
0.0
 11
322.8284375962
 21
431.9706557315
 31
0.0
  0
SPLINE
  5
189
330
1F
100
AcDbEntity
  8
0
  6
Continuous
 62
     7
370
    25
100
AcDbSpline
210
0.0
220
0.0
230
1.0
 70
     8
 71
     3
 72
    11
 73
     7
 74
     0
 42
0.000000001
 43
0.00000001
 40
0.0
 40
0.0
 40
0.0
 40
0.0
 40
0.2854012186807268
 40
0.5717036207045313
 40
0.856625811611178
 40
1.0
 40
1.0
 40
1.0
 40
1.0
 10
322.3940530499895
 20
432.616559228889
 30
0.0
 10
322.4016255152585
 20
432.5382259136385
 30
0.0
 10
322.416794356625
 20
432.3813119377364
 30
0.0
 10
322.5378517218442
 20
432.1729344339239
 30
0.0
 10
322.6857476754008
 20
432.0376675928887
 30
0.0
 10
322.7926511612362
 20
431.9874622137506
 30
0.0
 10
322.8284375961877
 20
431.9706557315232
 30
0.0
  0
LINE
  5
18A
330
1F
100
AcDbEntity
  8
0
  6
Continuous
 62
     7
370
    25
100
AcDbLine
 10
323.3393898403
 20
431.7614754594
 30
0.0
 11
323.3393898428
 21
431.7404549387
 31
0.0
  0
SPLINE
  5
18B
330
1F
100
AcDbEntity
  8
0
  6
Continuous
 62
     7
370
    25
100
AcDbSpline
210
0.0
220
0.0
230
1.0
 70
     8
 71
     3
 72
    12
 73
     8
 74
     0
 42
0.000000001
 43
0.00000001
 40
0.0
 40
0.0
 40
0.0
 40
0.0
 40
0.2201865176619597
 40
0.4403609826653165
 40
0.6608890896198051
 40
0.8823069800819655
 40
1.0
 40
1.0
 40
1.0
 40
1.0
 10
323.3393898403379
 20
431.7614754594188
 30
0.0
 10
323.4149012428468
 20
431.7388413162813
 30
0.0
 10
323.565919914491
 20
431.6935742689632
 30
0.0
 10
323.8048954938773
 20
431.7248198878314
 30
0.0
 10
324.0183741439027
 20
431.8274542730427
 30
0.0
 10
324.1630295663288
 20
431.9688491784078
 30
0.0
 10
324.2194411502455
 20
432.0740218128183
 30
0.0
 10
324.2390195520789
 20
432.1105233955677
 30
0.0
  0
LINE
  5
18C
330
1F
100
AcDbEntity
  8
0
  6
Continuous
 62
     7
370
    25
100
AcDbLine
 10
306.8671165275
 20
431.0122852324
 30
0.0
 11
306.8671165306
 21
430.991264714
 31
0.0
  0
SPLINE
  5
18D
330
1F
100
AcDbEntity
  8
0
  6
Continuous
 62
     7
370
    25
100
AcDbSpline
210
0.0
220
0.0
230
1.0
 70
     8
 71
     3
 72
    11
 73
     7
 74
     0
 42
0.000000001
 43
0.00000001
 40
0.0
 40
0.0
 40
0.0
 40
0.0
 40
0.3162849051947918
 40
0.6325524938625728
 40
0.949328068275159
 40
0.9999999999999999
 40
0.9999999999999999
 40
0.9999999999999999
 40
0.9999999999999999
 10
306.8671165274936
 20
431.0122852323718
 30
0.0
 10
306.9322755135379
 20
431.0571985213998
 30
0.0
 10
307.0625899181869
 20
431.1470226404634
 30
0.0
 10
307.1809372761653
 20
431.3525610212263
 30
0.0
 10
307.2347195789654
 20
431.5197296414555
 30
0.0
 10
307.22252171006
 20
431.6090729974272
 30
0.0
 10
307.2208395933765
 20
431.6213936700627
 30
0.0
  0
LINE
  5
18E
330
1F
100
AcDbEntity
  8
0
  6
Continuous
 62
     7
370
    25
100
AcDbLine
 10
306.3848996138
 20
430.7224512847
 30
0.0
 11
306.384899611
 21
430.7434718032
 31
0.0
  0
SPLINE
  5
18F
330
1F
100
AcDbEntity
  8
0
  6
Continuous
 62
     7
370
    25
100
AcDbSpline
210
0.0
220
0.0
230
1.0
 70
     8
 71
     3
 72
    12
 73
     8
 74
     0
 42
0.000000001
 43
0.00000001
 40
0.0
 40
0.0
 40
0.0
 40
0.0
 40
0.222841825464926
 40
0.4457147769688553
 40
0.66778790729057
 40
0.8887904639768951
 40
1.0
 40
1.0
 40
1.0
 40
1.0
 10
305.4496405864904
 20
430.9823469437547
 30
0.0
 10
305.4979576460717
 20
430.9197821633948
 30
0.0
 10
305.5945985140509
 20
430.794643863769
 30
0.0
 10
305.8089851014825
 20
430.6810189473439
 30
0.0
 10
306.044426639617
 20
430.6415339645784
 30
0.0
 10
306.2435795695569
 20
430.6738508141818
 30
0.0
 10
306.3494567384903
 20
430.7260109547111
 30
0.0
 10
306.3848996109531
 20
430.7434718032307
 30
0.0
  0
LINE
  5
190
330
1F
100
AcDbEntity
  8
0
  6
Continuous
 62
     7
370
    25
100
AcDbLine
 10
314.4665348738
 20
433.2324857333
 30
0.0
 11
315.0177021604
 21
433.2655796399
 31
0.0
  0
LINE
  5
191
330
1F
100
AcDbEntity
  8
0
  6
Continuous
 62
     7
370
    25
100
AcDbLine
 10
322.8284375962
 20
431.9706557315
 30
0.0
 11
323.3393898403
 21
431.7614754594
 31
0.0
  0
LINE
  5
192
330
1F
100
AcDbEntity
  8
0
  6
Continuous
 62
     7
370
    25
100
AcDbLine
 10
329.8144303882
 20
427.1868821814
 30
0.0
 11
329.8144303887
 21
427.2079027006
 31
0.0
  0
SPLINE
  5
193
330
1F
100
AcDbEntity
  8
0
  6
Continuous
 62
     7
370
    25
100
AcDbSpline
210
0.0
220
0.0
230
1.0
 70
     8
 71
     3
 72
    10
 73
     6
 74
     0
 42
0.000000001
 43
0.00000001
 40
0.0
 40
0.0
 40
0.0
 40
0.0
 40
0.3093420817456468
 40
0.7687990792501248
 40
1.0
 40
1.0
 40
1.0
 40
1.0
 10
329.6433942146871
 20
427.6759713169144
 30
0.0
 10
329.643408325193
 20
427.6231515575071
 30
0.0
 10
329.6434433936319
 20
427.491880111445
 30
0.0
 10
329.7158881948793
 20
427.3301038107908
 30
0.0
 10
329.7897161429014
 20
427.2385505699141
 30
0.0
 10
329.8144303887077
 20
427.207902700645
 30
0.0
  0
LINE
  5
194
330
1F
100
AcDbEntity
  8
0
  6
Continuous
 62
     7
370
    25
100
AcDbLine
 10
306.384899611
 20
430.7434718032
 30
0.0
 11
306.8671165275
 21
431.0122852324
 31
0.0
  0
LINE
  5
195
330
1F
100
AcDbEntity
  8
0
  6
Continuous
 62
     7
370
    25
100
AcDbLine
 10
330.183967212
 20
426.7978789691
 30
0.0
 11
330.1839672125
 21
426.7768584487
 31
0.0
  0
SPLINE
  5
196
330
1F
100
AcDbEntity
  8
0
  6
Continuous
 62
     7
370
    25
100
AcDbSpline
210
0.0
220
0.0
230
1.0
 70
     8
 71
     3
 72
    12
 73
     8
 74
     0
 42
0.000000001
 43
0.00000001
 40
0.0
 40
0.0
 40
0.0
 40
0.0
 40
0.2201865118916558
 40
0.4403609759233623
 40
0.6608890818905868
 40
0.8823069713462479
 40
1.0
 40
1.0
 40
1.0
 40
1.0
 10
330.1839672119777
 20
426.7978789691068
 30
0.0
 10
330.2421860123154
 20
426.7447403739198
 30
0.0
 10
330.3586204274553
 20
426.6384660911097
 30
0.0
 10
330.5876667604955
 20
426.5629538328349
 30
0.0
 10
330.8248262977683
 20
426.5627956458749
 30
0.0
 10
331.0168356523656
 20
426.6273958214142
 30
0.0
 10
331.1135193083072
 20
426.6976467554921
 30
0.0
 10
331.1470746781919
 20
426.7220282919035
 30
0.0
  0
LINE
  5
197
330
1F
100
AcDbEntity
  8
0
  6
Continuous
 62
     7
370
    25
100
AcDbLine
 10
300.5019563238
 20
425.4478848083
 30
0.0
 11
300.5019563218
 21
425.426864286
 31
0.0
  0
SPLINE
  5
198
330
1F
100
AcDbEntity
  8
0
  6
Continuous
 62
     7
370
    25
100
AcDbSpline
210
0.0
220
0.0
230
1.0
 70
     8
 71
     3
 72
     9
 73
     5
 74
     0
 42
0.000000001
 43
0.00000001
 40
0.0
 40
0.0
 40
0.0
 40
0.0
 40
0.547863653944732
 40
1.0
 40
1.0
 40
1.0
 40
1.0
 10
300.5019563238026
 20
425.4478848082975
 30
0.0
 10
300.542459955052
 20
425.5163654799561
 30
0.0
 10
300.6163900852181
 20
425.6413613090559
 30
0.0
 10
300.6215076443197
 20
425.7854846348131
 30
0.0
 10
300.6238214787926
 20
425.8506480287023
 30
0.0
  0
LINE
  5
199
330
1F
100
AcDbEntity
  8
0
  6
Continuous
 62
     7
370
    25
100
AcDbLine
 10
300.1841987622
 20
424.9755731305
 30
0.0
 11
300.1841987644
 21
424.996593653
 31
0.0
  0
SPLINE
  5
19A
330
1F
100
AcDbEntity
  8
0
  6
Continuous
 62
     7
370
    25
100
AcDbSpline
210
0.0
220
0.0
230
1.0
 70
     8
 71
     3
 72
    12
 73
     8
 74
     0
 42
0.000000001
 43
0.00000001
 40
0.0
 40
0.0
 40
0.0
 40
0.0
 40
0.2228418294031726
 40
0.4457147846849829
 40
0.667787918948295
 40
0.888790479557235
 40
1.0
 40
1.0
 40
1.0
 40
1.0
 10
299.2368217314063
 20
424.8060311741143
 30
0.0
 10
299.3076456168388
 20
424.7706429716382
 30
0.0
 10
299.4493032801719
 20
424.6998616237677
 30
0.0
 10
299.6921006746458
 20
424.6905224010415
 30
0.0
 10
299.9215869958783
 20
424.7570895243793
 30
0.0
 10
300.0870856353694
 20
424.8725850122913
 30
0.0
 10
300.1598429267855
 20
424.9654924585267
 30
0.0
 10
300.1841987643622
 20
424.9965936530067
 30
0.0
  0
SPLINE
  5
19B
330
1F
100
AcDbEntity
  8
0
  6
Continuous
 62
     7
370
    25
100
AcDbSpline
210
0.0
220
0.0
230
1.0
 70
     8
 71
     3
 72
     9
 73
     5
 74
     0
 42
0.000000001
 43
0.00000001
 40
0.0
 40
0.0
 40
0.0
 40
0.0
 40
0.4999998251605218
 40
1.0
 40
1.0
 40
1.0
 40
1.0
 10
329.8144303887077
 20
427.207902700645
 30
0.0
 10
329.8760198377162
 20
427.1395684813045
 30
0.0
 10
329.9991987788062
 20
427.0028999948335
 30
0.0
 10
330.1223777198962
 20
426.8662193269471
 30
0.0
 10
330.1839672119777
 20
426.7978789691068
 30
0.0
  0
LINE
  5
19C
330
1F
100
AcDbEntity
  8
0
  6
Continuous
 62
     7
370
    25
100
AcDbLine
 10
300.1841987644
 20
424.996593653
 30
0.0
 11
300.5019563238
 21
425.4478848083
 31
0.0
  0
LINE
  5
19D
330
1F
100
AcDbEntity
  8
0
  6
Continuous
 62
     7
370
    25
100
AcDbLine
 10
334.0408517006
 20
419.866527775
 30
0.0
 11
334.0408517014
 21
419.8875482927
 31
0.0
  0
SPLINE
  5
19E
330
1F
100
AcDbEntity
  8
0
  6
Continuous
 62
     7
370
    25
100
AcDbSpline
210
0.0
220
0.0
230
1.0
 70
     8
 71
     3
 72
     9
 73
     5
 74
     0
 42
0.000000001
 43
0.00000001
 40
0.0
 40
0.0
 40
0.0
 40
0.0
 40
0.4037140260762305
 40
1.0
 40
1.0
 40
1.0
 40
1.0
 10
334.0216517518216
 20
420.0832377836359
 30
0.0
 10
334.0188660069613
 20
420.0565371311976
 30
0.0
 10
334.0119657144763
 20
419.9903995914694
 30
0.0
 10
334.0300614613247
 20
419.9259679668029
 30
0.0
 10
334.0408517013581
 20
419.8875482927371
 30
0.0
  0
LINE
  5
19F
330
1F
100
AcDbEntity
  8
0
  6
Continuous
 62
     7
370
    25
100
AcDbLine
 10
334.1957818056
 20
419.357891327
 30
0.0
 11
334.195781806
 21
419.3368708069
 31
0.0
  0
SPLINE
  5
1A0
330
1F
100
AcDbEntity
  8
0
  6
Continuous
 62
     7
370
    25
100
AcDbSpline
210
0.0
220
0.0
230
1.0
 70
     8
 71
     3
 72
    12
 73
     8
 74
     0
 42
0.000000001
 43
0.00000001
 40
0.0
 40
0.0
 40
0.0
 40
0.0
 40
0.2201865101061003
 40
0.4403609736566628
 40
0.6608890791375285
 40
0.8823069680994163
 40
1.0
 40
1.0
 40
1.0
 40
1.0
 10
334.1957818056389
 20
419.357891326983
 30
0.0
 10
334.2251770578804
 20
419.2847675781246
 30
0.0
 10
334.283965954129
 20
419.1385240810584
 30
0.0
 10
334.4577176056457
 20
418.9711318156123
 30
0.0
 10
334.6715856735241
 20
418.8680922304402
 30
0.0
 10
334.8729191487865
 20
418.8429691622048
 30
0.0
 10
334.9907254931501
 20
418.8642939750287
 30
0.0
 10
335.0316117784105
 20
418.8716950397586
 30
0.0
  0
LINE
  5
1A1
330
1F
100
AcDbEntity
  8
0
  6
Continuous
 62
     7
370
    25
100
AcDbLine
 10
297.18291964
 20
417.6744761489
 30
0.0
 11
297.1829196399
 21
417.6534556283
 31
0.0
  0
LINE
  5
1A2
330
1F
100
AcDbEntity
  8
0
  6
Continuous
 62
     7
370
    25
100
AcDbLine
 10
297.18291964
 20
417.6744761489
 30
0.0
 11
297.1824920364
 21
417.788860316
 31
0.0
  0
LINE
  5
1A3
330
1F
100
AcDbEntity
  8
0
  6
Continuous
 62
     7
370
    25
100
AcDbLine
 10
297.0925572211
 20
417.1090705117
 30
0.0
 11
297.0925572205
 21
417.1300910286
 31
0.0
  0
SPLINE
  5
1A4
330
1F
100
AcDbEntity
  8
0
  6
Continuous
 62
     7
370
    25
100
AcDbSpline
210
0.0
220
0.0
230
1.0
 70
     8
 71
     3
 72
    12
 73
     8
 74
     0
 42
0.000000001
 43
0.00000001
 40
0.0
 40
0.0
 40
0.0
 40
0.0
 40
0.2228418248433369
 40
0.4457147757908683
 40
0.6677879057525368
 40
0.8887904620806871
 40
0.9999999999999999
 40
0.9999999999999999
 40
0.9999999999999999
 40
0.9999999999999999
 10
296.3207018003534
 20
416.5473639829639
 30
0.0
 10
296.4000049724543
 20
416.5462204280956
 30
0.0
 10
296.5586223935658
 20
416.5439331586294
 30
0.0
 10
296.7817415935547
 20
416.6408715771572
 30
0.0
 10
296.9598201172338
 20
416.8004060490663
 30
0.0
 10
297.0588854420676
 20
416.9762497555468
 30
0.0
 10
297.0841123845969
 20
417.0915078480731
 30
0.0
 10
297.0925572205026
 20
417.1300910286174
 30
0.0
  0
LINE
  5
1A5
330
1F
100
AcDbEntity
  8
0
  6
Continuous
 62
     7
370
    25
100
AcDbLine
 10
334.0408517014
 20
419.8875482927
 30
0.0
 11
334.1957818056
 21
419.357891327
 31
0.0
  0
LINE
  5
1A6
330
1F
100
AcDbEntity
  8
0
  6
Continuous
 62
     7
370
    25
100
AcDbLine
 10
297.0925572205
 20
417.1300910286
 30
0.0
 11
297.18291964
 21
417.6744761489
 31
0.0
  0
SPLINE
  5
1A7
330
1F
100
AcDbEntity
  8
0
  6
Continuous
 62
     7
370
    25
100
AcDbSpline
210
0.0
220
0.0
230
1.0
 70
     8
 71
     3
 72
    12
 73
     8
 74
     0
 42
0.000000001
 43
0.00000001
 40
0.0
 40
0.0
 40
0.0
 40
0.0
 40
0.1261255803307795
 40
0.3728574369431626
 40
0.6199855916843525
 40
0.8681108553743225
 40
1.0
 40
1.0
 40
1.0
 40
1.0
 10
334.5806721426565
 20
410.8005775187361
 30
0.0
 10
334.5788591568827
 20
410.7604702287836
 30
0.0
 10
334.5734995365182
 20
410.6419034694061
 30
0.0
 10
334.650122644489
 20
410.4531632347309
 30
0.0
 10
334.7963205365332
 20
410.2673317359865
 30
0.0
 10
334.9675872932046
 20
410.1573754645173
 30
0.0
 10
335.0831448308228
 20
410.1254563716919
 30
0.0
 10
335.1232506385448
 20
410.1143784184412
 30
0.0
  0
SPLINE
  5
1A8
330
1F
100
AcDbEntity
  8
0
  6
Continuous
 62
     7
370
    25
100
AcDbSpline
210
0.0
220
0.0
230
1.0
 70
     8
 71
     3
 72
    11
 73
     7
 74
     0
 42
0.000000001
 43
0.00000001
 40
0.0
 40
0.0
 40
0.0
 40
0.0
 40
0.2739309577009962
 40
0.5479001773796539
 40
0.8208862073816454
 40
0.9999999999999999
 40
0.9999999999999999
 40
0.9999999999999999
 40
0.9999999999999999
 10
297.2788541085711
 20
407.8420756957605
 30
0.0
 10
297.3511070557627
 20
407.875464185918
 30
0.0
 10
297.4956230422536
 20
407.9422458298522
 30
0.0
 10
297.6522134570251
 20
408.1263757739852
 30
0.0
 10
297.7421965968969
 20
408.3224876515907
 30
0.0
 10
297.7417065679243
 20
408.4539844361542
 30
0.0
 10
297.7415124272868
 20
408.5060810896405
 30
0.0
  0
SPLINE
  5
1A9
330
1F
100
AcDbEntity
  8
0
  6
Continuous
 62
     7
370
    25
100
AcDbSpline
210
0.0
220
0.0
230
1.0
 70
     8
 71
     3
 72
    11
 73
     7
 74
     0
 42
0.000000001
 43
0.00000001
 40
0.0
 40
0.0
 40
0.0
 40
0.0
 40
0.0643049591586331
 40
0.4330195020376625
 40
0.803221728752345
 40
0.9999999999999999
 40
0.9999999999999999
 40
0.9999999999999999
 40
0.9999999999999999
 10
331.1393427003051
 20
402.7380284007565
 30
0.0
 10
331.137554695968
 20
402.724468393114
 30
0.0
 10
331.1255145553975
 20
402.6331574299499
 30
0.0
 10
331.1803447706785
 20
402.4636935970937
 30
0.0
 10
331.2813703118933
 20
402.2909397532185
 30
0.0
 10
331.3722871408048
 20
402.2119773575113
 30
0.0
 10
331.4038410592991
 20
402.1845723871876
 30
0.0
  0
SPLINE
  5
1AA
330
1F
100
AcDbEntity
  8
0
  6
Continuous
 62
     7
370
    25
100
AcDbSpline
210
0.0
220
0.0
230
1.0
 70
     8
 71
     3
 72
    10
 73
     6
 74
     0
 42
0.000000001
 43
0.00000001
 40
0.0
 40
0.0
 40
0.0
 40
0.0
 40
0.4293744239706132
 40
0.8588088219866805
 40
1.0
 40
1.0
 40
1.0
 40
1.0
 10
301.9215048416629
 20
400.4143554184265
 30
0.0
 10
301.9710307133865
 20
400.475671505101
 30
0.0
 10
302.0700893744951
 20
400.5983122429419
 30
0.0
 10
302.131890861197
 20
400.7815329458427
 30
0.0
 10
302.1221741838836
 20
400.8863896301023
 30
0.0
 10
302.1197699644201
 20
400.9123345568547
 30
0.0
  0
SPLINE
  5
1AB
330
1F
100
AcDbEntity
  8
0
  6
Continuous
 62
     7
370
    25
100
AcDbSpline
210
0.0
220
0.0
230
1.0
 70
     8
 71
     3
 72
     9
 73
     5
 74
     0
 42
0.000000001
 43
0.00000001
 40
0.0
 40
0.0
 40
0.0
 40
0.0
 40
0.6126415208485569
 40
1.0
 40
1.0
 40
1.0
 40
1.0
 10
324.5423245857181
 20
396.9656935067637
 30
0.0
 10
324.5448194477149
 20
396.8989651349111
 30
0.0
 10
324.5488917508675
 20
396.790046020581
 30
0.0
 10
324.5929798311865
 20
396.6911719790604
 30
0.0
 10
324.6100577229276
 20
396.6528722807094
 30
0.0
  0
SPLINE
  5
1AC
330
1F
100
AcDbEntity
  8
0
  6
Continuous
 62
     7
370
    25
100
AcDbSpline
210
0.0
220
0.0
230
1.0
 70
     8
 71
     3
 72
     9
 73
     5
 74
     0
 42
0.000000001
 43
0.00000001
 40
0.0
 40
0.0
 40
0.0
 40
0.0
 40
0.9933189451599521
 40
1.0
 40
1.0
 40
1.0
 40
1.0
 10
309.3291200817526
 20
395.7353542490241
 30
0.0
 10
309.355714366228
 20
395.8129753744368
 30
0.0
 10
309.3824875236363
 20
395.8911185788838
 30
0.0
 10
309.3691999044134
 20
395.9694778621154
 30
0.0
 10
309.3691111291007
 20
395.9700013847838
 30
0.0
  0
ARC
  5
1AD
330
1F
100
AcDbEntity
  8
0
  6
Continuous
 62
     7
370
    25
100
AcDbCircle
 10
315.8910593995
 20
413.899666221
 30
0.0
 40
8.901783278400016
100
AcDbArc
 50
342.2285177571
 51
38.3070790434
  0
SPLINE
  5
1AE
330
1F
100
AcDbEntity
  8
0
  6
Continuous
 62
     7
370
    25
100
AcDbSpline
210
0.0
220
0.0
230
1.0
 70
     8
 71
     3
 72
     9
 73
     5
 74
     0
 42
0.000000001
 43
0.00000001
 40
0.0
 40
0.0
 40
0.0
 40
0.0
 40
0.7825938115906076
 40
1.0
 40
1.0
 40
1.0
 40
1.0
 10
324.3330537145647
 20
410.8510622731118
 30
0.0
 10
324.3490923011772
 20
410.8479824952036
 30
0.0
 10
324.3695864405058
 20
410.8440471485874
 30
0.0
 10
324.3418944554687
 20
410.8572226381702
 30
0.0
 10
324.3358740465523
 20
410.8600870711409
 30
0.0
  0
SPLINE
  5
1AF
330
1F
100
AcDbEntity
  8
0
  6
Continuous
 62
     7
370
    25
100
AcDbSpline
210
0.0
220
0.0
230
1.0
 70
     8
 71
     3
 72
    19
 73
    15
 74
     0
 42
0.000000001
 43
0.00000001
 40
0.0
 40
0.0
 40
0.0
 40
0.0
 40
0.090318421581598
 40
0.2045631923303829
 40
0.2714198874793247
 40
0.3439361549146842
 40
0.4207855040565416
 40
0.4999999999999998
 40
0.5792144959434578
 40
0.6560638450853153
 40
0.7285801125206748
 40
0.7954368076696163
 40
0.9096815784184012
 40
1.0
 40
1.0
 40
1.0
 40
1.0
 10
308.1630939556179
 20
416.6258370570867
 30
0.0
 10
308.4855023114916
 20
417.3333383123718
 30
0.0
 10
309.2157285638619
 20
418.9357657333174
 30
0.0
 10
310.9789995554631
 20
420.5628739748176
 30
0.0
 10
312.911927359951
 20
421.5686932487013
 30
0.0
 10
314.7184347099551
 20
422.0472070040008
 30
0.0
 10
316.6929186388671
 20
422.0965392601974
 30
0.0
 10
318.6788470420821
 20
421.6527164717732
 30
0.0
 10
320.4942775179032
 20
420.7338513678723
 30
0.0
 10
321.9872286624699
 20
419.4415341838093
 30
0.0
 10
323.0775425835818
 20
417.9245856482132
 30
0.0
 10
323.9300910922933
 20
415.9202458538682
 30
0.0
 10
324.2565258608807
 20
413.5440326663355
 30
0.0
 10
323.8011340884768
 20
411.8430842611415
 30
0.0
 10
323.6000702234862
 20
411.092084174573
 30
0.0
  0
LINE
  5
1B0
330
1F
100
AcDbEntity
  8
0
  6
Continuous
 62
     7
370
    25
100
AcDbLine
 10
307.4115064447
 20
416.9249043987
 30
0.0
 11
307.4293170947
 21
416.9109477329
 31
0.0
  0
SPLINE
  5
1B1
330
1F
100
AcDbEntity
  8
0
  6
Continuous
 62
     7
370
    25
100
AcDbSpline
210
0.0
220
0.0
230
1.0
 70
     8
 71
     3
 72
    19
 73
    15
 74
     0
 42
0.000000001
 43
0.00000001
 40
0.0
 40
0.0
 40
0.0
 40
0.0
 40
0.0903184215815989
 40
0.2045631923303834
 40
0.271419887479325
 40
0.3439361549146842
 40
0.4207855040565412
 40
0.499999999999999
 40
0.579214495943457
 40
0.6560638450853139
 40
0.7285801125206731
 40
0.7954368076696148
 40
0.9096815784183993
 40
0.9999999999999999
 40
0.9999999999999999
 40
0.9999999999999999
 40
0.9999999999999999
 10
323.6000702234862
 20
411.092084174573
 30
0.0
 10
323.2776618676124
 20
410.3845829192879
 30
0.0
 10
322.5474356152423
 20
408.7821554983423
 30
0.0
 10
320.7841646236409
 20
407.1550472568421
 30
0.0
 10
318.8512368191532
 20
406.1492279829584
 30
0.0
 10
317.044729469149
 20
405.6707142276588
 30
0.0
 10
315.0702455402371
 20
405.6213819714623
 30
0.0
 10
313.0843171370221
 20
406.0652047598865
 30
0.0
 10
311.268886661201
 20
406.9840698637875
 30
0.0
 10
309.7759355166343
 20
408.2763870478503
 30
0.0
 10
308.6856215955224
 20
409.7933355834464
 30
0.0
 10
307.8330730868108
 20
411.7976753777914
 30
0.0
 10
307.5066383182235
 20
414.1738885653243
 30
0.0
 10
307.9620300906273
 20
415.8748369705182
 30
0.0
 10
308.1630939556179
 20
416.6258370570867
 30
0.0
  0
ARC
  5
1B2
330
1F
100
AcDbEntity
  8
0
  6
Continuous
 62
     7
370
    25
100
AcDbCircle
 10
315.8730483644
 20
413.8997099394
 30
0.0
 40
8.902664116600937
100
AcDbArc
 50
162.3345616544
 51
229.1792761826
  0
CIRCLE
  5
1B3
330
1F
100
AcDbEntity
  8
0
  6
Continuous
 62
     7
370
    25
100
AcDbCircle
 10
315.9046935897
 20
413.6399443234
 30
0.0
 40
56.9769401739256
  0
SPLINE
  5
1B4
330
1F
100
AcDbEntity
  8
0
  6
Continuous
 62
     7
370
    25
100
AcDbSpline
210
0.0
220
0.0
230
1.0
 70
     8
 71
     3
 72
    35
 73
    31
 74
     0
 42
0.000000001
 43
0.00000001
 40
0.0
 40
0.0
 40
0.0
 40
0.0
 40
0.0282546077220526
 40
0.0583834426637939
 40
0.0903495399278271
 40
0.125861647901282
 40
0.1640104750491879
 40
0.2048405213069454
 40
0.2374624815847439
 40
0.2716127104071187
 40
0.3071914351681352
 40
0.344055001762577
 40
0.3820151215667331
 40
0.4208413631481726
 40
0.4602672732901846
 40
0.5000000044809543
 40
0.539732735671724
 40
0.5791586458137359
 40
0.6179848873951754
 40
0.6559450071993315
 40
0.6928085737937731
 40
0.7283872985547897
 40
0.7625375273771646
 40
0.7951594876549631
 40
0.835992837618201
 40
0.8741415922595376
 40
0.9096504660940498
 40
0.9416198397637137
 40
0.9717470283705448
 40
1.0
 40
1.0
 40
1.0
 40
1.0
 10
360.1230749396341
 20
412.655854822922
 30
0.0
 10
360.1184381256971
 20
413.9645376445511
 30
0.0
 10
360.1088569216934
 20
416.6687128089451
 30
0.0
 10
359.6111735940763
 20
420.8304351255308
 30
0.0
 10
358.6671951393291
 20
425.2550300497073
 30
0.0
 10
357.1353664648613
 20
429.909877547208
 30
0.0
 10
354.9053189922497
 20
434.7314954848865
 30
0.0
 10
352.1639639911909
 20
439.128523959106
 30
0.0
 10
349.0540535568283
 20
443.0309783246472
 30
0.0
 10
345.7224149424469
 20
446.4141719344423
 30
0.0
 10
341.8876073131862
 20
449.5377982360243
 30
0.0
 10
337.5731501087366
 20
452.3018931385881
 30
0.0
 10
332.8279167415402
 20
454.6074551667863
 30
0.0
 10
327.7265321468265
 20
456.3645419209989
 30
0.0
 10
322.3671298864807
 20
457.5003655863497
 30
0.0
 10
316.8659829713199
 20
457.9666396186258
 30
0.0
 10
311.3495539226467
 20
457.7447286623105
 30
0.0
 10
305.9450079895942
 20
456.8476427658765
 30
0.0
 10
300.7706472035611
 20
455.3184657365218
 30
0.0
 10
295.927739593241
 20
453.225562808067
 30
0.0
 10
291.494829391656
 20
450.6554790961364
 30
0.0
 10
287.5251361784817
 20
447.7049520209148
 30
0.0
 10
284.0465954635816
 20
444.4728033606958
 30
0.0
 10
280.7664083711972
 20
440.7119622318932
 30
0.0
 10
277.8325180591259
 20
436.4406542094782
 30
0.0
 10
275.390646980946
 20
431.7226471414191
 30
0.0
 10
273.6537459592145
 20
427.140284352844
 30
0.0
 10
272.5142848071849
 20
422.761972250504
 30
0.0
 10
271.8324478769692
 20
418.6263987535944
 30
0.0
 10
271.7028216261551
 20
415.9254650739547
 30
0.0
 10
271.6400892394699
 20
414.6183531661584
 30
0.0
  0
SPLINE
  5
1B5
330
1F
100
AcDbEntity
  8
0
  6
Continuous
 62
     7
370
    25
100
AcDbSpline
210
0.0
220
0.0
230
1.0
 70
     8
 71
     3
 72
    35
 73
    31
 74
     0
 42
0.000000001
 43
0.00000001
 40
0.0
 40
0.0
 40
0.0
 40
0.0
 40
0.028254607722473
 40
0.058383442663616
 40
0.0903495399278291
 40
0.1258616479030815
 40
0.1640104750499177
 40
0.2048405213069401
 40
0.2374624815847386
 40
0.2716127104071135
 40
0.3071914351681302
 40
0.3440550017625722
 40
0.3820151215667284
 40
0.4208413631481681
 40
0.4602672732901802
 40
0.5000000044809502
 40
0.5397327356717201
 40
0.5791586458137322
 40
0.6179848873951719
 40
0.6559450071993281
 40
0.69280857379377
 40
0.7283872985547867
 40
0.7625375273771616
 40
0.7951594876549601
 40
0.8359928376182583
 40
0.8741415922594717
 40
0.9096504660940467
 40
0.9416198397647852
 40
0.9717470283710186
 40
1.0
 40
1.0
 40
1.0
 40
1.0
 10
271.6400892394699
 20
414.6183531661584
 30
0.0
 10
271.6447260534035
 20
413.3096703445096
 30
0.0
 10
271.6543072574003
 20
410.6054951801232
 30
0.0
 10
272.1519905850492
 20
406.4437728635415
 30
0.0
 10
273.0959690397867
 20
402.0191779392989
 30
0.0
 10
274.6277977142748
 20
397.364330441757
 30
0.0
 10
276.8578451869367
 20
392.5427125041042
 30
0.0
 10
279.59920018793
 20
388.1456840299444
 30
0.0
 10
282.7091106222771
 20
384.2432296644333
 30
0.0
 10
286.0407492366569
 20
380.8600360546372
 30
0.0
 10
289.8755568659181
 20
377.7364097530554
 30
0.0
 10
294.1900140703676
 20
374.9723148504916
 30
0.0
 10
298.935247437564
 20
372.6667528222935
 30
0.0
 10
304.0366320322777
 20
370.9096660680808
 30
0.0
 10
309.3960342926235
 20
369.7738424027299
 30
0.0
 10
314.8971812077843
 20
369.3075683704539
 30
0.0
 10
320.4136102564576
 20
369.5294793267692
 30
0.0
 10
325.81815618951
 20
370.4265652232032
 30
0.0
 10
330.9925169755431
 20
371.9557422525579
 30
0.0
 10
335.8354245858632
 20
374.0486451810127
 30
0.0
 10
340.2683347874483
 20
376.6187288929432
 30
0.0
 10
344.2380280006224
 20
379.569255968165
 30
0.0
 10
347.7165687155228
 20
382.8014046283838
 30
0.0
 10
350.9967558079079
 20
386.5622457571892
 30
0.0
 10
353.9306461199827
 20
390.8335537795987
 30
0.0
 10
356.3725171981528
 20
395.5515608476629
 30
0.0
 10
358.1094182199059
 20
400.1339236362793
 30
0.0
 10
359.2488793719418
 20
404.512235738645
 30
0.0
 10
359.93071630213
 20
408.6478092355585
 30
0.0
 10
360.0603425529473
 20
411.348742915148
 30
0.0
 10
360.1230749396341
 20
412.655854822922
 30
0.0
  0
ARC
  5
1B6
330
1F
100
AcDbEntity
  8
0
  6
Continuous
 62
     7
370
    25
100
AcDbCircle
 10
315.8815820896
 20
413.6307529636
 30
0.0
 40
57.00000653319163
100
AcDbArc
 50
0.0274323416
 51
179.9725676584
  0
SPLINE
  5
1B7
330
1F
100
AcDbEntity
  8
0
  6
Continuous
 62
     7
370
    25
100
AcDbSpline
210
0.0
220
0.0
230
1.0
 70
     8
 71
     3
 72
    11
 73
     7
 74
     0
 42
0.000000001
 43
0.00000001
 40
0.0
 40
0.0
 40
0.0
 40
0.0
 40
0.2706996604071878
 40
0.5623161110113818
 40
0.7892984430189689
 40
1.0
 40
1.0
 40
1.0
 40
1.0
 10
271.6400892394699
 20
414.6183531661467
 30
0.0
 10
272.181201161632
 20
414.6086510171945
 30
0.0
 10
273.3052363792397
 20
414.5884970404254
 30
0.0
 10
274.5956726920684
 20
414.5951349360296
 30
0.0
 10
275.369373566274
 20
414.6220447136611
 30
0.0
 10
275.4823614651455
 20
414.6498837309111
 30
0.0
 10
275.5367539772099
 20
414.6632854677055
 30
0.0
  0
SPLINE
  5
1B8
330
1F
100
AcDbEntity
  8
0
  6
Continuous
 62
     7
370
    25
100
AcDbSpline
210
0.0
220
0.0
230
1.0
 70
     8
 71
     3
 72
    11
 73
     7
 74
     0
 42
0.000000001
 43
0.00000001
 40
0.0
 40
0.0
 40
0.0
 40
0.0
 40
0.2706996603325194
 40
0.5623161109123149
 40
0.7892984429590838
 40
1.0
 40
1.0
 40
1.0
 40
1.0
 10
356.2264102018943
 20
412.8736383914434
 30
0.0
 10
356.3111241982317
 20
412.8529620572909
 30
0.0
 10
356.4870979874185
 20
412.8100117418221
 30
0.0
 10
357.5415701316037
 20
412.7428354913928
 30
0.0
 10
358.8302605842719
 20
412.6887991810925
 30
0.0
 10
359.7029575553435
 20
412.6665605344684
 30
0.0
 10
360.1230749396341
 20
412.6558548229104
 30
0.0
  0
ARC
  5
1B9
330
1F
100
AcDbEntity
  8
0
  6
Continuous
 62
     7
370
    25
100
AcDbCircle
 10
315.8811504965
 20
413.7490027308
 30
0.0
 40
40.35475490478819
100
AcDbArc
 50
358.7570580876
 51
178.7017880602
  0
ARC
  5
1BA
330
1F
100
AcDbEntity
  8
0
  6
Continuous
 62
     7
370
    25
100
AcDbCircle
 10
315.8820136826
 20
413.7879211284
 30
0.0
 40
40.35475490478816
100
AcDbArc
 50
178.7570580876
 51
358.7017880602
  0
ARC
  5
1BB
330
1F
100
AcDbEntity
  8
0
  6
Continuous
 62
     7
370
    25
100
AcDbCircle
 10
315.881672871
 20
414.1594729352
 30
0.0
 40
39.94255623620738
100
AcDbArc
 50
13.1907870137
 51
167.5224212244
  0
LINE
  5
1BC
330
1F
100
AcDbEntity
  8
0
  6
Continuous
 62
     7
370
    25
100
AcDbLine
 10
300.3463900143
 20
400.6673629183
 30
0.0
 11
300.3463900142
 21
400.6464232203
 31
0.0
  0
CIRCLE
  5
1BD
330
1F
100
AcDbEntity
  8
0
  6
Continuous
 62
     7
370
    25
100
AcDbCircle
 10
315.8815820896
 20
323.7999402985
 30
0.0
 40
216.1428932188134
  0
CIRCLE
  5
1BE
330
1F
100
AcDbEntity
  8
0
  6
Continuous
 62
     7
370
    25
100
AcDbCircle
 10
315.8815820896
 20
323.7999402985
 30
0.0
 40
215.4357864376269
  0
CIRCLE
  5
1BF
330
1F
100
AcDbEntity
  8
0
  6
Continuous
 62
     7
370
    25
100
AcDbCircle
 10
315.8815820896
 20
323.7999402985
 30
0.0
 40
201.8654700538378
  0
CIRCLE
  5
1C0
330
1F
100
AcDbEntity
  8
0
  6
Continuous
 62
     7
370
    25
100
AcDbCircle
 10
315.8815820896
 20
323.7999402985
 30
0.0
 40
200.9994446500534
  0
CIRCLE
  5
1C1
330
1F
100
AcDbEntity
  8
0
  6
Continuous
 62
     7
370
    25
100
AcDbCircle
 10
315.8815820896
 20
323.7999402985
 30
0.0
 40
218.7843145750508
  0
CIRCLE
  5
1C2
330
1F
100
AcDbEntity
  8
0
  6
Continuous
 62
     7
370
    25
100
AcDbCircle
 10
315.8815820896
 20
323.7999402985
 30
0.0
 40
199.5560689770793
  0
CIRCLE
  5
1C3
330
1F
100
AcDbEntity
  8
0
  6
Continuous
 62
     7
370
    25
100
AcDbCircle
 10
315.8815820896
 20
323.7999402985
 30
0.0
 40
198.690043573295
  0
CIRCLE
  5
1C4
330
1F
100
AcDbEntity
  8
0
  6
Continuous
 62
     7
370
    25
100
AcDbCircle
 10
315.8815820896
 20
323.7999402985
 30
0.0
 40
197.2856511802025
  0
CIRCLE
  5
1C5
330
1F
100
AcDbEntity
  8
0
  6
Continuous
 62
     7
370
    25
100
AcDbCircle
 10
315.8815820896
 20
323.7999402985
 30
0.0
 40
192.2925035064296
  0
SPLINE
  5
1C6
330
1F
100
AcDbEntity
  8
0
  6
Continuous
 62
     7
370
    25
100
AcDbSpline
210
0.0
220
0.0
230
1.0
 70
     8
 71
     3
 72
    20
 73
    16
 74
     0
 42
0.000000001
 43
0.00000001
 40
0.0
 40
0.0
 40
0.0
 40
0.0
 40
0.1249999999999996
 40
0.1249999999999996
 40
0.2499999999999992
 40
0.2499999999999992
 40
0.3749999999999988
 40
0.3749999999999988
 40
0.4999999999999984
 40
0.4999999999999984
 40
0.624999999999998
 40
0.624999999999998
 40
0.7499999999999982
 40
0.7499999999999982
 40
1.0
 40
1.0
 40
1.0
 40
1.0
 10
326.1815820895523
 20
513.7856985125327
 30
0.0
 10
326.0658109380692
 20
513.7832698667942
 30
0.0
 10
325.9325542995255
 20
513.7825893922579
 30
0.0
 10
325.6322689062315
 20
513.784381921927
 30
0.0
 10
325.4638903879229
 20
513.7869199300549
 30
0.0
 10
325.1101752484578
 20
513.7947572326021
 30
0.0
 10
324.9206803598737
 20
513.8001313461127
 30
0.0
 10
324.530662705078
 20
513.8132792563322
 30
0.0
 10
324.3328232915019
 20
513.8209356548601
 30
0.0
 10
323.9314890382616
 20
513.8383556645648
 30
0.0
 10
323.730560586898
 20
513.8480324827761
 30
0.0
 10
323.3435802078362
 20
513.8685892554024
 30
0.0
 10
323.1528855770412
 20
513.8797294882426
 30
0.0
 10
322.6218434527777
 20
513.9140674519956
 30
0.0
 10
322.3126898990914
 20
513.9387585793144
 30
0.0
 10
322.0815820895522
 20
513.9636548293244
 30
0.0
  0
LINE
  5
1C7
330
1F
100
AcDbEntity
  8
0
  6
Continuous
 62
     7
370
    25
100
AcDbLine
 10
326.1815820896
 20
514.8280371509
 30
0.0
 11
326.1815820896
 21
513.7856985125
 31
0.0
  0
SPLINE
  5
1C8
330
1F
100
AcDbEntity
  8
0
  6
Continuous
 62
     7
370
    25
100
AcDbSpline
210
0.0
220
0.0
230
1.0
 70
     8
 71
     3
 72
    20
 73
    16
 74
     0
 42
0.000000001
 43
0.00000001
 40
0.0
 40
0.0
 40
0.0
 40
0.0
 40
0.125
 40
0.125
 40
0.25
 40
0.25
 40
0.375
 40
0.375
 40
0.5
 40
0.5
 40
0.625
 40
0.625
 40
0.75
 40
0.75
 40
1.0
 40
1.0
 40
1.0
 40
1.0
 10
322.0815820895522
 20
515.0050233561134
 30
0.0
 10
322.1973547612645
 20
515.0099663701496
 30
0.0
 10
322.3306260321974
 20
515.0133374440435
 30
0.0
 10
322.6309909603769
 20
515.0168201164988
 30
0.0
 10
322.7994309613083
 20
515.0168732159536
 30
0.0
 10
323.1532999154072
 20
515.0134131876243
 30
0.0
 10
323.3429078332106
 20
515.0098786057962
 30
0.0
 10
323.7331020421292
 20
514.9992562324219
 30
0.0
 10
323.9310230683922
 20
514.9922813912624
 30
0.0
 10
324.3325025925316
 20
514.9749547566429
 30
0.0
 10
324.533410258951
 20
514.9646771540961
 30
0.0
 10
324.9203598764045
 20
514.9417944645647
 30
0.0
 10
325.1109980744486
 20
514.9288981467149
 30
0.0
 10
325.641701692225
 20
514.8882508476177
 30
0.0
 10
325.9506109954067
 20
514.8578578631208
 30
0.0
 10
326.1815820895523
 20
514.8280371509496
 30
0.0
  0
LINE
  5
1C9
330
1F
100
AcDbEntity
  8
0
  6
Continuous
 62
     7
370
    25
100
AcDbLine
 10
322.0815820896
 20
513.9636548293
 30
0.0
 11
322.0815820896
 21
515.0050233561
 31
0.0
  0
SPLINE
  5
1CA
330
1F
100
AcDbEntity
  8
0
  6
Continuous
 62
     7
370
    25
100
AcDbSpline
210
0.0
220
0.0
230
1.0
 70
     8
 71
     3
 72
    20
 73
    16
 74
     0
 42
0.000000001
 43
0.00000001
 40
0.0
 40
0.0
 40
0.0
 40
0.0
 40
0.1249999999999998
 40
0.1249999999999998
 40
0.2499999999999995
 40
0.2499999999999995
 40
0.3749999999999992
 40
0.3749999999999992
 40
0.499999999999999
 40
0.499999999999999
 40
0.6249999999999988
 40
0.6249999999999988
 40
0.7499999999999984
 40
0.7499999999999984
 40
1.0
 40
1.0
 40
1.0
 40
1.0
 10
333.2815820895523
 20
513.2674001013929
 30
0.0
 10
333.1656031833346
 20
513.2693065718869
 30
0.0
 10
333.0321114278055
 20
513.2736291632494
 30
0.0
 10
332.7313536626094
 20
513.2867080233942
 30
0.0
 10
332.5627722900985
 20
513.2955785816459
 30
0.0
 10
332.2087565048726
 20
513.3167172649967
 30
0.0
 10
332.0191086965589
 20
513.3292203594152
 30
0.0
 10
331.6291541800123
 20
513.3570160121916
 30
0.0
 10
331.4313682848777
 20
513.3721013730783
 30
0.0
 10
331.0301837984123
 20
513.4045883171957
 30
0.0
 10
330.8295105482732
 20
513.4217929987881
 30
0.0
 10
330.4428645479521
 20
513.4568592461394
 30
0.0
 10
330.2523395867003
 20
513.475148161019
 30
0.0
 10
329.7217801346409
 20
513.5293901949898
 30
0.0
 10
329.4127260271979
 20
513.5656827334169
 30
0.0
 10
329.1815820895523
 20
513.5992772946046
 30
0.0
  0
LINE
  5
1CB
330
1F
100
AcDbEntity
  8
0
  6
Continuous
 62
     7
370
    25
100
AcDbLine
 10
333.2815820896
 20
514.3125744913
 30
0.0
 11
333.2815820896
 21
513.2674001014
 31
0.0
  0
SPLINE
  5
1CC
330
1F
100
AcDbEntity
  8
0
  6
Continuous
 62
     7
370
    25
100
AcDbSpline
210
0.0
220
0.0
230
1.0
 70
     8
 71
     3
 72
    20
 73
    16
 74
     0
 42
0.000000001
 43
0.00000001
 40
0.0
 40
0.0
 40
0.0
 40
0.0
 40
0.1250000000000003
 40
0.1250000000000003
 40
0.2500000000000007
 40
0.2500000000000007
 40
0.375000000000001
 40
0.375000000000001
 40
0.5000000000000013
 40
0.5000000000000013
 40
0.6250000000000006
 40
0.6250000000000006
 40
0.7499999999999998
 40
0.7499999999999998
 40
1.0
 40
1.0
 40
1.0
 40
1.0
 10
329.1815820895523
 20
514.6426341252977
 30
0.0
 10
329.2975908622086
 20
514.6432807026973
 30
0.0
 10
329.4311435330737
 20
514.6416924302243
 30
0.0
 10
329.7321133273443
 20
514.633978099987
 30
0.0
 10
329.9008334382137
 20
514.627744258512
 30
0.0
 10
330.2551557119775
 20
514.6110685994404
 30
0.0
 10
330.4450125988249
 20
514.6004445679473
 30
0.0
 10
330.8352316812625
 20
514.5752533891621
 30
0.0
 10
331.0331332816431
 20
514.5608868934518
 30
0.0
 10
331.4345063252234
 20
514.5285631925507
 30
0.0
 10
331.6350890028031
 20
514.5108002974184
 30
0.0
 10
332.0216150153263
 20
514.473479956584
 30
0.0
 10
332.2120156652334
 20
514.4534706360885
 30
0.0
 10
332.7419676617897
 20
514.3930261923591
 30
0.0
 10
333.0506411969485
 20
514.3510786533744
 30
0.0
 10
333.2815820895523
 20
514.3125744912718
 30
0.0
  0
LINE
  5
1CD
330
1F
100
AcDbEntity
  8
0
  6
Continuous
 62
     7
370
    25
100
AcDbLine
 10
329.1815820896
 20
513.5992772946
 30
0.0
 11
329.1815820896
 21
514.6426341253
 31
0.0
  0
SPLINE
  5
1CE
330
1F
100
AcDbEntity
  8
0
  6
Continuous
 62
     7
370
    25
100
AcDbSpline
210
0.0
220
0.0
230
1.0
 70
     8
 71
     3
 72
    20
 73
    16
 74
     0
 42
0.000000001
 43
0.00000001
 40
0.0
 40
0.0
 40
0.0
 40
0.0
 40
0.125
 40
0.125
 40
0.25
 40
0.25
 40
0.375
 40
0.375
 40
0.5
 40
0.5
 40
0.625
 40
0.625
 40
0.75
 40
0.75
 40
1.0
 40
1.0
 40
1.0
 40
1.0
 10
340.3815820895523
 20
512.4806979929741
 30
0.0
 10
340.2653238956405
 20
512.4869917833385
 30
0.0
 10
340.1315260883419
 20
512.4963820099066
 30
0.0
 10
339.830191498353
 20
512.5208887056278
 30
0.0
 10
339.6613764634434
 20
512.5361664146105
 30
0.0
 10
339.307051812926
 20
512.5707496076761
 30
0.0
 10
339.1172818829466
 20
512.5904549416202
 30
0.0
 10
338.727492136174
 20
512.6330160207795
 30
0.0
 10
338.5298239924149
 20
512.655586972952
 30
0.0
 10
338.1289462966726
 20
512.7032487696657
 30
0.0
 10
337.9285881666157
 20
512.7280236219376
 30
0.0
 10
337.5423875159674
 20
512.7776932053805
 30
0.0
 10
337.3520723792996
 20
512.8031782937433
 30
0.0
 10
336.8219666218218
 20
512.8774772969323
 30
0.0
 10
336.5128993091426
 20
512.9254896237028
 30
0.0
 10
336.2815820895523
 20
512.9679035590924
 30
0.0
  0
LINE
  5
1CF
330
1F
100
AcDbEntity
  8
0
  6
Continuous
 62
     7
370
    25
100
AcDbLine
 10
340.3815820896
 20
513.5302061684
 30
0.0
 11
340.3815820896
 21
512.480697993
 31
0.0
  0
SPLINE
  5
1D0
330
1F
100
AcDbEntity
  8
0
  6
Continuous
 62
     7
370
    25
100
AcDbSpline
210
0.0
220
0.0
230
1.0
 70
     8
 71
     3
 72
    20
 73
    16
 74
     0
 42
0.000000001
 43
0.00000001
 40
0.0
 40
0.0
 40
0.0
 40
0.0
 40
0.1250000000000001
 40
0.1250000000000001
 40
0.2500000000000003
 40
0.2500000000000003
 40
0.3750000000000004
 40
0.3750000000000004
 40
0.5000000000000006
 40
0.5000000000000006
 40
0.6250000000000007
 40
0.6250000000000007
 40
0.7500000000000009
 40
0.7500000000000009
 40
1.0
 40
1.0
 40
1.0
 40
1.0
 10
336.2815820895523
 20
514.0147236016619
 30
0.0
 10
336.3978984156292
 20
514.0110323837862
 30
0.0
 10
336.5318039525753
 20
514.0044302936763
 30
0.0
 10
336.8334855749502
 20
513.9853929241702
 30
0.0
 10
337.0025179950618
 20
513.9728035905958
 30
0.0
 10
337.3573052319189
 20
513.9427770128451
 30
0.0
 10
337.5473807246016
 20
513.924990857211
 30
0.0
 10
337.9375262638239
 20
513.8851172016506
 30
0.0
 10
338.1353455751572
 20
513.8633028942962
 30
0.0
 10
338.5364572780881
 20
513.8158725789373
 30
0.0
 10
338.7366534608593
 20
513.7905861432018
 30
0.0
 10
339.1226455100588
 20
513.7387338564845
 30
0.0
 10
339.3127677891562
 20
513.711563460237
 30
0.0
 10
339.8419919270475
 20
513.6311662147791
 30
0.0
 10
340.1505385206424
 20
513.5775323028283
 30
0.0
 10
340.3815820895523
 20
513.5302061684156
 30
0.0
  0
LINE
  5
1D1
330
1F
100
AcDbEntity
  8
0
  6
Continuous
 62
     7
370
    25
100
AcDbLine
 10
336.2815820896
 20
512.9679035591
 30
0.0
 11
336.2815820896
 21
514.0147236017
 31
0.0
  0
SPLINE
  5
1D2
330
1F
100
AcDbEntity
  8
0
  6
Continuous
 62
     7
370
    25
100
AcDbSpline
210
0.0
220
0.0
230
1.0
 70
     8
 71
     3
 72
    22
 73
    18
 74
     0
 42
0.000000001
 43
0.00000001
 40
0.0
 40
0.0
 40
0.0
 40
0.0
 40
0.125
 40
0.125
 40
0.25
 40
0.25
 40
0.375
 40
0.375
 40
0.5
 40
0.5
 40
0.625
 40
0.625
 40
0.75
 40
0.75
 40
0.875
 40
0.875
 40
1.0
 40
1.0
 40
1.0
 40
1.0
 10
291.3815820895522
 20
513.5302061684155
 30
0.0
 10
291.4971197865134
 20
513.5538724950825
 30
0.0
 10
291.6299585107099
 20
513.5787507545954
 30
0.0
 10
291.9288795670557
 20
513.6306144021765
 30
0.0
 10
292.0964618069657
 20
513.6577858484428
 30
0.0
 10
292.448497161953
 20
513.7112843893362
 30
0.0
 10
292.6366987302001
 20
513.7382077248002
 30
0.0
 10
293.0256644495209
 20
513.7904852845832
 30
0.0
 10
293.2229586886186
 20
513.8154068750697
 30
0.0
 10
293.623155505518
 20
513.8627735168945
 30
0.0
 10
293.8247234395297
 20
513.8850115486488
 30
0.0
 10
294.2122761549839
 20
513.9246444575988
 30
0.0
 10
294.403373261126
 20
513.9425555312475
 30
0.0
 10
294.7596290756521
 20
513.9727285127439
 30
0.0
 10
294.9250446333775
 20
513.9850741661329
 30
0.0
 10
295.2297518760981
 20
514.0043546008056
 30
0.0
 10
295.3652520011833
 20
514.0110319470494
 30
0.0
 10
295.4815820895522
 20
514.0147236016619
 30
0.0
  0
LINE
  5
1D3
330
1F
100
AcDbEntity
  8
0
  6
Continuous
 62
     7
370
    25
100
AcDbLine
 10
291.3815820896
 20
512.480697993
 30
0.0
 11
291.3815820896
 21
513.5302061684
 31
0.0
  0
SPLINE
  5
1D4
330
1F
100
AcDbEntity
  8
0
  6
Continuous
 62
     7
370
    25
100
AcDbSpline
210
0.0
220
0.0
230
1.0
 70
     8
 71
     3
 72
    22
 73
    18
 74
     0
 42
0.000000001
 43
0.00000001
 40
0.0
 40
0.0
 40
0.0
 40
0.0
 40
0.125
 40
0.125
 40
0.25
 40
0.25
 40
0.375
 40
0.375
 40
0.5
 40
0.5
 40
0.625
 40
0.625
 40
0.75
 40
0.75
 40
0.875
 40
0.875
 40
1.0
 40
1.0
 40
1.0
 40
1.0
 10
295.4815820895523
 20
512.9679035590924
 30
0.0
 10
295.3659118077115
 20
512.946694451231
 30
0.0
 10
295.2328772862691
 20
512.9244183574282
 30
0.0
 10
294.9334523507243
 20
512.8775932908105
 30
0.0
 10
294.7655930482268
 20
512.8528715259881
 30
0.0
 10
294.4130585339527
 20
512.8034472555847
 30
0.0
 10
294.2245461493054
 20
512.7781859469093
 30
0.0
 10
293.8354014445806
 20
512.7281219298725
 30
0.0
 10
293.6380549146982
 20
512.7037182419223
 30
0.0
 10
293.237844072758
 20
512.65610945638
 30
0.0
 10
293.0365400735615
 20
512.6331182965517
 30
0.0
 10
292.6493763896298
 20
512.5908290494617
 30
0.0
 10
292.4584843535195
 20
512.570988654099
 30
0.0
 10
292.1028056674897
 20
512.5362583083169
 30
0.0
 10
291.9376010231315
 20
512.5212861535963
 30
0.0
 10
291.6331786904965
 20
512.4964866870522
 30
0.0
 10
291.4978487892909
 20
512.4869922438127
 30
0.0
 10
291.3815820895522
 20
512.4806979929741
 30
0.0
  0
LINE
  5
1D5
330
1F
100
AcDbEntity
  8
0
  6
Continuous
 62
     7
370
    25
100
AcDbLine
 10
295.4815820896
 20
514.0147236017
 30
0.0
 11
295.4815820896
 21
512.9679035591
 31
0.0
  0
SPLINE
  5
1D6
330
1F
100
AcDbEntity
  8
0
  6
Continuous
 62
     7
370
    25
100
AcDbSpline
210
0.0
220
0.0
230
1.0
 70
     8
 71
     3
 72
    22
 73
    18
 74
     0
 42
0.000000001
 43
0.00000001
 40
0.0
 40
0.0
 40
0.0
 40
0.0
 40
0.125
 40
0.125
 40
0.25
 40
0.25
 40
0.375
 40
0.375
 40
0.5
 40
0.5
 40
0.625
 40
0.625
 40
0.75
 40
0.75
 40
0.875
 40
0.875
 40
1.0
 40
1.0
 40
1.0
 40
1.0
 10
298.4815820895522
 20
514.3125744912718
 30
0.0
 10
298.5970621541323
 20
514.331828175953
 30
0.0
 10
298.7298897809656
 20
514.3516555623963
 30
0.0
 10
299.0289798268554
 20
514.3921963720735
 30
0.0
 10
299.1967112606179
 20
514.4130349355112
 30
0.0
 10
299.5491538063493
 20
514.4532528852761
 30
0.0
 10
299.7377269684576
 20
514.473097732784
 30
0.0
 10
300.1271383807206
 20
514.5107228651435
 30
0.0
 10
300.3246793036569
 20
514.5282199098491
 30
0.0
 10
300.7254209319653
 20
514.5605380336793
 30
0.0
 10
300.9269478886722
 20
514.5751771867795
 30
0.0
 10
301.3145342155053
 20
514.6002235337903
 30
0.0
 10
301.5056226289467
 20
514.610945388153
 30
0.0
 10
301.8612556945567
 20
514.6277044825126
 30
0.0
 10
302.026417361784
 20
514.6338343413354
 30
0.0
 10
302.3307047803454
 20
514.641683213247
 30
0.0
 10
302.4655633611284
 20
514.6432807581859
 30
0.0
 10
302.5815820895523
 20
514.6426341252976
 30
0.0
  0
LINE
  5
1D7
330
1F
100
AcDbEntity
  8
0
  6
Continuous
 62
     7
370
    25
100
AcDbLine
 10
298.4815820896
 20
513.2674001014
 30
0.0
 11
298.4815820896
 21
514.3125744913
 31
0.0
  0
SPLINE
  5
1D8
330
1F
100
AcDbEntity
  8
0
  6
Continuous
 62
     7
370
    25
100
AcDbSpline
210
0.0
220
0.0
230
1.0
 70
     8
 71
     3
 72
    22
 73
    18
 74
     0
 42
0.000000001
 43
0.00000001
 40
0.0
 40
0.0
 40
0.0
 40
0.0
 40
0.1249999999999994
 40
0.1249999999999994
 40
0.2499999999999989
 40
0.2499999999999989
 40
0.3749999999999983
 40
0.3749999999999983
 40
0.4999999999999978
 40
0.4999999999999978
 40
0.6249999999999983
 40
0.6249999999999983
 40
0.7499999999999989
 40
0.7499999999999989
 40
0.8749999999999994
 40
0.8749999999999994
 40
1.0
 40
1.0
 40
1.0
 40
1.0
 10
302.5815820895523
 20
513.5992772946046
 30
0.0
 10
302.4660032196888
 20
513.5824790110105
 30
0.0
 10
302.3330315924355
 20
513.5652607979972
 30
0.0
 10
302.0335779720091
 20
513.5297939392768
 30
0.0
 10
301.8656504287459
 20
513.5114309235684
 30
0.0
 10
301.5128618198958
 20
513.4753495496767
 30
0.0
 10
301.3240784603783
 20
513.4572100726965
 30
0.0
 10
300.9345678154132
 20
513.4218678948268
 30
0.0
 10
300.7370038296679
 20
513.404927669898
 30
0.0
 10
300.3362806988983
 20
513.3724512826062
 30
0.0
 10
300.1349543310372
 20
513.3570911222729
 30
0.0
 10
299.7476522856896
 20
513.3294690288117
 30
0.0
 10
299.5567158609879
 20
513.3168625802513
 30
0.0
 10
299.2014633892767
 20
513.2956351422735
 30
0.0
 10
299.036438075331
 20
513.2869293305898
 30
0.0
 10
298.7323313913967
 20
513.2736650815056
 30
0.0
 10
298.5975674142904
 20
513.2693066773951
 30
0.0
 10
298.4815820895522
 20
513.2674001013929
 30
0.0
  0
LINE
  5
1D9
330
1F
100
AcDbEntity
  8
0
  6
Continuous
 62
     7
370
    25
100
AcDbLine
 10
302.5815820896
 20
514.6426341253
 30
0.0
 11
302.5815820896
 21
513.5992772946
 31
0.0
  0
SPLINE
  5
1DA
330
1F
100
AcDbEntity
  8
0
  6
Continuous
 62
     7
370
    25
100
AcDbSpline
210
0.0
220
0.0
230
1.0
 70
     8
 71
     3
 72
    20
 73
    16
 74
     0
 42
0.000000001
 43
0.00000001
 40
0.0
 40
0.0
 40
0.0
 40
0.0
 40
0.1249999999999998
 40
0.1249999999999998
 40
0.2499999999999997
 40
0.2499999999999997
 40
0.3749999999999995
 40
0.3749999999999995
 40
0.4999999999999993
 40
0.4999999999999993
 40
0.6250000000000002
 40
0.6250000000000002
 40
0.7500000000000007
 40
0.7500000000000007
 40
1.0
 40
1.0
 40
1.0
 40
1.0
 10
305.5815820895523
 20
514.8280371509496
 30
0.0
 10
305.6970718205489
 20
514.8429480472222
 30
0.0
 10
305.8299548654456
 20
514.8577930200537
 30
0.0
 10
306.1293120926754
 20
514.8871367702145
 30
0.0
 10
306.2972216793224
 20
514.9017023574652
 30
0.0
 10
306.6500809730549
 20
514.9287484730811
 30
0.0
 10
306.8389981214114
 20
514.941556122489
 30
0.0
 10
307.2287579139957
 20
514.9646313512053
 30
0.0
 10
307.4264845340394
 20
514.9747513729993
 30
0.0
 10
307.8276227305844
 20
514.9921090108078
 30
0.0
 10
308.0290400243386
 20
514.999215470469
 30
0.0
 10
308.4165572634759
 20
515.0097906845766
 30
0.0
 10
308.6075720846912
 20
515.0133800620026
 30
0.0
 10
309.1401455414009
 20
515.0186193979928
 30
0.0
 10
309.4500245423217
 20
515.0149099052379
 30
0.0
 10
309.6815820895523
 20
515.0050233561134
 30
0.0
  0
LINE
  5
1DB
330
1F
100
AcDbEntity
  8
0
  6
Continuous
 62
     7
370
    25
100
AcDbLine
 10
305.5815820896
 20
513.7856985125
 30
0.0
 11
305.5815820896
 21
514.8280371509
 31
0.0
  0
SPLINE
  5
1DC
330
1F
100
AcDbEntity
  8
0
  6
Continuous
 62
     7
370
    25
100
AcDbSpline
210
0.0
220
0.0
230
1.0
 70
     8
 71
     3
 72
    20
 73
    16
 74
     0
 42
0.000000001
 43
0.00000001
 40
0.0
 40
0.0
 40
0.0
 40
0.0
 40
0.1250000000000004
 40
0.1250000000000004
 40
0.2500000000000007
 40
0.2500000000000007
 40
0.3750000000000011
 40
0.3750000000000011
 40
0.5000000000000009
 40
0.5000000000000009
 40
0.6250000000000007
 40
0.6250000000000007
 40
0.7500000000000004
 40
0.7500000000000004
 40
1.0
 40
1.0
 40
1.0
 40
1.0
 10
309.6815820895523
 20
513.9636548293242
 30
0.0
 10
309.5660252936959
 20
513.9512063928751
 30
0.0
 10
309.4330476123484
 20
513.9389854225662
 30
0.0
 10
309.1334626092194
 20
513.9147620028095
 30
0.0
 10
308.9654356080727
 20
513.9027015749448
 30
0.0
 10
308.612381079516
 20
513.879858389278
 30
0.0
 10
308.4233523369356
 20
513.8687976240719
 30
0.0
 10
308.0335741868208
 20
513.8480759512188
 30
0.0
 10
307.8358547121662
 20
513.8385507872063
 30
0.0
 10
307.4347702309706
 20
513.8211144953211
 30
0.0
 10
307.233488624011
 20
513.8133205332896
 30
0.0
 10
306.8461564602264
 20
513.8002472513404
 30
0.0
 10
306.6552350663675
 20
513.7948144139735
 30
0.0
 10
306.1229510264155
 20
513.7829984060398
 30
0.0
 10
305.8131326157775
 20
513.7808410485482
 30
0.0
 10
305.5815820895523
 20
513.7856985125327
 30
0.0
  0
LINE
  5
1DD
330
1F
100
AcDbEntity
  8
0
  6
Continuous
 62
     7
370
    25
100
AcDbLine
 10
309.6815820896
 20
515.0050233561
 30
0.0
 11
309.6815820896
 21
513.9636548293
 31
0.0
  0
SPLINE
  5
1DE
330
1F
100
AcDbEntity
  8
0
  6
Continuous
 62
     7
370
    25
100
AcDbSpline
210
0.0
220
0.0
230
1.0
 70
    11
 71
     3
 72
    68
 73
    64
 74
     0
 42
0.000000001
 43
0.00000001
 40
0.0
 40
0.0
 40
0.0
 40
0.0
 40
0.03125
 40
0.03125
 40
0.0625
 40
0.0625
 40
0.09375
 40
0.09375
 40
0.125
 40
0.125
 40
0.15625
 40
0.15625
 40
0.1875
 40
0.1875
 40
0.21875
 40
0.21875
 40
0.25
 40
0.25
 40
0.28125
 40
0.28125
 40
0.3125
 40
0.3125
 40
0.34375
 40
0.34375
 40
0.375
 40
0.375
 40
0.40625
 40
0.40625
 40
0.4375
 40
0.4375
 40
0.46875
 40
0.46875
 40
0.5
 40
0.5
 40
0.53125
 40
0.53125
 40
0.5625
 40
0.5625
 40
0.59375
 40
0.59375
 40
0.625
 40
0.625
 40
0.65625
 40
0.65625
 40
0.6875
 40
0.6875
 40
0.71875
 40
0.71875
 40
0.75
 40
0.75
 40
0.78125
 40
0.78125
 40
0.8125
 40
0.8125
 40
0.84375
 40
0.84375
 40
0.875
 40
0.875
 40
0.90625
 40
0.90625
 40
0.9375
 40
0.9375
 40
1.0
 40
1.0
 40
1.0
 40
1.0
 10
313.6902022690598
 20
514.4576012254365
 30
0.0
 10
313.5453008447013
 20
514.4635257115515
 30
0.0
 10
313.4170524582448
 20
514.4700968306952
 30
0.0
 10
313.1924802254064
 20
514.4846612487426
 30
0.0
 10
313.0953820201214
 20
514.4927528933875
 30
0.0
 10
312.9398719577196
 20
514.5100919988448
 30
0.0
 10
312.8812603000287
 20
514.5192913184437
 30
0.0
 10
312.8019516703051
 20
514.5388431848078
 30
0.0
 10
312.781655987306
 20
514.549269785367
 30
0.0
 10
312.7815086039477
 20
514.57045368991
 30
0.0
 10
312.8010091304147
 20
514.5813067399264
 30
0.0
 10
312.8800689173061
 20
514.603509957431
 30
0.0
 10
312.9393875429713
 20
514.6146972828578
 30
0.0
 10
313.0934310267493
 20
514.6365559716708
 30
0.0
 10
313.1892172264514
 20
514.6473877046614
 30
0.0
 10
313.4154543932452
 20
514.6682291140414
 30
0.0
 10
313.543549128495
 20
514.6780477057569
 30
0.0
 10
313.8288975510592
 20
514.6963304226018
 30
0.0
 10
313.9881342278717
 20
514.7048686709757
 30
0.0
 10
314.3250074828304
 20
514.7197367683096
 30
0.0
 10
314.5029462755798
 20
514.7261255720779
 30
0.0
 10
314.8779348795288
 20
514.7366441980389
 30
0.0
 10
315.0750710158654
 20
514.7407344679904
 30
0.0
 10
315.4714928028407
 20
514.7461549287813
 30
0.0
 10
315.6728799969557
 20
514.7475537704564
 30
0.0
 10
316.0822503675109
 20
514.7475901821189
 30
0.0
 10
316.2844124823978
 20
514.7462203490555
 30
0.0
 10
316.6808748832274
 20
514.7408657873528
 30
0.0
 10
316.8776569630653
 20
514.736820529354
 30
0.0
 10
317.2536761465567
 20
514.7263438186995
 30
0.0
 10
317.4318759849833
 20
514.7199771597593
 30
0.0
 10
317.7689285525037
 20
514.7051734423482
 30
0.0
 10
317.9286153286616
 20
514.696652317371
 30
0.0
 10
318.2148810935456
 20
514.678389776853
 30
0.0
 10
318.3432604623391
 20
514.668588355709
 30
0.0
 10
318.5699406253563
 20
514.6478055565335
 30
0.0
 10
318.6665270842085
 20
514.6369440393671
 30
0.0
 10
318.8214489907672
 20
514.6150920931041
 30
0.0
 10
318.8810510780627
 20
514.6039461056681
 30
0.0
 10
318.9612296640571
 20
514.5816995214734
 30
0.0
 10
318.9811750930658
 20
514.5708361655876
 30
0.0
 10
318.9819768723081
 20
514.5496510359144
 30
0.0
 10
318.9622199359129
 20
514.5392229702909
 30
0.0
 10
318.8837742078699
 20
514.5196256893236
 30
0.0
 10
318.825588820769
 20
514.5104153070316
 30
0.0
 10
318.6712067384662
 20
514.4930699262158
 30
0.0
 10
318.5743844898124
 20
514.4849444735471
 30
0.0
 10
318.3505088812394
 20
514.4703403073431
 30
0.0
 10
318.2227098171211
 20
514.4637585951514
 30
0.0
 10
317.9342761605568
 20
514.4518974516976
 30
0.0
 10
317.7771029425233
 20
514.4467695816342
 30
0.0
 10
317.4416613562333
 20
514.4380081086952
 30
0.0
 10
317.2609165583586
 20
514.4343239083103
 30
0.0
 10
316.8849071013646
 20
514.4284707202561
 30
0.0
 10
316.691589883965
 20
514.4263116921264
 30
0.0
 10
316.2945061401634
 20
514.423398367407
 30
0.0
 10
316.0889257162677
 20
514.4226553883832
 30
0.0
 10
315.6838341680304
 20
514.4226327267692
 30
0.0
 10
315.4826531481777
 20
514.4233289862568
 30
0.0
 10
315.0830646927753
 20
514.4261961504468
 30
0.0
 10
314.8865208920934
 20
514.4283715044324
 30
0.0
 10
314.3261700358653
 20
514.4370081776361
 30
0.0
 10
313.9800051177769
 20
514.4457522532065
 30
0.0
 10
313.6902022690598
 20
514.4576012254365
 30
0.0
  0
SPLINE
  5
1DF
330
1F
100
AcDbEntity
  8
0
  6
Continuous
 62
     7
370
    25
100
AcDbSpline
210
0.0
220
0.0
230
1.0
 70
    11
 71
     3
 72
   200
 73
   196
 74
     0
 42
0.000000001
 43
0.00000001
 40
0.0
 40
0.0
 40
0.0
 40
0.0
 40
0.0156249999999993
 40
0.0156249999999993
 40
0.0195312499999992
 40
0.0195312499999992
 40
0.023437499999999
 40
0.023437499999999
 40
0.0312499999999987
 40
0.0312499999999987
 40
0.046874999999998
 40
0.046874999999998
 40
0.0624999999999974
 40
0.0624999999999974
 40
0.070312499999997
 40
0.070312499999997
 40
0.0781249999999967
 40
0.0781249999999967
 40
0.093749999999996
 40
0.093749999999996
 40
0.1093749999999953
 40
0.1093749999999953
 40
0.117187499999995
 40
0.117187499999995
 40
0.1210937499999948
 40
0.1210937499999948
 40
0.1249999999999947
 40
0.1249999999999947
 40
0.140624999999994
 40
0.140624999999994
 40
0.1562499999999934
 40
0.1562499999999934
 40
0.1718749999999928
 40
0.1718749999999928
 40
0.1757812499999927
 40
0.1757812499999927
 40
0.1796874999999926
 40
0.1796874999999926
 40
0.1874999999999924
 40
0.1874999999999924
 40
0.2031249999999921
 40
0.2031249999999921
 40
0.2187499999999918
 40
0.2187499999999918
 40
0.2265624999999917
 40
0.2265624999999917
 40
0.2304687499999916
 40
0.2304687499999916
 40
0.2343749999999915
 40
0.2343749999999915
 40
0.2499999999999912
 40
0.2499999999999912
 40
0.265624999999991
 40
0.265624999999991
 40
0.2812499999999907
 40
0.2812499999999907
 40
0.2890624999999905
 40
0.2890624999999905
 40
0.2968749999999903
 40
0.2968749999999903
 40
0.3124999999999901
 40
0.3124999999999901
 40
0.3281249999999898
 40
0.3281249999999898
 40
0.3359374999999897
 40
0.3359374999999897
 40
0.3398437499999896
 40
0.3398437499999896
 40
0.3437499999999896
 40
0.3437499999999896
 40
0.3593749999999893
 40
0.3593749999999893
 40
0.3749999999999891
 40
0.3749999999999891
 40
0.390624999999989
 40
0.390624999999989
 40
0.394531249999989
 40
0.394531249999989
 40
0.398437499999989
 40
0.398437499999989
 40
0.4062499999999891
 40
0.4062499999999891
 40
0.4218749999999893
 40
0.4218749999999893
 40
0.4374999999999895
 40
0.4374999999999895
 40
0.4453124999999896
 40
0.4453124999999896
 40
0.4492187499999897
 40
0.4492187499999897
 40
0.4531249999999897
 40
0.4531249999999897
 40
0.4687499999999901
 40
0.4687499999999901
 40
0.4843749999999904
 40
0.4843749999999904
 40
0.4999999999999908
 40
0.4999999999999908
 40
0.5078124999999909
 40
0.5078124999999909
 40
0.515624999999991
 40
0.515624999999991
 40
0.5312499999999913
 40
0.5312499999999913
 40
0.5468749999999917
 40
0.5468749999999917
 40
0.5507812499999918
 40
0.5507812499999918
 40
0.5546874999999918
 40
0.5546874999999918
 40
0.5624999999999919
 40
0.5624999999999919
 40
0.5781249999999922
 40
0.5781249999999922
 40
0.5937499999999926
 40
0.5937499999999926
 40
0.6015624999999927
 40
0.6015624999999927
 40
0.6054687499999928
 40
0.6054687499999928
 40
0.6093749999999928
 40
0.6093749999999928
 40
0.6249999999999931
 40
0.6249999999999931
 40
0.6406249999999934
 40
0.6406249999999934
 40
0.6562499999999938
 40
0.6562499999999938
 40
0.6601562499999939
 40
0.6601562499999939
 40
0.6640624999999939
 40
0.6640624999999939
 40
0.6718749999999941
 40
0.6718749999999941
 40
0.6874999999999944
 40
0.6874999999999944
 40
0.7031249999999948
 40
0.7031249999999948
 40
0.710937499999995
 40
0.710937499999995
 40
0.7187499999999952
 40
0.7187499999999952
 40
0.7343749999999956
 40
0.7343749999999956
 40
0.7499999999999959
 40
0.7499999999999959
 40
0.7656249999999963
 40
0.7656249999999963
 40
0.7695312499999963
 40
0.7695312499999963
 40
0.7734374999999964
 40
0.7734374999999964
 40
0.7812499999999967
 40
0.7812499999999967
 40
0.796874999999997
 40
0.796874999999997
 40
0.8124999999999973
 40
0.8124999999999973
 40
0.8203124999999974
 40
0.8203124999999974
 40
0.8242187499999974
 40
0.8242187499999974
 40
0.8281249999999976
 40
0.8281249999999976
 40
0.8437499999999978
 40
0.8437499999999978
 40
0.859374999999998
 40
0.859374999999998
 40
0.8749999999999982
 40
0.8749999999999982
 40
0.8789062499999982
 40
0.8789062499999982
 40
0.8828124999999983
 40
0.8828124999999983
 40
0.8906249999999984
 40
0.8906249999999984
 40
0.9062499999999987
 40
0.9062499999999987
 40
0.9218749999999989
 40
0.9218749999999989
 40
0.929687499999999
 40
0.929687499999999
 40
0.9374999999999991
 40
0.9374999999999991
 40
0.9531249999999993
 40
0.9531249999999993
 40
0.9687499999999996
 40
0.9687499999999996
 40
0.9765624999999997
 40
0.9765624999999997
 40
0.9804687499999997
 40
0.9804687499999997
 40
0.9843749999999998
 40
0.9843749999999998
 40
1.0
 40
1.0
 40
1.0
 40
1.0
 10
500.904250213982
 20
303.9357657977708
 30
0.0
 10
501.5588313298132
 20
310.0462903019192
 30
0.0
 10
501.9096336902226
 20
316.1729742853883
 30
0.0
 10
501.9688517809528
 20
323.851503393201
 30
0.0
 10
501.961640881313
 20
325.3881574601363
 30
0.0
 10
501.9094230172535
 20
328.4521764841489
 30
0.0
 10
501.8644381714894
 20
329.9809639432602
 30
0.0
 10
501.6734412672316
 20
334.5577599825828
 30
0.0
 10
501.4714217976126
 20
337.5962081920069
 30
0.0
 10
500.6446733233005
 20
346.6738805772499
 30
0.0
 10
499.7997736403889
 20
352.6755211816999
 30
0.0
 10
497.5275125848723
 20
364.5793704184526
 30
0.0
 10
496.1001676655099
 20
370.4815818703781
 30
0.0
 10
493.5133891991292
 20
379.2587994912735
 30
0.0
 10
492.5767034094832
 20
382.1718327670168
 30
0.0
 10
490.5512837642574
 20
387.9719412744557
 30
0.0
 10
489.469845944812
 20
390.8378603665018
 30
0.0
 10
486.0288974748987
 20
399.3207161757196
 30
0.0
 10
483.4709588416645
 20
404.8295204801384
 30
0.0
 10
477.8382071559772
 20
415.560396866779
 30
0.0
 10
474.7633771490208
 20
420.7824595403664
 30
0.0
 10
469.7604799066392
 20
428.3988365737804
 30
0.0
 10
468.0276236710274
 20
430.9014455689849
 30
0.0
 10
465.3290548108247
 20
434.6002797255567
 30
0.0
 10
464.4129767210493
 20
435.8240402738844
 30
0.0
 10
462.547372601251
 20
438.2530056179211
 30
0.0
 10
461.5967488109854
 20
439.4595600653266
 30
0.0
 10
456.7720911730752
 20
445.4292658919204
 30
0.0
 10
452.7079942363756
 20
449.9752401151954
 30
0.0
 10
444.1847658378715
 20
458.6230156765662
 30
0.0
 10
439.7255965196742
 20
462.7247743106707
 30
0.0
 10
430.4141049859349
 20
470.4862398306022
 30
0.0
 10
425.5618004723729
 20
474.1459663594048
 30
0.0
 10
419.2447860306244
 20
478.437706515551
 30
0.0
 10
417.9687723207118
 20
479.2818759418788
 30
0.0
 10
415.3912545769991
 20
480.9415560452234
 30
0.0
 10
414.0880939419856
 20
481.7580392781225
 30
0.0
 10
410.1596768360749
 20
484.1521285518988
 30
0.0
 10
407.51156479898
 20
485.6771779458458
 30
0.0
 10
399.4814456385159
 20
490.0434966775491
 30
0.0
 10
394.0138583810589
 20
492.676428985696
 30
0.0
 10
382.8543200726687
 20
497.3962232510809
 30
0.0
 10
377.1623655105835
 20
499.4830765358687
 30
0.0
 10
368.4542709950629
 20
502.1993328242104
 30
0.0
 10
365.52316227859
 20
503.0356261101364
 30
0.0
 10
361.0831750353453
 20
504.1846730534504
 30
0.0
 10
359.5959551856784
 20
504.5501149304614
 30
0.0
 10
356.6069065858261
 20
505.2454634294697
 30
0.0
 10
355.105540656202
 20
505.5751937623296
 30
0.0
 10
347.6040377435003
 20
507.1259133511838
 30
0.0
 10
341.5867342718589
 20
508.0617838454241
 30
0.0
 10
329.5208844811792
 20
509.3425005432738
 30
0.0
 10
323.472335764562
 20
509.6873033756013
 30
0.0
 10
311.3440299485647
 20
509.7866419487058
 30
0.0
 10
305.2642748423898
 20
509.541215857255
 30
0.0
 10
296.1205826544886
 20
508.7179651665414
 30
0.0
 10
293.0616739899672
 20
508.3662860359074
 30
0.0
 10
286.998241968211
 20
507.5169965571675
 30
0.0
 10
283.9879333300058
 20
507.0192171846151
 30
0.0
 10
275.0200935482283
 20
505.3103179431425
 30
0.0
 10
269.1254998603519
 20
503.8841448375973
 30
0.0
 10
257.5019505371595
 20
500.465599820417
 30
0.0
 10
251.7729944507464
 20
498.4732284114527
 30
0.0
 10
243.305664425232
 20
495.0534552005213
 30
0.0
 10
240.5042756842303
 20
493.8415343896315
 30
0.0
 10
236.3343635818678
 20
491.9136282058105
 30
0.0
 10
234.9481845816175
 20
491.2518652503309
 30
0.0
 10
232.1942224236147
 20
489.8949372065926
 30
0.0
 10
230.8284613391535
 20
489.2008232506591
 30
0.0
 10
224.0551259822579
 20
485.6528793270846
 30
0.0
 10
218.8135486241917
 20
482.5675020479756
 30
0.0
 10
208.6752948872392
 20
475.9155928784533
 30
0.0
 10
203.7786384885945
 20
472.3490335424913
 30
0.0
 10
194.3310684475891
 20
464.7335579690791
 30
0.0
 10
189.7801263190235
 20
460.6846817484489
 30
0.0
 10
184.3143831645858
 20
455.3125576397612
 30
0.0
 10
183.2310540262398
 20
454.2211032935728
 30
0.0
 10
181.0974770215354
 20
452.0175914152025
 30
0.0
 10
180.0464185798029
 20
450.9048099839592
 30
0.0
 10
176.939923437473
 20
447.5337467111913
 30
0.0
 10
174.9311376225764
 20
445.2427664166371
 30
0.0
 10
169.0884317249436
 20
438.2411014465838
 30
0.0
 10
165.4377308679026
 20
433.4019956159516
 30
0.0
 10
158.6201586308361
 20
423.3846666749842
 30
0.0
 10
155.4532777684363
 20
418.206450240949
 30
0.0
 10
151.0725614857471
 20
410.1800750223473
 30
0.0
 10
149.6740333334595
 20
407.4613645968736
 30
0.0
 10
147.6707035516599
 20
403.3170925893248
 30
0.0
 10
147.0188608312818
 20
401.9248474177519
 30
0.0
 10
145.7539498557439
 20
399.1338588371029
 30
0.0
 10
145.1399303998117
 20
397.7331834953721
 30
0.0
 10
142.1610605526589
 20
390.704169505698
 30
0.0
 10
140.0692186597078
 20
384.9991083790457
 30
0.0
 10
136.4547752577921
 20
373.4290206358114
 30
0.0
 10
134.9321974291867
 20
367.5639873550408
 30
0.0
 10
132.4596515490475
 20
355.6730141535726
 30
0.0
 10
131.5096263014778
 20
349.6470902934827
 30
0.0
 10
130.5292627602205
 20
340.4832526335907
 30
0.0
 10
130.2792652923928
 20
337.4308558555453
 30
0.0
 10
129.9303991121097
 20
331.338247986355
 30
0.0
 10
129.8313928332857
 20
328.2967278724898
 30
0.0
 10
129.7574613818646
 20
319.1863170776305
 30
0.0
 10
130.0050986587995
 20
313.1315426569844
 30
0.0
 10
131.0902676664903
 20
301.059411441397
 30
0.0
 10
131.9277774107862
 20
295.0420532437807
 30
0.0
 10
133.3515794030617
 20
287.5442652853858
 30
0.0
 10
133.6552290180587
 20
286.0459059405705
 30
0.0
 10
134.3006923885433
 20
283.0516082521887
 30
0.0
 10
134.64294371063
 20
281.55388673198
 30
0.0
 10
135.7244412511759
 20
277.0774610761633
 30
0.0
 10
136.5163171874321
 20
274.1231966677103
 30
0.0
 10
139.1002181464752
 20
265.3486153953099
 30
0.0
 10
141.10002188521
 20
259.6163010780933
 30
0.0
 10
145.6434574626802
 20
248.3820067602251
 30
0.0
 10
148.1871020863307
 20
242.8800321698721
 30
0.0
 10
152.4143643170517
 20
234.801484089258
 30
0.0
 10
153.8922056010584
 20
232.1377550815588
 30
0.0
 10
156.2137269715354
 20
228.1865320134492
 30
0.0
 10
157.0050355322379
 20
226.8768562028492
 30
0.0
 10
158.6229626765005
 20
224.2724600188419
 30
0.0
 10
159.4506285455081
 20
222.9762045468123
 30
0.0
 10
163.6566818413123
 20
216.5651984514538
 30
0.0
 10
167.2481695172048
 20
211.6424881013556
 30
0.0
 10
174.8701253912317
 20
202.1962451711457
 30
0.0
 10
178.900631111871
 20
197.6727467086365
 30
0.0
 10
187.3993802934646
 20
189.0237981276917
 30
0.0
 10
191.867599546372
 20
184.89832599415
 30
0.0
 10
197.733603448278
 20
179.9967624394825
 30
0.0
 10
198.920873454258
 20
179.0292433248872
 30
0.0
 10
201.3238667306634
 20
177.1200785665513
 30
0.0
 10
202.5391666966737
 20
176.1788536006076
 30
0.0
 10
206.207397455012
 20
173.4096749568223
 30
0.0
 10
208.6892609884794
 20
171.6308569346149
 30
0.0
 10
216.2419485981661
 20
166.4925465578001
 30
0.0
 10
221.4196167566236
 20
163.3307299465745
 30
0.0
 10
232.0556303467987
 20
157.5263872983526
 30
0.0
 10
237.5139774130566
 20
154.883864284435
 30
0.0
 10
245.9147999814633
 20
151.3147172005694
 30
0.0
 10
248.7506874388393
 20
150.1908908586268
 30
0.0
 10
254.4949496419807
 20
148.0773494715743
 30
0.0
 10
257.4100779525616
 20
147.0858281736317
 30
0.0
 10
266.1751410227616
 20
144.3443989210149
 30
0.0
 10
272.0664945165134
 20
142.8175640352952
 30
0.0
 10
283.9424756313172
 20
140.3486490002105
 30
0.0
 10
289.9271095270693
 20
139.4066081877726
 30
0.0
 10
301.9897199926592
 20
138.107711116201
 30
0.0
 10
308.0676897249463
 20
137.7508119909386
 30
0.0
 10
315.7252339892037
 20
137.6813552240855
 30
0.0
 10
317.2616118093934
 20
137.6863778055564
 30
0.0
 10
320.3313390540247
 20
137.7344669764713
 30
0.0
 10
321.8627724103241
 20
137.777450596572
 30
0.0
 10
326.4468971848275
 20
137.9625808467277
 30
0.0
 10
329.4894197321208
 20
138.1608714016732
 30
0.0
 10
338.576988165828
 20
138.9765849368651
 30
0.0
 10
344.5821290166559
 20
139.8143298475581
 30
0.0
 10
356.4872016015121
 20
142.0706955500909
 30
0.0
 10
362.3871345563119
 20
143.4893096022186
 30
0.0
 10
371.1567929342251
 20
146.060253911944
 30
0.0
 10
374.0666151232211
 20
146.9912037429291
 30
0.0
 10
378.410858392133
 20
148.5007570017482
 30
0.0
 10
379.8572546072429
 20
149.0234913812517
 30
0.0
 10
382.7285882952623
 20
150.1015629017776
 30
0.0
 10
384.1547775173968
 20
150.6572850677872
 30
0.0
 10
391.2388450774008
 20
153.518430782921
 30
0.0
 10
396.7564354078769
 20
156.0708469225736
 30
0.0
 10
407.4995855290639
 20
161.6898310801791
 30
0.0
 10
412.7251308647774
 20
164.7564245486737
 30
0.0
 10
422.8829376452128
 20
171.4059696964438
 30
0.0
 10
427.8152259004711
 20
174.9888741742687
 30
0.0
 10
433.7911128076647
 20
179.8010930759346
 30
0.0
 10
434.9763339590477
 20
180.7799716090652
 30
0.0
 10
437.3145876786767
 20
182.7602232303372
 30
0.0
 10
438.4692884975115
 20
183.7629220369032
 30
0.0
 10
441.8905579048936
 20
186.8083495275889
 30
0.0
 10
444.1143201253868
 20
188.8883860289935
 30
0.0
 10
450.6169167175612
 20
195.275516964246
 30
0.0
 10
454.7274577477012
 20
199.7292870653311
 30
0.0
 10
462.5032386166556
 20
209.024927808351
 30
0.0
 10
466.1684913985311
 20
213.8667871722876
 30
0.0
 10
471.3255236510852
 20
221.4266394521669
 30
0.0
 10
472.9876250876899
 20
223.9961892068689
 30
0.0
 10
476.1955568253468
 20
229.2366240622155
 30
0.0
 10
477.7290168416363
 20
231.8874097474429
 30
0.0
 10
482.1170854859504
 20
239.9208271492648
 30
0.0
 10
484.7622555580796
 20
245.3881885103983
 30
0.0
 10
489.5038387381533
 20
256.5417588974019
 30
0.0
 10
491.6002343536745
 20
262.2279749037829
 30
0.0
 10
494.3300171250607
 20
270.922726839261
 30
0.0
 10
495.1706874236109
 20
273.8485975311805
 30
0.0
 10
496.3262607926182
 20
278.2794500883554
 30
0.0
 10
496.6938717037597
 20
279.7634119634955
 30
0.0
 10
497.3935731994051
 20
282.7455012615754
 30
0.0
 10
497.7259050060114
 20
284.2448054768296
 30
0.0
 10
499.294729659715
 20
291.7628030274811
 30
0.0
 10
500.2496690981506
 20
297.8252412936221
 30
0.0
 10
500.9042502139819
 20
303.9357657977708
 30
0.0
  0
SPLINE
  5
1E0
330
1F
100
AcDbEntity
  8
0
  6
Continuous
 62
     7
370
    25
100
AcDbSpline
210
0.0
220
0.0
230
1.0
 70
     8
 71
     3
 72
    22
 73
    18
 74
     0
 42
0.000000001
 43
0.00000001
 40
0.0
 40
0.0
 40
0.0
 40
0.0
 40
0.125
 40
0.125
 40
0.25
 40
0.25
 40
0.375
 40
0.375
 40
0.5
 40
0.5
 40
0.625
 40
0.625
 40
0.75
 40
0.75
 40
0.875
 40
0.875
 40
1.0
 40
1.0
 40
1.0
 40
1.0
 10
295.4815820895523
 20
513.7736265555304
 30
0.0
 10
295.3659137449317
 20
513.7524711319825
 30
0.0
 10
295.2328809079317
 20
513.7302569770034
 30
0.0
 10
294.933457299348
 20
513.6835725189279
 30
0.0
 10
294.7655978677715
 20
513.658930183141
 30
0.0
 10
294.4130611108155
 20
513.6096747122267
 30
0.0
 10
294.2245456279305
 20
513.5845044779969
 30
0.0
 10
293.8353958512894
 20
513.5346313622865
 30
0.0
 10
293.6380461706507
 20
513.510325699247
 30
0.0
 10
293.2378276436873
 20
513.4629183303679
 30
0.0
 10
293.0365223687783
 20
513.4400301903178
 30
0.0
 10
292.6493553655578
 20
513.3979414640237
 30
0.0
 10
292.4584618860208
 20
513.3782012739638
 30
0.0
 10
292.1027878278263
 20
513.343660319747
 30
0.0
 10
291.9375852386335
 20
513.3287771231643
 30
0.0
 10
291.6331667824713
 20
513.3041428380108
 30
0.0
 10
291.4978447338022
 20
513.2947229393139
 30
0.0
 10
291.3815820895522
 20
513.2884926442409
 30
0.0
  0
SPLINE
  5
1E1
330
1F
100
AcDbEntity
  8
0
  6
Continuous
 62
     7
370
    25
100
AcDbSpline
210
0.0
220
0.0
230
1.0
 70
     8
 71
     3
 72
    20
 73
    16
 74
     0
 42
0.000000001
 43
0.00000001
 40
0.0
 40
0.0
 40
0.0
 40
0.0
 40
0.1249999999999995
 40
0.1249999999999995
 40
0.249999999999999
 40
0.249999999999999
 40
0.3749999999999985
 40
0.3749999999999985
 40
0.499999999999998
 40
0.499999999999998
 40
0.6249999999999976
 40
0.6249999999999976
 40
0.749999999999997
 40
0.749999999999997
 40
1.0
 40
1.0
 40
1.0
 40
1.0
 10
340.3815820895523
 20
513.2884926442409
 30
0.0
 10
340.2653279354283
 20
513.294722484344
 30
0.0
 10
340.1315344062971
 20
513.3040392829749
 30
0.0
 10
339.8302073730297
 20
513.3283821769722
 30
0.0
 10
339.6613951563503
 20
513.3435688909276
 30
0.0
 10
339.3070736507999
 20
513.377963541799
 30
0.0
 10
339.1173044817729
 20
513.3975690124901
 30
0.0
 10
338.7275111676406
 20
513.4399282063488
 30
0.0
 10
338.5298407434215
 20
513.4623981091951
 30
0.0
 10
338.1289575070058
 20
513.5098578517893
 30
0.0
 10
337.9285951897697
 20
513.5345332905362
 30
0.0
 10
337.5423883949849
 20
513.584013533176
 30
0.0
 10
337.3520706277196
 20
513.6094065873647
 30
0.0
 10
336.821960910515
 20
513.6834518226743
 30
0.0
 10
336.5128955535739
 20
513.7313199562639
 30
0.0
 10
336.2815820895523
 20
513.7736265555304
 30
0.0
  0
SPLINE
  5
1E2
330
1F
100
AcDbEntity
  8
0
  6
Continuous
 62
     7
370
    25
100
AcDbSpline
210
0.0
220
0.0
230
1.0
 70
     8
 71
     3
 72
    22
 73
    18
 74
     0
 42
0.000000001
 43
0.00000001
 40
0.0
 40
0.0
 40
0.0
 40
0.0
 40
0.125
 40
0.125
 40
0.25
 40
0.25
 40
0.375
 40
0.375
 40
0.5
 40
0.5
 40
0.625
 40
0.625
 40
0.75
 40
0.75
 40
0.875
 40
0.875
 40
1.0
 40
1.0
 40
1.0
 40
1.0
 10
302.5815820895523
 20
514.4023313382891
 30
0.0
 10
302.4660039292115
 20
514.3855674596887
 30
0.0
 10
302.3330328458923
 20
514.3683891714279
 30
0.0
 10
302.0335792341907
 20
514.3330137199667
 30
0.0
 10
301.8656513310196
 20
514.3147026842928
 30
0.0
 10
301.5128610860824
 20
514.2787326763163
 30
0.0
 10
301.3240758302828
 20
514.2606537605583
 30
0.0
 10
300.9345625646172
 20
514.2254393426242
 30
0.0
 10
300.7369969605377
 20
514.2085651651976
 30
0.0
 10
300.3362698840946
 20
514.176225429472
 30
0.0
 10
300.1349432246261
 20
514.1609354430158
 30
0.0
 10
299.7476398525866
 20
514.1334507518649
 30
0.0
 10
299.5567029945627
 20
514.1209133548476
 30
0.0
 10
299.2014534202625
 20
514.0998165948398
 30
0.0
 10
299.0364293423727
 20
514.0911724934922
 30
0.0
 10
298.7323249101809
 20
514.0780232786263
 30
0.0
 10
298.5975652759374
 20
514.0737166736906
 30
0.0
 10
298.4815820895522
 20
514.0718548578607
 30
0.0
  0
SPLINE
  5
1E3
330
1F
100
AcDbEntity
  8
0
  6
Continuous
 62
     7
370
    25
100
AcDbSpline
210
0.0
220
0.0
230
1.0
 70
     8
 71
     3
 72
    20
 73
    16
 74
     0
 42
0.000000001
 43
0.00000001
 40
0.0
 40
0.0
 40
0.0
 40
0.0
 40
0.1249999999999999
 40
0.1249999999999999
 40
0.2499999999999998
 40
0.2499999999999998
 40
0.3749999999999997
 40
0.3749999999999997
 40
0.4999999999999996
 40
0.4999999999999996
 40
0.6249999999999994
 40
0.6249999999999994
 40
0.7499999999999993
 40
0.7499999999999993
 40
1.0
 40
1.0
 40
1.0
 40
1.0
 10
333.2815820895523
 20
514.0718548578607
 30
0.0
 10
333.1656053096389
 20
514.0737165708509
 30
0.0
 10
333.0321158549663
 20
514.0779879345964
 30
0.0
 10
332.7313623519612
 20
514.0909529349261
 30
0.0
 10
332.5627826463432
 20
514.0997604113203
 30
0.0
 10
332.2087689598454
 20
514.1207689055502
 30
0.0
 10
332.0191219563587
 20
514.1332033130478
 30
0.0
 10
331.6291658874611
 20
514.1608606133607
 30
0.0
 10
331.4313789949846
 20
514.1758770826267
 30
0.0
 10
331.030192095511
 20
514.2082270516916
 30
0.0
 10
330.8295164825107
 20
514.2253646966719
 30
0.0
 10
330.4428672452185
 20
514.2603041583762
 30
0.0
 10
330.2523408313356
 20
514.2785318873754
 30
0.0
 10
329.721778412807
 20
514.3326064664319
 30
0.0
 10
329.4127246755731
 20
514.3688055732136
 30
0.0
 10
329.1815820895523
 20
514.4023313382891
 30
0.0
  0
SPLINE
  5
1E4
330
1F
100
AcDbEntity
  8
0
  6
Continuous
 62
     7
370
    25
100
AcDbSpline
210
0.0
220
0.0
230
1.0
 70
     8
 71
     3
 72
    20
 73
    16
 74
     0
 42
0.000000001
 43
0.00000001
 40
0.0
 40
0.0
 40
0.0
 40
0.0
 40
0.1250000000000006
 40
0.1250000000000006
 40
0.2500000000000012
 40
0.2500000000000012
 40
0.3750000000000018
 40
0.3750000000000018
 40
0.5000000000000024
 40
0.5000000000000024
 40
0.6250000000000019
 40
0.6250000000000019
 40
0.7500000000000014
 40
0.7500000000000014
 40
1.0
 40
1.0
 40
1.0
 40
1.0
 10
309.6815820895523
 20
514.7651765853296
 30
0.0
 10
309.5660253673028
 20
514.7527440086357
 30
0.0
 10
309.4330476764604
 20
514.7405417060986
 30
0.0
 10
309.1334622372481
 20
514.7163619729822
 30
0.0
 10
308.965434910629
 20
514.7043268152343
 30
0.0
 10
308.6123794596603
 20
514.6815389570105
 30
0.0
 10
308.4233498201012
 20
514.670508853787
 30
0.0
 10
308.0335706782129
 20
514.649853114135
 30
0.0
 10
307.8358506011587
 20
514.6403626529657
 30
0.0
 10
307.4347646590764
 20
514.6229994616111
 30
0.0
 10
307.2334831694499
 20
514.6152435929223
 30
0.0
 10
306.84615076368
 20
514.6022460504826
 30
0.0
 10
306.6552293835785
 20
514.5968518376998
 30
0.0
 10
306.1229475078646
 20
514.5851465493729
 30
0.0
 10
305.8131309440424
 20
514.5830578823927
 30
0.0
 10
305.5815820895523
 20
514.5879678843122
 30
0.0
  0
SPLINE
  5
1E5
330
1F
100
AcDbEntity
  8
0
  6
Continuous
 62
     7
370
    25
100
AcDbSpline
210
0.0
220
0.0
230
1.0
 70
     8
 71
     3
 72
    20
 73
    16
 74
     0
 42
0.000000001
 43
0.00000001
 40
0.0
 40
0.0
 40
0.0
 40
0.0
 40
0.1250000000000001
 40
0.1250000000000001
 40
0.2500000000000002
 40
0.2500000000000002
 40
0.3750000000000002
 40
0.3750000000000002
 40
0.5000000000000003
 40
0.5000000000000003
 40
0.6250000000000004
 40
0.6250000000000004
 40
0.7499999999999999
 40
0.7499999999999999
 40
1.0
 40
1.0
 40
1.0
 40
1.0
 10
326.1815820895523
 20
514.5879678843122
 30
0.0
 10
326.0658117662229
 20
514.585512970376
 30
0.0
 10
325.9325560569018
 20
514.5848026362858
 30
0.0
 10
325.632272511296
 20
514.5865294786098
 30
0.0
 10
325.4638947605237
 20
514.5890314000873
 30
0.0
 10
325.1101807227284
 20
514.5967951216373
 30
0.0
 10
324.9206864096697
 20
514.602130862662
 30
0.0
 10
324.530668350417
 20
514.6152024917244
 30
0.0
 10
324.3328286768511
 20
514.6228214572556
 30
0.0
 10
323.9314938087854
 20
514.6401682445785
 30
0.0
 10
323.7305643347499
 20
514.6498098078979
 30
0.0
 10
323.3435826941655
 20
514.6703011142441
 30
0.0
 10
323.1528874614221
 20
514.6814103757782
 30
0.0
 10
322.6218436175152
 20
514.7156651199396
 30
0.0
 10
322.3126897820304
 20
514.7403120507931
 30
0.0
 10
322.0815820895522
 20
514.7651765853296
 30
0.0
  0
SPLINE
  5
1E6
330
1F
100
AcDbEntity
  8
0
  6
Continuous
 62
     7
370
    25
100
AcDbSpline
210
0.0
220
0.0
230
1.0
 70
    11
 71
     3
 72
   201
 73
   197
 74
     0
 42
0.000000001
 43
0.00000001
 40
0.0
 40
0.0
 40
0.0
 40
0.0
 40
0.0156249999999999
 40
0.0156249999999999
 40
0.0234374999999998
 40
0.0234374999999998
 40
0.0273437499999998
 40
0.0273437499999998
 40
0.0312499999999998
 40
0.0312499999999998
 40
0.0468749999999997
 40
0.0468749999999997
 40
0.0624999999999996
 40
0.0624999999999996
 40
0.0781249999999995
 40
0.0781249999999995
 40
0.0820312499999994
 40
0.0820312499999994
 40
0.0859374999999993
 40
0.0859374999999993
 40
0.0937499999999992
 40
0.0937499999999992
 40
0.109374999999999
 40
0.109374999999999
 40
0.1249999999999988
 40
0.1249999999999988
 40
0.1328124999999987
 40
0.1328124999999987
 40
0.1406249999999985
 40
0.1406249999999985
 40
0.1562499999999983
 40
0.1562499999999983
 40
0.1718749999999981
 40
0.1718749999999981
 40
0.1796874999999979
 40
0.1796874999999979
 40
0.1835937499999978
 40
0.1835937499999978
 40
0.1874999999999978
 40
0.1874999999999978
 40
0.2031249999999974
 40
0.2031249999999974
 40
0.218749999999997
 40
0.218749999999997
 40
0.2343749999999967
 40
0.2343749999999967
 40
0.2382812499999966
 40
0.2382812499999966
 40
0.2421874999999965
 40
0.2421874999999965
 40
0.2499999999999963
 40
0.2499999999999963
 40
0.2656249999999959
 40
0.2812499999999955
 40
0.2812499999999955
 40
0.2890624999999953
 40
0.2890624999999953
 40
0.2929687499999952
 40
0.2929687499999952
 40
0.2968749999999951
 40
0.2968749999999951
 40
0.3124999999999947
 40
0.3124999999999947
 40
0.3281249999999942
 40
0.3281249999999942
 40
0.3437499999999938
 40
0.3437499999999938
 40
0.3476562499999937
 40
0.3476562499999937
 40
0.3515624999999936
 40
0.3515624999999936
 40
0.3593749999999934
 40
0.3593749999999934
 40
0.3749999999999933
 40
0.3749999999999933
 40
0.3906249999999931
 40
0.3906249999999931
 40
0.3984374999999931
 40
0.3984374999999931
 40
0.402343749999993
 40
0.402343749999993
 40
0.406249999999993
 40
0.406249999999993
 40
0.4218749999999929
 40
0.4218749999999929
 40
0.4374999999999928
 40
0.4374999999999928
 40
0.4453124999999928
 40
0.4453124999999928
 40
0.4492187499999927
 40
0.4492187499999927
 40
0.4531249999999927
 40
0.4531249999999927
 40
0.4687499999999927
 40
0.4687499999999927
 40
0.4843749999999927
 40
0.4843749999999927
 40
0.4999999999999927
 40
0.4999999999999927
 40
0.5039062499999927
 40
0.5039062499999927
 40
0.5078124999999926
 40
0.5078124999999926
 40
0.5156249999999926
 40
0.5156249999999926
 40
0.5312499999999926
 40
0.5312499999999926
 40
0.5468749999999926
 40
0.5468749999999926
 40
0.5546874999999926
 40
0.5546874999999926
 40
0.5585937499999926
 40
0.5585937499999926
 40
0.5624999999999926
 40
0.5624999999999926
 40
0.5781249999999925
 40
0.5781249999999925
 40
0.5937499999999925
 40
0.5937499999999925
 40
0.6093749999999925
 40
0.6093749999999925
 40
0.6171874999999926
 40
0.6171874999999926
 40
0.6249999999999926
 40
0.6249999999999926
 40
0.6406249999999927
 40
0.6406249999999927
 40
0.6562499999999928
 40
0.6562499999999928
 40
0.6640624999999928
 40
0.6640624999999928
 40
0.6679687499999929
 40
0.6679687499999929
 40
0.671874999999993
 40
0.671874999999993
 40
0.6874999999999933
 40
0.6874999999999933
 40
0.7031249999999936
 40
0.7031249999999936
 40
0.7187499999999939
 40
0.7187499999999939
 40
0.722656249999994
 40
0.722656249999994
 40
0.7265624999999941
 40
0.7265624999999941
 40
0.7343749999999942
 40
0.7343749999999942
 40
0.7499999999999946
 40
0.7499999999999946
 40
0.7656249999999949
 40
0.7656249999999949
 40
0.773437499999995
 40
0.773437499999995
 40
0.7812499999999952
 40
0.7812499999999952
 40
0.7968749999999956
 40
0.7968749999999956
 40
0.8124999999999958
 40
0.8124999999999958
 40
0.8281249999999961
 40
0.8281249999999961
 40
0.8320312499999962
 40
0.8320312499999962
 40
0.8359374999999963
 40
0.8359374999999963
 40
0.8437499999999964
 40
0.8437499999999964
 40
0.8593749999999968
 40
0.8593749999999968
 40
0.8749999999999971
 40
0.8749999999999971
 40
0.8828124999999972
 40
0.8828124999999972
 40
0.8867187499999973
 40
0.8867187499999973
 40
0.8906249999999974
 40
0.8906249999999974
 40
0.9062499999999979
 40
0.9062499999999979
 40
0.9218749999999983
 40
0.9218749999999983
 40
0.9374999999999987
 40
0.9374999999999987
 40
0.9414062499999988
 40
0.9414062499999988
 40
0.9453124999999989
 40
0.9453124999999989
 40
0.953124999999999
 40
0.953124999999999
 40
0.9687499999999993
 40
0.9687499999999993
 40
0.9843749999999997
 40
0.9843749999999997
 40
0.9921874999999999
 40
0.9921874999999999
 40
1.0
 40
1.0
 40
1.0
 40
1.0
 10
473.495164621755
 20
316.0604932577842
 30
0.0
 10
473.2118252491806
 20
310.8393093601003
 30
0.0
 10
472.6723153789403
 20
305.6529501308173
 30
0.0
 10
471.4819552154948
 20
297.925220669459
 30
0.0
 10
471.0215370337736
 20
295.3579614545055
 30
0.0
 10
470.2348131993975
 20
291.5201370566785
 30
0.0
 10
469.9562557736994
 20
290.2418574817018
 30
0.0
 10
469.3691081174047
 20
287.6989209385602
 30
0.0
 10
469.0604063942909
 20
286.4335618059625
 30
0.0
 10
467.4420514057766
 20
280.1369916293714
 30
0.0
 10
465.9084104081395
 20
275.1962343862643
 30
0.0
 10
462.3744134505309
 20
265.5031968184168
 30
0.0
 10
460.3740371791149
 20
260.7509246910581
 30
0.0
 10
455.9041672268993
 20
251.435829039279
 30
0.0
 10
453.4347189402372
 20
246.8729871786766
 30
0.0
 10
450.0445851912
 20
241.2919299669639
 30
0.0
 10
449.3519649099833
 20
240.182955032855
 30
0.0
 10
447.9439329050712
 20
237.9893497799567
 30
0.0
 10
447.2276605966841
 20
236.9032885325569
 30
0.0
 10
445.0424421856768
 20
233.6770069335014
 30
0.0
 10
443.5371172190884
 20
231.5686688995662
 30
0.0
 10
438.8776983214163
 20
225.3693688134588
 30
0.0
 10
435.5804985367979
 20
221.4038244312404
 30
0.0
 10
428.6069979459747
 20
213.8049797850105
 30
0.0
 10
424.9307107192125
 20
210.1716676176663
 30
0.0
 10
419.1257400251008
 20
204.9763289915428
 30
0.0
 10
417.1405812139896
 20
203.2857253933099
 30
0.0
 10
413.0779991729095
 20
199.9970235074035
 30
0.0
 10
411.0143152382753
 20
198.4099078868197
 30
0.0
 10
404.7280923828246
 20
193.8167196742027
 30
0.0
 10
400.4106095091628
 20
190.9784044709814
 30
0.0
 10
391.5271936301642
 20
185.7407634054522
 30
0.0
 10
386.9612547222019
 20
183.3414479712982
 30
0.0
 10
379.9242262526591
 20
180.0748666055888
 30
0.0
 10
377.5471410250298
 20
179.0415032327951
 30
0.0
 10
373.933653972731
 20
177.5760212408552
 30
0.0
 10
372.7211779878177
 20
177.1016277416694
 30
0.0
 10
370.2800941056489
 20
176.1813444346885
 30
0.0
 10
369.0499511229228
 20
175.7349483692765
 30
0.0
 10
362.8895610382459
 20
173.5857098218994
 30
0.0
 10
357.9147384383792
 20
172.1238595487482
 30
0.0
 10
347.8749922496481
 20
169.6990711102107
 30
0.0
 10
342.8100610526475
 20
168.7361750724051
 30
0.0
 10
332.5903197277815
 20
167.3080656226728
 30
0.0
 10
327.4355148291885
 20
166.8428232547264
 30
0.0
 10
320.9343342868945
 20
166.580628336478
 30
0.0
 10
319.6312076740601
 20
166.5441948163245
 30
0.0
 10
317.01910768383
 20
166.5037028100506
 30
0.0
 10
315.7118635348031
 20
166.4997154332803
 30
0.0
 10
311.8024978426298
 20
166.5362397879551
 30
0.0
 10
309.2065124533921
 20
166.6250878411805
 30
0.0
 10
301.4487691249653
 20
167.0815915681747
 30
0.0
 10
291.1855346450469
 20
168.1959149083175
 30
0.0
 10
281.0807913193191
 20
170.3067320619707
 30
0.0
 10
273.5625182357173
 20
172.2688757184483
 30
0.0
 10
271.0664925362178
 20
172.9862081132128
 30
0.0
 10
267.3378286003884
 20
174.1588726726046
 30
0.0
 10
266.0963138074811
 20
174.5662898639235
 30
0.0
 10
263.6239036027695
 20
175.4118793382468
 30
0.0
 10
262.3955021110427
 20
175.8491625195637
 30
0.0
 10
256.292068507812
 20
178.1071959255922
 30
0.0
 10
251.5324680219747
 20
180.1422603376937
 30
0.0
 10
242.2529937965769
 20
184.6574735290126
 30
0.0
 10
237.7331347174859
 20
187.1376495282502
 30
0.0
 10
228.9336684429534
 20
192.5440605440931
 30
0.0
 10
224.6540417838497
 20
195.4702594252904
 30
0.0
 10
219.4594092020391
 20
199.4156012308188
 30
0.0
 10
218.4271589249571
 20
200.2199953720331
 30
0.0
 10
216.3889991477856
 20
201.8493176297647
 30
0.0
 10
215.3820035900847
 20
202.6750264501505
 30
0.0
 10
212.3968800061935
 20
205.184939516171
 30
0.0
 10
210.4545925101479
 20
206.9019097429494
 30
0.0
 10
204.7688414896732
 20
212.1818266507154
 30
0.0
 10
201.1661564669759
 20
215.8734751600332
 30
0.0
 10
194.3326546050687
 20
223.5967389943305
 30
0.0
 10
191.1018302371791
 20
227.6283474389729
 30
0.0
 10
186.5397730983894
 20
233.9355600862177
 30
0.0
 10
185.0665352088144
 20
236.0813416288706
 30
0.0
 10
182.9293231206656
 20
239.3664264905303
 30
0.0
 10
182.2303245747698
 20
240.4706120313756
 30
0.0
 10
180.8637571712551
 20
242.6895225672962
 30
0.0
 10
180.1954398250016
 20
243.8053914257357
 30
0.0
 10
176.9279258115151
 20
249.4164783388205
 30
0.0
 10
174.5504023240122
 20
254.0066907216339
 30
0.0
 10
170.2578902313247
 20
263.3853257417671
 30
0.0
 10
168.3429198834203
 20
268.1737562072043
 30
0.0
 10
165.819637791565
 20
275.506032209418
 30
0.0
 10
165.0368419271707
 20
277.9751065574599
 30
0.0
 10
163.9513329508224
 20
281.716721776674
 30
0.0
 10
163.6042842676644
 20
282.9702637297924
 30
0.0
 10
162.9400535436669
 20
285.4901462228035
 30
0.0
 10
162.6225561627459
 20
286.757831775584
 30
0.0
 10
161.1143086241317
 20
293.1128971346162
 30
0.0
 10
160.1683309860717
 20
298.215147508947
 30
0.0
 10
158.7797821383383
 20
308.4547965264131
 30
0.0
 10
158.3372615506381
 20
313.5921987113873
 30
0.0
 10
157.9527701931817
 20
323.9019490574408
 30
0.0
 10
158.0107805079157
 20
329.0742959060779
 30
0.0
 10
158.4032717233629
 20
335.5620668314418
 30
0.0
 10
158.4978053879562
 20
336.8607404322663
 30
0.0
 10
158.7192730111723
 20
339.4603494113402
 30
0.0
 10
158.8463939580607
 20
340.7626868359747
 30
0.0
 10
159.2745245287863
 20
344.6528931135361
 30
0.0
 10
159.6225814468524
 20
347.2292437118573
 30
0.0
 10
160.8508716912072
 20
354.9079697201153
 30
0.0
 10
161.9147968146136
 20
359.9601362474538
 30
0.0
 10
164.5235288245233
 20
369.933023610045
 30
0.0
 10
166.0683483575532
 20
374.8537409952534
 30
0.0
 10
168.7495468829244
 20
382.1353246408027
 30
0.0
 10
169.7040459257102
 20
384.5459085076855
 30
0.0
 10
171.2283358885052
 20
388.1364872599121
 30
0.0
 10
171.7518631440241
 20
389.3291287463173
 30
0.0
 10
172.8300985778886
 20
391.7058880454156
 30
0.0
 10
173.3851285621753
 20
392.8905624276239
 30
0.0
 10
176.2232895089356
 20
398.7605824711176
 30
0.0
 10
178.7060502273381
 20
403.3114615746711
 30
0.0
 10
184.0827397944404
 20
412.1320316016032
 30
0.0
 10
186.976702977644
 20
416.4016990161321
 30
0.0
 10
193.1743498600082
 20
424.6608313093633
 30
0.0
 10
196.4780115840389
 20
428.6503111489114
 30
0.0
 10
201.7483202986665
 20
434.4192320933046
 30
0.0
 10
203.5612162363174
 20
436.3094026597752
 30
0.0
 10
207.2555759507505
 20
439.9790176689433
 30
0.0
 10
209.1407664120645
 20
441.7628824999279
 30
0.0
 10
214.9083429988042
 20
446.9643677414538
 30
0.0
 10
218.9024631564589
 20
450.2322417685829
 30
0.0
 10
227.1847696288234
 20
456.3739075626249
 30
0.0
 10
231.4729345702458
 20
459.2477277653838
 30
0.0
 10
238.1293920766533
 20
463.258025045961
 30
0.0
 10
240.3856511349036
 20
464.5446229364561
 30
0.0
 10
243.827373438051
 20
466.3977008832385
 30
0.0
 10
244.9855628005202
 20
467.0032810235761
 30
0.0
 10
247.3145351594311
 20
468.1850466958355
 30
0.0
 10
248.48382922668
 20
468.7605253379956
 30
0.0
 10
254.3541243511295
 20
471.5615895156728
 30
0.0
 10
259.1263815986855
 20
473.5588866485907
 30
0.0
 10
268.8209860383783
 20
477.0727420821503
 30
0.0
 10
273.7433383958579
 20
478.5892843835702
 30
0.0
 10
283.7416694066252
 20
481.1304147142596
 30
0.0
 10
288.8176547420969
 20
482.1549818094445
 30
0.0
 10
295.2641893095314
 20
483.1105419186412
 30
0.0
 10
296.5602739442718
 20
483.2855552393864
 30
0.0
 10
299.154695520764
 20
483.6014192203093
 30
0.0
 10
300.4509182201524
 20
483.7420624271589
 30
0.0
 10
304.3366478056256
 20
484.1125774336465
 30
0.0
 10
306.9232172210539
 20
484.2910529432988
 30
0.0
 10
314.6713378948095
 20
484.6237396028348
 30
0.0
 10
319.8213149757675
 20
484.5754465451482
 30
0.0
 10
330.0909033925099
 20
483.9475704834213
 30
0.0
 10
335.2105193885936
 20
483.3680692034478
 30
0.0
 10
342.8671811461651
 20
482.1005250252221
 30
0.0
 10
345.4156037079383
 20
481.6115523353926
 30
0.0
 10
350.5047879972207
 20
480.4995466945644
 30
0.0
 10
353.05010709771
 20
479.8749163426782
 30
0.0
 10
360.5867612486747
 20
477.8227428691129
 30
0.0
 10
365.5059635819554
 20
476.2126644218524
 30
0.0
 10
375.1440150068231
 20
472.5317366078382
 30
0.0
 10
379.8628328002573
 20
470.4608147992931
 30
0.0
 10
389.1024938311176
 20
465.8635682239989
 30
0.0
 10
393.6233281443863
 20
463.3372227569077
 30
0.0
 10
399.1477525393863
 20
459.8879757362547
 30
0.0
 10
400.2473152016342
 20
459.1828424756844
 30
0.0
 10
402.4289160812209
 20
457.7461407804968
 30
0.0
 10
403.5088504386989
 20
457.0159969105679
 30
0.0
 10
406.7164247813222
 20
454.7905863543188
 30
0.0
 10
408.8118573877035
 20
453.2603638578069
 30
0.0
 10
414.9714455067431
 20
448.5321678843637
 30
0.0
 10
418.9091918039504
 20
445.1969916305026
 30
0.0
 10
426.4510539230928
 20
438.1645018096912
 30
0.0
 10
430.0551645996501
 20
434.467182826094
 30
0.0
 10
435.2066128468041
 20
428.6447170437584
 30
0.0
 10
436.8812349666155
 20
426.6577332940601
 30
0.0
 10
439.3281101535288
 20
423.6066395543444
 30
0.0
 10
440.133948499905
 20
422.5764144536872
 30
0.0
 10
441.716957828088
 20
420.501001605701
 30
0.0
 10
442.494312627625
 20
419.4556708440198
 30
0.0
 10
446.3110432199195
 20
414.1912758063283
 30
0.0
 10
449.1407887377395
 20
409.8592571264678
 30
0.0
 10
454.3628252855005
 20
400.9595117127816
 30
0.0
 10
456.7550996080787
 20
396.3917760033474
 30
0.0
 10
461.0996581880623
 20
387.0192364227653
 30
0.0
 10
463.0519847812392
 20
382.2144553676362
 30
0.0
 10
465.2079486987482
 20
376.0552239907794
 30
0.0
 10
465.6249606850471
 20
374.8152957752332
 30
0.0
 10
466.425885446251
 20
372.333606236723
 30
0.0
 10
466.8104019119244
 20
371.0901758245392
 30
0.0
 10
467.9165810071852
 20
367.3522035658822
 30
0.0
 10
468.5909020853098
 20
364.8499853596022
 30
0.0
 10
470.4271368711586
 20
357.3130538812499
 30
0.0
 10
471.4027532002037
 20
352.2481336492668
 30
0.0
 10
472.8604011061891
 20
342.0382660263981
 30
0.0
 10
473.3424505680575
 20
336.8933215264903
 30
0.0
 10
473.6874139742176
 20
329.1146032370343
 30
0.0
 10
473.7392723506096
 20
326.51146222619
 30
0.0
 10
473.713975901473
 20
321.2842643596078
 30
0.0
 10
473.6368343080422
 20
318.6710852066262
 30
0.0
 10
473.495164621755
 20
316.0604932577842
 30
0.0
  0
SPLINE
  5
1E7
330
1F
100
AcDbEntity
  8
0
  6
Continuous
 62
     7
370
    25
100
AcDbSpline
210
0.0
220
0.0
230
1.0
 70
     8
 71
     3
 72
    22
 73
    18
 74
     0
 42
0.000000001
 43
0.00000001
 40
0.0
 40
0.0
 40
0.0
 40
0.0
 40
0.1249999999999995
 40
0.1249999999999995
 40
0.1874999999999992
 40
0.1874999999999992
 40
0.2499999999999989
 40
0.2499999999999989
 40
0.499999999999999
 40
0.499999999999999
 40
0.624999999999999
 40
0.624999999999999
 40
0.687499999999999
 40
0.687499999999999
 40
0.7499999999999989
 40
0.7499999999999989
 40
1.0
 40
1.0
 40
1.0
 40
1.0
 10
369.1752960578985
 20
435.7218627756582
 30
0.0
 10
369.7996712129009
 20
434.2408254621013
 30
0.0
 10
370.361625329165
 20
432.7371467616589
 30
0.0
 10
371.110876345321
 20
430.4476517883917
 30
0.0
 10
371.345191286377
 20
429.6779649998131
 30
0.0
 10
371.7799264121006
 20
428.1361679383318
 30
0.0
 10
371.9806847890298
 20
427.363140391958
 30
0.0
 10
372.902600879007
 20
423.487508903804
 30
0.0
 10
373.3797611883701
 20
420.3536323448915
 30
0.0
 10
373.7072402510869
 20
415.6030843533986
 30
0.0
 10
373.7513721124834
 20
414.0112388399145
 30
0.0
 10
373.7173261072069
 20
411.6106341315241
 30
0.0
 10
373.6891381271652
 20
410.8067000950224
 30
0.0
 10
373.5991861553636
 20
409.2038339040481
 30
0.0
 10
373.5375142041951
 20
408.4049865725114
 30
0.0
 10
373.146409052831
 20
404.4235661159296
 30
0.0
 10
372.5704349724879
 20
401.2791791126148
 30
0.0
 10
371.727158976007
 20
398.1762072462357
 30
0.0
  0
SPLINE
  5
1E8
330
1F
100
AcDbEntity
  8
0
  6
Continuous
 62
     7
370
    25
100
AcDbSpline
210
0.0
220
0.0
230
1.0
 70
     8
 71
     3
 72
    26
 73
    22
 74
     0
 42
0.000000001
 43
0.00000001
 40
0.0
 40
0.0
 40
0.0
 40
0.0
 40
0.0624999999999997
 40
0.0624999999999997
 40
0.1249999999999993
 40
0.1249999999999993
 40
0.2499999999999993
 40
0.2499999999999993
 40
0.3749999999999992
 40
0.3749999999999992
 40
0.4999999999999991
 40
0.4999999999999991
 40
0.6249999999999991
 40
0.6249999999999991
 40
0.7499999999999991
 40
0.7499999999999991
 40
0.8749999999999991
 40
0.8749999999999991
 40
0.9374999999999996
 40
0.9374999999999996
 40
1.0
 40
1.0
 40
1.0
 40
1.0
 10
332.1447556438477
 20
468.9439171264366
 30
0.0
 10
333.1798988395121
 20
468.6378204435889
 30
0.0
 10
334.2048962787798
 20
468.3030380400913
 30
0.0
 10
336.2347121001579
 20
467.5764096646643
 30
0.0
 10
337.2410602966834
 20
467.1839060891933
 30
0.0
 10
340.2190648048546
 20
465.9250293957792
 30
0.0
 10
342.1392876000774
 20
464.9824607859133
 30
0.0
 10
345.8545216125675
 20
462.8985624660484
 30
0.0
 10
347.6495175705754
 20
461.7572085252007
 30
0.0
 10
351.1145429812448
 20
459.276040311878
 30
0.0
 10
352.784749417685
 20
457.9361005988303
 30
0.0
 10
355.9951285110371
 20
455.0512574786047
 30
0.0
 10
357.5051786766375
 20
453.5334636507986
 30
0.0
 10
360.3425732167189
 20
450.3530826253819
 30
0.0
 10
361.669892299947
 20
448.6904754777336
 30
0.0
 10
364.1423810129526
 20
445.2208762516669
 30
0.0
 10
365.2875664525272
 20
443.4138967782418
 30
0.0
 10
366.8640905716468
 20
440.5914471993321
 30
0.0
 10
367.3643992543729
 20
439.63459717963
 30
0.0
 10
368.3100209241551
 20
437.6976613720659
 30
0.0
 10
368.7560808576593
 20
436.7162542868998
 30
0.0
 10
369.1752960578985
 20
435.7218627756582
 30
0.0
  0
SPLINE
  5
1E9
330
1F
100
AcDbEntity
  8
0
  6
Continuous
 62
     7
370
    25
100
AcDbSpline
210
0.0
220
0.0
230
1.0
 70
     8
 71
     3
 72
    18
 73
    14
 74
     0
 42
0.000000001
 43
0.00000001
 40
0.0
 40
0.0
 40
0.0
 40
0.0
 40
0.1250000000000002
 40
0.1250000000000002
 40
0.2500000000000003
 40
0.2500000000000003
 40
0.5000000000000002
 40
0.5000000000000002
 40
0.7500000000000001
 40
0.7500000000000001
 40
0.875
 40
0.875
 40
1.0
 40
1.0
 40
1.0
 40
1.0
 10
299.6184085352576
 20
468.9439171264369
 30
0.0
 10
300.9440802060408
 20
469.3359244377651
 30
0.0
 10
302.2806977418476
 20
469.6791891451549
 30
0.0
 10
304.9757060358373
 20
470.2687791070205
 30
0.0
 10
306.3366764911317
 20
470.5154603701909
 30
0.0
 10
310.4350614074276
 20
471.1062577764777
 30
0.0
 10
313.1643051658807
 20
471.299338584701
 30
0.0
 10
318.6169845924883
 20
471.2984763805972
 30
0.0
 10
321.3404198768068
 20
471.1045077288292
 30
0.0
 10
325.4211112094087
 20
470.5162226514765
 30
0.0
 10
326.7838064370385
 20
470.2695229016742
 30
0.0
 10
329.4817522440133
 20
469.6794003941028
 30
0.0
 10
330.8190861474226
 20
469.3359237947971
 30
0.0
 10
332.1447556438478
 20
468.9439171264366
 30
0.0
  0
SPLINE
  5
1EA
330
1F
100
AcDbEntity
  8
0
  6
Continuous
 62
     7
370
    25
100
AcDbSpline
210
0.0
220
0.0
230
1.0
 70
     8
 71
     3
 72
    26
 73
    22
 74
     0
 42
0.000000001
 43
0.00000001
 40
0.0
 40
0.0
 40
0.0
 40
0.0
 40
0.1250000000000004
 40
0.1250000000000004
 40
0.2500000000000007
 40
0.2500000000000007
 40
0.3750000000000004
 40
0.3750000000000004
 40
0.5000000000000001
 40
0.5000000000000001
 40
0.5625000000000007
 40
0.5625000000000007
 40
0.6250000000000011
 40
0.6250000000000011
 40
0.7500000000000009
 40
0.7500000000000009
 40
0.8750000000000008
 40
0.8750000000000008
 40
0.9375000000000003
 40
0.9375000000000003
 40
1.0
 40
1.0
 40
1.0
 40
1.0
 10
262.5878681212277
 20
435.7218627756891
 30
0.0
 10
263.4260643512746
 20
437.7100903385747
 30
0.0
 10
264.3711286650423
 20
439.6460446672266
 30
0.0
 10
266.4751555161753
 20
443.4133280054458
 30
0.0
 10
267.6215066546633
 20
445.222040238404
 30
0.0
 10
270.0952983345075
 20
448.6931702725753
 30
0.0
 10
271.4229199909003
 20
450.3558653586434
 30
0.0
 10
274.259838952228
 20
453.5353687230556
 30
0.0
 10
275.76911358812
 20
455.0521951154994
 30
0.0
 10
278.1745872044301
 20
457.2137975244796
 30
0.0
 10
278.9948106096644
 20
457.9105168745888
 30
0.0
 10
280.6648390934785
 20
459.2516189501767
 30
0.0
 10
281.5156817654435
 20
459.8969364180641
 30
0.0
 10
284.1150826522901
 20
461.7581803975636
 30
0.0
 10
285.9103727288845
 20
462.8996231474884
 30
0.0
 10
289.6258742060701
 20
464.9834909546172
 30
0.0
 10
291.5460708071242
 20
465.9259395979778
 30
0.0
 10
294.5237340135143
 20
467.1845567213685
 30
0.0
 10
295.5296591127434
 20
467.5768607846375
 30
0.0
 10
297.5588632944571
 20
468.3032321318367
 30
0.0
 10
298.5835600922875
 20
468.6379076033347
 30
0.0
 10
299.6184085352587
 20
468.9439171264371
 30
0.0
  0
SPLINE
  5
1EB
330
1F
100
AcDbEntity
  8
0
  6
Continuous
 62
     7
370
    25
100
AcDbSpline
210
0.0
220
0.0
230
1.0
 70
     8
 71
     3
 72
    22
 73
    18
 74
     0
 42
0.000000001
 43
0.00000001
 40
0.0
 40
0.0
 40
0.0
 40
0.0
 40
0.2499999999999986
 40
0.2499999999999986
 40
0.3124999999999984
 40
0.3124999999999984
 40
0.3749999999999983
 40
0.3749999999999983
 40
0.499999999999998
 40
0.499999999999998
 40
0.7499999999999986
 40
0.7499999999999986
 40
0.812499999999999
 40
0.812499999999999
 40
0.8749999999999993
 40
0.8749999999999993
 40
1.0
 40
1.0
 40
1.0
 40
1.0
 10
260.0360052030917
 20
398.176207246257
 30
0.0
 10
259.1927292066117
 20
401.2791791126375
 30
0.0
 10
258.6167551262697
 20
404.4235661159541
 30
0.0
 10
258.2256499749072
 20
408.4049865725374
 30
0.0
 10
258.163978023739
 20
409.2038339040745
 30
0.0
 10
258.0740260519381
 20
410.8067000950494
 30
0.0
 10
258.0458380718969
 20
411.6106341315514
 30
0.0
 10
258.0117920666214
 20
414.0112388399428
 30
0.0
 10
258.0559239280187
 20
415.6030843534274
 30
0.0
 10
258.383402990738
 20
420.3536323449219
 30
0.0
 10
258.8605633001031
 20
423.4875089038354
 30
0.0
 10
259.7824793900829
 20
427.3631403919904
 30
0.0
 10
259.9832377670126
 20
428.1361679383643
 30
0.0
 10
260.4179728927372
 20
429.6779649998459
 30
0.0
 10
260.6522878337939
 20
430.4476517884245
 30
0.0
 10
261.4015388499515
 20
432.7371467616921
 30
0.0
 10
261.9634929662167
 20
434.2408254621351
 30
0.0
 10
262.5878681212203
 20
435.7218627756923
 30
0.0
  0
SPLINE
  5
1EC
330
1F
100
AcDbEntity
  8
0
  6
Continuous
 62
     7
370
    25
100
AcDbSpline
210
0.0
220
0.0
230
1.0
 70
     8
 71
     3
 72
    18
 73
    14
 74
     0
 42
0.000000001
 43
0.00000001
 40
0.0
 40
0.0
 40
0.0
 40
0.0
 40
0.0312500000000062
 40
0.0312500000000062
 40
0.0625000000000123
 40
0.0625000000000123
 40
0.1250000000000247
 40
0.1250000000000247
 40
0.2500000000000204
 40
0.2500000000000204
 40
0.5000000000000133
 40
0.5000000000000133
 40
1.0
 40
1.0
 40
1.0
 40
1.0
 10
259.9855312339352
 20
399.5154588408776
 30
0.0
 10
259.9718293708744
 20
399.5119402024582
 30
0.0
 10
259.9625374244104
 20
399.4993823052734
 30
0.0
 10
259.9497846150796
 20
399.4740648109295
 30
0.0
 10
259.9455803472246
 20
399.4602356401988
 30
0.0
 10
259.9355402274297
 20
399.4189228926548
 30
0.0
 10
259.9321711277914
 20
399.3906879805368
 30
0.0
 10
259.9251047119722
 20
399.305450494272
 30
0.0
 10
259.9249725911158
 20
399.2487143896892
 30
0.0
 10
259.9286979465288
 20
399.0785872748727
 30
0.0
 10
259.9374437969043
 20
398.9652043135505
 30
0.0
 10
259.9700517208462
 20
398.6258571951775
 30
0.0
 10
260.0011202267659
 20
398.4007931879923
 30
0.0
 10
260.0360052030917
 20
398.1762072462569
 30
0.0
  0
SPLINE
  5
1ED
330
1F
100
AcDbEntity
  8
0
  6
Continuous
 62
     7
370
    25
100
AcDbSpline
210
0.0
220
0.0
230
1.0
 70
     8
 71
     3
 72
     9
 73
     5
 74
     0
 42
0.000000001
 43
0.00000001
 40
0.0
 40
0.0
 40
0.0
 40
0.0
 40
0.5311603551754515
 40
1.0
 40
1.0
 40
1.0
 40
1.0
 10
259.9855312339352
 20
399.5154588408776
 30
0.0
 10
260.1418786442671
 20
399.5559392464967
 30
0.0
 10
260.4362293216255
 20
399.6321505172074
 30
0.0
 10
260.6438720176619
 20
399.6896251547313
 30
0.0
 10
260.741223145522
 20
399.7165715433744
 30
0.0
  0
SPLINE
  5
1EE
330
1F
100
AcDbEntity
  8
0
  6
Continuous
 62
     7
370
    25
100
AcDbSpline
210
0.0
220
0.0
230
1.0
 70
     8
 71
     3
 72
     9
 73
     5
 74
     0
 42
0.000000001
 43
0.00000001
 40
0.0
 40
0.0
 40
0.0
 40
0.0
 40
0.5069320378305335
 40
1.0
 40
1.0
 40
1.0
 40
1.0
 10
371.7776329451692
 20
399.5154588408772
 30
0.0
 10
371.6216574866904
 20
399.5558588718253
 30
0.0
 10
371.3139723398877
 20
399.6355540339638
 30
0.0
 10
371.0971392969543
 20
399.6956170639909
 30
0.0
 10
370.9902258703441
 20
399.725232219808
 30
0.0
  0
SPLINE
  5
1EF
330
1F
100
AcDbEntity
  8
0
  6
Continuous
 62
     7
370
    25
100
AcDbSpline
210
0.0
220
0.0
230
1.0
 70
     8
 71
     3
 72
    38
 73
    34
 74
     0
 42
0.000000001
 43
0.00000001
 40
0.0000000000000004
 40
0.0000000000000004
 40
0.0000000000000004
 40
0.0000000000000004
 40
0.0004425459170525
 40
0.0004425459170525
 40
0.0004425459170525
 40
0.0007405270817767
 40
0.0007405270817767
 40
0.0007405270817767
 40
0.000941430003546
 40
0.000941430003546
 40
0.000941430003546
 40
0.0010771907072607
 40
0.0010771907072607
 40
0.0010771907072607
 40
0.0011692772169208
 40
0.0011692772169208
 40
0.0011692772169208
 40
0.0012321174751071
 40
0.0012321174751071
 40
0.0012321174751071
 40
0.0012754129529391
 40
0.0012754129529391
 40
0.0012754129529391
 40
0.0013195772890191
 40
0.0013195772890191
 40
0.0013195772890191
 40
0.0013376517425038
 40
0.0013376517425038
 40
0.0013376517425038
 40
0.0013561131642893
 40
0.0013561131642893
 40
0.0013561131642893
 40
0.001364296212449
 40
0.001364296212449
 40
0.001364296212449
 40
0.001364296212449
 10
371.727158976007
 20
398.1762072462358
 30
0.0
 10
371.7498009070335
 20
398.3219737032569
 30
0.0
 10
371.7706509975025
 20
398.4680479773434
 30
0.0
 10
371.7886368841671
 20
398.614462076997
 30
0.0
 10
371.8007476263381
 20
398.7130495664079
 30
0.0
 10
371.8115810163874
 20
398.8118170732903
 30
0.0
 10
371.8202434607365
 20
398.9107619392784
 30
0.0
 10
371.8260838708212
 20
398.9774727393541
 30
0.0
 10
371.8309547076655
 20
399.0442880084916
 30
0.0
 10
371.8341066620426
 20
399.1111698357225
 30
0.0
 10
371.8362366152812
 20
399.1563656563027
 30
0.0
 10
371.8375956718714
 20
399.2016155699678
 30
0.0
 10
371.837550835567
 20
399.2468474538236
 30
0.0
 10
371.83752042327
 20
399.2775280709358
 30
0.0
 10
371.8368551805644
 20
399.3082252434398
 30
0.0
 10
371.8350155035388
 20
399.3388326651732
 30
0.0
 10
371.8337601348514
 20
399.3597187219733
 30
0.0
 10
371.8319659198045
 20
399.3805902068755
 30
0.0
 10
371.8291682276444
 20
399.4013039787346
 30
0.0
 10
371.8272408358887
 20
399.4155741524442
 30
0.0
 10
371.8248413508203
 20
399.4298005798849
 30
0.0
 10
371.821566865891
 20
399.4437961715803
 30
0.0
 10
371.8182367063545
 20
399.458029724081
 30
0.0
 10
371.8140642007276
 20
399.4722325662954
 30
0.0
 10
371.8077075379462
 20
399.4853004928639
 30
0.0
 10
371.8050947425788
 20
399.4906718361574
 30
0.0
 10
371.8020683837248
 20
399.4958842622285
 30
0.0
 10
371.7984224891752
 20
399.5005650004819
 30
0.0
 10
371.7947336924236
 20
399.5053008182159
 30
0.0
 10
371.790252743987
 20
399.5096119640315
 30
0.0
 10
371.7850623932005
 20
399.5124848576808
 30
0.0
 10
371.7827228738707
 20
399.5137797971754
 30
0.0
 10
371.7802125286095
 20
399.5147964038542
 30
0.0
 10
371.77763294517
 20
399.5154588408788
 30
0.0
  0
ARC
  5
1F0
330
1F
100
AcDbEntity
  8
0
  6
Continuous
 62
     7
370
    25
100
AcDbCircle
 10
315.8815820896
 20
413.6994617813
 30
0.0
 40
57.66762038325422
100
AcDbArc
 50
194.2386507427
 51
345.7613492573
  0
LINE
  5
1F1
330
1F
100
AcDbEntity
  8
0
  6
Continuous
 62
     8
370
    25
100
AcDbLine
 10
330.8547860006
 20
427.8338368405
 30
0.0
 11
331.5357578613
 21
427.0277553076
 31
0.0
  0
LWPOLYLINE
  5
1F2
330
1F
100
AcDbEntity
  8
0
  6
Continuous
 62
     8
370
    25
100
AcDbPolyline
 90
        3
 70
   128
 43
0.0
 10
334.8962096228
 20
420.8611785744
 10
334.9267768958
 20
420.7690386051
 10
335.4274937151
 20
418.9683757319
  0
LINE
  5
1F3
330
1F
100
AcDbEntity
  8
0
  6
Continuous
 62
     8
370
    25
100
AcDbLine
 10
335.7447404088
 20
411.7906525214
 30
0.0
 11
335.4637057041
 21
410.2125681317
 31
0.0
  0
LWPOLYLINE
  5
1F4
330
1F
100
AcDbEntity
  8
0
  6
Continuous
 62
     8
370
    25
100
AcDbPolyline
 90
        3
 70
   128
 43
0.0
 10
332.6305431311
 20
403.4973249623
 10
331.9814135145
 20
402.569447302
 10
331.6595178248
 20
402.147722507
  0
LWPOLYLINE
  5
1F5
330
1F
100
AcDbEntity
  8
0
  6
Continuous
 62
     8
370
    25
100
AcDbPolyline
 90
        3
 70
   128
 43
0.0
 10
326.2424802972
 20
397.3562317534
 10
325.8886367765
 20
397.1476787917
 10
324.6726200949
 20
396.5021797041
  0
LINE
  5
1F6
330
1F
100
AcDbEntity
  8
0
  6
Continuous
 62
     8
370
    25
100
AcDbLine
 10
318.0385979889
 20
394.5895564891
 30
0.0
 11
316.0964616163
 21
394.4744046232
 31
0.0
  0
LINE
  5
1F7
330
1F
100
AcDbEntity
  8
0
  6
Continuous
 62
     8
370
    25
100
AcDbLine
 10
309.1395003016
 20
395.6401802003
 30
0.0
 11
307.6260109136
 21
396.2507957496
 31
0.0
  0
LINE
  5
1F8
330
1F
100
AcDbEntity
  8
0
  6
Continuous
 62
     8
370
    25
100
AcDbLine
 10
301.6804351001
 20
400.36644217
 30
0.0
 11
300.9083781864
 21
401.1854796357
 31
0.0
  0
LINE
  5
1F9
330
1F
100
AcDbEntity
  8
0
  6
Continuous
 62
     8
370
    25
100
AcDbLine
 10
300.908378184
 20
401.1854796383
 30
0.0
 11
300.453619052
 21
401.714136919
 31
0.0
  0
LWPOLYLINE
  5
1FA
330
1F
100
AcDbEntity
  8
0
  6
Continuous
 62
     8
370
    25
100
AcDbPolyline
 90
        3
 70
   128
 43
0.0
 10
296.9597766003
 20
407.8870561191
 10
296.8363872851
 20
408.2502778746
 10
296.4907772223
 20
409.4192600509
  0
LINE
  5
1FB
330
1F
100
AcDbEntity
  8
0
  6
Continuous
 62
     8
370
    25
100
AcDbLine
 10
295.94176148
 20
416.5942016221
 30
0.0
 11
296.2410162432
 21
418.5315376324
 31
0.0
  0
LWPOLYLINE
  5
1FC
330
1F
100
AcDbEntity
  8
0
  6
Continuous
 62
     8
370
    25
100
AcDbPolyline
 90
        3
 70
   128
 43
0.0
 10
298.8325755773
 20
425.052091955
 10
299.7817506649
 20
426.4498691834
 10
299.9634947261
 20
426.6908164973
  0
LWPOLYLINE
  5
1FD
330
1F
100
AcDbEntity
  8
0
  6
Continuous
 62
     8
370
    25
100
AcDbPolyline
 90
        3
 70
   128
 43
0.0
 10
305.1595727641
 20
431.4399872642
 10
305.8745274053
 20
431.8716376948
 10
306.8944966513
 20
432.4202186168
  0
LINE
  5
1FE
330
1F
100
AcDbEntity
  8
0
  6
Continuous
 62
     8
370
    25
100
AcDbLine
 10
313.6716372529
 20
434.4239645773
 30
0.0
 11
315.6644527462
 21
434.5448876355
 31
0.0
  0
LWPOLYLINE
  5
1FF
330
1F
100
AcDbEntity
  8
0
  6
Continuous
 62
     8
370
    25
100
AcDbPolyline
 90
        3
 70
   128
 43
0.0
 10
322.6294817073
 20
433.3770590905
 10
324.3035709758
 20
432.6924522685
 10
324.4790737595
 20
432.6102292398
  0
LINE
  5
200
330
1F
100
AcDbEntity
  8
0
  6
Continuous
 62
     8
370
    25
100
AcDbLine
 10
330.2138993719
 20
428.5200963718
 30
0.0
 11
330.8547860006
 21
427.8338368405
 31
0.0
  0
LINE
  5
201
330
1F
100
AcDbEntity
  8
0
  6
Continuous
 62
     8
370
    25
100
AcDbLine
 10
331.3094032009
 20
428.2547384823
 30
0.0
 11
330.6552732298
 21
428.9554811881
 31
0.0
  0
LINE
  5
202
330
1F
100
AcDbEntity
  8
0
  6
Continuous
 62
     8
370
    25
100
AcDbLine
 10
324.7420511357
 20
433.1752315381
 30
0.0
 11
322.8437115848
 21
433.9629219311
 31
0.0
  0
LWPOLYLINE
  5
203
330
1F
100
AcDbEntity
  8
0
  6
Continuous
 62
     8
370
    25
100
AcDbPolyline
 90
        3
 70
   128
 43
0.0
 10
315.6556666244
 20
435.1695266881
 10
314.3750732924
 20
435.1157878609
 10
313.6026474768
 20
435.0447463014
  0
LWPOLYLINE
  5
204
330
1F
100
AcDbEntity
  8
0
  6
Continuous
 62
     8
370
    25
100
AcDbPolyline
 90
        3
 70
   128
 43
0.0
 10
306.6175992725
 20
432.9783514638
 10
306.6055799379
 20
432.9723196206
 10
304.8278912789
 20
431.9664942395
  0
LWPOLYLINE
  5
205
330
1F
100
AcDbEntity
  8
0
  6
Continuous
 62
     8
370
    25
100
AcDbPolyline
 90
        3
 70
   128
 43
0.0
 10
299.4731432365
 20
427.067812402
 10
298.6195520818
 20
425.865807069
 10
298.3096402499
 20
425.3799809639
  0
LWPOLYLINE
  5
206
330
1F
100
AcDbEntity
  8
0
  6
Continuous
 62
     8
370
    25
100
AcDbPolyline
 90
        3
 70
   128
 43
0.0
 10
295.6420027328
 20
418.6568816881
 10
295.5913484399
 20
418.4007476888
 10
295.3350028937
 20
416.6609586212
  0
LWPOLYLINE
  5
207
330
1F
100
AcDbEntity
  8
0
  6
Continuous
 62
     8
370
    25
100
AcDbPolyline
 90
        3
 70
   128
 43
0.0
 10
295.8537448384
 20
409.4683410605
 10
296.3711747765
 20
407.7426946401
 10
296.4397895903
 20
407.5487032311
  0
LINE
  5
208
330
1F
100
AcDbEntity
  8
0
  6
Continuous
 62
     8
370
    25
100
AcDbLine
 10
299.9933161618
 20
401.3322162653
 30
0.0
 11
300.4537609782
 21
400.7972824486
 31
0.0
  0
LINE
  5
209
330
1F
100
AcDbEntity
  8
0
  6
Continuous
 62
     8
370
    25
100
AcDbLine
 10
332.3458564413
 20
429.2110676764
 30
0.0
 11
331.6626597506
 21
429.9436575004
 31
0.0
  0
LINE
  5
20A
330
1F
100
AcDbEntity
  8
0
  6
Continuous
 62
     8
370
    25
100
AcDbLine
 10
325.3471417524
 20
434.4574522576
 30
0.0
 11
323.3188127539
 21
435.3000897761
 31
0.0
  0
LWPOLYLINE
  5
20B
330
1F
100
AcDbEntity
  8
0
  6
Continuous
 62
     8
370
    25
100
AcDbPolyline
 90
        3
 70
   128
 43
0.0
 10
315.6407705354
 20
436.5903999048
 10
314.2738648453
 20
436.5330477904
 10
313.449773694
 20
436.4572587656
  0
LINE
  5
20C
330
1F
100
AcDbEntity
  8
0
  6
Continuous
 62
     8
370
    25
100
AcDbLine
 10
305.9792525047
 20
434.2439930927
 30
0.0
 11
304.0796511175
 21
433.1686078572
 31
0.0
  0
LWPOLYLINE
  5
20D
330
1F
100
AcDbEntity
  8
0
  6
Continuous
 62
     8
370
    25
100
AcDbPolyline
 90
        3
 70
   128
 43
0.0
 10
298.354257994
 20
427.9227448761
 10
297.4598752439
 20
426.6616459696
 10
297.1192988889
 20
426.1272484493
  0
LWPOLYLINE
  5
20E
330
1F
100
AcDbEntity
  8
0
  6
Continuous
 62
     8
370
    25
100
AcDbPolyline
 90
        3
 70
   128
 43
0.0
 10
294.27813557
 20
418.9480312888
 10
294.2282344828
 20
418.6950779907
 10
293.951021474
 20
416.8030860335
  0
LWPOLYLINE
  5
20F
330
1F
100
AcDbEntity
  8
0
  6
Continuous
 62
     8
370
    25
100
AcDbPolyline
 90
        3
 70
   128
 43
0.0
 10
294.512952327
 20
409.1440561308
 10
295.0604501691
 20
407.3210085001
 10
295.141194832
 20
407.0930885601
  0
LINE
  5
210
330
1F
100
AcDbEntity
  8
0
  6
Continuous
 62
     8
370
    25
100
AcDbLine
 10
298.9417867444
 20
400.4608189802
 30
0.0
 11
299.4173077438
 21
399.9089980187
 31
0.0
  0
LINE
  5
211
330
1F
100
AcDbEntity
  8
0
  6
Continuous
 62
     8
370
    25
100
AcDbLine
 10
300.4537609782
 20
400.7972824486
 30
0.0
 11
301.3596631346
 21
399.84348815
 31
0.0
  0
LINE
  5
212
330
1F
100
AcDbEntity
  8
0
  6
Continuous
 62
     8
370
    25
100
AcDbLine
 10
307.2128462922
 20
395.7870061034
 30
0.0
 11
309.0787838956
 21
395.0328311475
 31
0.0
  0
LWPOLYLINE
  5
213
330
1F
100
AcDbEntity
  8
0
  6
Continuous
 62
     8
370
    25
100
AcDbPolyline
 90
        3
 70
   128
 43
0.0
 10
316.1014715314
 20
393.8824292549
 10
317.3880908867
 20
393.93623307
 10
318.1068631126
 20
394.0013937017
  0
LWPOLYLINE
  5
214
330
1F
100
AcDbEntity
  8
0
  6
Continuous
 62
     8
370
    25
100
AcDbPolyline
 90
        3
 70
   128
 43
0.0
 10
324.9435532615
 20
395.9737481931
 10
325.1575842412
 20
396.0797013103
 10
326.7109010097
 20
396.9454977777
  0
LWPOLYLINE
  5
215
330
1F
100
AcDbEntity
  8
0
  6
Continuous
 62
     8
370
    25
100
AcDbPolyline
 90
        3
 70
   128
 43
0.0
 10
332.0464100912
 20
401.6721265306
 10
333.1436120973
 20
403.1862138619
 10
333.225815427
 20
403.3121930169
  0
LWPOLYLINE
  5
216
330
1F
100
AcDbEntity
  8
0
  6
Continuous
 62
     8
370
    25
100
AcDbPolyline
 90
        3
 70
   128
 43
0.0
 10
336.0175953027
 20
409.9172635144
 10
336.1718157392
 20
410.6512732421
 10
336.3704856265
 20
411.895065865
  0
LINE
  5
217
330
1F
100
AcDbEntity
  8
0
  6
Continuous
 62
     8
370
    25
100
AcDbLine
 10
336.0236536898
 20
419.1082397744
 30
0.0
 11
335.4781712707
 21
421.0564901208
 31
0.0
  0
LINE
  5
218
330
1F
100
AcDbEntity
  8
0
  6
Continuous
 62
     8
370
    25
100
AcDbLine
 10
332.0166576992
 20
427.4171764767
 30
0.0
 11
331.3094032009
 21
428.2547384823
 31
0.0
  0
LINE
  5
219
330
1F
100
AcDbEntity
  8
0
  6
Continuous
 62
     8
370
    25
100
AcDbLine
 10
299.4173077464
 20
399.9089980157
 30
0.0
 11
300.3955716467
 21
398.8797725482
 31
0.0
  0
LINE
  5
21A
330
1F
100
AcDbEntity
  8
0
  6
Continuous
 62
     8
370
    25
100
AcDbLine
 10
306.6410194466
 20
394.5572581789
 30
0.0
 11
308.6315696023
 21
393.753871959
 31
0.0
  0
LWPOLYLINE
  5
21B
330
1F
100
AcDbEntity
  8
0
  6
Continuous
 62
     8
370
    25
100
AcDbPolyline
 90
        3
 70
   128
 43
0.0
 10
316.1153393145
 20
392.5295899091
 10
317.4892993404
 20
392.5870179119
 10
318.2503138786
 20
392.6559022876
  0
LWPOLYLINE
  5
21C
330
1F
100
AcDbEntity
  8
0
  6
Continuous
 62
     8
370
    25
100
AcDbPolyline
 90
        3
 70
   128
 43
0.0
 10
325.5487881662
 20
394.7596807212
 10
325.780753407
 20
394.8744860446
 10
327.4204801748
 20
395.7874200395
  0
LWPOLYLINE
  5
21D
330
1F
100
AcDbEntity
  8
0
  6
Continuous
 62
     8
370
    25
100
AcDbPolyline
 90
        3
 70
   128
 43
0.0
 10
333.1212609377
 20
400.828665279
 10
334.3032889352
 20
402.4584197323
 10
334.3786604805
 20
402.5737989408
  0
LWPOLYLINE
  5
21E
330
1F
100
AcDbEntity
  8
0
  6
Continuous
 62
     8
370
    25
100
AcDbPolyline
 90
        3
 70
   128
 43
0.0
 10
337.3631173249
 20
409.6102168663
 10
337.5349296959
 20
410.4249877086
 10
337.7446061442
 20
411.7341961055
  0
LINE
  5
21F
330
1F
100
AcDbEntity
  8
0
  6
Continuous
 62
     8
370
    25
100
AcDbLine
 10
337.3833237275
 20
419.4214316968
 30
0.0
 11
336.8047130301
 21
421.499109564
 31
0.0
  0
LINE
  5
220
330
1F
100
AcDbEntity
  8
0
  6
Continuous
 62
     8
370
    25
100
AcDbLine
 10
333.108959907
 20
428.3068113579
 30
0.0
 11
332.3458564413
 21
429.2110676764
 31
0.0
  0
LINE
  5
221
330
1F
100
AcDbEntity
  8
0
  6
Continuous
 62
     8
370
    25
100
AcDbLine
 10
335.7995265842
 20
432.3128360182
 30
0.0
 11
336.7293086973
 21
431.21062631
 31
0.0
  0
LWPOLYLINE
  5
222
330
1F
100
AcDbEntity
  8
0
  6
Continuous
 62
     8
370
    25
100
AcDbPolyline
 90
        3
 70
   128
 43
0.0
 10
341.1953038328
 20
422.9783474878
 10
341.6404281911
 20
421.4938324426
 10
341.8966025656
 20
420.4567751778
  0
LWPOLYLINE
  5
223
330
1F
100
AcDbEntity
  8
0
  6
Continuous
 62
     8
370
    25
100
AcDbPolyline
 90
        3
 70
   128
 43
0.0
 10
342.3288052419
 20
411.1548229922
 10
342.0015289017
 20
409.2058227399
 10
341.8681004482
 20
408.5954002975
  0
LWPOLYLINE
  5
224
330
1F
100
AcDbEntity
  8
0
  6
Continuous
 62
     8
370
    25
100
AcDbPolyline
 90
        3
 70
   128
 43
0.0
 10
338.2503884431
 20
400.0750583267
 10
336.8060100578
 20
398.0628932057
 10
336.7361311587
 20
397.9749033156
  0
LINE
  5
225
330
1F
100
AcDbEntity
  8
0
  6
Continuous
 62
     8
370
    25
100
AcDbLine
 10
329.8356514093
 20
391.8747303322
 30
0.0
 11
327.570389527
 21
390.6316128982
 31
0.0
  0
LWPOLYLINE
  5
226
330
1F
100
AcDbEntity
  8
0
  6
Continuous
 62
     8
370
    25
100
AcDbPolyline
 90
        3
 70
   128
 43
0.0
 10
318.7482948508
 20
388.0897025122
 10
318.2131855337
 20
388.0373314984
 10
316.168126359
 20
387.9368153161
  0
LWPOLYLINE
  5
227
330
1F
100
AcDbEntity
  8
0
  6
Continuous
 62
     8
370
    25
100
AcDbPolyline
 90
        3
 70
   128
 43
0.0
 10
307.107297654
 20
389.4190745781
 10
306.041777534
 20
389.8157238419
 10
304.7184020216
 20
390.3825204721
  0
LINE
  5
228
330
1F
100
AcDbEntity
  8
0
  6
Continuous
 62
     8
370
    25
100
AcDbLine
 10
297.143932082
 20
395.6221548047
 30
0.0
 11
295.9636375949
 21
396.8641436011
 31
0.0
  0
LINE
  5
229
330
1F
100
AcDbEntity
  8
0
  6
Continuous
 62
     8
370
    25
100
AcDbLine
 10
295.9636375949
 20
396.8641436011
 30
0.0
 11
295.393991374
 21
397.5249725274
 31
0.0
  0
LWPOLYLINE
  5
22A
330
1F
100
AcDbEntity
  8
0
  6
Continuous
 62
     8
370
    25
100
AcDbPolyline
 90
        3
 70
   128
 43
0.0
 10
290.7948994037
 20
405.5431244187
 10
290.122735988
 20
407.6831471768
 10
290.0336441019
 20
408.0240697223
  0
LINE
  5
22B
330
1F
100
AcDbEntity
  8
0
  6
Continuous
 62
     8
370
    25
100
AcDbLine
 10
289.3504143582
 20
417.2992527521
 30
0.0
 11
289.7424112934
 21
419.8771285718
 31
0.0
  0
LINE
  5
22C
330
1F
100
AcDbEntity
  8
0
  6
Continuous
 62
     8
370
    25
100
AcDbLine
 10
293.1820955256
 20
428.5797246564
 30
0.0
 11
294.6684841779
 21
430.7423228271
 31
0.0
  0
LWPOLYLINE
  5
22D
330
1F
100
AcDbEntity
  8
0
  6
Continuous
 62
     8
370
    25
100
AcDbPolyline
 90
        3
 70
   128
 43
0.0
 10
301.59950954
 20
437.0977013507
 10
301.8745836501
 20
437.2696872526
 10
303.897764957
 20
438.399344551
  0
LWPOLYLINE
  5
22E
330
1F
100
AcDbEntity
  8
0
  6
Continuous
 62
     8
370
    25
100
AcDbPolyline
 90
        3
 70
   128
 43
0.0
 10
312.936516624
 20
441.0786939298
 10
313.5499786454
 20
441.139648121
 10
315.5861486322
 20
441.2400673672
  0
LWPOLYLINE
  5
22F
330
1F
100
AcDbEntity
  8
0
  6
Continuous
 62
     8
370
    25
100
AcDbPolyline
 90
        3
 70
   128
 43
0.0
 10
324.8869227888
 20
439.6762631844
 10
325.7213866451
 20
439.3612557775
 10
327.3281069246
 20
438.6619277187
  0
LINE
  5
230
330
1F
100
AcDbEntity
  8
0
  6
Continuous
 62
     8
370
    25
100
AcDbLine
 10
334.9868978955
 20
433.1848670281
 30
0.0
 11
335.7995265842
 21
432.3128360182
 31
0.0
  0
LINE
  5
231
330
1F
100
AcDbEntity
  8
0
  6
Continuous
 62
     8
370
    25
100
AcDbLine
 10
336.0463891782
 20
432.5462589182
 30
0.0
 11
335.2283114869
 21
433.4243532693
 31
0.0
  0
LWPOLYLINE
  5
232
330
1F
100
AcDbEntity
  8
0
  6
Continuous
 62
     8
370
    25
100
AcDbPolyline
 90
        3
 70
   128
 43
0.0
 10
327.4813023647
 20
438.9686584518
 10
325.8433409786
 20
439.6820366474
 10
324.999179075
 20
440.0007172554
  0
LWPOLYLINE
  5
233
330
1F
100
AcDbEntity
  8
0
  6
Continuous
 62
     8
370
    25
100
AcDbPolyline
 90
        3
 70
   128
 43
0.0
 10
315.5882254812
 20
441.5841971124
 10
313.5210807971
 20
441.4824703481
 10
312.895175459
 20
441.4202228065
  0
LWPOLYLINE
  5
234
330
1F
100
AcDbEntity
  8
0
  6
Continuous
 62
     8
370
    25
100
AcDbPolyline
 90
        3
 70
   128
 43
0.0
 10
303.7485051134
 20
438.7078352051
 10
301.7009811956
 20
437.5645452621
 10
301.4141555219
 20
437.3851388969
  0
LWPOLYLINE
  5
235
330
1F
100
AcDbEntity
  8
0
  6
Continuous
 62
     8
370
    25
100
AcDbPolyline
 90
        3
 70
   128
 43
0.0
 10
294.4015905631
 20
430.9510607823
 10
292.8975877463
 20
428.7617400832
 10
292.8937903044
 20
428.7555816577
  0
LINE
  5
236
330
1F
100
AcDbEntity
  8
0
  6
Continuous
 62
     8
370
    25
100
AcDbLine
 10
289.4163472051
 20
419.9460675189
 30
0.0
 11
289.0201875211
 21
417.3328764762
 31
0.0
  0
LWPOLYLINE
  5
237
330
1F
100
AcDbEntity
  8
0
  6
Continuous
 62
     8
370
    25
100
AcDbPolyline
 90
        3
 70
   128
 43
0.0
 10
342.2211682894
 20
420.5337882689
 10
341.9596828
 20
421.5931648326
 10
341.5148523507
 20
423.0785480541
  0
LINE
  5
238
330
1F
100
AcDbEntity
  8
0
  6
Continuous
 62
     8
370
    25
100
AcDbLine
 10
336.9922526453
 20
431.4246775465
 30
0.0
 11
336.0463891814
 21
432.5462589146
 31
0.0
  0
SPLINE
  5
239
330
1F
100
AcDbEntity
  8
0
  6
Continuous
 62
     8
370
    25
100
AcDbSpline
210
0.0
220
0.0
230
1.0
 70
     8
 71
     3
 72
     9
 73
     5
 74
     0
 42
0.000000001
 43
0.00000001
 40
0.0
 40
0.0
 40
0.0
 40
0.0
 40
0.6899468018295614
 40
0.9999999999999999
 40
0.9999999999999999
 40
0.9999999999999999
 40
0.9999999999999999
 10
326.8725083200671
 20
402.0826499933909
 30
0.0
 10
325.7566694976665
 20
403.3193027055294
 30
0.0
 10
324.1393870935135
 20
405.1116912039747
 30
0.0
 10
322.5511196309892
 20
406.8586484453025
 30
0.0
 10
322.0586722246835
 20
407.4002981250432
 30
0.0
  0
SPLINE
  5
23A
330
1F
100
AcDbEntity
  8
0
  6
Continuous
 62
     8
370
    25
100
AcDbSpline
210
0.0
220
0.0
230
1.0
 70
     8
 71
     3
 72
     9
 73
     5
 74
     0
 42
0.000000001
 43
0.00000001
 40
0.0
 40
0.0
 40
0.0
 40
0.0
 40
0.4989960348650341
 40
1.0
 40
1.0
 40
1.0
 40
1.0
 10
310.0950917218589
 20
420.6707104702037
 30
0.0
 10
309.2363959518695
 20
421.6316429349965
 30
0.0
 10
307.5155490713494
 20
423.5573745994829
 30
0.0
 10
305.7667907247474
 20
425.4997323007069
 30
0.0
 10
304.8906558590369
 20
426.4728612107306
 30
0.0
  0
SPLINE
  5
23B
330
1F
100
AcDbEntity
  8
0
  6
Continuous
 62
     8
370
    25
100
AcDbSpline
210
0.0
220
0.0
230
1.0
 70
     8
 71
     3
 72
    12
 73
     8
 74
     0
 42
0.000000001
 43
0.00000001
 40
0.0
 40
0.0
 40
0.0
 40
0.0
 40
0.2255686652577434
 40
0.4659385076256436
 40
0.7174357308348138
 40
0.9689329539799321
 40
1.0
 40
1.0
 40
1.0
 40
1.0
 10
308.2089954762591
 20
416.6237107864874
 30
0.0
 10
308.1746834238155
 20
416.6361771131338
 30
0.0
 10
308.1038078592024
 20
416.6619277714824
 30
0.0
 10
308.0099405227911
 20
416.6978769429046
 30
0.0
 10
307.9366937943862
 20
416.7272988498419
 30
0.0
 10
307.896732661119
 20
416.7443892574255
 30
0.0
 10
307.8923852863128
 20
416.74753180741
 30
0.0
 10
307.8919073062287
 20
416.7478773208228
 30
0.0
  0
SPLINE
  5
23C
330
1F
100
AcDbEntity
  8
0
  6
Continuous
 62
     8
370
    25
100
AcDbSpline
210
0.0
220
0.0
230
1.0
 70
     8
 71
     3
 72
    12
 73
     8
 74
     0
 42
0.000000001
 43
0.00000001
 40
0.0
 40
0.0
 40
0.0
 40
0.0
 40
0.3063213116115612
 40
0.5274327747815793
 40
0.7592244291708988
 40
0.991016083589247
 40
1.0
 40
1.0
 40
1.0
 40
1.0
 10
323.6000702232745
 20
411.0920841746573
 30
0.0
 10
323.7037827927158
 20
411.0553652152304
 30
0.0
 10
323.8823580540723
 20
410.9921414631651
 30
0.0
 10
324.1031006820276
 20
410.9183146808294
 30
0.0
 10
324.2484893985727
 20
410.8727993460762
 30
0.0
 10
324.3261773925337
 20
410.8504204264693
 30
0.0
 10
324.3328063713986
 20
410.8510391857143
 30
0.0
 10
324.3330537145647
 20
410.8510622731118
 30
0.0
  0
SPLINE
  5
23D
330
1F
100
AcDbEntity
  8
0
  6
Continuous
 62
     8
370
    25
100
AcDbSpline
210
0.0
220
0.0
230
1.0
 70
     8
 71
     3
 72
    12
 73
     8
 74
     0
 42
0.000000001
 43
0.00000001
 40
0.0
 40
0.0
 40
0.0
 40
0.0
 40
0.0178684704854128
 40
0.2475820905288925
 40
0.4772957105435978
 40
0.6964248882758662
 40
1.0
 40
1.0
 40
1.0
 40
1.0
 10
307.4293170946639
 20
416.9109477329215
 30
0.0
 10
307.4297851385164
 20
416.910555490814
 30
0.0
 10
307.4362702641213
 20
416.90512065961
 30
0.0
 10
307.5143362175159
 20
416.8715541416948
 30
0.0
 10
307.6601482034365
 20
416.8126843001939
 30
0.0
 10
307.8807757983619
 20
416.7282906572256
 30
0.0
 10
308.0593702443676
 20
416.6634785171413
 30
0.0
 10
308.1630939558297
 20
416.6258370570193
 30
0.0
  0
ARC
  5
23E
330
1F
100
AcDbEntity
  8
0
  6
Continuous
 62
     8
370
    25
100
AcDbCircle
 10
315.884045114
 20
414.2006251348
 30
0.0
 40
39.93600193685769
100
AcDbArc
 50
167.5808027152
 51
358.7067136983
  0
ARC
  5
23F
330
1F
100
AcDbEntity
  8
0
  6
Continuous
 62
     8
370
    25
100
AcDbCircle
 10
315.9291514081
 20
414.1848023641
 30
0.0
 40
39.89055275602075
100
AcDbArc
 50
358.7279722822
 51
13.1709272485
  0
LWPOLYLINE
  5
240
330
1F
100
AcDbEntity
  8
0
  6
Continuous
 62
     8
370
    25
100
AcDbPolyline
 90
        3
 70
   128
 43
0.0
 10
316.218958271
 20
383.9305693028
 10
318.5212205931
 20
384.0424077252
 10
319.1700425578
 20
384.1053493754
  0
LWPOLYLINE
  5
241
330
1F
100
AcDbEntity
  8
0
  6
Continuous
 62
     8
370
    25
100
AcDbPolyline
 90
        3
 70
   128
 43
0.0
 10
329.3360892981
 20
387.0342871707
 10
331.1120933359
 20
387.9735289422
 10
331.921496971
 20
388.4527101214
  0
LWPOLYLINE
  5
242
330
1F
100
AcDbEntity
  8
0
  6
Continuous
 62
     8
370
    25
100
AcDbPolyline
 90
        3
 70
   128
 43
0.0
 10
339.8772233868
 20
395.4837703142
 10
340.8876188584
 20
396.8248676168
 10
341.6039268095
 20
397.8774552623
  0
LWPOLYLINE
  5
243
330
1F
100
AcDbEntity
  8
0
  6
Continuous
 62
     8
370
    25
100
AcDbPolyline
 90
        3
 70
   128
 43
0.0
 10
345.7777116566
 20
407.7000057528
 10
346.0407994729
 20
408.9602612241
 10
346.3038617372
 20
410.6175973283
  0
LWPOLYLINE
  5
244
330
1F
100
AcDbEntity
  8
0
  6
Continuous
 62
     8
370
    25
100
AcDbPolyline
 90
        3
 70
   128
 43
0.0
 10
345.8095957667
 20
421.342349921
 10
345.6190740679
 20
422.1364924418
 10
345.0100266837
 20
424.2213136003
  0
LWPOLYLINE
  5
245
330
1F
100
AcDbEntity
  8
0
  6
Continuous
 62
     8
370
    25
100
AcDbPolyline
 90
        3
 70
   128
 43
0.0
 10
339.8658981984
 20
433.7124293319
 10
339.7003982306
 20
433.9179459885
 10
337.8691743061
 20
435.9758187344
  0
LWPOLYLINE
  5
246
330
1F
100
AcDbEntity
  8
0
  6
Continuous
 62
     8
370
    25
100
AcDbPolyline
 90
        3
 70
   128
 43
0.0
 10
329.0567327362
 20
442.2822024746
 10
326.3207512906
 20
443.4238345379
 10
326.2460122404
 20
443.4507521657
  0
LWPOLYLINE
  5
247
330
1F
100
AcDbEntity
  8
0
  6
Continuous
 62
     8
370
    25
100
AcDbPolyline
 90
        3
 70
   128
 43
0.0
 10
315.5426718679
 20
445.2514167605
 10
313.241943586
 20
445.1395952358
 10
312.49375593
 20
445.065784473
  0
LWPOLYLINE
  5
248
330
1F
100
AcDbEntity
  8
0
  6
Continuous
 62
     8
370
    25
100
AcDbPolyline
 90
        3
 70
   128
 43
0.0
 10
302.0854795113
 20
441.9785015338
 10
300.6510708432
 20
441.2084740189
 10
299.4481597344
 20
440.4839993404
  0
LWPOLYLINE
  5
249
330
1F
100
AcDbEntity
  8
0
  6
Continuous
 62
     8
370
    25
100
AcDbPolyline
 90
        3
 70
   128
 43
0.0
 10
291.4647246961
 20
433.1576111934
 10
290.8755453207
 20
432.3571353443
 10
289.7653398289
 20
430.6828753678
  0
LWPOLYLINE
  5
24A
330
1F
100
AcDbEntity
  8
0
  6
Continuous
 62
     8
370
    25
100
AcDbPolyline
 90
        3
 70
   128
 43
0.0
 10
285.8056359038
 20
420.6502902883
 10
285.7223647062
 20
420.2217417369
 10
285.3594296171
 20
417.7068739748
  0
LINE
  5
24B
330
1F
100
AcDbEntity
  8
0
  6
Continuous
 62
     8
370
    25
100
AcDbLine
 10
286.1517483175
 20
407.0154294091
 30
0.0
 11
287.0210801675
 21
404.1861131939
 31
0.0
  0
LWPOLYLINE
  5
24C
330
1F
100
AcDbEntity
  8
0
  6
Continuous
 62
     8
370
    25
100
AcDbPolyline
 90
        3
 70
   128
 43
0.0
 10
292.3255956525
 20
394.944955473
 10
294.2932768486
 20
392.8036541112
 10
294.3248644717
 20
392.7724384161
  0
LWPOLYLINE
  5
24D
330
1F
100
AcDbEntity
  8
0
  6
Continuous
 62
     8
370
    25
100
AcDbPolyline
 90
        3
 70
   128
 43
0.0
 10
303.0439280537
 20
386.7419233445
 10
305.4424128885
 20
385.7581684232
 10
305.7846686654
 20
385.636687564
  0
ARC
  5
24E
330
1F
100
AcDbEntity
  8
0
  6
Continuous
 62
     8
370
    25
100
AcDbCircle
 10
258.4613335796
 20
490.9333320819
 30
0.0
 40
76.89461006587537
100
AcDbArc
 50
342.8912895779
 51
343.3832674187
  0
ARC
  5
24F
330
1F
100
AcDbEntity
  8
0
  6
Continuous
 62
     8
370
    25
100
AcDbCircle
 10
347.0118664099
 20
488.7314731173
 30
0.0
 40
57.45638695861325
100
AcDbArc
 50
292.0063016113
 51
292.689907402
  0
ARC
  5
250
330
1F
100
AcDbEntity
  8
0
  6
Continuous
 62
     8
370
    25
100
AcDbCircle
 10
373.3018305998
 20
490.933332082
 30
0.0
 40
76.89461006619082
100
AcDbArc
 50
196.6167325813
 51
197.1087104221
  0
ARC
  5
251
330
1F
100
AcDbEntity
  8
0
  6
Continuous
 62
     8
370
    25
100
AcDbCircle
 10
284.7512977745
 20
488.7314731295
 30
0.0
 40
57.45638697180363
100
AcDbArc
 50
247.3100925978
 51
247.9936983884
  0
ENDSEC
  0
SECTION
  2
OBJECTS
  0
DICTIONARY
  5
C
330
0
100
AcDbDictionary
281
     1
  3
ACAD_GROUP
350
D
  3
ACAD_LAYOUT
350
1A
  3
ACAD_MLINESTYLE
350
17
  3
ACAD_PLOTSETTINGS
350
19
  3
ACAD_PLOTSTYLENAME
350
E
  3
ACAD_SCALELIST
350
47
  0
DICTIONARY
  5
D
102
{ACAD_REACTORS
330
C
102
}
330
C
100
AcDbDictionary
281
     1
  0
DICTIONARY
  5
1A
102
{ACAD_REACTORS
330
C
102
}
330
C
100
AcDbDictionary
281
     1
  3
Layout1
350
1E
  3
Layout2
350
26
  3
Model
350
22
  0
DICTIONARY
  5
17
102
{ACAD_REACTORS
330
C
102
}
330
C
100
AcDbDictionary
281
     1
  3
Standard
350
18
  0
DICTIONARY
  5
19
102
{ACAD_REACTORS
330
C
102
}
330
C
100
AcDbDictionary
281
     1
  0
ACDBDICTIONARYWDFLT
  5
E
102
{ACAD_REACTORS
330
C
102
}
330
C
100
AcDbDictionary
281
     1
  3
Normal
350
F
100
AcDbDictionaryWithDefault
340
F
  0
DICTIONARY
  5
47
102
{ACAD_REACTORS
330
C
102
}
330
C
100
AcDbDictionary
281
     1
  3
A0
350
48
  3
A1
350
49
  3
A2
350
4A
  3
A3
350
4B
  3
A4
350
4C
  3
A5
350
4D
  3
A6
350
4E
  3
A7
350
4F
  3
A8
350
50
  3
A9
350
51
  3
B0
350
52
  3
B1
350
53
  3
B2
350
54
  3
B3
350
55
  3
B4
350
56
  3
B5
350
57
  3
B6
350
58
  3
B7
350
59
  3
B8
350
5A
  3
B9
350
5B
  3
C0
350
5C
  3
C1
350
5D
  3
C2
350
5E
  3
C3
350
5F
  3
C4
350
60
  3
C5
350
61
  3
C6
350
62
  3
C7
350
63
  3
C8
350
64
  3
C9
350
65
  3
D0
350
66
  3
D1
350
67
  3
D2
350
68
  0
LAYOUT
  5
1E
102
{ACAD_REACTORS
330
1A
102
}
330
1A
100
AcDbPlotSettings
  1

  2
none_device
  4

  6

 40
0.0
 41
0.0
 42
0.0
 43
0.0
 44
0.0
 45
0.0
 46
0.0
 47
0.0
 48
0.0
 49
0.0
140
0.0
141
0.0
142
1.0
143
1.0
 70
   688
 72
     1
 73
     0
 74
     5
  7

 75
    16
147
1.0
148
0.0
149
0.0
100
AcDbLayout
  1
Layout1
 70
     1
 71
     1
 10
0.0
 20
0.0
 11
420.0
 21
297.0
 12
0.0
 22
0.0
 32
0.0
 14
1.0000000000E+20
 24
1.0000000000E+20
 34
1.0000000000E+20
 15
-1.0000000000E+20
 25
-1.0000000000E+20
 35
-1.0000000000E+20
146
0.0
 13
0.0
 23
0.0
 33
0.0
 16
1.0
 26
0.0
 36
0.0
 17
0.0
 27
1.0
 37
0.0
 76
     0
330
1B
  0
LAYOUT
  5
26
102
{ACAD_REACTORS
330
1A
102
}
330
1A
100
AcDbPlotSettings
  1

  2
none_device
  4

  6

 40
0.0
 41
0.0
 42
0.0
 43
0.0
 44
0.0
 45
0.0
 46
0.0
 47
0.0
 48
0.0
 49
0.0
140
0.0
141
0.0
142
1.0
143
1.0
 70
   688
 72
     1
 73
     0
 74
     5
  7

 75
    16
147
1.0
148
0.0
149
0.0
100
AcDbLayout
  1
Layout2
 70
     1
 71
     2
 10
0.0
 20
0.0
 11
0.0
 21
0.0
 12
0.0
 22
0.0
 32
0.0
 14
0.0
 24
0.0
 34
0.0
 15
0.0
 25
0.0
 35
0.0
146
0.0
 13
0.0
 23
0.0
 33
0.0
 16
1.0
 26
0.0
 36
0.0
 17
0.0
 27
1.0
 37
0.0
 76
     0
330
23
  0
LAYOUT
  5
22
102
{ACAD_REACTORS
330
1A
102
}
330
1A
100
AcDbPlotSettings
  1

  2
none_device
  4
Letter_(8.50_x_11.00_Inches)
  6

 40
6.35
 41
6.35
 42
6.35000508
 43
6.35000508
 44
215.9
 45
279.4
 46
0.0
 47
0.0
 48
0.0
 49
0.0
140
0.0
141
0.0
142
1.0
143
1.0
 70
  1712
 72
     1
 73
     0
 74
     0
  7

 75
     0
147
1.0
148
0.0
149
0.0
100
AcDbLayout
  1
Model
 70
     1
 71
     0
 10
0.0
 20
0.0
 11
650.0
 21
650.0
 12
0.0
 22
0.0
 32
0.0
 14
0.0
 24
0.0
 34
0.0
 15
650.0
 25
650.0
 35
0.0
146
0.0
 13
0.0
 23
0.0
 33
0.0
 16
1.0
 26
0.0
 36
0.0
 17
0.0
 27
1.0
 37
0.0
 76
     0
330
1F
331
29
  0
MLINESTYLE
  5
18
102
{ACAD_REACTORS
330
17
102
}
330
17
100
AcDbMlineStyle
  2
Standard
 70
     0
  3

 62
   256
 51
90.0
 52
90.0
 71
     2
 49
0.5
 62
   256
  6
BYLAYER
 49
-0.5
 62
   256
  6
BYLAYER
  0
ACDBPLACEHOLDER
  5
F
102
{ACAD_REACTORS
330
E
102
}
330
E
  0
SCALE
  5
48
102
{ACAD_REACTORS
330
47
102
}
330
47
100
AcDbScale
 70
     0
300
1:1
140
1.0
141
1.0
290
     1
  0
SCALE
  5
49
102
{ACAD_REACTORS
330
47
102
}
330
47
100
AcDbScale
 70
     0
300
1:2
140
1.0
141
2.0
290
     0
  0
SCALE
  5
4A
102
{ACAD_REACTORS
330
47
102
}
330
47
100
AcDbScale
 70
     0
300
1:4
140
1.0
141
4.0
290
     0
  0
SCALE
  5
4B
102
{ACAD_REACTORS
330
47
102
}
330
47
100
AcDbScale
 70
     0
300
1:5
140
1.0
141
5.0
290
     0
  0
SCALE
  5
4C
102
{ACAD_REACTORS
330
47
102
}
330
47
100
AcDbScale
 70
     0
300
1:8
140
1.0
141
8.0
290
     0
  0
SCALE
  5
4D
102
{ACAD_REACTORS
330
47
102
}
330
47
100
AcDbScale
 70
     0
300
1:10
140
1.0
141
10.0
290
     0
  0
SCALE
  5
4E
102
{ACAD_REACTORS
330
47
102
}
330
47
100
AcDbScale
 70
     0
300
1:16
140
1.0
141
16.0
290
     0
  0
SCALE
  5
4F
102
{ACAD_REACTORS
330
47
102
}
330
47
100
AcDbScale
 70
     0
300
1:20
140
1.0
141
20.0
290
     0
  0
SCALE
  5
50
102
{ACAD_REACTORS
330
47
102
}
330
47
100
AcDbScale
 70
     0
300
1:30
140
1.0
141
30.0
290
     0
  0
SCALE
  5
51
102
{ACAD_REACTORS
330
47
102
}
330
47
100
AcDbScale
 70
     0
300
1:40
140
1.0
141
40.0
290
     0
  0
SCALE
  5
52
102
{ACAD_REACTORS
330
47
102
}
330
47
100
AcDbScale
 70
     0
300
1:50
140
1.0
141
50.0
290
     0
  0
SCALE
  5
53
102
{ACAD_REACTORS
330
47
102
}
330
47
100
AcDbScale
 70
     0
300
1:100
140
1.0
141
100.0
290
     0
  0
SCALE
  5
54
102
{ACAD_REACTORS
330
47
102
}
330
47
100
AcDbScale
 70
     0
300
2:1
140
2.0
141
1.0
290
     0
  0
SCALE
  5
55
102
{ACAD_REACTORS
330
47
102
}
330
47
100
AcDbScale
 70
     0
300
4:1
140
4.0
141
1.0
290
     0
  0
SCALE
  5
56
102
{ACAD_REACTORS
330
47
102
}
330
47
100
AcDbScale
 70
     0
300
8:1
140
8.0
141
1.0
290
     0
  0
SCALE
  5
57
102
{ACAD_REACTORS
330
47
102
}
330
47
100
AcDbScale
 70
     0
300
10:1
140
10.0
141
1.0
290
     0
  0
SCALE
  5
58
102
{ACAD_REACTORS
330
47
102
}
330
47
100
AcDbScale
 70
     0
300
100:1
140
100.0
141
1.0
290
     0
  0
SCALE
  5
59
102
{ACAD_REACTORS
330
47
102
}
330
47
100
AcDbScale
 70
     0
300
1/128" = 1'-0"
140
0.0078125
141
12.0
290
     0
  0
SCALE
  5
5A
102
{ACAD_REACTORS
330
47
102
}
330
47
100
AcDbScale
 70
     0
300
1/64" = 1'-0"
140
0.015625
141
12.0
290
     0
  0
SCALE
  5
5B
102
{ACAD_REACTORS
330
47
102
}
330
47
100
AcDbScale
 70
     0
300
1/32" = 1'-0"
140
0.03125
141
12.0
290
     0
  0
SCALE
  5
5C
102
{ACAD_REACTORS
330
47
102
}
330
47
100
AcDbScale
 70
     0
300
1/16" = 1'-0"
140
0.0625
141
12.0
290
     0
  0
SCALE
  5
5D
102
{ACAD_REACTORS
330
47
102
}
330
47
100
AcDbScale
 70
     0
300
3/32" = 1'-0"
140
0.09375
141
12.0
290
     0
  0
SCALE
  5
5E
102
{ACAD_REACTORS
330
47
102
}
330
47
100
AcDbScale
 70
     0
300
1/8" = 1'-0"
140
0.125
141
12.0
290
     0
  0
SCALE
  5
5F
102
{ACAD_REACTORS
330
47
102
}
330
47
100
AcDbScale
 70
     0
300
3/16" = 1'-0"
140
0.1875
141
12.0
290
     0
  0
SCALE
  5
60
102
{ACAD_REACTORS
330
47
102
}
330
47
100
AcDbScale
 70
     0
300
1/4" = 1'-0"
140
0.25
141
12.0
290
     0
  0
SCALE
  5
61
102
{ACAD_REACTORS
330
47
102
}
330
47
100
AcDbScale
 70
     0
300
3/8" = 1'-0"
140
0.375
141
12.0
290
     0
  0
SCALE
  5
62
102
{ACAD_REACTORS
330
47
102
}
330
47
100
AcDbScale
 70
     0
300
1/2" = 1'-0"
140
0.5
141
12.0
290
     0
  0
SCALE
  5
63
102
{ACAD_REACTORS
330
47
102
}
330
47
100
AcDbScale
 70
     0
300
3/4" = 1'-0"
140
0.75
141
12.0
290
     0
  0
SCALE
  5
64
102
{ACAD_REACTORS
330
47
102
}
330
47
100
AcDbScale
 70
     0
300
1" = 1'-0"
140
1.0
141
12.0
290
     0
  0
SCALE
  5
65
102
{ACAD_REACTORS
330
47
102
}
330
47
100
AcDbScale
 70
     0
300
1-1/2" = 1'-0"
140
1.5
141
12.0
290
     0
  0
SCALE
  5
66
102
{ACAD_REACTORS
330
47
102
}
330
47
100
AcDbScale
 70
     0
300
3" = 1'-0"
140
3.0
141
12.0
290
     0
  0
SCALE
  5
67
102
{ACAD_REACTORS
330
47
102
}
330
47
100
AcDbScale
 70
     0
300
6" = 1'-0"
140
6.0
141
12.0
290
     0
  0
SCALE
  5
68
102
{ACAD_REACTORS
330
47
102
}
330
47
100
AcDbScale
 70
     0
300
1'-0" = 1'-0"
140
12.0
141
12.0
290
     0
  0
ENDSEC
  0
EOF
