  0
SECTION
  2
HEADER
  9
$ACADVER
  1
AC1015
  9
$ACADMAINTVER
 70
     6
  9
$DWGCODEPAGE
  3
ANSI_1252
  9
$INSBASE
 10
0.0
 20
0.0
 30
0.0
  9
$EXTMIN
 10
0.0
 20
0.0
 30
0.0
  9
$EXTMAX
 10
600.0
 20
600.0
 30
0.0
  9
$LIMMIN
 10
0.0
 20
0.0
  9
$LIMMAX
 10
600.0
 20
600.0
  9
$ORTHOMODE
 70
     0
  9
$REGENMODE
 70
     1
  9
$FILLMODE
 70
     1
  9
$QTEXTMODE
 70
     0
  9
$MIRRTEXT
 70
     1
  9
$LTSCALE
 40
1.0
  9
$ATTMODE
 70
     1
  9
$TEXTSIZE
 40
3.5
  9
$TRACEWID
 40
1.0
  9
$TEXTSTYLE
  7
Standard
  9
$CLAYER
  8
0
  9
$CELTYPE
  6
ByLayer
  9
$CECOLOR
 62
   256
  9
$CELTSCALE
 40
1.0
  9
$DISPSILH
 70
     0
  9
$DIMSCALE
 40
1.0
  9
$DIMASZ
 40
3.302
  9
$DIMEXO
 40
1.0
  9
$DIMDLI
 40
3.75
  9
$DIMRND
 40
0.0
  9
$DIMDLE
 40
0.0
  9
$DIMEXE
 40
1.0
  9
$DIMTP
 40
0.0
  9
$DIMTM
 40
0.0
  9
$DIMTXT
 40
3.5
  9
$DIMCEN
 40
2.5
  9
$DIMTSZ
 40
0.0
  9
$DIMTOL
 70
     0
  9
$DIMLIM
 70
     0
  9
$DIMTIH
 70
     1
  9
$DIMTOH
 70
     1
  9
$DIMSE1
 70
     0
  9
$DIMSE2
 70
     0
  9
$DIMTAD
 70
     1
  9
$DIMZIN
 70
     1
  9
$DIMBLK
  1

  9
$DIMASO
 70
     1
  9
$DIMSHO
 70
     1
  9
$DIMPOST
  1

  9
$DIMAPOST
  1

  9
$DIMALT
 70
     0
  9
$DIMALTD
 70
     3
  9
$DIMALTF
 40
0.0393700787
  9
$DIMLFAC
 40
1.0
  9
$DIMTOFL
 70
     1
  9
$DIMTVP
 40
0.0
  9
$DIMTIX
 70
     0
  9
$DIMSOXD
 70
     0
  9
$DIMSAH
 70
     0
  9
$DIMBLK1
  1

  9
$DIMBLK2
  1

  9
$DIMSTYLE
  2
ISO-25
  9
$DIMCLRD
 70
     0
  9
$DIMCLRE
 70
     0
  9
$DIMCLRT
 70
     0
  9
$DIMTFAC
 40
1.0
  9
$DIMGAP
 40
1.524
  9
$DIMJUST
 70
     0
  9
$DIMSD1
 70
     0
  9
$DIMSD2
 70
     0
  9
$DIMTOLJ
 70
     0
  9
$DIMTZIN
 70
     1
  9
$DIMALTZ
 70
     0
  9
$DIMALTTZ
 70
     0
  9
$DIMUPT
 70
     0
  9
$DIMDEC
 70
     2
  9
$DIMTDEC
 70
     2
  9
$DIMALTU
 70
     2
  9
$DIMALTTD
 70
     3
  9
$DIMTXSTY
  7
Standard
  9
$DIMAUNIT
 70
     0
  9
$DIMADEC
 70
     2
  9
$DIMALTRND
 40
0.0
  9
$DIMAZIN
 70
     0
  9
$DIMDSEP
 70
    44
  9
$DIMATFIT
 70
     3
  9
$DIMFRAC
 70
     0
  9
$DIMLDRBLK
  1

  9
$DIMLUNIT
 70
     2
  9
$DIMLWD
 70
    -2
  9
$DIMLWE
 70
    -2
  9
$DIMTMOVE
 70
     0
  9
$LUNITS
 70
     2
  9
$LUPREC
 70
     2
  9
$SKETCHINC
 40
1.0
  9
$FILLETRAD
 40
10.0
  9
$AUNITS
 70
     0
  9
$AUPREC
 70
     2
  9
$MENU
  1
.
  9
$ELEVATION
 40
0.0
  9
$PELEVATION
 40
0.0
  9
$THICKNESS
 40
0.0
  9
$LIMCHECK
 70
     0
  9
$CHAMFERA
 40
0.0
  9
$CHAMFERB
 40
0.0
  9
$CHAMFERC
 40
0.0
  9
$CHAMFERD
 40
0.0
  9
$SKPOLY
 70
     0
  9
$TDCREATE
 40
2459704.588862975
  9
$TDUCREATE
 40
2459704.463862975
  9
$TDUPDATE
 40
2459704.58886316
  9
$TDUUPDATE
 40
2459704.46386316
  9
$TDINDWG
 40
0.0000000116
  9
$TDUSRTIMER
 40
0.0000000116
  9
$USRTIMER
 70
     1
  9
$ANGBASE
 50
0.0
  9
$ANGDIR
 70
     0
  9
$PDMODE
 70
     0
  9
$PDSIZE
 40
-1.0
  9
$PLINEWID
 40
0.0
  9
$SPLFRAME
 70
     0
  9
$SPLINETYPE
 70
     6
  9
$SPLINESEGS
 70
     8
  9
$HANDSEED
  5
C1
  9
$SURFTAB1
 70
     6
  9
$SURFTAB2
 70
     6
  9
$SURFTYPE
 70
     6
  9
$SURFU
 70
     6
  9
$SURFV
 70
     6
  9
$UCSBASE
  2

  9
$UCSNAME
  2

  9
$UCSORG
 10
0.0
 20
0.0
 30
0.0
  9
$UCSXDIR
 10
1.0
 20
0.0
 30
0.0
  9
$UCSYDIR
 10
0.0
 20
1.0
 30
0.0
  9
$UCSORTHOREF
  2

  9
$UCSORTHOVIEW
 70
     0
  9
$UCSORGTOP
 10
0.0
 20
0.0
 30
0.0
  9
$UCSORGBOTTOM
 10
0.0
 20
0.0
 30
0.0
  9
$UCSORGLEFT
 10
0.0
 20
0.0
 30
0.0
  9
$UCSORGRIGHT
 10
0.0
 20
0.0
 30
0.0
  9
$UCSORGFRONT
 10
0.0
 20
0.0
 30
0.0
  9
$UCSORGBACK
 10
0.0
 20
0.0
 30
0.0
  9
$PUCSBASE
  2

  9
$PUCSNAME
  2

  9
$PUCSORG
 10
0.0
 20
0.0
 30
0.0
  9
$PUCSXDIR
 10
1.0
 20
0.0
 30
0.0
  9
$PUCSYDIR
 10
0.0
 20
1.0
 30
0.0
  9
$PUCSORTHOREF
  2

  9
$PUCSORTHOVIEW
 70
     0
  9
$PUCSORGTOP
 10
0.0
 20
0.0
 30
0.0
  9
$PUCSORGBOTTOM
 10
0.0
 20
0.0
 30
0.0
  9
$PUCSORGLEFT
 10
0.0
 20
0.0
 30
0.0
  9
$PUCSORGRIGHT
 10
0.0
 20
0.0
 30
0.0
  9
$PUCSORGFRONT
 10
0.0
 20
0.0
 30
0.0
  9
$PUCSORGBACK
 10
0.0
 20
0.0
 30
0.0
  9
$USERI1
 70
     0
  9
$USERI2
 70
     0
  9
$USERI3
 70
     0
  9
$USERI4
 70
     0
  9
$USERI5
 70
     0
  9
$USERR1
 40
0.0
  9
$USERR2
 40
0.0
  9
$USERR3
 40
0.0
  9
$USERR4
 40
0.0
  9
$USERR5
 40
0.0
  9
$WORLDVIEW
 70
     1
  9
$SHADEDGE
 70
     3
  9
$SHADEDIF
 70
    70
  9
$TILEMODE
 70
     1
  9
$MAXACTVP
 70
    64
  9
$PINSBASE
 10
0.0
 20
0.0
 30
0.0
  9
$PLIMCHECK
 70
     0
  9
$PEXTMIN
 10
1.0000000000E+20
 20
1.0000000000E+20
 30
1.0000000000E+20
  9
$PEXTMAX
 10
-1.0000000000E+20
 20
-1.0000000000E+20
 30
-1.0000000000E+20
  9
$PLIMMIN
 10
0.0
 20
0.0
  9
$PLIMMAX
 10
420.0
 20
297.0
  9
$UNITMODE
 70
     0
  9
$VISRETAIN
 70
     1
  9
$PLINEGEN
 70
     0
  9
$PSLTSCALE
 70
     1
  9
$TREEDEPTH
 70
  3020
  9
$CMLSTYLE
  2
Standard
  9
$CMLJUST
 70
     0
  9
$CMLSCALE
 40
20.0
  9
$PROXYGRAPHICS
 70
     1
  9
$MEASUREMENT
 70
     1
  9
$CELWEIGHT
370
    -1
  9
$ENDCAPS
280
     0
  9
$JOINSTYLE
280
     0
  9
$LWDISPLAY
290
     1
  9
$INSUNITS
 70
     4
  9
$HYPERLINKBASE
  1

  9
$STYLESHEET
  1

  9
$XEDIT
290
     1
  9
$CEPSNTYPE
380
     0
  9
$PSTYLEMODE
290
     1
  9
$FINGERPRINTGUID
  2
{da53713e-964d-4727-ac94-7190d8e93aff}
  9
$VERSIONGUID
  2
{FAEB1C32-E019-11D5-929B-00C0DF256EC4}
  9
$EXTNAMES
290
     1
  9
$PSVPSCALE
 40
0.0
  9
$OLESTARTUP
290
     0
  0
ENDSEC
  0
SECTION
  2
CLASSES
  0
CLASS
  1
ACDBDICTIONARYWDFLT
  2
AcDbDictionaryWithDefault
  3
ObjectDBX Classes
 90
        0
280
     0
281
     0
  0
CLASS
  1
VISUALSTYLE
  2
AcDbVisualStyle
  3
ObjectDBX Classes
 90
     4095
280
     0
281
     0
  0
CLASS
  1
MATERIAL
  2
AcDbMaterial
  3
ObjectDBX Classes
 90
     1153
280
     0
281
     0
  0
CLASS
  1
SCALE
  2
AcDbScale
  3
ObjectDBX Classes
 90
     1153
280
     0
281
     0
  0
CLASS
  1
TABLESTYLE
  2
AcDbTableStyle
  3
ObjectDBX Classes
 90
     4095
280
     0
281
     0
  0
CLASS
  1
MLEADERSTYLE
  2
AcDbMLeaderStyle
  3
ACDB_MLEADERSTYLE_CLASS
 90
     4095
280
     0
281
     0
  0
CLASS
  1
SUN
  2
AcDbSun
  3
SCENEOE
 90
     1153
280
     0
281
     0
  0
CLASS
  1
ACDBPLACEHOLDER
  2
AcDbPlaceHolder
  3
ObjectDBX Classes
 90
        0
280
     0
281
     0
  0
CLASS
  1
LAYOUT
  2
AcDbLayout
  3
ObjectDBX Classes
 90
        0
280
     0
281
     0
  0
ENDSEC
  0
SECTION
  2
TABLES
  0
TABLE
  2
VPORT
  5
8
330
0
100
AcDbSymbolTable
 70
     1
  0
VPORT
  5
29
330
8
100
AcDbSymbolTableRecord
100
AcDbViewportTableRecord
  2
*Active
 70
     0
 10
0.0
 20
0.0
 11
1.0
 21
1.0
 12
300.0
 22
300.0
 13
0.0
 23
0.0
 14
10.0
 24
10.0
 15
10.0
 25
10.0
 16
0.0
 26
0.0
 36
1.0
 17
0.0
 27
0.0
 37
0.0
 40
600.0
 41
1.0
 42
50.0
 43
0.0
 44
0.0
 50
0.0
 51
0.0
 71
     0
 72
  2000
 73
     1
 74
     3
 75
     0
 76
     0
 77
     0
 78
     0
281
     0
 65
     1
110
0.0
120
0.0
130
0.0
111
1.0
121
0.0
131
0.0
112
0.0
122
1.0
132
0.0
 79
     0
146
0.0
  0
ENDTAB
  0
TABLE
  2
LTYPE
  5
5
330
0
100
AcDbSymbolTable
 70
     6
  0
LTYPE
  5
14
330
5
100
AcDbSymbolTableRecord
100
AcDbLinetypeTableRecord
  2
ByBlock
 70
     0
  3

 72
    65
 73
     0
 40
0.0
  0
LTYPE
  5
15
330
5
100
AcDbSymbolTableRecord
100
AcDbLinetypeTableRecord
  2
ByLayer
 70
     0
  3

 72
    65
 73
     0
 40
0.0
  0
LTYPE
  5
16
330
5
100
AcDbSymbolTableRecord
100
AcDbLinetypeTableRecord
  2
Continuous
 70
     0
  3
Solid line
 72
    65
 73
     0
 40
0.0
  0
LTYPE
  5
6E
330
5
100
AcDbSymbolTableRecord
100
AcDbLinetypeTableRecord
  2
HIDDEN
 70
     0
  3
Hidden __ __ __ __ __ __ __ __ __ __ __ __ __ __
 72
    65
 73
     2
 40
1.905
 49
1.27
 74
     0
 49
-0.635
 74
     0
  0
LTYPE
  5
6F
330
5
100
AcDbSymbolTableRecord
100
AcDbLinetypeTableRecord
  2
PHANTOM
 70
     0
  3
Phantom ______  __  __  ______  __  __  ______
 72
    65
 73
     6
 40
12.7
 49
6.35
 74
     0
 49
-1.27
 74
     0
 49
1.27
 74
     0
 49
-1.27
 74
     0
 49
1.27
 74
     0
 49
-1.27
 74
     0
  0
LTYPE
  5
70
330
5
100
AcDbSymbolTableRecord
100
AcDbLinetypeTableRecord
  2
CENTER
 70
     0
  3
Center ____ _ ____ _ ____ _ ____ _ ____ _ ____
 72
    65
 73
     4
 40
10.16
 49
6.35
 74
     0
 49
-1.27
 74
     0
 49
1.27
 74
     0
 49
-1.27
 74
     0
  0
LTYPE
  5
71
330
5
100
AcDbSymbolTableRecord
100
AcDbLinetypeTableRecord
  2
CENTERX2
 70
     0
  3
Center (2x) ________  __  ________  __  _____
 72
    65
 73
     4
 40
20.32
 49
12.7
 74
     0
 49
-2.54
 74
     0
 49
2.54
 74
     0
 49
-2.54
 74
     0
  0
LTYPE
  5
72
330
5
100
AcDbSymbolTableRecord
100
AcDbLinetypeTableRecord
  2
DOT2
 70
     0
  3
Dot (.5x) ........................................
 72
    65
 73
     2
 40
0.635
 49
0.0
 74
     0
 49
-0.635
 74
     0
  0
ENDTAB
  0
TABLE
  2
LAYER
  5
2
330
0
100
AcDbSymbolTable
 70
     2
  0
LAYER
  5
10
330
2
100
AcDbSymbolTableRecord
100
AcDbLayerTableRecord
  2
0
 70
     0
 62
     7
  6
Continuous
370
    -3
390
F
  0
LAYER
  5
73
330
2
100
AcDbSymbolTableRecord
100
AcDbLayerTableRecord
  2
TABLE_BL1
 70
     0
 62
   179
  6
Continuous
370
    -3
390
F
  0
ENDTAB
  0
TABLE
  2
STYLE
  5
3
330
0
100
AcDbSymbolTable
 70
     1
  0
STYLE
  5
11
330
3
100
AcDbSymbolTableRecord
100
AcDbTextStyleTableRecord
  2
Standard
 70
     0
 40
0.0
 41
1.0
 50
0.0
 71
     0
 42
3.5
  3
txt
  4

  0
ENDTAB
  0
TABLE
  2
VIEW
  5
6
330
0
100
AcDbSymbolTable
 70
     0
  0
ENDTAB
  0
TABLE
  2
UCS
  5
7
330
0
100
AcDbSymbolTable
 70
     0
  0
ENDTAB
  0
TABLE
  2
APPID
  5
9
330
0
100
AcDbSymbolTable
 70
     1
  0
APPID
  5
12
330
9
100
AcDbSymbolTableRecord
100
AcDbRegAppTableRecord
  2
ACAD
 70
     0
  0
ENDTAB
  0
TABLE
  2
DIMSTYLE
  5
A
330
0
100
AcDbSymbolTable
 70
     1
100
AcDbDimStyleTable
  0
DIMSTYLE
105
27
330
A
100
AcDbSymbolTableRecord
100
AcDbDimStyleTableRecord
  2
ISO-25
 70
     0
 41
2.5
 42
0.625
 43
3.75
 44
1.25
 73
     0
 74
     0
 77
     1
 78
     8
140
2.5
141
2.5
143
0.0393700787
147
0.625
171
     3
172
     1
178
     0
271
     2
272
     2
274
     3
278
    44
283
     0
284
     8
340
11
  0
ENDTAB
  0
TABLE
  2
BLOCK_RECORD
  5
1
330
0
100
AcDbSymbolTable
 70
     1
  0
BLOCK_RECORD
  5
1F
330
1
100
AcDbSymbolTableRecord
100
AcDbBlockTableRecord
  2
*Model_Space
340
22
  0
BLOCK_RECORD
  5
1B
330
1
100
AcDbSymbolTableRecord
100
AcDbBlockTableRecord
  2
*Paper_Space
340
1E
  0
BLOCK_RECORD
  5
23
330
1
100
AcDbSymbolTableRecord
100
AcDbBlockTableRecord
  2
*Paper_Space0
340
26
  0
ENDTAB
  0
ENDSEC
  0
SECTION
  2
BLOCKS
  0
BLOCK
  5
20
330
1F
100
AcDbEntity
  8
0
100
AcDbBlockBegin
  2
*Model_Space
 70
     0
 10
0.0
 20
0.0
 30
0.0
  3
*Model_Space
  1

  0
ENDBLK
  5
21
330
1F
100
AcDbEntity
  8
0
100
AcDbBlockEnd
  0
BLOCK
  5
1C
330
1B
100
AcDbEntity
 67
     1
  8
0
100
AcDbBlockBegin
  2
*Paper_Space
 70
     0
 10
0.0
 20
0.0
 30
0.0
  3
*Paper_Space
  1

  0
ENDBLK
  5
1D
330
1B
100
AcDbEntity
 67
     1
  8
0
100
AcDbBlockEnd
  0
BLOCK
  5
24
330
23
100
AcDbEntity
  8
0
100
AcDbBlockBegin
  2
*Paper_Space0
 70
     0
 10
0.0
 20
0.0
 30
0.0
  3
*Paper_Space0
  1

  0
ENDBLK
  5
25
330
23
100
AcDbEntity
  8
0
100
AcDbBlockEnd
  0
ENDSEC
  0
SECTION
  2
ENTITIES
  0
SPLINE
  5
74
330
1F
100
AcDbEntity
  8
0
  6
Continuous
 62
     7
370
    25
100
AcDbSpline
210
0.0
220
0.0
230
1.0
 70
     8
 71
     3
 72
    29
 73
    25
 74
     0
 42
0.00000001
 43
0.00000001
 40
0.0
 40
0.0
 40
0.0
 40
0.0
 40
0.0349321406882634
 40
0.0633980643159912
 40
0.0838985515737895
 40
0.1410481598295768
 40
0.1993926718331194
 40
0.2579538570990188
 40
0.316735887686743
 40
0.3756685440136573
 40
0.4347110736298804
 40
0.4938368192040539
 40
0.5530116495173845
 40
0.6120983013386025
 40
0.6710428299972757
 40
0.7298261731686603
 40
0.7884258360426927
 40
0.8467958145206173
 40
0.8655669647427028
 40
0.8834823951604177
 40
0.9012873219477365
 40
0.9267778521638325
 40
0.9604934909203239
 40
1.0
 40
1.0
 40
1.0
 40
1.0
 10
318.1634964523257
 20
401.9831418819666
 30
0.0
 10
317.272821400522
 20
403.0141048225313
 30
0.0
 10
315.6563423326397
 20
404.8851912640012
 30
0.0
 10
313.213559087586
 20
407.0687278239106
 30
0.0
 10
309.945045931245
 20
409.6021219542402
 30
0.0
 10
305.3612272334847
 20
412.3246605988452
 30
0.0
 10
298.9678525949332
 20
414.69404989853
 30
0.0
 10
292.1840571265881
 20
415.8666616925026
 30
0.0
 10
285.2774287766359
 20
415.7754827937356
 30
0.0
 10
278.486538079167
 20
414.4119583786114
 30
0.0
 10
272.0506933556828
 20
411.8151077596728
 30
0.0
 10
266.1967519966509
 20
408.0696330203344
 30
0.0
 10
261.1345296140814
 20
403.3055845026522
 30
0.0
 10
257.0438693664173
 20
397.6941197786358
 30
0.0
 10
254.0646991846361
 20
391.4387279992454
 30
0.0
 10
252.2919389200226
 20
384.7603593805296
 30
0.0
 10
251.7751754964084
 20
377.8943576070307
 30
0.0
 10
252.3532860876936
 20
372.6037204007432
 30
0.0
 10
253.1976549189749
 20
368.996207483737
 30
0.0
 10
253.800047044042
 20
366.9590998462142
 30
0.0
 10
254.6030483930891
 20
364.7119316135943
 30
0.0
 10
255.8079441467897
 20
361.961753212868
 30
0.0
 10
257.6500289211555
 20
358.5720094593141
 30
0.0
 10
259.3696231607194
 20
356.2909124169095
 30
0.0
 10
260.2974184719236
 20
355.0601621086965
 30
0.0
  0
SPLINE
  5
75
330
1F
100
AcDbEntity
  8
0
  6
Continuous
 62
     7
370
    25
100
AcDbSpline
210
0.0
220
0.0
230
1.0
 70
     8
 71
     3
 72
    29
 73
    25
 74
     0
 42
0.00000001
 43
0.00000001
 40
0.0
 40
0.0
 40
0.0
 40
0.0
 40
0.0349321406882636
 40
0.0633980643159913
 40
0.0838985515737895
 40
0.1410481598295769
 40
0.1993926718331193
 40
0.2579538570990189
 40
0.316735887686743
 40
0.3756685440136573
 40
0.4347110736298804
 40
0.4938368192040539
 40
0.5530116495173845
 40
0.6120983013386024
 40
0.6710428299972759
 40
0.7298261731686603
 40
0.788425836042693
 40
0.8467958145206171
 40
0.8655669647427027
 40
0.8834823951604176
 40
0.9012873219477363
 40
0.9267778521638322
 40
0.9604934909203235
 40
1.0
 40
1.0
 40
1.0
 40
1.0
 10
260.2974184719236
 20
355.0601621086965
 30
0.0
 10
261.1880935237273
 20
354.0291991681318
 30
0.0
 10
262.8045725916095
 20
352.158112726662
 30
0.0
 10
265.2473558366634
 20
349.9745761667525
 30
0.0
 10
268.5158689930043
 20
347.441182036423
 30
0.0
 10
273.0996876907646
 20
344.7186433918178
 30
0.0
 10
279.4930623293162
 20
342.3492540921332
 30
0.0
 10
286.2768577976613
 20
341.1766422981605
 30
0.0
 10
293.1834861476135
 20
341.2678211969275
 30
0.0
 10
299.9743768450824
 20
342.6313456120517
 30
0.0
 10
306.4102215685666
 20
345.2281962309904
 30
0.0
 10
312.2641629275985
 20
348.9736709703287
 30
0.0
 10
317.326385310168
 20
353.7377194880108
 30
0.0
 10
321.4170455578321
 20
359.3491842120275
 30
0.0
 10
324.3962157396133
 20
365.6045759914176
 30
0.0
 10
326.1689760042269
 20
372.2829446101336
 30
0.0
 10
326.685739427841
 20
379.1489463836323
 30
0.0
 10
326.1076288365557
 20
384.4395835899199
 30
0.0
 10
325.2632600052745
 20
388.0470965069262
 30
0.0
 10
324.6608678802074
 20
390.0842041444489
 30
0.0
 10
323.8578665311603
 20
392.3313723770688
 30
0.0
 10
322.6529707774597
 20
395.081550777795
 30
0.0
 10
320.8108860030939
 20
398.471294531349
 30
0.0
 10
319.0912917635299
 20
400.7523915737536
 30
0.0
 10
318.1634964523257
 20
401.9831418819666
 30
0.0
  0
SPLINE
  5
76
330
1F
100
AcDbEntity
  8
0
  6
Continuous
 62
     7
370
    25
100
AcDbSpline
210
0.0
220
0.0
230
1.0
 70
     8
 71
     3
 72
    35
 73
    31
 74
     0
 42
0.00000001
 43
0.00000001
 40
0.0
 40
0.0
 40
0.0
 40
0.0
 40
0.0282546077220526
 40
0.058383442663794
 40
0.0903495399278273
 40
0.1258616479012821
 40
0.164010475049188
 40
0.2048405213069455
 40
0.2374624815847439
 40
0.2716127104071187
 40
0.3071914351681353
 40
0.3440550017625771
 40
0.3820151215667331
 40
0.4208413631481727
 40
0.4602672732901845
 40
0.5000000044809543
 40
0.5397327356717239
 40
0.579158645813736
 40
0.6179848873951755
 40
0.6559450071993315
 40
0.6928085737937731
 40
0.7283872985547899
 40
0.7625375273771647
 40
0.7951594876549631
 40
0.8359928376182009
 40
0.8741415922595376
 40
0.9096504660940495
 40
0.9416198397637136
 40
0.9717470283705446
 40
1.0
 40
1.0
 40
1.0
 40
1.0
 10
250.843309644576
 20
356.5057351138695
 30
0.0
 10
251.5237995815563
 20
355.3869437201601
 30
0.0
 10
252.929918739529
 20
353.0751475759723
 30
0.0
 10
255.5074294056629
 20
349.7667973725573
 30
0.0
 10
258.6029525119367
 20
346.4638069570589
 30
0.0
 10
262.3208257431039
 20
343.2672547940522
 30
0.0
 10
266.7227305852693
 20
340.2885478537207
 30
0.0
 10
271.3429304047098
 20
337.9377571049938
 30
0.0
 10
276.0230214369834
 20
336.2010901086953
 30
0.0
 10
280.6245274083747
 20
335.0238409451738
 30
0.0
 10
285.5226678352531
 20
334.3289240387132
 30
0.0
 10
290.6456290467324
 20
334.1898306541871
 30
0.0
 10
295.9003867339975
 20
334.6661286757213
 30
0.0
 10
301.1765510071282
 20
335.7963207447648
 30
0.0
 10
306.35247172974
 20
337.59206735276
 30
0.0
 10
311.3036334971086
 20
340.0346666103811
 30
0.0
 10
315.9121246678284
 20
343.0747493564011
 30
0.0
 10
320.0757909213081
 20
346.6354718328405
 30
0.0
 10
323.7156132336644
 20
350.6188042354569
 30
0.0
 10
326.7802263818789
 20
354.9138577360744
 30
0.0
 10
329.2471194632814
 20
359.4059081146415
 30
0.0
 10
331.1207336138156
 20
363.9845826376545
 30
0.0
 10
332.4282358802589
 20
368.5507854067056
 30
0.0
 10
333.2926002380637
 20
373.4674586283156
 30
0.0
 10
333.5965783189402
 20
378.6425557125123
 30
0.0
 10
333.2483660864955
 20
383.9461599569397
 30
0.0
 10
332.3666741949047
 20
388.769343509034
 30
0.0
 10
331.078933283885
 20
393.109054157484
 30
0.0
 10
329.5248541564845
 20
397.0043801003918
 30
0.0
 10
328.2396011286796
 20
399.3853182295938
 30
0.0
 10
327.6176052796742
 20
400.5375688767926
 30
0.0
  0
SPLINE
  5
77
330
1F
100
AcDbEntity
  8
0
  6
Continuous
 62
     7
370
    25
100
AcDbSpline
210
0.0
220
0.0
230
1.0
 70
     8
 71
     3
 72
    35
 73
    31
 74
     0
 42
0.00000001
 43
0.00000001
 40
0.0
 40
0.0
 40
0.0
 40
0.0
 40
0.0282546077224729
 40
0.058383442663616
 40
0.090349539927829
 40
0.1258616479030815
 40
0.1640104750499176
 40
0.2048405213069399
 40
0.2374624815847385
 40
0.2716127104071134
 40
0.3071914351681301
 40
0.344055001762572
 40
0.3820151215667282
 40
0.4208413631481679
 40
0.46026727329018
 40
0.50000000448095
 40
0.5397327356717199
 40
0.5791586458137319
 40
0.6179848873951717
 40
0.6559450071993278
 40
0.6928085737937697
 40
0.7283872985547865
 40
0.7625375273771614
 40
0.7951594876549599
 40
0.835992837618258
 40
0.8741415922594716
 40
0.9096504660940464
 40
0.941619839764785
 40
0.9717470283710186
 40
1.0
 40
1.0
 40
1.0
 40
1.0
 10
327.6176052796742
 20
400.5375688767926
 30
0.0
 10
326.9371153426864
 20
401.6563602705207
 30
0.0
 10
325.5309961847237
 20
403.9681564147054
 30
0.0
 10
322.9534855185645
 20
407.2765066181006
 30
0.0
 10
319.8579624122651
 20
410.5794970336606
 30
0.0
 10
316.1400891810591
 20
413.7760491966922
 30
0.0
 10
311.738184338864
 20
416.7547561369756
 30
0.0
 10
307.1179845195105
 20
419.1055468856853
 30
0.0
 10
302.4378934872656
 20
420.8422138819661
 30
0.0
 10
297.8363875158751
 20
422.019463045489
 30
0.0
 10
292.9382470889964
 20
422.7143799519492
 30
0.0
 10
287.8152858775172
 20
422.8534733364755
 30
0.0
 10
282.5605281902521
 20
422.3771753149412
 30
0.0
 10
277.2843639171213
 20
421.2469832458977
 30
0.0
 10
272.1084431945095
 20
419.4512366379025
 30
0.0
 10
267.1572814271409
 20
417.0086373802814
 30
0.0
 10
262.5487902564212
 20
413.9685546342613
 30
0.0
 10
258.3851240029414
 20
410.4078321578221
 30
0.0
 10
254.7453016905852
 20
406.4244997552057
 30
0.0
 10
251.6806885423706
 20
402.1294462545881
 30
0.0
 10
249.2137954609681
 20
397.6373958760211
 30
0.0
 10
247.340181310434
 20
393.0587213530081
 30
0.0
 10
246.0326790439904
 20
388.492518583957
 30
0.0
 10
245.1683146861866
 20
383.5758453623441
 30
0.0
 10
244.8643366053042
 20
378.4007482781504
 30
0.0
 10
245.2125488377599
 20
373.0971440337237
 30
0.0
 10
246.0942407293535
 20
368.2739604815828
 30
0.0
 10
247.3819816403811
 20
363.9342498331075
 30
0.0
 10
248.9360607678071
 20
360.0389238902108
 30
0.0
 10
250.2213137955834
 20
357.6579857610501
 30
0.0
 10
250.843309644576
 20
356.5057351138695
 30
0.0
  0
ARC
  5
78
330
1F
100
AcDbEntity
  8
0
  6
Continuous
 62
     7
370
    25
100
AcDbCircle
 10
289.2304574621
 20
378.5216519953
 30
0.0
 40
40.35476230894862
100
AcDbArc
 50
29.8352679454
 51
209.8352679454
  0
ARC
  5
79
330
1F
100
AcDbEntity
  8
0
  6
Continuous
 62
     7
370
    25
100
AcDbCircle
 10
289.2304574621
 20
378.5216519953
 30
0.0
 40
40.35476230894862
100
AcDbArc
 50
209.8352679454
 51
29.8352679454
  0
CIRCLE
  5
7A
330
1F
100
AcDbEntity
  8
0
  6
Continuous
 62
     7
370
    25
100
AcDbCircle
 10
289.2304574621
 20
378.5216519953
 30
0.0
 40
39.938123331
  0
ARC
  5
7B
330
1F
100
AcDbEntity
  8
0
  6
Continuous
 62
     7
370
    25
100
AcDbCircle
 10
289.2304574621
 20
378.5216519953
 30
0.0
 40
36.31056399417658
100
AcDbArc
 50
39.0382239054
 51
219.0382239222
  0
ARC
  5
7C
330
1F
100
AcDbEntity
  8
0
  6
Continuous
 62
     7
370
    25
100
AcDbCircle
 10
289.2304574621
 20
378.5216519953
 30
0.0
 40
36.31056399417658
100
AcDbArc
 50
219.0382239222
 51
39.0382239054
  0
ARC
  5
7D
330
1F
100
AcDbEntity
  8
0
  6
Continuous
 62
     7
370
    25
100
AcDbCircle
 10
289.2304574621
 20
378.5216519953
 30
0.0
 40
38.29899805699997
100
AcDbArc
 50
253.1162398663
 51
73.1162398663
  0
ARC
  5
7E
330
1F
100
AcDbEntity
  8
0
  6
Continuous
 62
     7
370
    25
100
AcDbCircle
 10
289.2304574621
 20
378.5216519953
 30
0.0
 40
39.50000000000001
100
AcDbArc
 50
253.1162398663
 51
73.1162398898
  0
ARC
  5
7F
330
1F
100
AcDbEntity
  8
0
  6
Continuous
 62
     7
370
    25
100
AcDbCircle
 10
289.2304574621
 20
378.5216519953
 30
0.0
 40
38.29899805699997
100
AcDbArc
 50
73.1162398663
 51
253.1162398663
  0
ARC
  5
80
330
1F
100
AcDbEntity
  8
0
  6
Continuous
 62
     7
370
    25
100
AcDbCircle
 10
289.2304574621
 20
378.5216519953
 30
0.0
 40
39.50000000000004
100
AcDbArc
 50
73.1162398898
 51
253.116239856
  0
SPLINE
  5
81
330
1F
100
AcDbEntity
  8
0
  6
Continuous
 62
     7
370
    25
100
AcDbSpline
210
0.0
220
0.0
230
1.0
 70
     8
 71
     3
 72
    18
 73
    14
 74
     0
 42
0.00000001
 43
0.00000001
 40
0.0
 40
0.0
 40
0.0
 40
0.0
 40
0.1249999999999988
 40
0.1249999999999988
 40
0.2499999999999976
 40
0.2499999999999976
 40
0.4999999999999983
 40
0.4999999999999983
 40
0.7499999999999991
 40
0.7499999999999991
 40
0.8749999999999996
 40
0.8749999999999996
 40
1.0
 40
1.0
 40
1.0
 40
1.0
 10
131.2302419288503
 20
98.52257997090932
 30
0.0
 10
130.4426379469117
 20
98.52267806276684
 30
0.0
 10
129.6583800317478
 20
98.60003751203641
 30
0.0
 10
128.1182723179211
 20
98.90668374640506
 30
0.0
 10
127.3623791727171
 20
99.1359703102854
 30
0.0
 10
125.1845688320587
 20
100.0380291770846
 30
0.0
 10
123.8539478360976
 20
100.92745700512
 30
0.0
 10
121.6327908134454
 20
103.1476512321985
 30
0.0
 10
120.7438706712179
 20
104.4788655674558
 30
0.0
 10
119.8418159653679
 20
106.6560701078485
 30
0.0
 10
119.6124949720393
 20
107.4124728113502
 30
0.0
 10
119.3058334145088
 20
108.9529982527688
 30
0.0
 10
119.2285219601671
 20
109.7367634117375
 30
0.0
 10
119.2284088287055
 20
110.5244168837022
 30
0.0
  0
SPLINE
  5
82
330
1F
100
AcDbEntity
  8
0
  6
Continuous
 62
     7
370
    25
100
AcDbSpline
210
0.0
220
0.0
230
1.0
 70
     8
 71
     3
 72
     8
 73
     4
 74
     0
 42
0.00000001
 43
0.00000001
 40
0.0
 40
0.0
 40
0.0
 40
0.0
 40
1.0
 40
1.0
 40
1.0
 40
1.0
 10
131.2304708742439
 20
96.52472008688103
 30
0.0
 10
131.2303405143833
 20
97.59479011053403
 30
0.0
 10
131.230220198144
 20
98.55244065891213
 30
0.0
 10
131.2302419288502
 20
98.52257997090938
 30
0.0
  0
SPLINE
  5
83
330
1F
100
AcDbEntity
  8
0
  6
Continuous
 62
     7
370
    25
100
AcDbSpline
210
0.0
220
0.0
230
1.0
 70
     8
 71
     3
 72
    20
 73
    16
 74
     0
 42
0.00000001
 43
0.00000001
 40
0.0
 40
0.0
 40
0.0
 40
0.0
 40
0.1249999999999973
 40
0.1249999999999973
 40
0.2499999999999945
 40
0.2499999999999945
 40
0.4999999999999946
 40
0.4999999999999946
 40
0.6249999999999959
 40
0.6249999999999959
 40
0.7499999999999972
 40
0.7499999999999972
 40
0.8749999999999987
 40
0.8749999999999987
 40
1.0
 40
1.0
 40
1.0
 40
1.0
 10
117.2305442923924
 20
110.5246327242358
 30
0.0
 10
117.2307273073253
 20
109.6092310908956
 30
0.0
 10
117.3208619916842
 20
108.6906424087416
 30
0.0
 10
117.6785648639056
 20
106.8920587780586
 30
0.0
 10
117.9460704637343
 20
106.0118242456455
 30
0.0
 10
118.9983614620241
 20
103.4726492575388
 30
0.0
 10
120.0361912660299
 20
101.9208796912861
 30
0.0
 10
121.9790305681155
 20
99.97776789508103
 30
0.0
 10
122.6900707076286
 20
99.39361350878193
 30
0.0
 10
124.2132453520777
 20
98.37571195486902
 30
0.0
 10
125.024964916359
 20
97.9417475431005
 30
0.0
 10
126.717267808093
 20
97.24016745982264
 30
0.0
 10
127.597926331277
 20
96.9727483323086
 30
0.0
 10
129.3968448593255
 20
96.61507713736886
 30
0.0
 10
130.3150318849917
 20
96.52488019495034
 30
0.0
 10
131.2304708735677
 20
96.52471630974117
 30
0.0
  0
SPLINE
  5
84
330
1F
100
AcDbEntity
  8
0
  6
Continuous
 62
     7
370
    25
100
AcDbSpline
210
0.0
220
0.0
230
1.0
 70
     8
 71
     3
 72
    14
 73
    10
 74
     0
 42
0.00000001
 43
0.00000001
 40
0.0
 40
0.0
 40
0.0
 40
0.0
 40
0.25
 40
0.25
 40
0.5
 40
0.5
 40
0.75
 40
0.75
 40
1.0
 40
1.0
 40
1.0
 40
1.0
 10
117.2305057736361
 20
110.5246327165311
 30
0.0
 10
117.492297315839
 20
110.5246147845273
 30
0.0
 10
117.7539846088503
 20
110.5245968525233
 30
0.0
 10
118.2377098207954
 20
110.5245609885154
 30
0.0
 10
118.4595574372441
 20
110.5245430565115
 30
0.0
 10
118.8297863550656
 20
110.5245071925036
 30
0.0
 10
118.9780220045655
 20
110.5244892604997
 30
0.0
 10
119.1783939662822
 20
110.524453396492
 30
0.0
 10
119.2304514501035
 20
110.5244354644881
 30
0.0
 10
119.2304574478794
 20
110.5244175324841
 30
0.0
  0
SPLINE
  5
85
330
1F
100
AcDbEntity
  8
0
  6
Continuous
 62
     7
370
    25
100
AcDbSpline
210
0.0
220
0.0
230
1.0
 70
     8
 71
     3
 72
    18
 73
    14
 74
     0
 42
0.00000001
 43
0.00000001
 40
0.0
 40
0.0
 40
0.0
 40
0.0
 40
0.1250000000000002
 40
0.1250000000000002
 40
0.2500000000000004
 40
0.2500000000000004
 40
0.5000000000000008
 40
0.5000000000000008
 40
0.7500000000000011
 40
0.7500000000000011
 40
0.8750000000000006
 40
0.8750000000000006
 40
1.0
 40
1.0
 40
1.0
 40
1.0
 10
447.230672967581
 20
498.5266851104711
 30
0.0
 10
448.0182777260187
 20
498.5265870291336
 30
0.0
 10
448.8025361358943
 20
498.4492277911972
 30
0.0
 10
450.3426439622967
 20
498.1425821148172
 30
0.0
 10
451.0985367816182
 20
497.9132958924897
 30
0.0
 10
453.2763458087825
 20
497.0112378854287
 30
0.0
 10
454.6069655038838
 20
496.1218103574071
 30
0.0
 10
456.8281210615787
 20
493.9016160996383
 30
0.0
 10
457.7170411901333
 20
492.5704014718187
 30
0.0
 10
458.6190969981015
 20
490.3931962788271
 30
0.0
 10
458.8484185265111
 20
489.6367932870521
 30
0.0
 10
459.1550810519759
 20
488.0962672956115
 30
0.0
 10
459.2323929341349
 20
487.3125018919768
 30
0.0
 10
459.2325060682763
 20
486.5248481679928
 30
0.0
  0
SPLINE
  5
86
330
1F
100
AcDbEntity
  8
0
  6
Continuous
 62
     7
370
    25
100
AcDbSpline
210
0.0
220
0.0
230
1.0
 70
     8
 71
     3
 72
     8
 73
     4
 74
     0
 42
0.00000001
 43
0.00000001
 40
0.0
 40
0.0
 40
0.0
 40
0.0
 40
1.0
 40
1.0
 40
1.0
 40
1.0
 10
447.2304440113125
 20
500.5245449929632
 30
0.0
 10
447.2305743730663
 20
499.4544749674326
 30
0.0
 10
447.2306946891131
 20
498.4968244187995
 30
0.0
 10
447.230672967581
 20
498.5266851104711
 30
0.0
  0
SPLINE
  5
87
330
1F
100
AcDbEntity
  8
0
  6
Continuous
 62
     7
370
    25
100
AcDbSpline
210
0.0
220
0.0
230
1.0
 70
     8
 71
     3
 72
    20
 73
    16
 74
     0
 42
0.00000001
 43
0.00000001
 40
0.0
 40
0.0
 40
0.0
 40
0.0
 40
0.1250000000000012
 40
0.1250000000000012
 40
0.2500000000000025
 40
0.2500000000000025
 40
0.5000000000000034
 40
0.5000000000000034
 40
0.6250000000000026
 40
0.6250000000000026
 40
0.7500000000000017
 40
0.7500000000000017
 40
0.8750000000000009
 40
0.8750000000000009
 40
1.0
 40
1.0
 40
1.0
 40
1.0
 10
461.2303707075578
 20
486.5246323555281
 30
0.0
 10
461.2301876870768
 20
487.440034891742
 30
0.0
 10
461.1400524461195
 20
488.3586242044089
 30
0.0
 10
460.7823484436314
 20
490.1572084817237
 30
0.0
 10
460.5148422746305
 20
491.0374430670438
 30
0.0
 10
459.4625503530219
 20
493.5766179367841
 30
0.0
 10
458.4247210733926
 20
495.1283872304755
 30
0.0
 10
456.4818830186099
 20
497.0714990836487
 30
0.0
 10
455.7708433335128
 20
497.6556535145801
 30
0.0
 10
454.2476694365893
 20
498.6735550406642
 30
0.0
 10
453.4359501650864
 20
499.1075193629298
 30
0.0
 10
451.7436476181737
 20
499.8090990207818
 30
0.0
 10
450.8629891516132
 20
500.0765178112094
 30
0.0
 10
449.0640705690693
 20
500.4341883650259
 30
0.0
 10
448.1458834296113
 20
500.5243850075103
 30
0.0
 10
447.2304440120074
 20
500.5245488750929
 30
0.0
  0
SPLINE
  5
88
330
1F
100
AcDbEntity
  8
0
  6
Continuous
 62
     7
370
    25
100
AcDbSpline
210
0.0
220
0.0
230
1.0
 70
     8
 71
     3
 72
    14
 73
    10
 74
     0
 42
0.00000001
 43
0.00000001
 40
0.0
 40
0.0
 40
0.0
 40
0.0
 40
0.25
 40
0.25
 40
0.5
 40
0.5
 40
0.75
 40
0.75
 40
1.0
 40
1.0
 40
1.0
 40
1.0
 10
461.2304092264936
 20
486.5246323632325
 30
0.0
 10
460.9686176760653
 20
486.5246502928983
 30
0.0
 10
460.7069303721561
 20
486.524668222564
 30
0.0
 10
460.223205137134
 20
486.5247040818955
 30
0.0
 10
460.0013575085395
 20
486.5247220115613
 30
0.0
 10
459.6311285690953
 20
486.5247578708928
 30
0.0
 10
459.4828929101454
 20
486.5247758005585
 30
0.0
 10
459.2825209350478
 20
486.52481165989
 30
0.0
 10
459.2304634473108
 20
486.5248295895558
 30
0.0
 10
459.2304574489298
 20
486.5248475192215
 30
0.0
  0
SPLINE
  5
89
330
1F
100
AcDbEntity
  8
0
  6
Continuous
 62
     7
370
    25
100
AcDbSpline
210
0.0
220
0.0
230
1.0
 70
     8
 71
     3
 72
    18
 73
    14
 74
     0
 42
0.00000001
 43
0.00000001
 40
0.0
 40
0.0
 40
0.0
 40
0.0
 40
0.1250000000000011
 40
0.1250000000000011
 40
0.2500000000000023
 40
0.2500000000000023
 40
0.5000000000000029
 40
0.5000000000000029
 40
0.7500000000000036
 40
0.7500000000000036
 40
0.8750000000000018
 40
0.8750000000000018
 40
1.0
 40
1.0
 40
1.0
 40
1.0
 10
119.2284048783627
 20
486.5248480320839
 30
0.0
 10
119.2285029631341
 20
487.3124540186476
 30
0.0
 10
119.3058624311021
 20
488.0967127073083
 30
0.0
 10
119.612508604726
 20
489.6368204683819
 30
0.0
 10
119.8417950862901
 20
490.3927130073837
 30
0.0
 10
120.7438533832682
 20
492.5705211087163
 30
0.0
 10
121.6332803022884
 20
493.9011401861989
 30
0.0
 10
123.8534724047126
 20
496.1222957350527
 30
0.0
 10
125.1846855765948
 20
497.0112162510844
 30
0.0
 10
127.361890145761
 20
497.9132722671658
 30
0.0
 10
128.1182931803467
 20
498.142593796897
 30
0.0
 10
129.658820177685
 20
498.4492562352054
 30
0.0
 10
130.4425865939604
 20
498.5265680298704
 30
0.0
 10
131.2302418484534
 20
498.5266811597342
 30
0.0
  0
SPLINE
  5
8A
330
1F
100
AcDbEntity
  8
0
  6
Continuous
 62
     7
370
    25
100
AcDbSpline
210
0.0
220
0.0
230
1.0
 70
     8
 71
     3
 72
     8
 73
     4
 74
     0
 42
0.00000001
 43
0.00000001
 40
0.0
 40
0.0
 40
0.0
 40
0.0
 40
1.0
 40
1.0
 40
1.0
 40
1.0
 10
117.2305446212901
 20
486.5246191041745
 30
0.0
 10
118.3006147997103
 20
486.5247494571265
 30
0.0
 10
119.2582655774702
 20
486.5248697683291
 30
0.0
 10
119.2284048783627
 20
486.5248480320839
 30
0.0
  0
SPLINE
  5
8B
330
1F
100
AcDbEntity
  8
0
  6
Continuous
 62
     7
370
    25
100
AcDbSpline
210
0.0
220
0.0
230
1.0
 70
     8
 71
     3
 72
    20
 73
    16
 74
     0
 42
0.00000001
 43
0.00000001
 40
0.0
 40
0.0
 40
0.0
 40
0.0
 40
0.1250000000000001
 40
0.1250000000000001
 40
0.2500000000000001
 40
0.2500000000000001
 40
0.5000000000000002
 40
0.5000000000000002
 40
0.6250000000000002
 40
0.6250000000000002
 40
0.7500000000000002
 40
0.7500000000000002
 40
0.8750000000000001
 40
0.8750000000000001
 40
1.0
 40
1.0
 40
1.0
 40
1.0
 10
131.2304576327586
 20
500.5245456676481
 30
0.0
 10
130.3150539611693
 20
500.5243626497812
 30
0.0
 10
129.3964637325159
 20
500.4342275628374
 30
0.0
 10
127.5978782232216
 20
500.0765236434678
 30
0.0
 10
126.7176433062931
 20
499.8090174047853
 30
0.0
 10
124.1784683262197
 20
498.7567248919026
 30
0.0
 10
122.6267003563073
 20
497.7188947923536
 30
0.0
 10
120.6835906112426
 20
495.7760569811831
 30
0.0
 10
120.0994368644774
 20
495.0650176090894
 30
0.0
 10
119.0815362369681
 20
493.5418446949797
 30
0.0
 10
118.6475721112877
 20
492.7301260710791
 30
0.0
 10
117.9459923195888
 20
491.0378245475229
 30
0.0
 10
117.6785732128836
 20
490.1571664533984
 30
0.0
 10
117.3209020456651
 20
488.358247648064
 30
0.0
 10
117.2307051221294
 20
487.4400598449598
 30
0.0
 10
117.2305412453887
 20
486.5246191047788
 30
0.0
  0
SPLINE
  5
8C
330
1F
100
AcDbEntity
  8
0
  6
Continuous
 62
     7
370
    25
100
AcDbSpline
210
0.0
220
0.0
230
1.0
 70
     8
 71
     3
 72
    14
 73
    10
 74
     0
 42
0.00000001
 43
0.00000001
 40
0.0
 40
0.0
 40
0.0
 40
0.0
 40
0.25
 40
0.25
 40
0.5
 40
0.5
 40
0.75
 40
0.75
 40
1.0
 40
1.0
 40
1.0
 40
1.0
 10
131.2304576250537
 20
500.5245841863506
 30
0.0
 10
131.2304396977298
 20
500.2627926462545
 30
0.0
 10
131.2304217704059
 20
500.0011053560826
 30
0.0
 10
131.2303859157582
 20
499.5173801502324
 30
0.0
 10
131.2303679884343
 20
499.295532537031
 30
0.0
 10
131.2303321337866
 20
498.9253036250876
 30
0.0
 10
131.2303142064627
 20
498.7770679782118
 30
0.0
 10
131.230278351815
 20
498.5766960203665
 30
0.0
 10
131.2302604244911
 20
498.5246385377882
 30
0.0
 10
131.2302424971672
 20
498.5246325404075
 30
0.0
  0
SPLINE
  5
8D
330
1F
100
AcDbEntity
  8
0
  6
Continuous
 62
     7
370
    25
100
AcDbSpline
210
0.0
220
0.0
230
1.0
 70
     8
 71
     3
 72
    18
 73
    14
 74
     0
 42
0.00000001
 43
0.00000001
 40
0.0
 40
0.0
 40
0.0
 40
0.0
 40
0.1250000000000021
 40
0.1250000000000021
 40
0.2500000000000042
 40
0.2500000000000042
 40
0.5000000000000003
 40
0.5000000000000003
 40
0.7499999999999964
 40
0.7499999999999964
 40
0.8749999999999982
 40
0.8749999999999982
 40
1.0
 40
1.0
 40
1.0
 40
1.0
 10
459.2325100698294
 20
110.5244172033278
 30
0.0
 10
459.2324357956643
 20
109.7369795771915
 30
0.0
 10
459.1550572084932
 20
108.9527838578403
 30
0.0
 10
458.8483955926297
 20
107.4123662369887
 30
0.0
 10
458.6191127623955
 20
106.6561918146803
 30
0.0
 10
457.7170237571306
 20
104.4788554859962
 30
0.0
 10
456.8277437174103
 20
103.1479560701497
 30
0.0
 10
454.60717511592
 20
100.9271911042902
 30
0.0
 10
453.2762940967194
 20
100.0380356955664
 30
0.0
 10
451.0989104519209
 20
99.1360165172561
 30
0.0
 10
450.3430578256255
 20
98.90672488499466
 30
0.0
 10
448.8025074900829
 20
98.60004260027591
 30
0.0
 10
448.0177322915482
 20
98.5226121737199
 30
0.0
 10
447.2306725213465
 20
98.52257289715358
 30
0.0
  0
SPLINE
  5
8E
330
1F
100
AcDbEntity
  8
0
  6
Continuous
 62
     7
370
    25
100
AcDbSpline
210
0.0
220
0.0
230
1.0
 70
     8
 71
     3
 72
     8
 73
     4
 74
     0
 42
0.00000001
 43
0.00000001
 40
0.0
 40
0.0
 40
0.0
 40
0.0
 40
1.0
 40
1.0
 40
1.0
 40
1.0
 10
461.2303707401221
 20
110.5246290699798
 30
0.0
 10
460.1602636975088
 20
110.5245105961213
 30
0.0
 10
459.2026495521397
 20
110.5244022082767
 30
0.0
 10
459.2325100698295
 20
110.5244172033278
 30
0.0
  0
SPLINE
  5
8F
330
1F
100
AcDbEntity
  8
0
  6
Continuous
 62
     7
370
    25
100
AcDbSpline
210
0.0
220
0.0
230
1.0
 70
     8
 71
     3
 72
    22
 73
    18
 74
     0
 42
0.00000001
 43
0.00000001
 40
0.0
 40
0.0
 40
0.0
 40
0.0
 40
0.125
 40
0.125
 40
0.25
 40
0.25
 40
0.375
 40
0.375
 40
0.5
 40
0.5
 40
0.625
 40
0.625
 40
0.75
 40
0.75
 40
0.875
 40
0.875
 40
1.0
 40
1.0
 40
1.0
 40
1.0
 10
447.2304572767047
 20
96.52471935847876
 30
0.0
 10
448.1463562817283
 20
96.52477199183559
 30
0.0
 10
449.0641019503676
 20
96.61507926168525
 30
0.0
 10
450.8626559026338
 20
96.97279114969096
 30
0.0
 10
451.7433252216405
 20
97.24022416657688
 30
0.0
 10
453.4359528335294
 20
97.94174612420551
 30
0.0
 10
454.2476947427853
 20
98.37573741877945
 30
0.0
 10
455.7707787877998
 20
99.39369391567513
 30
0.0
 10
456.4819940754573
 20
99.97778244992337
 30
0.0
 10
457.7772272207097
 20
101.2731879439887
 30
0.0
 10
458.3613452941481
 20
101.9843640532031
 30
0.0
 10
459.3793149095954
 20
103.5073450623526
 30
0.0
 10
459.8133060110659
 20
104.3190994356344
 30
0.0
 10
460.5148573952923
 20
106.0117292264379
 30
0.0
 10
460.7823185778425
 20
106.8921635211531
 30
0.0
 10
461.1400146919762
 20
108.6908258259661
 30
0.0
 10
461.2302489788117
 20
109.6090491827449
 30
0.0
 10
461.2303623057373
 20
110.5246290710238
 30
0.0
  0
SPLINE
  5
90
330
1F
100
AcDbEntity
  8
0
  6
Continuous
 62
     7
370
    25
100
AcDbSpline
210
0.0
220
0.0
230
1.0
 70
     8
 71
     3
 72
     8
 73
     4
 74
     0
 42
0.00000001
 43
0.00000001
 40
0.0
 40
0.0
 40
0.0
 40
0.0
 40
1.0
 40
1.0
 40
1.0
 40
1.0
 10
447.2306725213463
 20
98.5225729033263
 30
0.0
 10
447.2306514031673
 20
98.55243322164806
 30
0.0
 10
447.2305623165068
 20
97.5948236237493
 30
0.0
 10
447.2304572767047
 20
96.5247193584787
 30
0.0
  0
LINE
  5
91
330
1F
100
AcDbEntity
  8
0
  6
Continuous
 62
     7
370
    25
100
AcDbLine
 10
459.2304574485
 20
486.5248475192
 30
0.0
 11
459.2304574485
 21
110.5244176296
 31
0.0
  0
LINE
  5
92
330
1F
100
AcDbEntity
  8
0
  6
Continuous
 62
     7
370
    25
100
AcDbLine
 10
461.2304285333
 20
110.5246290652
 30
0.0
 11
461.2304285333
 21
486.5246323632
 31
0.0
  0
LINE
  5
93
330
1F
100
AcDbEntity
  8
0
  6
Continuous
 62
     7
370
    25
100
AcDbLine
 10
447.2306724047
 20
498.5246325399
 30
0.0
 11
131.2302424972
 21
498.5246325399
 31
0.0
  0
LINE
  5
94
330
1F
100
AcDbEntity
  8
0
  6
Continuous
 62
     7
370
    25
100
AcDbLine
 10
447.2304440182
 20
500.5246027962
 30
0.0
 11
131.2304576251
 21
500.5246027962
 31
0.0
  0
LINE
  5
95
330
1F
100
AcDbEntity
  8
0
  6
Continuous
 62
     7
370
    25
100
AcDbLine
 10
447.2306722955
 20
98.5246325398
 30
0.0
 11
131.2302424918
 21
98.5246325398
 31
0.0
  0
LINE
  5
96
330
1F
100
AcDbEntity
  8
0
  6
Continuous
 62
     7
370
    25
100
AcDbLine
 10
131.2304708673
 20
96.5246622837
 30
0.0
 11
447.2304572789
 21
96.5246622837
 31
0.0
  0
LINE
  5
97
330
1F
100
AcDbEntity
  8
0
  6
Continuous
 62
     7
370
    25
100
AcDbLine
 10
119.2304574484
 20
486.5248474692
 30
0.0
 11
119.2304574484
 21
110.5244175325
 31
0.0
  0
LINE
  5
98
330
1F
100
AcDbEntity
  8
0
  6
Continuous
 62
     7
370
    25
100
AcDbLine
 10
117.2304868525
 20
486.5246191111
 30
0.0
 11
117.2304868525
 21
110.5246327165
 31
0.0
  0
SPLINE
  5
99
330
1F
100
AcDbEntity
  8
0
  6
Continuous
 62
     7
370
    25
100
AcDbSpline
210
0.0
220
0.0
230
1.0
 70
     8
 71
     3
 72
    24
 73
    20
 74
     0
 42
0.00000001
 43
0.00000001
 40
0.0
 40
0.0
 40
0.0
 40
0.0
 40
0.0307362927988496
 40
0.0568299189887195
 40
0.093720378800213
 40
0.1201384438145699
 40
0.1831415952645691
 40
0.2469162117890294
 40
0.3345587106279123
 40
0.4172817865121899
 40
0.5000594122015835
 40
0.5835865303272302
 40
0.6672060166055793
 40
0.7575524150123948
 40
0.8749639805480617
 40
0.9062497622885578
 40
0.9349040527348905
 40
0.9694974288709165
 40
0.9999999999999999
 40
0.9999999999999999
 40
0.9999999999999999
 40
0.9999999999999999
 10
99.73045744831016
 20
88.52463253988228
 30
0.0
 10
99.73584114061404
 20
88.37193577695082
 30
0.0
 10
99.74579532733047
 20
88.08960684665266
 30
0.0
 10
99.77175444546768
 20
87.62439484462412
 30
0.0
 10
99.81946453253762
 20
87.18213754453622
 30
0.0
 10
99.92563964163448
 20
86.56310047384638
 30
0.0
 10
100.1076498155712
 20
85.82228949044764
 30
0.0
 10
100.4597404300686
 20
84.81456721743638
 30
0.0
 10
100.9753374671696
 20
83.7666708485287
 30
0.0
 10
101.6770319663922
 20
82.71795418552833
 30
0.0
 10
102.4966820924361
 20
81.78557705241926
 30
0.0
 10
103.4329185367502
 20
80.96352264637721
 30
0.0
 10
104.5011771388663
 20
80.25160649380156
 30
0.0
 10
105.8079838600437
 20
79.61661383031529
 30
0.0
 10
106.9547498303214
 20
79.27698389413271
 30
0.0
 10
107.8230840328231
 20
79.1232023439333
 30
0.0
 10
108.2902048705279
 20
79.06936589261029
 30
0.0
 10
108.755530309849
 20
79.04118755257008
 30
0.0
 10
109.078922685437
 20
79.02991473938162
 30
0.0
 10
109.2304574484047
 20
79.02463253978922
 30
0.0
  0
LINE
  5
9A
330
1F
100
AcDbEntity
  8
0
  6
Continuous
 62
     7
370
    25
100
AcDbLine
 10
99.7304574484
 20
88.5246325399
 30
0.0
 11
99.7304574484
 21
508.5246325399
 31
0.0
  0
SPLINE
  5
9B
330
1F
100
AcDbEntity
  8
0
  6
Continuous
 62
     7
370
    25
100
AcDbSpline
210
0.0
220
0.0
230
1.0
 70
     8
 71
     3
 72
    24
 73
    20
 74
     0
 42
0.00000001
 43
0.00000001
 40
0.0
 40
0.0
 40
0.0
 40
0.0
 40
0.0307362926698117
 40
0.0568299188692537
 40
0.0937203787525168
 40
0.120138439581183
 40
0.1831416032341195
 40
0.2469162094382281
 40
0.3345586035018008
 40
0.4172817328969319
 40
0.5000594122247226
 40
0.5835864800628636
 40
0.667205916269241
 40
0.7575524332828573
 40
0.8749639805468481
 40
0.9062497627186427
 40
0.9349040512846465
 40
0.9694974288327539
 40
1.0
 40
1.0
 40
1.0
 40
1.0
 10
109.2304574484042
 20
518.0246325399759
 30
0.0
 10
109.0777606861095
 20
518.0192488477376
 30
0.0
 10
108.7954317563967
 20
518.0092946611214
 30
0.0
 10
108.3302197546134
 20
517.9833355428622
 30
0.0
 10
107.8879624747705
 20
517.9356254583118
 30
0.0
 10
107.2689253642042
 20
517.829450344177
 30
0.0
 10
106.5281143918999
 20
517.6474401711279
 30
0.0
 10
105.5203926038882
 20
517.2953497212314
 30
0.0
 10
104.4724964760121
 20
516.7797529152931
 30
0.0
 10
103.423779708512
 20
516.0780585403792
 30
0.0
 10
102.4914023252604
 20
515.2584082619668
 30
0.0
 10
101.6693480403631
 20
514.3221720275064
 30
0.0
 10
100.9574317122967
 20
513.2539134400902
 30
0.0
 10
100.3224388480715
 20
511.9471065206685
 30
0.0
 10
99.98280878617582
 20
510.800340066685
 30
0.0
 10
99.82902725340304
 20
509.9320059604484
 30
0.0
 10
99.77519080165115
 20
509.4648851230342
 30
0.0
 10
99.7470124613562
 20
508.9995596858345
 30
0.0
 10
99.73573964791213
 20
508.6761673030404
 30
0.0
 10
99.73045744831116
 20
508.5246325398825
 30
0.0
  0
LINE
  5
9C
330
1F
100
AcDbEntity
  8
0
  6
Continuous
 62
     7
370
    25
100
AcDbLine
 10
109.2304574484
 20
518.0246325399
 30
0.0
 11
469.2304574484
 21
518.0246325399
 31
0.0
  0
SPLINE
  5
9D
330
1F
100
AcDbEntity
  8
0
  6
Continuous
 62
     7
370
    25
100
AcDbSpline
210
0.0
220
0.0
230
1.0
 70
     8
 71
     3
 72
    24
 73
    20
 74
     0
 42
0.00000001
 43
0.00000001
 40
0.0
 40
0.0
 40
0.0
 40
0.0
 40
0.0307362927644422
 40
0.056829918878173
 40
0.093720378844901
 40
0.1201384430110184
 40
0.1831415992049322
 40
0.2469162162182764
 40
0.3345585897851175
 40
0.4172817260295079
 40
0.5000594122264764
 40
0.5835864800646746
 40
0.6672059162686822
 40
0.7575524375339394
 40
0.8749639805513885
 40
0.9062497625054153
 40
0.9349040528349861
 40
0.9694974288283005
 40
0.9999999999999999
 40
0.9999999999999999
 40
0.9999999999999999
 40
0.9999999999999999
 10
478.7304574484969
 20
508.5246325398826
 30
0.0
 10
478.725073756209
 20
508.6773293026494
 30
0.0
 10
478.7151195695303
 20
508.9596582324098
 30
0.0
 10
478.6891604513776
 20
509.4248702346756
 30
0.0
 10
478.6414503648106
 20
509.8671275309884
 30
0.0
 10
478.5352752525313
 20
510.4861646215948
 30
0.0
 10
478.3532650715794
 20
511.2269756258019
 30
0.0
 10
478.0011746477257
 20
512.2346973334284
 30
0.0
 10
477.4855778546523
 20
513.2825934493487
 30
0.0
 10
476.7838835153268
 20
514.3313102010844
 30
0.0
 10
475.9642331962018
 20
515.2636876403958
 30
0.0
 10
475.0279969360709
 20
516.0857419479423
 30
0.0
 10
473.9597383310129
 20
516.7976582877136
 30
0.0
 10
472.6529314089276
 20
517.4326511479139
 30
0.0
 10
471.5061649554282
 20
517.772281205328
 30
0.0
 10
470.6378308624455
 20
517.9260627361124
 30
0.0
 10
470.1707100249584
 20
517.9798991872176
 30
0.0
 10
469.7053845866894
 20
518.0080775271718
 30
0.0
 10
469.3819922115885
 20
518.0193503403665
 30
0.0
 10
469.2304574484043
 20
518.0246325399772
 30
0.0
  0
LINE
  5
9E
330
1F
100
AcDbEntity
  8
0
  6
Continuous
 62
     7
370
    25
100
AcDbLine
 10
478.7304574484
 20
508.5246325399
 30
0.0
 11
478.7304574484
 21
88.5246325399
 31
0.0
  0
SPLINE
  5
9F
330
1F
100
AcDbEntity
  8
0
  6
Continuous
 62
     7
370
    25
100
AcDbSpline
210
0.0
220
0.0
230
1.0
 70
     8
 71
     3
 72
    24
 73
    20
 74
     0
 42
0.00000001
 43
0.00000001
 40
0.0
 40
0.0
 40
0.0
 40
0.0
 40
0.0307362927297582
 40
0.0568299184822455
 40
0.0937203787926146
 40
0.1201384423131288
 40
0.1831415971819291
 40
0.2469162197430211
 40
0.3345586901766858
 40
0.4172817762729703
 40
0.5000594122015566
 40
0.5835865292159113
 40
0.6672060144159705
 40
0.7575524302766111
 40
0.8749639805510239
 40
0.9062497630615416
 40
0.9349040530647372
 40
0.969497428874561
 40
1.0
 40
1.0
 40
1.0
 40
1.0
 10
469.2304574484049
 20
79.02463253978823
 30
0.0
 10
469.3831542109998
 20
79.03001623206748
 30
0.0
 10
469.6654831387943
 20
79.03997041867197
 30
0.0
 10
470.1306951408055
 20
79.06592953666933
 30
0.0
 10
470.5729524338641
 20
79.11363962275279
 30
0.0
 10
471.1919895165478
 20
79.21981473321907
 30
0.0
 10
471.9328005385467
 20
79.4018249167169
 30
0.0
 10
472.9405227204097
 20
79.75391550794156
 30
0.0
 10
473.9884190371873
 20
80.26951250679518
 30
0.0
 10
475.0371356854906
 20
80.97120695899449
 30
0.0
 10
475.969512898097
 20
81.7908571420057
 30
0.0
 10
476.7915673314033
 20
82.72709361568766
 30
0.0
 10
477.5034835289201
 20
83.79535227902655
 30
0.0
 10
478.1384761820931
 20
85.10215901406784
 30
0.0
 10
478.4781061086028
 20
86.24892500006817
 30
0.0
 10
478.6318876451989
 20
87.11725912969612
 30
0.0
 10
478.6857240960196
 20
87.58437996746002
 30
0.0
 10
478.7139024357785
 20
88.0497054029646
 30
0.0
 10
478.7251752489074
 20
88.37309777692678
 30
0.0
 10
478.730457448498
 20
88.52463253988222
 30
0.0
  0
LINE
  5
A0
330
1F
100
AcDbEntity
  8
0
  6
Continuous
 62
     7
370
    25
100
AcDbLine
 10
469.2304574484
 20
79.0246325399
 30
0.0
 11
109.2304574484
 21
79.0246325399
 31
0.0
  0
LINE
  5
A1
330
1F
100
AcDbEntity
  8
0
  6
Continuous
 62
     7
370
    25
100
AcDbLine
 10
99.2304574484
 20
508.5246325399
 30
0.0
 11
99.7304574483
 21
508.5246325399
 31
0.0
  0
ARC
  5
A2
330
1F
100
AcDbEntity
  8
0
  6
Continuous
 62
     7
370
    25
100
AcDbCircle
 10
109.2304574484
 20
508.5246325399
 30
0.0
 40
9.999999999998863
100
AcDbArc
 50
90.0
 51
179.9999999989
  0
LINE
  5
A3
330
1F
100
AcDbEntity
  8
0
  6
Continuous
 62
     7
370
    25
100
AcDbLine
 10
109.2304574484
 20
518.5246325399
 30
0.0
 11
109.2304574484
 21
518.02463254
 31
0.0
  0
LINE
  5
A4
330
1F
100
AcDbEntity
  8
0
  6
Continuous
 62
     7
370
    25
100
AcDbLine
 10
99.2304574484
 20
88.5246325399
 30
0.0
 11
99.7304574483
 21
88.5246325399
 31
0.0
  0
LINE
  5
A5
330
1F
100
AcDbEntity
  8
0
  6
Continuous
 62
     7
370
    25
100
AcDbLine
 10
109.2304574484
 20
78.5246325399
 30
0.0
 11
109.2304574484
 21
79.0246325398
 31
0.0
  0
ARC
  5
A6
330
1F
100
AcDbEntity
  8
0
  6
Continuous
 62
     7
370
    25
100
AcDbCircle
 10
109.2304574484
 20
88.5246325399
 30
0.0
 40
10.00000000000001
100
AcDbArc
 50
180.0
 51
270.0
  0
LINE
  5
A7
330
1F
100
AcDbEntity
  8
0
  6
Continuous
 62
     7
370
    25
100
AcDbLine
 10
469.2304574484
 20
518.5246325399
 30
0.0
 11
469.2304574484
 21
518.02463254
 31
0.0
  0
ARC
  5
A8
330
1F
100
AcDbEntity
  8
0
  6
Continuous
 62
     7
370
    25
100
AcDbCircle
 10
469.2304574484
 20
508.5246325399
 30
0.0
 40
9.999999999999886
100
AcDbArc
 50
0.0
 51
90.0
  0
LINE
  5
A9
330
1F
100
AcDbEntity
  8
0
  6
Continuous
 62
     7
370
    25
100
AcDbLine
 10
479.2304574484
 20
508.5246325399
 30
0.0
 11
478.7304574485
 21
508.5246325399
 31
0.0
  0
LINE
  5
AA
330
1F
100
AcDbEntity
  8
0
  6
Continuous
 62
     7
370
    25
100
AcDbLine
 10
469.2304574484
 20
518.5246325399
 30
0.0
 11
109.2304574484
 21
518.5246325399
 31
0.0
  0
LINE
  5
AB
330
1F
100
AcDbEntity
  8
0
  6
Continuous
 62
     7
370
    25
100
AcDbLine
 10
479.2304574484
 20
88.5246325399
 30
0.0
 11
478.7304574485
 21
88.5246325399
 31
0.0
  0
ARC
  5
AC
330
1F
100
AcDbEntity
  8
0
  6
Continuous
 62
     7
370
    25
100
AcDbCircle
 10
469.2304574484
 20
88.5246325399
 30
0.0
 40
10.00000000000001
100
AcDbArc
 50
270.0
 51
0.0000000035
  0
LINE
  5
AD
330
1F
100
AcDbEntity
  8
0
  6
Continuous
 62
     7
370
    25
100
AcDbLine
 10
469.2304574484
 20
78.5246325399
 30
0.0
 11
469.2304574484
 21
79.0246325398
 31
0.0
  0
LINE
  5
AE
330
1F
100
AcDbEntity
  8
0
  6
Continuous
 62
     7
370
    25
100
AcDbLine
 10
479.2304574484
 20
508.5246325399
 30
0.0
 11
479.2304574484
 21
88.5246325399
 31
0.0
  0
LINE
  5
AF
330
1F
100
AcDbEntity
  8
0
  6
Continuous
 62
     7
370
    25
100
AcDbLine
 10
469.2304574484
 20
78.5246325399
 30
0.0
 11
109.2304574484
 21
78.5246325399
 31
0.0
  0
LINE
  5
B0
330
1F
100
AcDbEntity
  8
0
  6
Continuous
 62
     7
370
    25
100
AcDbLine
 10
99.2304574484
 20
508.5246325399
 30
0.0
 11
99.2304574484
 21
88.5246325399
 31
0.0
  0
SPLINE
  5
B1
330
1F
100
AcDbEntity
  8
0
  6
Continuous
 62
     7
370
    25
100
AcDbSpline
210
0.0
220
0.0
230
1.0
 70
     8
 71
     3
 72
    14
 73
    10
 74
     0
 42
0.00000001
 43
0.00000001
 40
0.0
 40
0.0
 40
0.0
 40
0.0
 40
0.2500000000000001
 40
0.2500000000000001
 40
0.5000000000000001
 40
0.5000000000000001
 40
0.7500000000000001
 40
0.7500000000000001
 40
1.0
 40
1.0
 40
1.0
 40
1.0
 10
447.2306670571862
 20
98.52463253988105
 30
0.0
 10
447.2306495899123
 20
98.52463253988117
 30
0.0
 10
447.2306321226383
 20
98.83696041976206
 30
0.0
 10
447.2305971880902
 20
100.0391958791626
 30
0.0
 10
447.2305797208161
 20
100.9286304303672
 30
0.0
 10
447.2305447862681
 20
103.1500718988224
 30
0.0
 10
447.2305273189942
 20
104.481204773716
 30
0.0
 10
447.2304923844461
 20
107.383657925176
 30
0.0
 10
447.2304749171722
 20
108.9538362103688
 30
0.0
 10
447.2304574498982
 20
110.5246325369165
 30
0.0
  0
SPLINE
  5
B2
330
1F
100
AcDbEntity
  8
0
  6
Continuous
 62
     7
370
    25
100
AcDbSpline
210
0.0
220
0.0
230
1.0
 70
     8
 71
     3
 72
    14
 73
    10
 74
     0
 42
0.00000001
 43
0.00000001
 40
0.0
 40
0.0
 40
0.0
 40
0.0
 40
0.25
 40
0.25
 40
0.5
 40
0.5
 40
0.75
 40
0.75
 40
1.0
 40
1.0
 40
1.0
 40
1.0
 10
447.230457449898
 20
110.5246325369183
 30
0.0
 10
448.801253776506
 20
110.5246150696963
 30
0.0
 10
450.3714320617972
 20
110.5245976024742
 30
0.0
 10
453.273885213498
 20
110.5245626680301
 30
0.0
 10
454.6050180885336
 20
110.5245452008079
 30
0.0
 10
456.8264595572797
 20
110.5245102663638
 30
0.0
 10
457.7158941086327
 20
110.5244927991418
 30
0.0
 10
458.9181295683039
 20
110.5244578646975
 30
0.0
 10
459.2304574483069
 20
110.5244403974755
 30
0.0
 10
459.2304574484048
 20
110.5244229302535
 30
0.0
  0
SPLINE
  5
B3
330
1F
100
AcDbEntity
  8
0
  6
Continuous
 62
     7
370
    25
100
AcDbSpline
210
0.0
220
0.0
230
1.0
 70
     8
 71
     3
 72
    14
 73
    10
 74
     0
 42
0.00000001
 43
0.00000001
 40
0.0
 40
0.0
 40
0.0
 40
0.0
 40
0.25
 40
0.25
 40
0.5
 40
0.5
 40
0.75
 40
0.75
 40
1.0
 40
1.0
 40
1.0
 40
1.0
 10
447.2304574519114
 20
486.5246325463639
 30
0.0
 10
448.8012537780457
 20
486.5246500080947
 30
0.0
 10
450.3714320629149
 20
486.5246674698257
 30
0.0
 10
453.2738852138389
 20
486.5247023932876
 30
0.0
 10
454.6050180885187
 20
486.5247198550184
 30
0.0
 10
456.8264595566042
 20
486.5247547784803
 30
0.0
 10
457.7158941076518
 20
486.5247722402112
 30
0.0
 10
458.9181295667983
 20
486.5248071636731
 30
0.0
 10
459.2304574465819
 20
486.524824625404
 30
0.0
 10
459.2304574465493
 20
486.5248420871349
 30
0.0
  0
SPLINE
  5
B4
330
1F
100
AcDbEntity
  8
0
  6
Continuous
 62
     7
370
    25
100
AcDbSpline
210
0.0
220
0.0
230
1.0
 70
     8
 71
     3
 72
    14
 73
    10
 74
     0
 42
0.00000001
 43
0.00000001
 40
0.0
 40
0.0
 40
0.0
 40
0.0
 40
0.25
 40
0.25
 40
0.5
 40
0.5
 40
0.75
 40
0.75
 40
1.0
 40
1.0
 40
1.0
 40
1.0
 10
447.230457429964
 20
498.524632532562
 30
0.0
 10
447.2302891059203
 20
498.5246050874038
 30
0.0
 10
447.230163986838
 20
498.2122568071041
 30
0.0
 10
447.2300127386551
 20
497.0099966875369
 30
0.0
 10
447.2299865404565
 20
496.1205578653176
 30
0.0
 10
447.2300190665683
 20
493.8991217016804
 30
0.0
 10
447.2300775404556
 20
492.5679983617866
 30
0.0
 10
447.2302433406014
 20
489.6655722457118
 30
0.0
 10
447.2303502911562
 20
488.0954113996438
 30
0.0
 10
447.2304574519114
 20
486.5246325463639
 30
0.0
  0
LINE
  5
B5
330
1F
100
AcDbEntity
  8
0
  6
Continuous
 62
     7
370
    25
100
AcDbLine
 10
131.2304574484
 20
486.5246325543
 30
0.0
 11
447.2304574519
 21
486.5246325543
 31
0.0
  0
SPLINE
  5
B6
330
1F
100
AcDbEntity
  8
0
  6
Continuous
 62
     7
370
    25
100
AcDbSpline
210
0.0
220
0.0
230
1.0
 70
     8
 71
     3
 72
    14
 73
    10
 74
     0
 42
0.00000001
 43
0.00000001
 40
0.0
 40
0.0
 40
0.0
 40
0.0
 40
0.25
 40
0.25
 40
0.5
 40
0.5
 40
0.75
 40
0.75
 40
1.0
 40
1.0
 40
1.0
 40
1.0
 10
131.2302478559987
 20
498.5246325398823
 30
0.0
 10
131.2302653220324
 20
498.5246325398823
 30
0.0
 10
131.2302827880661
 20
498.2123046604857
 30
0.0
 10
131.2303177201337
 20
497.0100692028788
 30
0.0
 10
131.2303351861675
 20
496.1206346529813
 30
0.0
 10
131.2303701182349
 20
493.899193187563
 30
0.0
 10
131.2303875842687
 20
492.5680603143955
 30
0.0
 10
131.2304225163361
 20
489.6656071662424
 30
0.0
 10
131.2304399823699
 20
488.0954288826258
 30
0.0
 10
131.2304574484037
 20
486.5246325572807
 30
0.0
  0
LINE
  5
B7
330
1F
100
AcDbEntity
  8
0
  6
Continuous
 62
     7
370
    25
100
AcDbLine
 10
447.2304574514
 20
486.5246325464
 30
0.0
 11
447.2304574514
 21
110.5246325369
 31
0.0
  0
SPLINE
  5
B8
330
1F
100
AcDbEntity
  8
0
  6
Continuous
 62
     7
370
    25
100
AcDbSpline
210
0.0
220
0.0
230
1.0
 70
     8
 71
     3
 72
    10
 73
     6
 74
     0
 42
0.00000001
 43
0.00000001
 40
0.0
 40
0.0
 40
0.0
 40
0.0
 40
0.5
 40
0.5
 40
1.0
 40
1.0
 40
1.0
 40
1.0
 10
121.1390225723041
 20
110.5246332733154
 30
0.0
 10
120.5202603652227
 20
110.5245982114856
 30
0.0
 10
120.0399503656412
 20
110.5245631496558
 30
0.0
 10
119.3950131506664
 20
110.5244930259962
 30
0.0
 10
119.2304574497481
 20
110.5244579641663
 30
0.0
 10
119.2304574503606
 20
110.5244229023366
 30
0.0
  0
SPLINE
  5
B9
330
1F
100
AcDbEntity
  8
0
  6
Continuous
 62
     7
370
    25
100
AcDbSpline
210
0.0
220
0.0
230
1.0
 70
     8
 71
     3
 72
    14
 73
    10
 74
     0
 42
0.00000001
 43
0.00000001
 40
0.0
 40
0.0
 40
0.0
 40
0.0
 40
0.25
 40
0.25
 40
0.5
 40
0.5
 40
0.75
 40
0.75
 40
1.0
 40
1.0
 40
1.0
 40
1.0
 10
131.2304574451792
 20
110.5246325396813
 30
0.0
 10
130.2314155986199
 20
110.5246326008176
 30
0.0
 10
129.2324383526752
 20
110.5246326619536
 30
0.0
 10
127.2963518863609
 20
110.524632784226
 30
0.0
 10
126.3593678583857
 20
110.5246328453623
 30
0.0
 10
124.6054257302656
 20
110.5246329676345
 30
0.0
 10
123.7885810445878
 20
110.5246330287707
 30
0.0
 10
122.3256270919105
 20
110.5246331510431
 30
0.0
 10
121.6796124233248
 20
110.5246332121793
 30
0.0
 10
121.1390225723041
 20
110.5246332733154
 30
0.0
  0
SPLINE
  5
BA
330
1F
100
AcDbEntity
  8
0
  6
Continuous
 62
     7
370
    25
100
AcDbSpline
210
0.0
220
0.0
230
1.0
 70
     8
 71
     3
 72
    14
 73
    10
 74
     0
 42
0.00000001
 43
0.00000001
 40
0.0
 40
0.0
 40
0.0
 40
0.0
 40
0.2500000000000001
 40
0.2500000000000001
 40
0.5000000000000001
 40
0.5000000000000001
 40
0.7500000000000001
 40
0.7500000000000001
 40
1.0
 40
1.0
 40
1.0
 40
1.0
 10
131.2304574721604
 20
98.52463254781644
 30
0.0
 10
131.2306837681232
 20
98.52465999278611
 30
0.0
 10
131.2308519791337
 20
98.83700827315475
 30
0.0
 10
131.2310553185097
 20
100.0392683933174
 30
0.0
 10
131.231090539771
 20
100.928707216062
 30
0.0
 10
131.2310468119816
 20
103.1501433809919
 30
0.0
 10
131.2309681996007
 20
104.4812667216506
 30
0.0
 10
131.2307452973614
 20
107.3836928391771
 30
0.0
 10
131.2306015126003
 20
108.9538536859293
 30
0.0
 10
131.2304574451792
 20
110.5246325396813
 30
0.0
  0
LINE
  5
BB
330
1F
100
AcDbEntity
  8
0
  6
Continuous
 62
     7
370
    25
100
AcDbLine
 10
131.2304574452
 20
110.52463254
 30
0.0
 11
447.2304574499
 21
110.52463254
 31
0.0
  0
LINE
  5
BC
330
1F
100
AcDbEntity
  8
0
  6
Continuous
 62
     7
370
    25
100
AcDbLine
 10
131.2304574484
 20
486.5246325573
 30
0.0
 11
131.2304574484
 21
110.5246325397
 31
0.0
  0
SPLINE
  5
BD
330
1F
100
AcDbEntity
  8
0
  6
Continuous
 62
     7
370
    25
100
AcDbSpline
210
0.0
220
0.0
230
1.0
 70
     8
 71
     3
 72
    14
 73
    10
 74
     0
 42
0.00000001
 43
0.00000001
 40
0.0
 40
0.0
 40
0.0
 40
0.0
 40
0.25
 40
0.25
 40
0.5
 40
0.5
 40
0.75
 40
0.75
 40
1.0
 40
1.0
 40
1.0
 40
1.0
 10
131.2304574484039
 20
486.5246325572807
 30
0.0
 10
129.6596611216716
 20
486.5246500225285
 30
0.0
 10
128.0894828362174
 20
486.5246674877764
 30
0.0
 10
125.1870296841746
 20
486.5247024182721
 30
0.0
 10
123.8558968089605
 20
486.5247198835199
 30
0.0
 10
121.6344553399003
 20
486.5247548140156
 30
0.0
 10
120.7450207884121
 20
486.5247722792635
 30
0.0
 10
119.5427853285553
 20
486.5248072097591
 30
0.0
 10
119.2304574485022
 20
486.524824675007
 30
0.0
 10
119.2304574484042
 20
486.5248421402548
 30
0.0
  0
ARC
  5
BE
330
1F
100
AcDbEntity
  8
0
  6
Continuous
 62
     7
370
    25
100
AcDbCircle
 10
289.2304574621
 20
378.5216519953
 30
0.0
 40
55.32500000000002
100
AcDbArc
 50
268.0418745297
 51
88.0418745297
  0
ARC
  5
BF
330
1F
100
AcDbEntity
  8
0
  6
Continuous
 62
     7
370
    25
100
AcDbCircle
 10
289.2304574621
 20
378.5216519953
 30
0.0
 40
55.32500000000002
100
AcDbArc
 50
88.0418745297
 51
268.0418745297
  0
ENDSEC
  0
SECTION
  2
OBJECTS
  0
DICTIONARY
  5
C
330
0
100
AcDbDictionary
281
     1
  3
ACAD_GROUP
350
D
  3
ACAD_LAYOUT
350
1A
  3
ACAD_MLINESTYLE
350
17
  3
ACAD_PLOTSETTINGS
350
19
  3
ACAD_PLOTSTYLENAME
350
E
  3
ACAD_SCALELIST
350
47
  3
DWGPROPS
350
C0
  0
DICTIONARY
  5
D
102
{ACAD_REACTORS
330
C
102
}
330
C
100
AcDbDictionary
281
     1
  0
DICTIONARY
  5
1A
102
{ACAD_REACTORS
330
C
102
}
330
C
100
AcDbDictionary
281
     1
  3
Layout1
350
1E
  3
Layout2
350
26
  3
Model
350
22
  0
DICTIONARY
  5
17
102
{ACAD_REACTORS
330
C
102
}
330
C
100
AcDbDictionary
281
     1
  3
Standard
350
18
  0
DICTIONARY
  5
19
102
{ACAD_REACTORS
330
C
102
}
330
C
100
AcDbDictionary
281
     1
  0
ACDBDICTIONARYWDFLT
  5
E
102
{ACAD_REACTORS
330
C
102
}
330
C
100
AcDbDictionary
281
     1
  3
Normal
350
F
100
AcDbDictionaryWithDefault
340
F
  0
DICTIONARY
  5
47
102
{ACAD_REACTORS
330
C
102
}
330
C
100
AcDbDictionary
281
     1
  3
A0
350
48
  3
A1
350
49
  3
A2
350
4A
  3
A3
350
4B
  3
A4
350
4C
  3
A5
350
4D
  3
A6
350
4E
  3
A7
350
4F
  3
A8
350
50
  3
A9
350
51
  3
B0
350
52
  3
B1
350
53
  3
B2
350
54
  3
B3
350
55
  3
B4
350
56
  3
B5
350
57
  3
B6
350
58
  3
B7
350
59
  3
B8
350
5A
  3
B9
350
5B
  3
C0
350
5C
  3
C1
350
5D
  3
C2
350
5E
  3
C3
350
5F
  3
C4
350
60
  3
C5
350
61
  3
C6
350
62
  3
C7
350
63
  3
C8
350
64
  3
C9
350
65
  3
D0
350
66
  3
D1
350
67
  3
D2
350
68
  0
XRECORD
  5
C0
102
{ACAD_REACTORS
330
C
102
}
330
C
100
AcDbXrecord
280
     1
  1
DWGPROPS COOKIE
  2

  3

  4

  6

  7

  8
villesi
  9

300
=
301
=
302
=
303
=
304
=
305
=
306
=
307
=
308
=
309
=
 40
0.0
 41
2459704.463862975
 42
2459704.46386316
  1

 90
        0
  0
LAYOUT
  5
1E
102
{ACAD_REACTORS
330
1A
102
}
330
1A
100
AcDbPlotSettings
  1

  2
none_device
  4

  6

 40
0.0
 41
0.0
 42
0.0
 43
0.0
 44
0.0
 45
0.0
 46
0.0
 47
0.0
 48
0.0
 49
0.0
140
0.0
141
0.0
142
1.0
143
1.0
 70
   688
 72
     1
 73
     0
 74
     5
  7

 75
    16
147
1.0
148
0.0
149
0.0
100
AcDbLayout
  1
Layout1
 70
     1
 71
     1
 10
0.0
 20
0.0
 11
420.0
 21
297.0
 12
0.0
 22
0.0
 32
0.0
 14
1.0000000000E+20
 24
1.0000000000E+20
 34
1.0000000000E+20
 15
-1.0000000000E+20
 25
-1.0000000000E+20
 35
-1.0000000000E+20
146
0.0
 13
0.0
 23
0.0
 33
0.0
 16
1.0
 26
0.0
 36
0.0
 17
0.0
 27
1.0
 37
0.0
 76
     0
330
1B
  0
LAYOUT
  5
26
102
{ACAD_REACTORS
330
1A
102
}
330
1A
100
AcDbPlotSettings
  1

  2
none_device
  4

  6

 40
0.0
 41
0.0
 42
0.0
 43
0.0
 44
0.0
 45
0.0
 46
0.0
 47
0.0
 48
0.0
 49
0.0
140
0.0
141
0.0
142
1.0
143
1.0
 70
   688
 72
     1
 73
     0
 74
     5
  7

 75
    16
147
1.0
148
0.0
149
0.0
100
AcDbLayout
  1
Layout2
 70
     1
 71
     2
 10
0.0
 20
0.0
 11
0.0
 21
0.0
 12
0.0
 22
0.0
 32
0.0
 14
0.0
 24
0.0
 34
0.0
 15
0.0
 25
0.0
 35
0.0
146
0.0
 13
0.0
 23
0.0
 33
0.0
 16
1.0
 26
0.0
 36
0.0
 17
0.0
 27
1.0
 37
0.0
 76
     0
330
23
  0
LAYOUT
  5
22
102
{ACAD_REACTORS
330
1A
102
}
330
1A
100
AcDbPlotSettings
  1

  2
none_device
  4
Letter_(8.50_x_11.00_Inches)
  6

 40
6.35
 41
6.35
 42
6.35000508
 43
6.35000508
 44
215.9
 45
279.4
 46
0.0
 47
0.0
 48
0.0
 49
0.0
140
0.0
141
0.0
142
1.0
143
1.0
 70
  1712
 72
     1
 73
     0
 74
     0
  7

 75
     0
147
1.0
148
0.0
149
0.0
100
AcDbLayout
  1
Model
 70
     1
 71
     0
 10
0.0
 20
0.0
 11
600.0
 21
600.0
 12
0.0
 22
0.0
 32
0.0
 14
0.0
 24
0.0
 34
0.0
 15
600.0
 25
600.0
 35
0.0
146
0.0
 13
0.0
 23
0.0
 33
0.0
 16
1.0
 26
0.0
 36
0.0
 17
0.0
 27
1.0
 37
0.0
 76
     0
330
1F
331
29
  0
MLINESTYLE
  5
18
102
{ACAD_REACTORS
330
17
102
}
330
17
100
AcDbMlineStyle
  2
Standard
 70
     0
  3

 62
   256
 51
90.0
 52
90.0
 71
     2
 49
0.5
 62
   256
  6
BYLAYER
 49
-0.5
 62
   256
  6
BYLAYER
  0
ACDBPLACEHOLDER
  5
F
102
{ACAD_REACTORS
330
E
102
}
330
E
  0
SCALE
  5
48
102
{ACAD_REACTORS
330
47
102
}
330
47
100
AcDbScale
 70
     0
300
1:1
140
1.0
141
1.0
290
     1
  0
SCALE
  5
49
102
{ACAD_REACTORS
330
47
102
}
330
47
100
AcDbScale
 70
     0
300
1:2
140
1.0
141
2.0
290
     0
  0
SCALE
  5
4A
102
{ACAD_REACTORS
330
47
102
}
330
47
100
AcDbScale
 70
     0
300
1:4
140
1.0
141
4.0
290
     0
  0
SCALE
  5
4B
102
{ACAD_REACTORS
330
47
102
}
330
47
100
AcDbScale
 70
     0
300
1:5
140
1.0
141
5.0
290
     0
  0
SCALE
  5
4C
102
{ACAD_REACTORS
330
47
102
}
330
47
100
AcDbScale
 70
     0
300
1:8
140
1.0
141
8.0
290
     0
  0
SCALE
  5
4D
102
{ACAD_REACTORS
330
47
102
}
330
47
100
AcDbScale
 70
     0
300
1:10
140
1.0
141
10.0
290
     0
  0
SCALE
  5
4E
102
{ACAD_REACTORS
330
47
102
}
330
47
100
AcDbScale
 70
     0
300
1:16
140
1.0
141
16.0
290
     0
  0
SCALE
  5
4F
102
{ACAD_REACTORS
330
47
102
}
330
47
100
AcDbScale
 70
     0
300
1:20
140
1.0
141
20.0
290
     0
  0
SCALE
  5
50
102
{ACAD_REACTORS
330
47
102
}
330
47
100
AcDbScale
 70
     0
300
1:30
140
1.0
141
30.0
290
     0
  0
SCALE
  5
51
102
{ACAD_REACTORS
330
47
102
}
330
47
100
AcDbScale
 70
     0
300
1:40
140
1.0
141
40.0
290
     0
  0
SCALE
  5
52
102
{ACAD_REACTORS
330
47
102
}
330
47
100
AcDbScale
 70
     0
300
1:50
140
1.0
141
50.0
290
     0
  0
SCALE
  5
53
102
{ACAD_REACTORS
330
47
102
}
330
47
100
AcDbScale
 70
     0
300
1:100
140
1.0
141
100.0
290
     0
  0
SCALE
  5
54
102
{ACAD_REACTORS
330
47
102
}
330
47
100
AcDbScale
 70
     0
300
2:1
140
2.0
141
1.0
290
     0
  0
SCALE
  5
55
102
{ACAD_REACTORS
330
47
102
}
330
47
100
AcDbScale
 70
     0
300
4:1
140
4.0
141
1.0
290
     0
  0
SCALE
  5
56
102
{ACAD_REACTORS
330
47
102
}
330
47
100
AcDbScale
 70
     0
300
8:1
140
8.0
141
1.0
290
     0
  0
SCALE
  5
57
102
{ACAD_REACTORS
330
47
102
}
330
47
100
AcDbScale
 70
     0
300
10:1
140
10.0
141
1.0
290
     0
  0
SCALE
  5
58
102
{ACAD_REACTORS
330
47
102
}
330
47
100
AcDbScale
 70
     0
300
100:1
140
100.0
141
1.0
290
     0
  0
SCALE
  5
59
102
{ACAD_REACTORS
330
47
102
}
330
47
100
AcDbScale
 70
     0
300
1/128" = 1'-0"
140
0.0078125
141
12.0
290
     0
  0
SCALE
  5
5A
102
{ACAD_REACTORS
330
47
102
}
330
47
100
AcDbScale
 70
     0
300
1/64" = 1'-0"
140
0.015625
141
12.0
290
     0
  0
SCALE
  5
5B
102
{ACAD_REACTORS
330
47
102
}
330
47
100
AcDbScale
 70
     0
300
1/32" = 1'-0"
140
0.03125
141
12.0
290
     0
  0
SCALE
  5
5C
102
{ACAD_REACTORS
330
47
102
}
330
47
100
AcDbScale
 70
     0
300
1/16" = 1'-0"
140
0.0625
141
12.0
290
     0
  0
SCALE
  5
5D
102
{ACAD_REACTORS
330
47
102
}
330
47
100
AcDbScale
 70
     0
300
3/32" = 1'-0"
140
0.09375
141
12.0
290
     0
  0
SCALE
  5
5E
102
{ACAD_REACTORS
330
47
102
}
330
47
100
AcDbScale
 70
     0
300
1/8" = 1'-0"
140
0.125
141
12.0
290
     0
  0
SCALE
  5
5F
102
{ACAD_REACTORS
330
47
102
}
330
47
100
AcDbScale
 70
     0
300
3/16" = 1'-0"
140
0.1875
141
12.0
290
     0
  0
SCALE
  5
60
102
{ACAD_REACTORS
330
47
102
}
330
47
100
AcDbScale
 70
     0
300
1/4" = 1'-0"
140
0.25
141
12.0
290
     0
  0
SCALE
  5
61
102
{ACAD_REACTORS
330
47
102
}
330
47
100
AcDbScale
 70
     0
300
3/8" = 1'-0"
140
0.375
141
12.0
290
     0
  0
SCALE
  5
62
102
{ACAD_REACTORS
330
47
102
}
330
47
100
AcDbScale
 70
     0
300
1/2" = 1'-0"
140
0.5
141
12.0
290
     0
  0
SCALE
  5
63
102
{ACAD_REACTORS
330
47
102
}
330
47
100
AcDbScale
 70
     0
300
3/4" = 1'-0"
140
0.75
141
12.0
290
     0
  0
SCALE
  5
64
102
{ACAD_REACTORS
330
47
102
}
330
47
100
AcDbScale
 70
     0
300
1" = 1'-0"
140
1.0
141
12.0
290
     0
  0
SCALE
  5
65
102
{ACAD_REACTORS
330
47
102
}
330
47
100
AcDbScale
 70
     0
300
1-1/2" = 1'-0"
140
1.5
141
12.0
290
     0
  0
SCALE
  5
66
102
{ACAD_REACTORS
330
47
102
}
330
47
100
AcDbScale
 70
     0
300
3" = 1'-0"
140
3.0
141
12.0
290
     0
  0
SCALE
  5
67
102
{ACAD_REACTORS
330
47
102
}
330
47
100
AcDbScale
 70
     0
300
6" = 1'-0"
140
6.0
141
12.0
290
     0
  0
SCALE
  5
68
102
{ACAD_REACTORS
330
47
102
}
330
47
100
AcDbScale
 70
     0
300
1'-0" = 1'-0"
140
12.0
141
12.0
290
     0
  0
ENDSEC
  0
EOF
