  0
SECTION
  2
HEADER
  9
$ACADVER
  1
AC1015
  9
$ACADMAINTVER
 70
     6
  9
$DWGCODEPAGE
  3
ANSI_1252
  9
$INSBASE
 10
0.0
 20
0.0
 30
0.0
  9
$EXTMIN
 10
0.0
 20
0.0
 30
0.0
  9
$EXTMAX
 10
800.0
 20
600.0
 30
0.0
  9
$LIMMIN
 10
0.0
 20
0.0
  9
$LIMMAX
 10
800.0
 20
600.0
  9
$ORTHOMODE
 70
     0
  9
$REGENMODE
 70
     1
  9
$FILLMODE
 70
     1
  9
$QTEXTMODE
 70
     0
  9
$MIRRTEXT
 70
     1
  9
$LTSCALE
 40
1.0
  9
$ATTMODE
 70
     1
  9
$TEXTSIZE
 40
3.5
  9
$TRACEWID
 40
1.0
  9
$TEXTSTYLE
  7
Standard
  9
$CLAYER
  8
0
  9
$CELTYPE
  6
ByLayer
  9
$CECOLOR
 62
   256
  9
$CELTSCALE
 40
1.0
  9
$DISPSILH
 70
     0
  9
$DIMSCALE
 40
1.0
  9
$DIMASZ
 40
3.302
  9
$DIMEXO
 40
1.0
  9
$DIMDLI
 40
3.75
  9
$DIMRND
 40
0.0
  9
$DIMDLE
 40
0.0
  9
$DIMEXE
 40
1.0
  9
$DIMTP
 40
0.0
  9
$DIMTM
 40
0.0
  9
$DIMTXT
 40
3.5
  9
$DIMCEN
 40
2.5
  9
$DIMTSZ
 40
0.0
  9
$DIMTOL
 70
     0
  9
$DIMLIM
 70
     0
  9
$DIMTIH
 70
     1
  9
$DIMTOH
 70
     1
  9
$DIMSE1
 70
     0
  9
$DIMSE2
 70
     0
  9
$DIMTAD
 70
     1
  9
$DIMZIN
 70
     1
  9
$DIMBLK
  1

  9
$DIMASO
 70
     1
  9
$DIMSHO
 70
     1
  9
$DIMPOST
  1

  9
$DIMAPOST
  1

  9
$DIMALT
 70
     0
  9
$DIMALTD
 70
     3
  9
$DIMALTF
 40
0.0393700787
  9
$DIMLFAC
 40
1.0
  9
$DIMTOFL
 70
     1
  9
$DIMTVP
 40
0.0
  9
$DIMTIX
 70
     0
  9
$DIMSOXD
 70
     0
  9
$DIMSAH
 70
     0
  9
$DIMBLK1
  1

  9
$DIMBLK2
  1

  9
$DIMSTYLE
  2
ISO-25
  9
$DIMCLRD
 70
     0
  9
$DIMCLRE
 70
     0
  9
$DIMCLRT
 70
     0
  9
$DIMTFAC
 40
1.0
  9
$DIMGAP
 40
1.524
  9
$DIMJUST
 70
     0
  9
$DIMSD1
 70
     0
  9
$DIMSD2
 70
     0
  9
$DIMTOLJ
 70
     0
  9
$DIMTZIN
 70
     1
  9
$DIMALTZ
 70
     0
  9
$DIMALTTZ
 70
     0
  9
$DIMUPT
 70
     0
  9
$DIMDEC
 70
     0
  9
$DIMTDEC
 70
     0
  9
$DIMALTU
 70
     2
  9
$DIMALTTD
 70
     3
  9
$DIMTXSTY
  7
Standard
  9
$DIMAUNIT
 70
     0
  9
$DIMADEC
 70
     2
  9
$DIMALTRND
 40
0.0
  9
$DIMAZIN
 70
     0
  9
$DIMDSEP
 70
    44
  9
$DIMATFIT
 70
     3
  9
$DIMFRAC
 70
     0
  9
$DIMLDRBLK
  1

  9
$DIMLUNIT
 70
     2
  9
$DIMLWD
 70
    -2
  9
$DIMLWE
 70
    -2
  9
$DIMTMOVE
 70
     0
  9
$LUNITS
 70
     2
  9
$LUPREC
 70
     2
  9
$SKETCHINC
 40
1.0
  9
$FILLETRAD
 40
10.0
  9
$AUNITS
 70
     0
  9
$AUPREC
 70
     2
  9
$MENU
  1
.
  9
$ELEVATION
 40
0.0
  9
$PELEVATION
 40
0.0
  9
$THICKNESS
 40
0.0
  9
$LIMCHECK
 70
     0
  9
$CHAMFERA
 40
0.0
  9
$CHAMFERB
 40
0.0
  9
$CHAMFERC
 40
0.0
  9
$CHAMFERD
 40
0.0
  9
$SKPOLY
 70
     0
  9
$TDCREATE
 40
2459704.596024734
  9
$TDUCREATE
 40
2459704.471024734
  9
$TDUPDATE
 40
2459704.596024988
  9
$TDUUPDATE
 40
2459704.471024988
  9
$TDINDWG
 40
0.0000000116
  9
$TDUSRTIMER
 40
0.0000000116
  9
$USRTIMER
 70
     1
  9
$ANGBASE
 50
0.0
  9
$ANGDIR
 70
     0
  9
$PDMODE
 70
     0
  9
$PDSIZE
 40
-1.0
  9
$PLINEWID
 40
0.0
  9
$SPLFRAME
 70
     0
  9
$SPLINETYPE
 70
     6
  9
$SPLINESEGS
 70
     8
  9
$HANDSEED
  5
E8
  9
$SURFTAB1
 70
     6
  9
$SURFTAB2
 70
     6
  9
$SURFTYPE
 70
     6
  9
$SURFU
 70
     6
  9
$SURFV
 70
     6
  9
$UCSBASE
  2

  9
$UCSNAME
  2

  9
$UCSORG
 10
0.0
 20
0.0
 30
0.0
  9
$UCSXDIR
 10
1.0
 20
0.0
 30
0.0
  9
$UCSYDIR
 10
0.0
 20
1.0
 30
0.0
  9
$UCSORTHOREF
  2

  9
$UCSORTHOVIEW
 70
     0
  9
$UCSORGTOP
 10
0.0
 20
0.0
 30
0.0
  9
$UCSORGBOTTOM
 10
0.0
 20
0.0
 30
0.0
  9
$UCSORGLEFT
 10
0.0
 20
0.0
 30
0.0
  9
$UCSORGRIGHT
 10
0.0
 20
0.0
 30
0.0
  9
$UCSORGFRONT
 10
0.0
 20
0.0
 30
0.0
  9
$UCSORGBACK
 10
0.0
 20
0.0
 30
0.0
  9
$PUCSBASE
  2

  9
$PUCSNAME
  2

  9
$PUCSORG
 10
0.0
 20
0.0
 30
0.0
  9
$PUCSXDIR
 10
1.0
 20
0.0
 30
0.0
  9
$PUCSYDIR
 10
0.0
 20
1.0
 30
0.0
  9
$PUCSORTHOREF
  2

  9
$PUCSORTHOVIEW
 70
     0
  9
$PUCSORGTOP
 10
0.0
 20
0.0
 30
0.0
  9
$PUCSORGBOTTOM
 10
0.0
 20
0.0
 30
0.0
  9
$PUCSORGLEFT
 10
0.0
 20
0.0
 30
0.0
  9
$PUCSORGRIGHT
 10
0.0
 20
0.0
 30
0.0
  9
$PUCSORGFRONT
 10
0.0
 20
0.0
 30
0.0
  9
$PUCSORGBACK
 10
0.0
 20
0.0
 30
0.0
  9
$USERI1
 70
     0
  9
$USERI2
 70
     0
  9
$USERI3
 70
     0
  9
$USERI4
 70
     0
  9
$USERI5
 70
     0
  9
$USERR1
 40
0.0
  9
$USERR2
 40
0.0
  9
$USERR3
 40
0.0
  9
$USERR4
 40
0.0
  9
$USERR5
 40
0.0
  9
$WORLDVIEW
 70
     1
  9
$SHADEDGE
 70
     3
  9
$SHADEDIF
 70
    70
  9
$TILEMODE
 70
     1
  9
$MAXACTVP
 70
    64
  9
$PINSBASE
 10
0.0
 20
0.0
 30
0.0
  9
$PLIMCHECK
 70
     0
  9
$PEXTMIN
 10
1.0000000000E+20
 20
1.0000000000E+20
 30
1.0000000000E+20
  9
$PEXTMAX
 10
-1.0000000000E+20
 20
-1.0000000000E+20
 30
-1.0000000000E+20
  9
$PLIMMIN
 10
0.0
 20
0.0
  9
$PLIMMAX
 10
420.0
 20
297.0
  9
$UNITMODE
 70
     0
  9
$VISRETAIN
 70
     1
  9
$PLINEGEN
 70
     0
  9
$PSLTSCALE
 70
     1
  9
$TREEDEPTH
 70
  3020
  9
$CMLSTYLE
  2
Standard
  9
$CMLJUST
 70
     0
  9
$CMLSCALE
 40
20.0
  9
$PROXYGRAPHICS
 70
     1
  9
$MEASUREMENT
 70
     1
  9
$CELWEIGHT
370
    -1
  9
$ENDCAPS
280
     0
  9
$JOINSTYLE
280
     0
  9
$LWDISPLAY
290
     1
  9
$INSUNITS
 70
     4
  9
$HYPERLINKBASE
  1

  9
$STYLESHEET
  1

  9
$XEDIT
290
     1
  9
$CEPSNTYPE
380
     0
  9
$PSTYLEMODE
290
     1
  9
$FINGERPRINTGUID
  2
{aa85c33c-5196-48d7-9209-33aaf93a62c2}
  9
$VERSIONGUID
  2
{FAEB1C32-E019-11D5-929B-00C0DF256EC4}
  9
$EXTNAMES
290
     1
  9
$PSVPSCALE
 40
0.0
  9
$OLESTARTUP
290
     0
  0
ENDSEC
  0
SECTION
  2
CLASSES
  0
CLASS
  1
ACDBDICTIONARYWDFLT
  2
AcDbDictionaryWithDefault
  3
ObjectDBX Classes
 90
        0
280
     0
281
     0
  0
CLASS
  1
VISUALSTYLE
  2
AcDbVisualStyle
  3
ObjectDBX Classes
 90
     4095
280
     0
281
     0
  0
CLASS
  1
MATERIAL
  2
AcDbMaterial
  3
ObjectDBX Classes
 90
     1153
280
     0
281
     0
  0
CLASS
  1
SCALE
  2
AcDbScale
  3
ObjectDBX Classes
 90
     1153
280
     0
281
     0
  0
CLASS
  1
TABLESTYLE
  2
AcDbTableStyle
  3
ObjectDBX Classes
 90
     4095
280
     0
281
     0
  0
CLASS
  1
MLEADERSTYLE
  2
AcDbMLeaderStyle
  3
ACDB_MLEADERSTYLE_CLASS
 90
     4095
280
     0
281
     0
  0
CLASS
  1
SUN
  2
AcDbSun
  3
SCENEOE
 90
     1153
280
     0
281
     0
  0
CLASS
  1
ACDBPLACEHOLDER
  2
AcDbPlaceHolder
  3
ObjectDBX Classes
 90
        0
280
     0
281
     0
  0
CLASS
  1
LAYOUT
  2
AcDbLayout
  3
ObjectDBX Classes
 90
        0
280
     0
281
     0
  0
ENDSEC
  0
SECTION
  2
TABLES
  0
TABLE
  2
VPORT
  5
8
330
0
100
AcDbSymbolTable
 70
     1
  0
VPORT
  5
29
330
8
100
AcDbSymbolTableRecord
100
AcDbViewportTableRecord
  2
*Active
 70
     0
 10
0.0
 20
0.0
 11
1.0
 21
1.0
 12
400.0
 22
300.0
 13
0.0
 23
0.0
 14
10.0
 24
10.0
 15
10.0
 25
10.0
 16
0.0
 26
0.0
 36
1.0
 17
0.0
 27
0.0
 37
0.0
 40
600.0
 41
1.3333333333
 42
50.0
 43
0.0
 44
0.0
 50
0.0
 51
0.0
 71
     0
 72
  2000
 73
     1
 74
     3
 75
     0
 76
     0
 77
     0
 78
     0
281
     0
 65
     1
110
0.0
120
0.0
130
0.0
111
1.0
121
0.0
131
0.0
112
0.0
122
1.0
132
0.0
 79
     0
146
0.0
  0
ENDTAB
  0
TABLE
  2
LTYPE
  5
5
330
0
100
AcDbSymbolTable
 70
     6
  0
LTYPE
  5
14
330
5
100
AcDbSymbolTableRecord
100
AcDbLinetypeTableRecord
  2
ByBlock
 70
     0
  3

 72
    65
 73
     0
 40
0.0
  0
LTYPE
  5
15
330
5
100
AcDbSymbolTableRecord
100
AcDbLinetypeTableRecord
  2
ByLayer
 70
     0
  3

 72
    65
 73
     0
 40
0.0
  0
LTYPE
  5
16
330
5
100
AcDbSymbolTableRecord
100
AcDbLinetypeTableRecord
  2
Continuous
 70
     0
  3
Solid line
 72
    65
 73
     0
 40
0.0
  0
LTYPE
  5
6E
330
5
100
AcDbSymbolTableRecord
100
AcDbLinetypeTableRecord
  2
HIDDEN
 70
     0
  3
Hidden __ __ __ __ __ __ __ __ __ __ __ __ __ __
 72
    65
 73
     2
 40
1.905
 49
1.27
 74
     0
 49
-0.635
 74
     0
  0
LTYPE
  5
6F
330
5
100
AcDbSymbolTableRecord
100
AcDbLinetypeTableRecord
  2
PHANTOM
 70
     0
  3
Phantom ______  __  __  ______  __  __  ______
 72
    65
 73
     6
 40
12.7
 49
6.35
 74
     0
 49
-1.27
 74
     0
 49
1.27
 74
     0
 49
-1.27
 74
     0
 49
1.27
 74
     0
 49
-1.27
 74
     0
  0
LTYPE
  5
70
330
5
100
AcDbSymbolTableRecord
100
AcDbLinetypeTableRecord
  2
CENTER
 70
     0
  3
Center ____ _ ____ _ ____ _ ____ _ ____ _ ____
 72
    65
 73
     4
 40
10.16
 49
6.35
 74
     0
 49
-1.27
 74
     0
 49
1.27
 74
     0
 49
-1.27
 74
     0
  0
LTYPE
  5
71
330
5
100
AcDbSymbolTableRecord
100
AcDbLinetypeTableRecord
  2
CENTERX2
 70
     0
  3
Center (2x) ________  __  ________  __  _____
 72
    65
 73
     4
 40
20.32
 49
12.7
 74
     0
 49
-2.54
 74
     0
 49
2.54
 74
     0
 49
-2.54
 74
     0
  0
LTYPE
  5
72
330
5
100
AcDbSymbolTableRecord
100
AcDbLinetypeTableRecord
  2
DOT2
 70
     0
  3
Dot (.5x) ........................................
 72
    65
 73
     2
 40
0.635
 49
0.0
 74
     0
 49
-0.635
 74
     0
  0
ENDTAB
  0
TABLE
  2
LAYER
  5
2
330
0
100
AcDbSymbolTable
 70
     2
  0
LAYER
  5
10
330
2
100
AcDbSymbolTableRecord
100
AcDbLayerTableRecord
  2
0
 70
     0
 62
     7
  6
Continuous
370
    -3
390
F
  0
LAYER
  5
73
330
2
100
AcDbSymbolTableRecord
100
AcDbLayerTableRecord
  2
TABLE_BL1
 70
     0
 62
   179
  6
Continuous
370
    -3
390
F
  0
ENDTAB
  0
TABLE
  2
STYLE
  5
3
330
0
100
AcDbSymbolTable
 70
     1
  0
STYLE
  5
11
330
3
100
AcDbSymbolTableRecord
100
AcDbTextStyleTableRecord
  2
Standard
 70
     0
 40
0.0
 41
1.0
 50
0.0
 71
     0
 42
3.5
  3
txt
  4

  0
ENDTAB
  0
TABLE
  2
VIEW
  5
6
330
0
100
AcDbSymbolTable
 70
     0
  0
ENDTAB
  0
TABLE
  2
UCS
  5
7
330
0
100
AcDbSymbolTable
 70
     0
  0
ENDTAB
  0
TABLE
  2
APPID
  5
9
330
0
100
AcDbSymbolTable
 70
     1
  0
APPID
  5
12
330
9
100
AcDbSymbolTableRecord
100
AcDbRegAppTableRecord
  2
ACAD
 70
     0
  0
ENDTAB
  0
TABLE
  2
DIMSTYLE
  5
A
330
0
100
AcDbSymbolTable
 70
     1
100
AcDbDimStyleTable
  0
DIMSTYLE
105
27
330
A
100
AcDbSymbolTableRecord
100
AcDbDimStyleTableRecord
  2
ISO-25
 70
     0
 41
2.5
 42
0.625
 43
3.75
 44
1.25
 73
     0
 74
     0
 77
     1
 78
     8
140
2.5
141
2.5
143
0.0393700787
147
0.625
171
     3
172
     1
178
     0
271
     2
272
     2
274
     3
278
    44
283
     0
284
     8
340
11
  0
ENDTAB
  0
TABLE
  2
BLOCK_RECORD
  5
1
330
0
100
AcDbSymbolTable
 70
     1
  0
BLOCK_RECORD
  5
1F
330
1
100
AcDbSymbolTableRecord
100
AcDbBlockTableRecord
  2
*Model_Space
340
22
  0
BLOCK_RECORD
  5
1B
330
1
100
AcDbSymbolTableRecord
100
AcDbBlockTableRecord
  2
*Paper_Space
340
1E
  0
BLOCK_RECORD
  5
23
330
1
100
AcDbSymbolTableRecord
100
AcDbBlockTableRecord
  2
*Paper_Space0
340
26
  0
ENDTAB
  0
ENDSEC
  0
SECTION
  2
BLOCKS
  0
BLOCK
  5
20
330
1F
100
AcDbEntity
  8
0
100
AcDbBlockBegin
  2
*Model_Space
 70
     0
 10
0.0
 20
0.0
 30
0.0
  3
*Model_Space
  1

  0
ENDBLK
  5
21
330
1F
100
AcDbEntity
  8
0
100
AcDbBlockEnd
  0
BLOCK
  5
1C
330
1B
100
AcDbEntity
 67
     1
  8
0
100
AcDbBlockBegin
  2
*Paper_Space
 70
     0
 10
0.0
 20
0.0
 30
0.0
  3
*Paper_Space
  1

  0
ENDBLK
  5
1D
330
1B
100
AcDbEntity
 67
     1
  8
0
100
AcDbBlockEnd
  0
BLOCK
  5
24
330
23
100
AcDbEntity
  8
0
100
AcDbBlockBegin
  2
*Paper_Space0
 70
     0
 10
0.0
 20
0.0
 30
0.0
  3
*Paper_Space0
  1

  0
ENDBLK
  5
25
330
23
100
AcDbEntity
  8
0
100
AcDbBlockEnd
  0
ENDSEC
  0
SECTION
  2
ENTITIES
  0
SPLINE
  5
74
330
1F
100
AcDbEntity
  8
0
  6
Continuous
 62
     7
370
    25
100
AcDbSpline
210
0.0
220
0.0
230
1.0
 70
     8
 71
     3
 72
    29
 73
    25
 74
     0
 42
0.00000001
 43
0.00000001
 40
0.0
 40
0.0
 40
0.0
 40
0.0
 40
0.0349321406882635
 40
0.0633980643159913
 40
0.0838985515737895
 40
0.1410481598295768
 40
0.1993926718331194
 40
0.2579538570990188
 40
0.3167358876867429
 40
0.3756685440136572
 40
0.4347110736298803
 40
0.4938368192040539
 40
0.5530116495173845
 40
0.6120983013386024
 40
0.6710428299972756
 40
0.7298261731686604
 40
0.7884258360426928
 40
0.846795814520617
 40
0.8655669647427027
 40
0.8834823951604177
 40
0.9012873219477365
 40
0.9267778521638325
 40
0.9604934909203239
 40
1.0
 40
1.0
 40
1.0
 40
1.0
 10
422.4172093773544
 20
411.32556848029
 30
0.0
 10
421.4022439505321
 20
412.2344314045413
 30
0.0
 10
419.5601912695233
 20
413.8839194974786
 30
0.0
 10
416.8587156954305
 20
415.7378481944237
 30
0.0
 10
413.2936127852997
 20
417.8333923511855
 30
0.0
 10
408.3998207443597
 20
419.9486724710126
 30
0.0
 10
401.7563393314359
 20
421.4827518817573
 30
0.0
 10
394.8783647176334
 20
421.7800136983283
 30
0.0
 10
388.0398491085773
 20
420.8081428115137
 30
0.0
 10
381.4785040026467
 20
418.5891011948493
 30
0.0
 10
375.4267011473182
 20
415.1921300966328
 30
0.0
 10
370.0986330461959
 20
410.7301909702208
 30
0.0
 10
365.6858023425976
 20
405.3590478041158
 30
0.0
 10
362.3447381285591
 20
399.2714105343393
 30
0.0
 10
360.1882544400999
 20
392.6869622364874
 30
0.0
 10
359.2822968542314
 20
385.8369602499294
 30
0.0
 10
359.6460117902597
 20
378.9611522075984
 30
0.0
 10
360.894596686528
 20
373.7875567787772
 30
0.0
 10
362.1924589476069
 20
370.317302937792
 30
0.0
 10
363.0499049469537
 20
368.3737314424772
 30
0.0
 10
364.1331281137062
 20
366.2474191880616
 30
0.0
 10
365.6791544998688
 20
363.6735004973496
 30
0.0
 10
367.9387821325261
 20
360.5465655775856
 30
0.0
 10
369.9354331641014
 20
358.5035793505842
 30
0.0
 10
371.0127125725718
 20
357.4013001043201
 30
0.0
  0
SPLINE
  5
75
330
1F
100
AcDbEntity
  8
0
  6
Continuous
 62
     7
370
    25
100
AcDbSpline
210
0.0
220
0.0
230
1.0
 70
     8
 71
     3
 72
    29
 73
    25
 74
     0
 42
0.00000001
 43
0.00000001
 40
0.0
 40
0.0
 40
0.0
 40
0.0
 40
0.0349321406882636
 40
0.0633980643159913
 40
0.0838985515737896
 40
0.1410481598295769
 40
0.1993926718331195
 40
0.2579538570990189
 40
0.316735887686743
 40
0.3756685440136576
 40
0.4347110736298804
 40
0.493836819204054
 40
0.5530116495173846
 40
0.6120983013386027
 40
0.6710428299972758
 40
0.7298261731686602
 40
0.7884258360426928
 40
0.8467958145206174
 40
0.8655669647427027
 40
0.8834823951604176
 40
0.9012873219477364
 40
0.9267778521638325
 40
0.9604934909203238
 40
1.0
 40
1.0
 40
1.0
 40
1.0
 10
371.0127125725718
 20
357.4013001043201
 30
0.0
 10
372.0276779993941
 20
356.4924371800689
 30
0.0
 10
373.8697306804029
 20
354.8429490871316
 30
0.0
 10
376.5712062544957
 20
352.9890203901865
 30
0.0
 10
380.1363091646264
 20
350.8934762334246
 30
0.0
 10
385.0301012055666
 20
348.7781961135976
 30
0.0
 10
391.6735826184903
 20
347.2441167028529
 30
0.0
 10
398.5515572322928
 20
346.9468548862819
 30
0.0
 10
405.390072841349
 20
347.9187257730965
 30
0.0
 10
411.9514179472796
 20
350.137767389761
 30
0.0
 10
418.003220802608
 20
353.5347384879773
 30
0.0
 10
423.3312889037304
 20
357.9966776143895
 30
0.0
 10
427.7441196073287
 20
363.3678207804944
 30
0.0
 10
431.0851838213672
 20
369.4554580502709
 30
0.0
 10
433.2416675098264
 20
376.0399063481228
 30
0.0
 10
434.1476250956949
 20
382.8899083346807
 30
0.0
 10
433.7839101596664
 20
389.7657163770118
 30
0.0
 10
432.5353252633982
 20
394.939311805833
 30
0.0
 10
431.2374630023194
 20
398.4095656468182
 30
0.0
 10
430.3800170029725
 20
400.353137142133
 30
0.0
 10
429.29679383622
 20
402.4794493965486
 30
0.0
 10
427.7507674500574
 20
405.0533680872604
 30
0.0
 10
425.4911398174001
 20
408.1803030070246
 30
0.0
 10
423.4944887858248
 20
410.223289234026
 30
0.0
 10
422.4172093773544
 20
411.32556848029
 30
0.0
  0
SPLINE
  5
76
330
1F
100
AcDbEntity
  8
0
  6
Continuous
 62
     7
370
    25
100
AcDbSpline
210
0.0
220
0.0
230
1.0
 70
     8
 71
     3
 72
    15
 73
    11
 74
     0
 42
0.00000001
 43
0.00000001
 40
0.0
 40
0.0
 40
0.0
 40
0.0
 40
0.1387435855266307
 40
0.2734326975449525
 40
0.4042922566017538
 40
0.5311667777457199
 40
0.6541694264909521
 40
0.7734860143845805
 40
0.8890752042322622
 40
1.0
 40
1.0
 40
1.0
 40
1.0
 10
634.6018829425925
 20
504.4064330171954
 30
0.0
 10
635.488477792605
 20
504.3623869153911
 30
0.0
 10
637.2357587248961
 20
504.2755818613994
 30
0.0
 10
639.696046185803
 20
503.4154607557348
 30
0.0
 10
641.8677623916407
 20
502.1529674371821
 30
0.0
 10
643.6841417079062
 20
500.5195842187833
 30
0.0
 10
645.0958973158552
 20
498.6192108375949
 30
0.0
 10
646.0753351147649
 20
496.5478729600304
 30
0.0
 10
646.6556774370779
 20
494.4046279077201
 30
0.0
 10
646.7222418729551
 20
492.9600679357092
 30
0.0
 10
646.7548387408042
 20
492.252661196853
 30
0.0
  0
LWPOLYLINE
  5
77
330
1F
100
AcDbEntity
  8
0
  6
Continuous
 62
     7
370
    25
100
AcDbPolyline
 90
       11
 70
   128
 43
0.0
 10
661.7377506404
 20
523.0137198144
 10
661.5093760954
 20
523.1423894773
 10
661.4306248003
 20
523.1849357536
 10
661.4067036524
 20
523.1976782246
 10
661.3994329342
 20
523.201534624
 10
661.3956009167
 20
523.2035640219
 10
661.3952074302
 20
523.2037722869
 10
661.3950978463
 20
523.2038302836
 10
661.3950650408
 20
523.2038476453
 10
661.3950469679
 20
523.2038572101
 10
661.3950499574
 20
523.203855628
  0
LWPOLYLINE
  5
78
330
1F
100
AcDbEntity
  8
0
  6
Continuous
 62
     7
370
    25
100
AcDbPolyline
 90
       11
 70
   128
 43
0.0
 10
131.6911401958
 20
85.7199541261
 10
131.8807092477
 20
85.6125670621
 10
131.946693764
 20
85.5764675571
 10
131.9671752927
 20
85.5653942308
 10
131.9736230152
 20
85.5619211291
 10
131.977290232
 20
85.5599485033
 10
131.9777505871
 20
85.5597010148
 10
131.9780225241
 20
85.5595548353
 10
131.9780869267
 20
85.5595202173
 10
131.9781031347
 20
85.5595115052
 10
131.9781004592
 20
85.5595129433
  0
LWPOLYLINE
  5
79
330
1F
100
AcDbEntity
  8
0
  6
Continuous
 62
     7
370
    25
100
AcDbPolyline
 90
       11
 70
   128
 43
0.0
 10
128.0683723792
 20
519.390363325
 10
127.960985215
 20
519.2007941033
 10
127.9248856832
 20
519.1348095384
 10
127.9138123524
 20
519.1143280013
 10
127.9103392512
 20
519.1078802795
 10
127.9083666276
 20
519.1042130669
 10
127.90811914
 20
519.1037527135
 10
127.9079729615
 20
519.1034807784
 10
127.907938344
 20
519.1034163768
 10
127.9079296325
 20
519.1034001699
 10
127.9079310709
 20
519.1034028458
  0
LWPOLYLINE
  5
7A
330
1F
100
AcDbEntity
  8
0
  6
Continuous
 62
     7
370
    25
100
AcDbPolyline
 90
       11
 70
   128
 43
0.0
 10
665.3630135495
 20
89.3452772322
 10
665.5011441216
 20
89.5911146128
 10
665.5464481752
 20
89.6754696975
 10
665.5598482188
 20
89.7008001953
 10
665.5638246064
 20
89.7083510896
 10
665.5650788344
 20
89.7107360575
 10
665.5658229356
 20
89.7121517411
 10
665.5659987105
 20
89.7124862412
 10
665.5660366461
 20
89.7125584368
 10
665.5660409406
 20
89.7125666098
 10
665.5660393409
 20
89.7125635652
  0
LINE
  5
7B
330
1F
100
AcDbEntity
  8
0
  6
Continuous
 62
     7
370
    25
100
AcDbLine
 10
150.2448744425
 20
500.836626435
 30
0.0
 11
150.2448756561
 21
500.8366276453
 31
0.0
  0
SPLINE
  5
7C
330
1F
100
AcDbEntity
  8
0
  6
Continuous
 62
     7
370
    25
100
AcDbSpline
210
0.0
220
0.0
230
1.0
 70
     8
 71
     3
 72
     9
 73
     5
 74
     0
 42
0.00000001
 43
0.00000001
 40
0.0
 40
0.0
 40
0.0
 40
0.0
 40
0.3658213433926797
 40
0.9999999999999999
 40
0.9999999999999999
 40
0.9999999999999999
 40
0.9999999999999999
 10
148.0918966777892
 20
497.829937354629
 30
0.0
 10
148.2964082152718
 20
498.2359154283499
 30
0.0
 10
148.8554557973124
 20
499.3456868538107
 30
0.0
 10
149.7056809873998
 20
500.2580355652931
 30
0.0
 10
150.2448756562633
 20
500.8366276454985
 30
0.0
  0
LINE
  5
7D
330
1F
100
AcDbEntity
  8
0
  6
Continuous
 62
     7
370
    25
100
AcDbLine
 10
150.2448756567
 20
500.836627646
 30
0.0
 11
150.2448767806
 21
500.8366287699
 31
0.0
  0
LWPOLYLINE
  5
7E
330
1F
100
AcDbEntity
  8
0
  6
Continuous
 62
     7
370
    25
100
AcDbPolyline
 90
        2
 70
   128
 43
0.0
 10
150.2448756486
 20
500.8366276378
 10
150.2448756486
 20
500.8366276378
  0
SPLINE
  5
7F
330
1F
100
AcDbEntity
  8
0
  6
Continuous
 62
     7
370
    25
100
AcDbSpline
210
0.0
220
0.0
230
1.0
 70
     8
 71
     3
 72
     9
 73
     5
 74
     0
 42
0.00000001
 43
0.00000001
 40
0.0
 40
0.0
 40
0.0
 40
0.0
 40
0.3529036622482843
 40
1.0
 40
1.0
 40
1.0
 40
1.0
 10
153.1841944665956
 20
502.9537785711121
 30
0.0
 10
152.8005754236196
 20
502.7605439606335
 30
0.0
 10
151.7135392604586
 20
502.2129876976933
 30
0.0
 10
150.8218709527019
 20
501.3773595558243
 30
0.0
 10
150.2448756562633
 20
500.8366276454985
 30
0.0
  0
SPLINE
  5
80
330
1F
100
AcDbEntity
  8
0
  6
Continuous
 62
     7
370
    25
100
AcDbSpline
210
0.0
220
0.0
230
1.0
 70
     8
 71
     3
 72
    11
 73
     7
 74
     0
 42
0.00000001
 43
0.00000001
 40
0.0
 40
0.0
 40
0.0
 40
0.0
 40
0.2733544361706283
 40
0.5502685865785887
 40
0.8307637395503312
 40
1.0
 40
1.0
 40
1.0
 40
1.0
 10
645.8128095214993
 20
111.7702920705474
 30
0.0
 10
645.4634733449458
 20
111.0622940550279
 30
0.0
 10
644.7602518175918
 20
109.6370782335543
 30
0.0
 10
643.2166331194401
 20
107.8483998251842
 30
0.0
 10
641.6644758442682
 20
106.4970177849647
 30
0.0
 10
640.5594694170816
 20
105.9359417965052
 30
0.0
 10
640.1436497746704
 20
105.7248059957111
 30
0.0
  0
SPLINE
  5
81
330
1F
100
AcDbEntity
  8
0
  6
Continuous
 62
     7
370
    25
100
AcDbSpline
210
0.0
220
0.0
230
1.0
 70
     8
 71
     3
 72
     9
 73
     5
 74
     0
 42
0.00000001
 43
0.00000001
 40
0.0
 40
0.0
 40
0.0
 40
0.0
 40
0.4978274012511427
 40
1.0
 40
1.0
 40
1.0
 40
1.0
 10
639.3290379779097
 20
105.2784209400291
 30
0.0
 10
640.030937155014
 20
105.6198901623277
 30
0.0
 10
641.440861910743
 20
106.3058090600029
 30
0.0
 10
642.6019681295971
 20
107.364707478148
 30
0.0
 10
643.1850438569427
 20
107.8964572485991
 30
0.0
  0
SPLINE
  5
82
330
1F
100
AcDbEntity
  8
0
  6
Continuous
 62
     7
370
    25
100
AcDbSpline
210
0.0
220
0.0
230
1.0
 70
     8
 71
     3
 72
     9
 73
     5
 74
     0
 42
0.00000001
 43
0.00000001
 40
0.0
 40
0.0
 40
0.0
 40
0.0
 40
0.5001049070914523
 40
1.0
 40
1.0
 40
1.0
 40
1.0
 10
150.2448769514548
 20
107.8964592803882
 30
0.0
 10
149.7131590931379
 20
108.4787083666417
 30
0.0
 10
148.6499464535955
 20
109.6429622621692
 30
0.0
 10
147.9613404539261
 20
111.0612671707561
 30
0.0
 10
147.6171096937439
 20
111.7702708348069
 30
0.0
  0
LINE
  5
83
330
1F
100
AcDbEntity
  8
0
  6
Continuous
 62
     7
370
    25
100
AcDbLine
 10
153.8644231527
 20
105.4079149659
 30
0.0
 11
153.2560047571
 21
105.7410556001
 31
0.0
  0
ARC
  5
84
330
1F
100
AcDbEntity
  8
0
  6
Continuous
 62
     7
370
    25
100
AcDbCircle
 10
396.714960975
 20
384.3634342923
 30
0.0
 40
36.31056399417609
100
AcDbArc
 50
226.3704209227
 51
46.3704209396
  0
ARC
  5
85
330
1F
100
AcDbEntity
  8
0
  6
Continuous
 62
     7
370
    25
100
AcDbCircle
 10
396.714960975
 20
384.3634342923
 30
0.0
 40
36.31056399417609
100
AcDbArc
 50
46.3704209396
 51
226.3704209227
  0
ARC
  5
86
330
1F
100
AcDbEntity
  8
0
  6
Continuous
 62
     7
370
    25
100
AcDbCircle
 10
396.714960975
 20
384.3634342923
 30
0.0
 40
38.29899805700009
100
AcDbArc
 50
196.3719887255
 51
16.3719887255
  0
ARC
  5
87
330
1F
100
AcDbEntity
  8
0
  6
Continuous
 62
     7
370
    25
100
AcDbCircle
 10
396.714960975
 20
384.3634342923
 30
0.0
 40
39.50000000000013
100
AcDbArc
 50
196.3719887255
 51
16.371988749
  0
ARC
  5
88
330
1F
100
AcDbEntity
  8
0
  6
Continuous
 62
     7
370
    25
100
AcDbCircle
 10
396.714960975
 20
384.3634342923
 30
0.0
 40
38.29899805700009
100
AcDbArc
 50
16.3719887255
 51
196.3719887255
  0
ARC
  5
89
330
1F
100
AcDbEntity
  8
0
  6
Continuous
 62
     7
370
    25
100
AcDbCircle
 10
396.714960975
 20
384.3634342923
 30
0.0
 40
39.50000000000013
100
AcDbArc
 50
16.371988749
 51
196.3719887152
  0
SPLINE
  5
8A
330
1F
100
AcDbEntity
  8
0
  6
Continuous
 62
     7
370
    25
100
AcDbSpline
210
0.0
220
0.0
230
1.0
 70
     8
 71
     3
 72
    10
 73
     6
 74
     0
 42
0.00000001
 43
0.00000001
 40
0.0
 40
0.0
 40
0.0
 40
0.0
 40
0.3426791293767207
 40
0.686484500902134
 40
1.0
 40
1.0
 40
1.0
 40
1.0
 10
634.7150784852121
 20
504.3686862907066
 30
0.0
 10
635.4980958408754
 20
504.3217328720833
 30
0.0
 10
637.0667040008702
 20
504.2276717187008
 30
0.0
 10
639.2844082003948
 20
503.5633341891064
 30
0.0
 10
640.5835951634328
 20
502.8037070398988
 30
0.0
 10
641.2032548568063
 20
502.4413955791563
 30
0.0
  0
SPLINE
  5
8B
330
1F
100
AcDbEntity
  8
0
  6
Continuous
 62
     7
370
    25
100
AcDbSpline
210
0.0
220
0.0
230
1.0
 70
     8
 71
     3
 72
    10
 73
     6
 74
     0
 42
0.00000001
 43
0.00000001
 40
0.0
 40
0.0
 40
0.0
 40
0.0
 40
0.3311062999731198
 40
0.6662050865460154
 40
1.0
 40
1.0
 40
1.0
 40
1.0
 10
644.7051312112864
 20
499.0144245252743
 30
0.0
 10
645.0988955501641
 20
498.3432460623438
 30
0.0
 10
645.8911722464458
 20
496.9927960527224
 30
0.0
 10
646.5750325876993
 20
494.718281118827
 30
0.0
 10
646.6696980904936
 20
493.1495190558554
 30
0.0
 10
646.7169385762554
 20
492.3666670167071
 30
0.0
  0
SPLINE
  5
8C
330
1F
100
AcDbEntity
  8
0
  6
Continuous
 62
     7
370
    25
100
AcDbSpline
210
0.0
220
0.0
230
1.0
 70
     8
 71
     3
 72
     9
 73
     5
 74
     0
 42
0.00000001
 43
0.00000001
 40
0.0
 40
0.0
 40
0.0
 40
0.0
 40
0.0442808663732488
 40
1.0
 40
1.0
 40
1.0
 40
1.0
 10
634.7161292500349
 20
504.4090727882706
 30
0.0
 10
634.7161303999487
 20
504.4072577942079
 30
0.0
 10
634.716156368589
 20
504.3662695703683
 30
0.0
 10
634.7156052944491
 20
504.3675049579698
 30
0.0
 10
634.7150786223494
 20
504.3686856415378
 30
0.0
  0
SPLINE
  5
8D
330
1F
100
AcDbEntity
  8
0
  6
Continuous
 62
     7
370
    25
100
AcDbSpline
210
0.0
220
0.0
230
1.0
 70
     8
 71
     3
 72
    13
 73
     9
 74
     0
 42
0.00000001
 43
0.00000001
 40
0.0
 40
0.0
 40
0.0
 40
0.0
 40
0.2499999999999987
 40
0.2499999999999987
 40
0.4999999999999973
 40
0.7499999999999987
 40
0.7499999999999987
 40
1.0
 40
1.0
 40
1.0
 40
1.0
 10
648.7148939426239
 20
492.3665424634438
 30
0.0
 10
648.7131896640475
 20
494.1870926322961
 30
0.0
 10
648.3504384201597
 20
496.0288116827683
 30
0.0
 10
646.9479030986214
 20
499.4204671762761
 30
0.0
 10
644.8697295274424
 20
502.5216590911411
 30
0.0
 10
641.7687808465788
 20
504.5991563494296
 30
0.0
 10
638.3777743016916
 20
506.002294313154
 30
0.0
 10
636.536604196703
 20
506.3660307797092
 30
0.0
 10
634.7149472783622
 20
506.3664750040009
 30
0.0
  0
LINE
  5
8E
330
1F
100
AcDbEntity
  8
0
  6
Continuous
 62
     7
370
    25
100
AcDbLine
 10
646.7940537955
 20
492.3665425883
 30
0.0
 11
646.7149606952
 21
492.3665425883
 31
0.0
  0
SPLINE
  5
8F
330
1F
100
AcDbEntity
  8
0
  6
Continuous
 62
     7
370
    25
100
AcDbSpline
210
0.0
220
0.0
230
1.0
 70
     8
 71
     3
 72
    13
 73
     9
 74
     0
 42
0.00000001
 43
0.00000001
 40
0.0
 40
0.0
 40
0.0
 40
0.0
 40
0.25
 40
0.25
 40
0.5
 40
0.75
 40
0.75
 40
1.0
 40
1.0
 40
1.0
 40
1.0
 10
146.7128778821955
 20
492.3666627910186
 30
0.0
 10
146.7130326017497
 20
493.9285676515639
 30
0.0
 10
147.0252856755536
 20
495.5062244178285
 30
0.0
 10
148.2280252034922
 20
498.4134802614228
 30
0.0
 10
150.0079254069554
 20
501.0736946141364
 30
0.0
 10
152.6676289835061
 20
502.8536759720892
 30
0.0
 10
155.5751654109412
 20
504.056037364088
 30
0.0
 10
157.1533808408384
 20
504.3678555250817
 30
0.0
 10
158.7148387769776
 20
504.3685817550692
 30
0.0
  0
SPLINE
  5
90
330
1F
100
AcDbEntity
  8
0
  6
Continuous
 62
     7
370
    25
100
AcDbSpline
210
0.0
220
0.0
230
1.0
 70
     8
 71
     3
 72
    10
 73
     6
 74
     0
 42
0.00000001
 43
0.00000001
 40
0.0
 40
0.0
 40
0.0
 40
0.0
 40
0.5
 40
0.5
 40
1.0
 40
1.0
 40
1.0
 40
1.0
 10
144.715028221919
 20
492.3665291348612
 30
0.0
 10
145.2355309587725
 20
492.3654986791518
 30
0.0
 10
145.7481398699273
 20
492.3672655388513
 30
0.0
 10
146.4933806583105
 20
492.3682837113894
 30
0.0
 10
146.7260304446779
 20
492.3675356482232
 30
0.0
 10
146.7128789664173
 20
492.3666628677262
 30
0.0
  0
SPLINE
  5
91
330
1F
100
AcDbEntity
  8
0
  6
Continuous
 62
     7
370
    25
100
AcDbSpline
210
0.0
220
0.0
230
1.0
 70
     8
 71
     3
 72
    13
 73
     9
 74
     0
 42
0.00000001
 43
0.00000001
 40
0.0
 40
0.0
 40
0.0
 40
0.0
 40
0.25
 40
0.25
 40
0.5
 40
0.75
 40
0.75
 40
1.0
 40
1.0
 40
1.0
 40
1.0
 10
158.7149608211612
 20
506.3664757383354
 30
0.0
 10
156.8935801157994
 20
506.365669433935
 30
0.0
 10
155.0525233991768
 20
506.0022488363301
 30
0.0
 10
151.6613659532864
 20
504.5992275924409
 30
0.0
 10
148.5598979631678
 20
502.5213655940781
 30
0.0
 10
146.4820897736344
 20
499.4206924407732
 30
0.0
 10
145.0794364432956
 20
496.0291886627608
 30
0.0
 10
144.7163688209303
 20
494.1873561989968
 30
0.0
 10
144.715028221919
 20
492.3665291348612
 30
0.0
  0
SPLINE
  5
92
330
1F
100
AcDbEntity
  8
0
  6
Continuous
 62
     7
370
    25
100
AcDbSpline
210
0.0
220
0.0
230
1.0
 70
    24
 71
     3
 72
    14
 73
    10
 74
     0
 42
0.00000001
 43
0.00000001
 40
0.0
 40
0.0
 40
0.0
 40
0.0
 40
0.25
 40
0.25
 40
0.5
 40
0.5
 40
0.75
 40
0.75
 40
1.0
 40
1.0
 40
1.0
 40
1.0
 10
158.714960714766
 20
506.3665142979149
 30
0.0
 10
158.714960714766
 20
506.1046959684502
 30
0.0
 10
158.714960714766
 20
505.8448321810568
 30
0.0
 10
158.714960714766
 20
505.3623497442435
 30
0.0
 10
158.714960714766
 20
505.139458895325
 30
0.0
 10
158.714960714766
 20
504.7658080933321
 30
0.0
 10
158.714960714766
 20
504.6173345464815
 30
0.0
 10
158.714960714766
 20
504.4183051542341
 30
0.0
 10
158.714960714766
 20
504.3662397963309
 30
0.0
 10
158.714960714766
 20
504.3665425683204
 30
0.0
  0
SPLINE
  5
93
330
1F
100
AcDbEntity
  8
0
  6
Continuous
 62
     7
370
    25
100
AcDbSpline
210
0.0
220
0.0
230
1.0
 70
     8
 71
     3
 72
    13
 73
     9
 74
     0
 42
0.00000001
 43
0.00000001
 40
0.0
 40
0.0
 40
0.0
 40
0.0
 40
0.25
 40
0.25
 40
0.5
 40
0.75
 40
0.75
 40
1.0
 40
1.0
 40
1.0
 40
1.0
 10
158.7148398655411
 20
104.3644753348594
 30
0.0
 10
157.1531132924236
 20
104.3648382214039
 30
0.0
 10
155.5753256821568
 20
104.67695444407
 30
0.0
 10
152.6679050171062
 20
105.8795431679677
 30
0.0
 10
150.0076162097322
 20
107.659407219173
 30
0.0
 10
148.228168557377
 20
110.319635589894
 30
0.0
 10
147.0250911923175
 20
113.2264916982444
 30
0.0
 10
146.7122453245217
 20
114.8037214260768
 30
0.0
 10
146.7128233748639
 20
116.3664245768234
 30
0.0
  0
SPLINE
  5
94
330
1F
100
AcDbEntity
  8
0
  6
Continuous
 62
     7
370
    25
100
AcDbSpline
210
0.0
220
0.0
230
1.0
 70
     8
 71
     3
 72
    10
 73
     6
 74
     0
 42
0.00000001
 43
0.00000001
 40
0.0
 40
0.0
 40
0.0
 40
0.0
 40
0.5
 40
0.5
 40
1.0
 40
1.0
 40
1.0
 40
1.0
 10
158.7149741128226
 20
102.366610188333
 30
0.0
 10
158.7122063172654
 20
102.883183613519
 30
0.0
 10
158.7144707510553
 20
103.3999637995112
 30
0.0
 10
158.7155624826464
 20
104.1473953684993
 30
0.0
 10
158.7143888689542
 20
104.3780660543138
 30
0.0
 10
158.71483981608
 20
104.3644765938282
 30
0.0
  0
SPLINE
  5
95
330
1F
100
AcDbEntity
  8
0
  6
Continuous
 62
     7
370
    25
100
AcDbSpline
210
0.0
220
0.0
230
1.0
 70
     8
 71
     3
 72
    13
 73
     9
 74
     0
 42
0.00000001
 43
0.00000001
 40
0.0
 40
0.0
 40
0.0
 40
0.0
 40
0.25
 40
0.25
 40
0.5
 40
0.75
 40
0.75
 40
1.0
 40
1.0
 40
1.0
 40
1.0
 10
144.7150275675171
 20
116.3665426888421
 30
0.0
 10
144.7155651661236
 20
114.5448835022034
 30
0.0
 10
145.0792647572839
 20
112.7040756764757
 30
0.0
 10
146.4823915705622
 20
109.3129783674463
 30
0.0
 10
148.5599355450684
 20
106.2111614207553
 30
0.0
 10
151.6615571455998
 20
104.1343440119286
 30
0.0
 10
155.0519205988045
 20
102.7305408632242
 30
0.0
 10
156.8920626244983
 20
102.3657494396731
 30
0.0
 10
158.7149741128226
 20
102.366610188333
 30
0.0
  0
SPLINE
  5
96
330
1F
100
AcDbEntity
  8
0
  6
Continuous
 62
     7
370
    25
100
AcDbSpline
210
0.0
220
0.0
230
1.0
 70
    24
 71
     3
 72
    14
 73
    10
 74
     0
 42
0.00000001
 43
0.00000001
 40
0.0
 40
0.0
 40
0.0
 40
0.0
 40
0.25
 40
0.25
 40
0.5
 40
0.5
 40
0.75
 40
0.75
 40
1.0
 40
1.0
 40
1.0
 40
1.0
 10
144.7149890051349
 20
116.3665425882806
 30
0.0
 10
144.9768073345516
 20
116.3665425882806
 30
0.0
 10
145.2366711218979
 20
116.3665425882807
 30
0.0
 10
145.7191535586366
 20
116.3665425882806
 30
0.0
 10
145.9420444075272
 20
116.3665425882807
 30
0.0
 10
146.3156952095045
 20
116.3665425882806
 30
0.0
 10
146.4641687563692
 20
116.3665425882807
 30
0.0
 10
146.6631981486833
 20
116.3665425882806
 30
0.0
 10
146.71526350664
 20
116.3665425882808
 30
0.0
 10
146.7149607347269
 20
116.3665425882806
 30
0.0
  0
SPLINE
  5
97
330
1F
100
AcDbEntity
  8
0
  6
Continuous
 62
     7
370
    25
100
AcDbSpline
210
0.0
220
0.0
230
1.0
 70
     8
 71
     3
 72
    13
 73
     9
 74
     0
 42
0.00000001
 43
0.00000001
 40
0.0
 40
0.0
 40
0.0
 40
0.0
 40
0.25
 40
0.25
 40
0.5
 40
0.75
 40
0.75
 40
1.0
 40
1.0
 40
1.0
 40
1.0
 10
646.7170691604724
 20
116.3664234777338
 30
0.0
 10
646.717275528708
 20
114.8042286764863
 30
0.0
 10
646.4047687885067
 20
113.2266205737243
 30
0.0
 10
645.2018026907806
 20
110.3195168612647
 30
0.0
 10
643.4219344892158
 20
107.6595156335905
 30
0.0
 10
640.7622056440892
 20
105.8795028625586
 30
0.0
 10
637.8547025910565
 20
104.6769606667011
 30
0.0
 10
636.2765350837238
 20
104.3649708740217
 30
0.0
 10
634.7150819144429
 20
104.3644882255922
 30
0.0
  0
SPLINE
  5
98
330
1F
100
AcDbEntity
  8
0
  6
Continuous
 62
     7
370
    25
100
AcDbSpline
210
0.0
220
0.0
230
1.0
 70
     8
 71
     3
 72
    13
 73
     9
 74
     0
 42
0.00000001
 43
0.00000001
 40
0.0
 40
0.0
 40
0.0
 40
0.0
 40
0.25
 40
0.25
 40
0.5
 40
0.75
 40
0.75
 40
1.0
 40
1.0
 40
1.0
 40
1.0
 10
648.7148937932099
 20
116.3665391051929
 30
0.0
 10
648.4557523574783
 20
116.3656866489089
 30
0.0
 10
648.1915496447943
 20
116.365381937906
 30
0.0
 10
647.7074636766096
 20
116.3649978703831
 30
0.0
 10
647.2673810311405
 20
116.3648481238617
 30
0.0
 10
646.9676376422428
 20
116.3650794589316
 30
0.0
 10
646.7642303203003
 20
116.3654565455235
 30
0.0
 10
646.7107102847281
 20
116.3657133072144
 30
0.0
 10
646.7170682290656
 20
116.3664233688409
 30
0.0
  0
SPLINE
  5
99
330
1F
100
AcDbEntity
  8
0
  6
Continuous
 62
     7
370
    25
100
AcDbSpline
210
0.0
220
0.0
230
1.0
 70
     8
 71
     3
 72
    13
 73
     9
 74
     0
 42
0.00000001
 43
0.00000001
 40
0.0
 40
0.0
 40
0.0
 40
0.0
 40
0.25
 40
0.25
 40
0.5
 40
0.75
 40
0.75
 40
1.0
 40
1.0
 40
1.0
 40
1.0
 10
634.7149606197567
 20
102.3666095443707
 30
0.0
 10
636.5363444955876
 20
102.3670884929748
 30
0.0
 10
638.377458251421
 20
102.7308548161795
 30
0.0
 10
641.7687337940654
 20
104.1339688147311
 30
0.0
 10
644.8703194003953
 20
106.2113641070903
 30
0.0
 10
646.9473489413153
 20
109.3131914615033
 30
0.0
 10
648.3508423576445
 20
112.7039101393209
 30
0.0
 10
648.715197626626
 20
114.544317620149
 30
0.0
 10
648.7148937932099
 20
116.3665391051929
 30
0.0
  0
SPLINE
  5
9A
330
1F
100
AcDbEntity
  8
0
  6
Continuous
 62
     7
370
    25
100
AcDbSpline
210
0.0
220
0.0
230
1.0
 70
     8
 71
     3
 72
    13
 73
     9
 74
     0
 42
0.00000001
 43
0.00000001
 40
0.0
 40
0.0
 40
0.0
 40
0.0
 40
0.25
 40
0.25
 40
0.5
 40
0.75
 40
0.75
 40
1.0
 40
1.0
 40
1.0
 40
1.0
 10
634.7150819141656
 20
104.3644896021975
 30
0.0
 10
634.7150496046501
 20
104.3716206677719
 30
0.0
 10
634.7150268441112
 20
104.3183895738446
 30
0.0
 10
634.71499359795
 20
104.11540061476
 30
0.0
 10
634.7149726379823
 20
103.8159064547988
 30
0.0
 10
634.7149669679459
 20
103.3756575686404
 30
0.0
 10
634.7149651046411
 20
102.8911591609598
 30
0.0
 10
634.7149661194088
 20
102.6266325452666
 30
0.0
 10
634.7149606197567
 20
102.3666095443706
 30
0.0
  0
LINE
  5
9B
330
1F
100
AcDbEntity
  8
0
  6
Continuous
 62
     7
370
    25
100
AcDbLine
 10
146.7149607148
 20
492.3666624206
 30
0.0
 11
146.7149607148
 21
116.3664227142
 31
0.0
  0
LINE
  5
9C
330
1F
100
AcDbEntity
  8
0
  6
Continuous
 62
     7
370
    25
100
AcDbLine
 10
144.7149903804
 20
492.3665291628
 30
0.0
 11
144.7149897063
 21
116.3665426777
 31
0.0
  0
LINE
  5
9D
330
1F
100
AcDbEntity
  8
0
  6
Continuous
 62
     7
370
    25
100
AcDbLine
 10
634.7150805623
 20
504.3665425883
 30
0.0
 11
158.7148408724
 21
504.3665425883
 31
0.0
  0
LINE
  5
9E
330
1F
100
AcDbEntity
  8
0
  6
Continuous
 62
     7
370
    25
100
AcDbLine
 10
634.7149472879
 20
506.3665128548
 30
0.0
 11
158.7149608042
 21
506.3665135967
 31
0.0
  0
LINE
  5
9F
330
1F
100
AcDbEntity
  8
0
  6
Continuous
 62
     7
370
    25
100
AcDbLine
 10
158.714840867
 20
104.3665425883
 30
0.0
 11
634.7150805181
 21
104.3665425883
 31
0.0
  0
LINE
  5
A0
330
1F
100
AcDbEntity
  8
0
  6
Continuous
 62
     7
370
    25
100
AcDbLine
 10
158.7149741304
 20
102.3665723218
 30
0.0
 11
634.7149606297
 21
102.3665715585
 31
0.0
  0
LINE
  5
A1
330
1F
100
AcDbEntity
  8
0
  6
Continuous
 62
     7
370
    25
100
AcDbLine
 10
646.7149607148
 20
116.3664227602
 30
0.0
 11
646.7149607147
 21
492.3666624466
 31
0.0
  0
LINE
  5
A2
330
1F
100
AcDbEntity
  8
0
  6
Continuous
 62
     7
370
    25
100
AcDbLine
 10
648.7149607192
 20
116.3665391113
 30
0.0
 11
648.7149607192
 21
492.3665424988
 31
0.0
  0
SPLINE
  5
A3
330
1F
100
AcDbEntity
  8
0
  6
Continuous
 62
     7
370
    25
100
AcDbSpline
210
0.0
220
0.0
230
1.0
 70
     8
 71
     3
 72
    30
 73
    26
 74
     0
 42
0.00000001
 43
0.00000001
 40
0.0
 40
0.0
 40
0.0
 40
0.0
 40
0.1249999999999898
 40
0.1249999999999898
 40
0.1874999999999848
 40
0.1874999999999848
 40
0.2499999999999797
 40
0.2499999999999797
 40
0.3124999999999746
 40
0.3124999999999746
 40
0.3749999999999695
 40
0.3749999999999695
 40
0.4999999999999594
 40
0.4999999999999594
 40
0.5624999999999621
 40
0.5624999999999621
 40
0.6249999999999649
 40
0.6249999999999649
 40
0.7499999999999738
 40
0.7499999999999738
 40
0.8124999999999781
 40
0.8124999999999781
 40
0.8749999999999825
 40
0.8749999999999825
 40
1.0
 40
1.0
 40
1.0
 40
1.0
 10
127.214961448665
 20
94.36654258702318
 30
0.0
 10
127.2138863892715
 20
93.73908620391511
 30
0.0
 10
127.2755527138401
 20
93.12228368824313
 30
0.0
 10
127.4570408710885
 20
92.21219073056022
 30
0.0
 10
127.5324409006282
 20
91.91135719702034
 30
0.0
 10
127.713410558377
 20
91.31481311073095
 30
0.0
 10
127.8194003576252
 20
91.01848504168838
 30
0.0
 10
128.0582923724263
 20
90.44171766533645
 30
0.0
 10
128.191511582757
 20
90.15997415334301
 30
0.0
 10
128.4856524244333
 20
89.60984269792985
 30
0.0
 10
128.6474098052317
 20
89.34026692559324
 30
0.0
 10
129.1691577093363
 20
88.56209899331178
 30
0.0
 10
129.5636079784034
 20
88.08519382217742
 30
0.0
 10
130.2207340090639
 20
87.42862503128903
 30
0.0
 10
130.450814758779
 20
87.21968396798616
 30
0.0
 10
130.9339813049642
 20
86.82246540058495
 30
0.0
 10
131.1854991330573
 20
86.63570783182698
 30
0.0
 10
131.9594020098053
 20
86.11886080922451
 30
0.0
 10
132.5047576348276
 20
85.82802855972535
 30
0.0
 10
133.3663046479999
 20
85.47125199184266
 30
0.0
 10
133.662462138386
 20
85.36524889066763
 30
0.0
 10
134.2591865678804
 20
85.18417711511603
 30
0.0
 10
134.5600756958373
 20
85.10874738391158
 30
0.0
 10
135.4702270300475
 20
84.92719804332047
 30
0.0
 10
136.0869154049313
 20
84.8654721344935
 30
0.0
 10
136.7141079263905
 20
84.86654258828067
 30
0.0
  0
LINE
  5
A4
330
1F
100
AcDbEntity
  8
0
  6
Continuous
 62
     7
370
    25
100
AcDbLine
 10
127.2149607148
 20
514.3673953767
 30
0.0
 11
127.2149607148
 21
94.366542587
 31
0.0
  0
SPLINE
  5
A5
330
1F
100
AcDbEntity
  8
0
  6
Continuous
 62
     7
370
    25
100
AcDbSpline
210
0.0
220
0.0
230
1.0
 70
     8
 71
     3
 72
    30
 73
    26
 74
     0
 42
0.00000001
 43
0.00000001
 40
0.0
 40
0.0
 40
0.0
 40
0.0
 40
0.1250000000000044
 40
0.1250000000000044
 40
0.1875000000000066
 40
0.1875000000000066
 40
0.2500000000000088
 40
0.2500000000000088
 40
0.3125000000000109
 40
0.3125000000000109
 40
0.3750000000000131
 40
0.3750000000000131
 40
0.5000000000000082
 40
0.5000000000000082
 40
0.5625000000000058
 40
0.5625000000000058
 40
0.6250000000000033
 40
0.6250000000000033
 40
0.7500000000000049
 40
0.7500000000000049
 40
0.8125000000000037
 40
0.8125000000000037
 40
0.8750000000000024
 40
0.8750000000000024
 40
1.0
 40
1.0
 40
1.0
 40
1.0
 10
136.7149607135075
 20
523.8665418543818
 30
0.0
 10
136.0875043304249
 20
523.8676169136653
 30
0.0
 10
135.4707018147272
 20
523.8059505891271
 30
0.0
 10
134.5606088569672
 20
523.6244624319215
 30
0.0
 10
134.2597753233953
 20
523.5490624023929
 30
0.0
 10
133.6632312370349
 20
523.3680927446338
 30
0.0
 10
133.3669031680043
 20
523.2621029453834
 30
0.0
 10
132.7901357917034
 20
523.0232109305881
 30
0.0
 10
132.5083922797286
 20
522.8899917202556
 30
0.0
 10
131.9582608243412
 20
522.5958508785702
 30
0.0
 10
131.6886850520077
 20
522.4340934977621
 30
0.0
 10
130.9105171197624
 20
521.9123455936572
 30
0.0
 10
130.4336119486293
 20
521.5178953245952
 30
0.0
 10
129.7770431577318
 20
520.8607692939313
 30
0.0
 10
129.5681020944233
 20
520.630688544213
 30
0.0
 10
129.1708835270108
 20
520.1475219980133
 30
0.0
 10
128.9841259582708
 20
519.8960041699409
 30
0.0
 10
128.4672789356923
 20
519.122101293213
 30
0.0
 10
128.1764466862046
 20
518.5767456681909
 30
0.0
 10
127.819670118324
 20
517.7151986550048
 30
0.0
 10
127.7136670171489
 20
517.4190411646146
 30
0.0
 10
127.5325952415979
 20
516.8223167351472
 30
0.0
 10
127.4571655103859
 20
516.5214276072035
 30
0.0
 10
127.2756161697694
 20
515.6112762730286
 30
0.0
 10
127.2138902609234
 20
514.9945878981617
 30
0.0
 10
127.2149607147655
 20
514.3673953767001
 30
0.0
  0
LINE
  5
A6
330
1F
100
AcDbEntity
  8
0
  6
Continuous
 62
     7
370
    25
100
AcDbLine
 10
656.715817394
 20
523.8665425883
 30
0.0
 11
136.7149607135
 21
523.8665425883
 31
0.0
  0
SPLINE
  5
A7
330
1F
100
AcDbEntity
  8
0
  6
Continuous
 62
     7
370
    25
100
AcDbSpline
210
0.0
220
0.0
230
1.0
 70
     8
 71
     3
 72
    30
 73
    26
 74
     0
 42
0.00000001
 43
0.00000001
 40
0.0
 40
0.0
 40
0.0
 40
0.0
 40
0.1250000000000011
 40
0.1250000000000011
 40
0.1875000000000018
 40
0.1875000000000018
 40
0.2500000000000025
 40
0.2500000000000025
 40
0.3125000000000032
 40
0.3125000000000032
 40
0.3750000000000039
 40
0.3750000000000039
 40
0.5000000000000053
 40
0.5000000000000053
 40
0.562500000000006
 40
0.562500000000006
 40
0.6250000000000068
 40
0.6250000000000068
 40
0.7500000000000082
 40
0.7500000000000082
 40
0.8125000000000088
 40
0.8125000000000088
 40
0.8750000000000095
 40
0.8750000000000095
 40
1.0
 40
1.0
 40
1.0
 40
1.0
 10
666.214959980867
 20
514.3665425895381
 30
0.0
 10
666.2160350399204
 20
514.993998838392
 30
0.0
 10
666.1543687444764
 20
515.6108012219318
 30
0.0
 10
665.9728806669425
 20
516.5208939834461
 30
0.0
 10
665.8974806690738
 20
516.821727451778
 30
0.0
 10
665.7165110819565
 20
517.4182714075035
 30
0.0
 10
665.6105213193687
 20
517.7145994201302
 30
0.0
 10
665.3716293911025
 20
518.291366698979
 30
0.0
 10
665.2384102324452
 20
518.573110165901
 30
0.0
 10
664.9442695334004
 20
519.1232415493597
 30
0.0
 10
664.7825122478301
 20
519.3928172899138
 30
0.0
 10
664.2607646921516
 20
520.1709852406543
 30
0.0
 10
663.8663147890662
 20
520.6478905593538
 30
0.0
 10
663.2091892324947
 20
521.3044595256254
 30
0.0
 10
662.9791086262027
 20
521.5134006378601
 30
0.0
 10
662.4959422566259
 20
521.9106192115946
 30
0.0
 10
662.2444244245768
 20
522.0973767537097
 30
0.0
 10
661.4705214463578
 20
522.6142233057989
 30
0.0
 10
660.925165572435
 20
522.90505483664
 30
0.0
 10
660.0636187563302
 20
523.2618312589578
 30
0.0
 10
659.7674614739049
 20
523.3678344672281
 30
0.0
 10
659.1707375332269
 20
523.5489072195796
 30
0.0
 10
658.8698487252933
 20
523.6243379407982
 30
0.0
 10
657.9596983239848
 20
523.8058902358426
 30
0.0
 10
657.3430105065904
 20
523.8676179303476
 30
0.0
 10
656.715817393968
 20
523.8665425882807
 30
0.0
  0
LINE
  5
A8
330
1F
100
AcDbEntity
  8
0
  6
Continuous
 62
     7
370
    25
100
AcDbLine
 10
666.2149607148
 20
94.3656897999
 30
0.0
 11
666.2149607148
 21
514.3665425895
 31
0.0
  0
SPLINE
  5
A9
330
1F
100
AcDbEntity
  8
0
  6
Continuous
 62
     7
370
    25
100
AcDbSpline
210
0.0
220
0.0
230
1.0
 70
     8
 71
     3
 72
    29
 73
    25
 74
     0
 42
0.00000001
 43
0.00000001
 40
0.0
 40
0.0
 40
0.0
 40
0.0
 40
0.1249999999999893
 40
0.1249999999999893
 40
0.1874999999999905
 40
0.1874999999999905
 40
0.2499999999999917
 40
0.3124999999999929
 40
0.3124999999999929
 40
0.3749999999999941
 40
0.3749999999999941
 40
0.4999999999999903
 40
0.4999999999999903
 40
0.5624999999999845
 40
0.5624999999999845
 40
0.6249999999999786
 40
0.6249999999999786
 40
0.749999999999973
 40
0.749999999999973
 40
0.8124999999999776
 40
0.8124999999999776
 40
0.8749999999999821
 40
0.8749999999999821
 40
1.0
 40
1.0
 40
1.0
 40
1.0
 10
656.715817394012
 20
84.86654258828067
 30
0.0
 10
657.3431016598064
 20
84.86546708997969
 30
0.0
 10
657.9633413572614
 20
84.9272239111046
 30
0.0
 10
658.8833916929507
 20
85.11180639756202
 30
0.0
 10
659.1876554882514
 20
85.1887716825461
 30
0.0
 10
659.7818004537195
 20
85.3701708923724
 30
0.0
 10
660.3643314823541
 20
85.57957772417498
 30
0.0
 10
660.923917440374
 20
85.84431780543831
 30
0.0
 10
661.4717727018493
 20
86.13734708088825
 30
0.0
 10
661.7412670508592
 20
86.29901084519734
 30
0.0
 10
662.5194297367924
 20
86.8207594305527
 30
0.0
 10
662.9963318162626
 20
87.2152097018987
 30
0.0
 10
663.652896389783
 20
87.87233526824909
 30
0.0
 10
663.86183611624
 20
88.10241578644055
 30
0.0
 10
664.259052127124
 20
88.58558173912809
 30
0.0
 10
664.4458082441818
 20
88.83709889342748
 30
0.0
 10
664.9626515282083
 20
89.61099988866458
 30
0.0
 10
665.2534817286104
 20
90.15635401663583
 30
0.0
 10
665.6102557754014
 20
91.01789848169791
 30
0.0
 10
665.7162581158484
 20
91.31405504550224
 30
0.0
 10
665.8973285418589
 20
91.9107773701109
 30
0.0
 10
665.9727577161243
 20
92.21166542591455
 30
0.0
 10
666.1543057147201
 20
93.12181348866285
 30
0.0
 10
666.2160311646319
 20
93.73849960968359
 30
0.0
 10
666.2149607147664
 20
94.36568979986113
 30
0.0
  0
LINE
  5
AA
330
1F
100
AcDbEntity
  8
0
  6
Continuous
 62
     7
370
    25
100
AcDbLine
 10
136.7141079264
 20
84.8665425883
 30
0.0
 11
656.715817394
 21
84.8665425883
 31
0.0
  0
LINE
  5
AB
330
1F
100
AcDbEntity
  8
0
  6
Continuous
 62
     7
370
    25
100
AcDbLine
 10
666.7149607148
 20
514.3665425883
 30
0.0
 11
666.7149607148
 21
94.3665425883
 31
0.0
  0
SPLINE
  5
AC
330
1F
100
AcDbEntity
  8
0
  6
Continuous
 62
     7
370
    25
100
AcDbSpline
210
0.0
220
0.0
230
1.0
 70
     8
 71
     3
 72
    14
 73
    10
 74
     0
 42
0.00000001
 43
0.00000001
 40
0.0
 40
0.0
 40
0.0
 40
0.0
 40
0.25
 40
0.25
 40
0.5
 40
0.5
 40
0.75
 40
0.75
 40
1.0
 40
1.0
 40
1.0
 40
1.0
 10
666.7147794193043
 20
94.36654304983513
 30
0.0
 10
666.714779123485
 20
94.36642660958286
 30
0.0
 10
666.7040451898257
 20
94.36632105785628
 30
0.0
 10
666.6553378044036
 20
94.36613896936095
 30
0.0
 10
666.6171992966422
 20
94.36606263953975
 30
0.0
 10
666.5196138257419
 20
94.36593420620157
 30
0.0
 10
666.460496564057
 20
94.36588178471291
 30
0.0
 10
666.3374387303354
 20
94.36578443267437
 30
0.0
 10
666.2738795070015
 20
94.36573908656746
 30
0.0
 10
666.2149607150127
 20
94.36568980110091
 30
0.0
  0
SPLINE
  5
AD
330
1F
100
AcDbEntity
  8
0
  6
Continuous
 62
     7
370
    25
100
AcDbSpline
210
0.0
220
0.0
230
1.0
 70
     8
 71
     3
 72
    10
 73
     6
 74
     0
 42
0.00000001
 43
0.00000001
 40
0.0
 40
0.0
 40
0.0
 40
0.0
 40
0.5
 40
0.5
 40
1.0
 40
1.0
 40
1.0
 40
1.0
 10
666.714960714766
 20
514.3665425882807
 30
0.0
 10
666.7149607147658
 20
514.3665425886999
 30
0.0
 10
666.6610740615191
 20
514.366542589119
 30
0.0
 10
666.4759536302549
 20
514.3665425899572
 30
0.0
 10
666.3458597970838
 20
514.3665425903764
 30
0.0
 10
666.214959980868
 20
514.3665425907955
 30
0.0
  0
SPLINE
  5
AE
330
1F
100
AcDbEntity
  8
0
  6
Continuous
 62
     7
370
    25
100
AcDbSpline
210
0.0
220
0.0
230
1.0
 70
     8
 71
     3
 72
    14
 73
    10
 74
     0
 42
0.00000001
 43
0.00000001
 40
0.0
 40
0.0
 40
0.0
 40
0.0
 40
0.25
 40
0.25
 40
0.5
 40
0.5
 40
0.75
 40
0.75
 40
1.0
 40
1.0
 40
1.0
 40
1.0
 10
127.2149608360901
 20
94.36679247033555
 30
0.0
 10
127.1560422496593
 20
94.3667328235179
 30
0.0
 10
127.0924831782306
 20
94.3666684814786
 30
0.0
 10
126.9694255847019
 20
94.36654391478442
 30
0.0
 10
126.9103084141038
 20
94.3664840762348
 30
0.0
 10
126.8127231781424
 20
94.36638530866007
 30
0.0
 10
126.7745848184713
 20
94.36634671333552
 30
0.0
 10
126.7258778436738
 20
94.36629743436673
 30
0.0
 10
126.7151441708456
 20
94.36628658353172
 30
0.0
 10
126.7151441690464
 20
94.36628659790294
 30
0.0
  0
LINE
  5
AF
330
1F
100
AcDbEntity
  8
0
  6
Continuous
 62
     7
370
    25
100
AcDbLine
 10
126.7149607148
 20
94.3665425883
 30
0.0
 11
126.7149607148
 21
514.3665425883
 31
0.0
  0
LINE
  5
B0
330
1F
100
AcDbEntity
  8
0
  6
Continuous
 62
     7
370
    25
100
AcDbLine
 10
127.2149607148
 20
514.3673953779
 30
0.0
 11
126.7149607148
 21
514.3665425883
 31
0.0
  0
LINE
  5
B1
330
1F
100
AcDbEntity
  8
0
  6
Continuous
 62
     7
370
    25
100
AcDbLine
 10
136.7149607148
 20
524.3665425883
 30
0.0
 11
656.7149607148
 21
524.3665425883
 31
0.0
  0
SPLINE
  5
B2
330
1F
100
AcDbEntity
  8
0
  6
Continuous
 62
     7
370
    25
100
AcDbSpline
210
0.0
220
0.0
230
1.0
 70
     8
 71
     3
 72
    14
 73
    10
 74
     0
 42
0.00000001
 43
0.00000001
 40
0.0
 40
0.0
 40
0.0
 40
0.0
 40
0.25
 40
0.25
 40
0.5
 40
0.5
 40
0.75
 40
0.75
 40
1.0
 40
1.0
 40
1.0
 40
1.0
 10
656.7149602475047
 20
524.3663601251167
 30
0.0
 10
656.7150776665846
 20
524.3663598250467
 30
0.0
 10
656.7151840360243
 20
524.3556259248229
 30
0.0
 10
656.7153673381318
 20
524.3069187035776
 30
0.0
 10
656.7154440610045
 20
524.268780327226
 30
0.0
 10
656.7155729361134
 20
524.1711951531611
 30
0.0
 10
656.7156254111126
 20
524.1120780528819
 30
0.0
 10
656.7157227733508
 20
523.9890204724737
 30
0.0
 10
656.7157680821388
 20
523.9254613392762
 30
0.0
 10
656.7158173927112
 20
523.8665425885308
 30
0.0
  0
SPLINE
  5
B3
330
1F
100
AcDbEntity
  8
0
  6
Continuous
 62
     7
370
    25
100
AcDbSpline
210
0.0
220
0.0
230
1.0
 70
     8
 71
     3
 72
    10
 73
     6
 74
     0
 42
0.00000001
 43
0.00000001
 40
0.0
 40
0.0
 40
0.0
 40
0.0
 40
0.5
 40
0.5
 40
1.0
 40
1.0
 40
1.0
 40
1.0
 10
136.7149607147659
 20
524.3665425882806
 30
0.0
 10
136.7149607143466
 20
524.3665425882806
 30
0.0
 10
136.7149607139272
 20
524.3126559350337
 30
0.0
 10
136.7149607130886
 20
524.1275355037699
 30
0.0
 10
136.7149607126693
 20
523.9974416705987
 30
0.0
 10
136.7149607122499
 20
523.866541854383
 30
0.0
  0
SPLINE
  5
B4
330
1F
100
AcDbEntity
  8
0
  6
Continuous
 62
     7
370
    25
100
AcDbSpline
210
0.0
220
0.0
230
1.0
 70
     8
 71
     3
 72
    18
 73
    14
 74
     0
 42
0.00000001
 43
0.00000001
 40
0.0
 40
0.0
 40
0.0
 40
0.0
 40
0.250000000000001
 40
0.250000000000001
 40
0.3750000000000012
 40
0.3750000000000012
 40
0.5000000000000016
 40
0.5000000000000016
 40
0.6250000000000019
 40
0.6250000000000019
 40
0.7500000000000024
 40
0.7500000000000024
 40
1.0
 40
1.0
 40
1.0
 40
1.0
 10
656.7149607147664
 20
524.3665425882804
 30
0.0
 10
658.0285848940306
 20
524.3687933006107
 30
0.0
 10
659.3234082689519
 20
524.1076323281385
 30
0.0
 10
661.1327592548713
 20
523.3612023810155
 30
0.0
 10
661.7128707862025
 20
523.053135664546
 30
0.0
 10
662.8053303770997
 20
522.3245145560336
 30
0.0
 10
663.3177529148726
 20
521.9031894466168
 30
0.0
 10
664.2516075731024
 20
520.9693347883871
 30
0.0
 10
664.6729326825193
 20
520.4569122506142
 30
0.0
 10
665.4015537910315
 20
519.3644526597169
 30
0.0
 10
665.7096205075009
 20
518.7843411283857
 30
0.0
 10
666.4560504546238
 20
516.974990142466
 30
0.0
 10
666.717211427096
 20
515.6801667675448
 30
0.0
 10
666.714960714766
 20
514.3665425882807
 30
0.0
  0
LINE
  5
B5
330
1F
100
AcDbEntity
  8
0
  6
Continuous
 62
     7
370
    25
100
AcDbLine
 10
136.7141079251
 20
84.8665425883
 30
0.0
 11
136.7149607148
 21
84.3665425883
 31
0.0
  0
SPLINE
  5
B6
330
1F
100
AcDbEntity
  8
0
  6
Continuous
 62
     7
370
    25
100
AcDbSpline
210
0.0
220
0.0
230
1.0
 70
     8
 71
     3
 72
    18
 73
    14
 74
     0
 42
0.00000001
 43
0.00000001
 40
0.0
 40
0.0
 40
0.0
 40
0.0
 40
0.2500000000000109
 40
0.2500000000000109
 40
0.3750000000000113
 40
0.3750000000000113
 40
0.5000000000000119
 40
0.5000000000000119
 40
0.6250000000000124
 40
0.6250000000000124
 40
0.7500000000000129
 40
0.7500000000000129
 40
1.0
 40
1.0
 40
1.0
 40
1.0
 10
136.714960714766
 20
84.36654258828067
 30
0.0
 10
135.4013365355021
 20
84.3643020981624
 30
0.0
 10
134.1065131605811
 20
84.62545140496422
 30
0.0
 10
132.2971621746626
 20
85.37188188173936
 30
0.0
 10
131.7170506433309
 20
85.67994959268619
 30
0.0
 10
130.6245910524248
 20
86.4085718310976
 30
0.0
 10
130.1121685146427
 20
86.82989692795954
 30
0.0
 10
129.1783138564026
 20
87.76375113653064
 30
0.0
 10
128.7569887469854
 20
88.27617326207147
 30
0.0
 10
128.0283676384986
 20
89.36863246294504
 30
0.0
 10
127.7203009220515
 20
89.94874396801886
 30
0.0
 10
126.9738709749403
 20
91.75809501073398
 30
0.0
 10
126.7127100022055
 20
93.0529184090165
 30
0.0
 10
126.714960714766
 20
94.36654258828067
 30
0.0
  0
SPLINE
  5
B7
330
1F
100
AcDbEntity
  8
0
  6
Continuous
 62
     7
370
    25
100
AcDbSpline
210
0.0
220
0.0
230
1.0
 70
     8
 71
     3
 72
    18
 73
    14
 74
     0
 42
0.00000001
 43
0.00000001
 40
0.0
 40
0.0
 40
0.0
 40
0.0
 40
0.249999999999998
 40
0.249999999999998
 40
0.3749999999999968
 40
0.3749999999999968
 40
0.4999999999999959
 40
0.4999999999999959
 40
0.6249999999999946
 40
0.6249999999999946
 40
0.7499999999999931
 40
0.7499999999999931
 40
1.0
 40
1.0
 40
1.0
 40
1.0
 10
126.7149607147658
 20
514.3665425882808
 30
0.0
 10
126.7127202245323
 20
515.6801667675451
 30
0.0
 10
126.9738695314655
 20
516.9749901424663
 30
0.0
 10
127.7203000082345
 20
518.7843411283858
 30
0.0
 10
128.0283677191701
 20
519.3644526597169
 30
0.0
 10
128.7569899575689
 20
520.4569122506142
 30
0.0
 10
129.1783150544308
 20
520.9693347883871
 30
0.0
 10
130.112169263007
 20
521.903189446617
 30
0.0
 10
130.6245913885523
 20
522.3245145560338
 30
0.0
 10
131.7170505894302
 20
523.0531356645462
 30
0.0
 10
132.2971620945045
 20
523.3612023810157
 30
0.0
 10
134.1065131372189
 20
524.1076323281386
 30
0.0
 10
135.4013365355009
 20
524.368793300611
 30
0.0
 10
136.7149607147648
 20
524.3665425882806
 30
0.0
  0
SPLINE
  5
B8
330
1F
100
AcDbEntity
  8
0
  6
Continuous
 62
     7
370
    25
100
AcDbSpline
210
0.0
220
0.0
230
1.0
 70
     8
 71
     3
 72
    18
 73
    14
 74
     0
 42
0.00000001
 43
0.00000001
 40
0.0
 40
0.0
 40
0.0
 40
0.0
 40
0.250000000000001
 40
0.250000000000001
 40
0.3750000000000016
 40
0.3750000000000016
 40
0.500000000000002
 40
0.500000000000002
 40
0.6250000000000024
 40
0.6250000000000024
 40
0.750000000000003
 40
0.750000000000003
 40
1.0
 40
1.0
 40
1.0
 40
1.0
 10
666.714960714766
 20
94.36654258828067
 30
0.0
 10
666.7172012049995
 20
93.05291840901661
 30
0.0
 10
666.4560518980662
 20
91.75809503409523
 30
0.0
 10
665.7096214212972
 20
89.94874404817612
 30
0.0
 10
665.4015537103617
 20
89.36863251684466
 30
0.0
 10
664.6729314719627
 20
88.27617292594306
 30
0.0
 10
664.2516063751008
 20
87.76375038816572
 30
0.0
 10
663.3177521665245
 20
86.82989572993047
 30
0.0
 10
662.8053300409791
 20
86.40857062051363
 30
0.0
 10
661.7128708401015
 20
85.67994951201388
 30
0.0
 10
661.1327593350272
 20
85.37188279555572
 30
0.0
 10
659.3234082923127
 20
84.6254528484384
 30
0.0
 10
658.0285848940306
 20
84.36429187583514
 30
0.0
 10
656.7149607147662
 20
84.36654258828067
 30
0.0
  0
LINE
  5
B9
330
1F
100
AcDbEntity
  8
0
  6
Continuous
 62
     7
370
    25
100
AcDbLine
 10
656.715817394
 20
84.8665425883
 30
0.0
 11
656.714960716
 21
84.3665433222
 31
0.0
  0
LINE
  5
BA
330
1F
100
AcDbEntity
  8
0
  6
Continuous
 62
     7
370
    25
100
AcDbLine
 10
656.7149607148
 20
84.3665425883
 30
0.0
 11
136.7149607148
 21
84.3665425883
 31
0.0
  0
SPLINE
  5
BB
330
1F
100
AcDbEntity
  8
0
  6
Continuous
 62
     7
370
    25
100
AcDbSpline
210
0.0
220
0.0
230
1.0
 70
     8
 71
     3
 72
     9
 73
     5
 74
     0
 42
0.00000001
 43
0.00000001
 40
0.0
 40
0.0
 40
0.0
 40
0.0
 40
0.4948562998464625
 40
1.0
 40
1.0
 40
1.0
 40
1.0
 10
666.3379352152315
 20
516.9281687421108
 30
0.0
 10
666.3296720020209
 20
517.0373146574683
 30
0.0
 10
666.3129737944539
 20
517.2578754857155
 30
0.0
 10
666.2047630153736
 20
517.4508720122637
 30
0.0
 10
666.1501010220326
 20
517.548362991801
 30
0.0
  0
SPLINE
  5
BC
330
1F
100
AcDbEntity
  8
0
  6
Continuous
 62
     7
370
    25
100
AcDbSpline
210
0.0
220
0.0
230
1.0
 70
     8
 71
     3
 72
     9
 73
     5
 74
     0
 42
0.00000001
 43
0.00000001
 40
0.0
 40
0.0
 40
0.0
 40
0.0
 40
0.3535187039003722
 40
1.0
 40
1.0
 40
1.0
 40
1.0
 10
660.2305968228827
 20
523.700582307173
 30
0.0
 10
660.1857652123828
 20
523.7298028095206
 30
0.0
 10
660.0589498274956
 20
523.812458980256
 30
0.0
 10
659.9059854512997
 20
523.8224111173702
 30
0.0
 10
659.8070968431193
 20
523.8288449878708
 30
0.0
  0
SPLINE
  5
BD
330
1F
100
AcDbEntity
  8
0
  6
Continuous
 62
     7
370
    25
100
AcDbSpline
210
0.0
220
0.0
230
1.0
 70
     8
 71
     3
 72
     9
 73
     5
 74
     0
 42
0.00000001
 43
0.00000001
 40
0.0
 40
0.0
 40
0.0
 40
0.0
 40
0.5498246516166788
 40
1.0
 40
1.0
 40
1.0
 40
1.0
 10
126.714960714768
 20
94.36654258828067
 30
0.0
 10
126.7817719889975
 20
93.38330209038628
 30
0.0
 10
126.903285773498
 20
91.59502196325234
 30
0.0
 10
127.7650770179917
 20
90.02971917548288
 30
0.0
 10
128.1530341917154
 20
89.32505844767338
 30
0.0
  0
SPLINE
  5
BE
330
1F
100
AcDbEntity
  8
0
  6
Continuous
 62
     7
370
    25
100
AcDbSpline
210
0.0
220
0.0
230
1.0
 70
     8
 71
     3
 72
     9
 73
     5
 74
     0
 42
0.00000001
 43
0.00000001
 40
0.0
 40
0.0
 40
0.0
 40
0.0
 40
0.5498246566678155
 40
1.0
 40
1.0
 40
1.0
 40
1.0
 10
136.714960714765
 20
524.3665425882846
 30
0.0
 10
135.7317202166661
 20
524.2997313147233
 30
0.0
 10
133.9434401055892
 20
524.1782175325546
 30
0.0
 10
132.3781373318064
 20
523.3164262972587
 30
0.0
 10
131.6734766181999
 20
522.9284691320285
 30
0.0
  0
SPLINE
  5
BF
330
1F
100
AcDbEntity
  8
0
  6
Continuous
 62
     7
370
    25
100
AcDbSpline
210
0.0
220
0.0
230
1.0
 70
     8
 71
     3
 72
     9
 73
     5
 74
     0
 42
0.00000001
 43
0.00000001
 40
0.0
 40
0.0
 40
0.0
 40
0.0
 40
0.549824654543302
 40
0.9999999999999999
 40
0.9999999999999999
 40
0.9999999999999999
 40
0.9999999999999999
 10
656.7149607147664
 20
84.36654258828067
 30
0.0
 10
657.6982012127794
 20
84.43335386212128
 30
0.0
 10
659.4864813306103
 20
84.55486764526745
 30
0.0
 10
661.0517841102742
 20
85.41665888443504
 30
0.0
 10
661.7564448298539
 20
85.80461605323883
 30
0.0
  0
SPLINE
  5
C0
330
1F
100
AcDbEntity
  8
0
  6
Continuous
 62
     7
370
    25
100
AcDbSpline
210
0.0
220
0.0
230
1.0
 70
     8
 71
     3
 72
    10
 73
     6
 74
     0
 42
0.00000001
 43
0.00000001
 40
0.0
 40
0.0
 40
0.0
 40
0.0
 40
0.5
 40
0.5
 40
1.0
 40
1.0
 40
1.0
 40
1.0
 10
647.7159628566461
 20
116.3664782047308
 30
0.0
 10
647.7088508080822
 20
116.3664782520229
 30
0.0
 10
647.8249556773318
 20
116.3664774893236
 30
0.0
 10
648.1980406096028
 20
116.3664750392796
 30
0.0
 10
648.4550199734869
 20
116.3664733519398
 30
0.0
 10
648.7149331920307
 20
116.3664716461589
 30
0.0
  0
LINE
  5
C1
330
1F
100
AcDbEntity
  8
0
  6
Continuous
 62
     7
370
    25
100
AcDbLine
 10
146.7149607148
 20
492.3666623962
 30
0.0
 11
146.7149607148
 21
492.3666624206
 31
0.0
  0
LINE
  5
C2
330
1F
100
AcDbEntity
  8
0
  6
Continuous
 62
     7
370
    25
100
AcDbLine
 10
158.7148409386
 20
504.3665425883
 30
0.0
 11
158.7148409054
 21
504.3665425883
 31
0.0
  0
LINE
  5
C3
330
1F
100
AcDbEntity
  8
0
  6
Continuous
 62
     7
370
    25
100
AcDbLine
 10
158.714840889
 20
504.3665425883
 30
0.0
 11
158.7148408724
 21
504.3665425883
 31
0.0
  0
SPLINE
  5
C4
330
1F
100
AcDbEntity
  8
0
  6
Continuous
 62
     7
370
    25
100
AcDbSpline
210
0.0
220
0.0
230
1.0
 70
     8
 71
     3
 72
    10
 73
     6
 74
     0
 42
0.00000001
 43
0.00000001
 40
0.0
 40
0.0
 40
0.0
 40
0.0
 40
0.4975539875761562
 40
0.997249690275229
 40
1.0
 40
1.0
 40
1.0
 40
1.0
 10
646.714863715423
 20
492.3666664758403
 30
0.0
 10
646.6594606565976
 20
493.1460050636499
 30
0.0
 10
646.54841605715
 20
494.7080368927962
 30
0.0
 10
646.1692952229297
 20
496.2738481316488
 30
0.0
 10
645.7956980182638
 20
496.9709007168237
 30
0.0
 10
645.7936530064619
 20
496.9747162720401
 30
0.0
  0
LINE
  5
C5
330
1F
100
AcDbEntity
  8
0
  6
Continuous
 62
     7
370
    25
100
AcDbLine
 10
634.7150808995
 20
504.3665425883
 30
0.0
 11
634.7150807868
 21
504.3665425883
 31
0.0
  0
LINE
  5
C6
330
1F
100
AcDbEntity
  8
0
  6
Continuous
 62
     7
370
    25
100
AcDbLine
 10
646.7149607148
 20
492.3666623172
 30
0.0
 11
646.7149607148
 21
492.3666624142
 31
0.0
  0
SPLINE
  5
C7
330
1F
100
AcDbEntity
  8
0
  6
Continuous
 62
     7
370
    25
100
AcDbSpline
210
0.0
220
0.0
230
1.0
 70
     8
 71
     3
 72
    10
 73
     6
 74
     0
 42
0.00000001
 43
0.00000001
 40
0.0
 40
0.0
 40
0.0
 40
0.0
 40
0.4962371038358897
 40
0.9917187164421333
 40
1.0
 40
1.0
 40
1.0
 40
1.0
 10
146.7148357755675
 20
116.3664259873461
 30
0.0
 10
146.7683141358291
 20
115.5877873232873
 30
0.0
 10
146.8751894387562
 20
114.0316954258381
 30
0.0
 10
147.2602656750754
 20
112.4661688396586
 30
0.0
 10
147.6346649442011
 20
111.7659976618412
 30
0.0
 10
147.6408196382747
 20
111.7544876516625
 30
0.0
  0
LINE
  5
C8
330
1F
100
AcDbEntity
  8
0
  6
Continuous
 62
     7
370
    25
100
AcDbLine
 10
146.7149607148
 20
116.3664228429
 30
0.0
 11
146.7149607148
 21
116.3664228106
 31
0.0
  0
LINE
  5
C9
330
1F
100
AcDbEntity
  8
0
  6
Continuous
 62
     7
370
    25
100
AcDbLine
 10
158.7148409086
 20
104.3665425883
 30
0.0
 11
158.714840867
 21
104.3665425883
 31
0.0
  0
LINE
  5
CA
330
1F
100
AcDbEntity
  8
0
  6
Continuous
 62
     7
370
    25
100
AcDbLine
 10
158.7149607148
 20
492.3665426027
 30
0.0
 11
158.7149607148
 21
116.3665425885
 31
0.0
  0
SPLINE
  5
CB
330
1F
100
AcDbEntity
  8
0
  6
Continuous
 62
     7
370
    25
100
AcDbSpline
210
0.0
220
0.0
230
1.0
 70
     8
 71
     3
 72
    11
 73
     7
 74
     0
 42
0.00000001
 43
0.00000001
 40
0.0
 40
0.0
 40
0.0
 40
0.0
 40
0.25
 40
0.5
 40
0.75
 40
1.0
 40
1.0
 40
1.0
 40
1.0
 10
158.7149607092635
 20
116.3665425887687
 30
0.0
 10
157.1542218090515
 20
116.3664512019694
 30
0.0
 10
153.9985780471218
 20
116.3663058736477
 30
0.0
 10
150.0099133845567
 20
116.3662316078608
 30
0.0
 10
147.3393131342527
 20
116.3662857319592
 30
0.0
 10
146.7148234681503
 20
116.3663771498047
 30
0.0
 10
146.7148357755676
 20
116.3664259873461
 30
0.0
  0
SPLINE
  5
CC
330
1F
100
AcDbEntity
  8
0
  6
Continuous
 62
     7
370
    25
100
AcDbSpline
210
0.0
220
0.0
230
1.0
 70
     8
 71
     3
 72
    16
 73
    12
 74
     0
 42
0.00000001
 43
0.00000001
 40
0.0
 40
0.0
 40
0.0
 40
0.0
 40
0.2500000000000011
 40
0.375000000000001
 40
0.375000000000001
 40
0.5000000000000008
 40
0.5000000000000008
 40
0.6250000000000006
 40
0.6250000000000006
 40
0.7500000000000004
 40
1.0
 40
1.0
 40
1.0
 40
1.0
 10
146.7149607080949
 20
492.3665770953739
 30
0.0
 10
146.7131642628511
 20
492.3665770958496
 30
0.0
 10
147.1816881023638
 20
492.3665757578057
 30
0.0
 10
148.2910295204395
 20
492.3665725671337
 30
0.0
 10
149.1656591717482
 20
492.3665700525768
 30
0.0
 10
149.6714431241276
 20
492.3665685982475
 30
0.0
 10
150.7922416158398
 20
492.3665653769612
 30
0.0
 10
151.4071181791812
 20
492.3665636104569
 30
0.0
 10
152.7175010120589
 20
492.366559848723
 30
0.0
 10
154.804484924795
 20
492.3665538723977
 30
0.0
 10
157.1434454035356
 20
492.3665471045492
 30
0.0
 10
158.7149607138455
 20
492.3665426170588
 30
0.0
  0
SPLINE
  5
CD
330
1F
100
AcDbEntity
  8
0
  6
Continuous
 62
     7
370
    25
100
AcDbSpline
210
0.0
220
0.0
230
1.0
 70
     8
 71
     3
 72
    47
 73
    43
 74
     0
 42
0.00000001
 43
0.00000001
 40
0.0
 40
0.0
 40
0.0
 40
0.0
 40
0.019042600394759
 40
0.0381218092928593
 40
0.0572344333962674
 40
0.0763770673104179
 40
0.0955461580913369
 40
0.1147380695143437
 40
0.1339491462375168
 40
0.1531757780407837
 40
0.1724144643224993
 40
0.1916618790298455
 40
0.210914936187088
 40
0.2301708561664767
 40
0.2494272379886392
 40
0.2686830951909254
 40
0.2879396768874235
 40
0.3071982419193961
 40
0.3264597892971784
 40
0.3457251018828092
 40
0.3649947905041006
 40
0.3842693384527869
 40
0.4035491463329154
 40
0.4228345772357614
 40
0.4421260022241155
 40
0.4614238461117196
 40
0.4807286335228243
 40
0.5000410347876693
 40
0.5357470691503861
 40
0.5714565788813357
 40
0.6071688789815395
 40
0.6428832966208297
 40
0.678600224964078
 40
0.7143221728947835
 40
0.750054810151328
 40
0.7858052483182241
 40
0.8215703395855556
 40
0.8573378876943408
 40
0.8930894868557131
 40
0.9288018907276463
 40
0.9644483602860529
 40
1.0
 40
1.0
 40
1.0
 40
1.0
 10
634.7150410317864
 20
504.3668360380466
 30
0.0
 10
634.7150356215128
 20
504.3655883394934
 30
0.0
 10
634.7150247905644
 20
504.363090543745
 30
0.0
 10
634.7147093904294
 20
504.3456196064812
 30
0.0
 10
634.7142226717331
 20
504.3181577281066
 30
0.0
 10
634.7135771706799
 20
504.2797504542553
 30
0.0
 10
634.712815833436
 20
504.2307039878817
 30
0.0
 10
634.7119728530012
 20
504.1709860187428
 30
0.0
 10
634.7110841780418
 20
504.1006552510507
 30
0.0
 10
634.7101846765564
 20
504.0197460773652
 30
0.0
 10
634.7093088981037
 20
503.9282994810721
 30
0.0
 10
634.7084908126022
 20
503.8263549388321
 30
0.0
 10
634.7077640380876
 20
503.7139518440551
 30
0.0
 10
634.7071611367741
 20
503.5911318903908
 30
0.0
 10
634.7067161414794
 20
503.4579257959124
 30
0.0
 10
634.7064547695949
 20
503.3143911098885
 30
0.0
 10
634.7063681631861
 20
503.1607264528777
 30
0.0
 10
634.7064510501841
 20
502.9971065621044
 30
0.0
 10
634.7066966072462
 20
502.823710570654
 30
0.0
 10
634.7070978768876
 20
502.6407167198734
 30
0.0
 10
634.7076474067923
 20
502.4483039836507
 30
0.0
 10
634.708337416419
 20
502.2466516376963
 30
0.0
 10
634.7091596309981
 20
502.0359393592245
 30
0.0
 10
634.7101059188675
 20
501.816347260697
 30
0.0
 10
634.7111660468878
 20
501.5880556568823
 30
0.0
 10
634.7123361648383
 20
501.3512459654901
 30
0.0
 10
634.7135872368526
 20
501.1060973405217
 30
0.0
 10
634.7153777694738
 20
500.7811653730907
 30
0.0
 10
634.7172517630052
 20
500.3669392505776
 30
0.0
 10
634.7185709820569
 20
499.8527118359501
 30
0.0
 10
634.7192394885601
 20
499.3149328721993
 30
0.0
 10
634.7193422333663
 20
498.7552640692302
 30
0.0
 10
634.7190242475164
 20
498.175352248763
 30
0.0
 10
634.718430691394
 20
497.5768500147884
 30
0.0
 10
634.7177237429894
 20
496.961412559523
 30
0.0
 10
634.7170699989065
 20
496.3308511082953
 30
0.0
 10
634.7164746739817
 20
495.6876301655597
 30
0.0
 10
634.7159537596817
 20
495.0341869308271
 30
0.0
 10
634.7155233304335
 20
494.3729812479998
 30
0.0
 10
634.7152040051668
 20
493.7064639951209
 30
0.0
 10
634.7149980365838
 20
493.0371195929742
 30
0.0
 10
634.7149731483031
 20
492.5898696901962
 30
0.0
 10
634.7149607207374
 20
492.3665425882806
 30
0.0
  0
LINE
  5
CE
330
1F
100
AcDbEntity
  8
0
  6
Continuous
 62
     7
370
    25
100
AcDbLine
 10
634.7149607163
 20
492.3665425883
 30
0.0
 11
158.7149607148
 21
492.3665425883
 31
0.0
  0
SPLINE
  5
CF
330
1F
100
AcDbEntity
  8
0
  6
Continuous
 62
     7
370
    25
100
AcDbSpline
210
0.0
220
0.0
230
1.0
 70
    24
 71
     3
 72
    10
 73
     6
 74
     0
 42
0.00000001
 43
0.00000001
 40
0.0
 40
0.0
 40
0.0
 40
0.0
 40
0.5
 40
0.5
 40
1.0
 40
1.0
 40
1.0
 40
1.0
 10
158.714960714765
 20
504.3665423050768
 30
0.0
 10
158.714960714765
 20
504.3972663594491
 30
0.0
 10
158.714960714765
 20
503.0715473922638
 30
0.0
 10
158.714960714765
 20
498.6321210035187
 30
0.0
 10
158.714960714765
 20
495.5184213132362
 30
0.0
 10
158.714960714765
 20
492.3665426026695
 30
0.0
  0
SPLINE
  5
D0
330
1F
100
AcDbEntity
  8
0
  6
Continuous
 62
     7
370
    25
100
AcDbSpline
210
0.0
220
0.0
230
1.0
 70
    24
 71
     3
 72
    16
 73
    12
 74
     0
 42
0.00000001
 43
0.00000001
 40
0.0
 40
0.0
 40
0.0
 40
0.0
 40
0.2500000000000008
 40
0.3750000000000013
 40
0.3750000000000013
 40
0.5000000000000017
 40
0.5000000000000017
 40
0.6250000000000021
 40
0.6250000000000021
 40
0.7500000000000026
 40
1.0
 40
1.0
 40
1.0
 40
1.0
 10
634.7149607147666
 20
116.3665435893208
 30
0.0
 10
636.2864759341503
 20
116.3665435893212
 30
0.0
 10
638.6254356588299
 20
116.3665435893211
 30
0.0
 10
640.7124194219517
 20
116.3665435893209
 30
0.0
 10
642.0228021275796
 20
116.3665435893208
 30
0.0
 10
642.6376786389962
 20
116.3665435893208
 30
0.0
 10
643.7584770778647
 20
116.3665435893208
 30
0.0
 10
644.2642610313435
 20
116.366543589321
 30
0.0
 10
645.1388907566
 20
116.366543589321
 30
0.0
 10
646.2482321333389
 20
116.3665435893209
 30
0.0
 10
646.7167571957915
 20
116.3665435893207
 30
0.0
 10
646.714960714766
 20
116.3665435893208
 30
0.0
  0
LINE
  5
D1
330
1F
100
AcDbEntity
  8
0
  6
Continuous
 62
     7
370
    25
100
AcDbLine
 10
634.7149607148
 20
116.3665425952
 30
0.0
 11
634.7149607148
 21
492.3665425258
 31
0.0
  0
SPLINE
  5
D2
330
1F
100
AcDbEntity
  8
0
  6
Continuous
 62
     7
370
    25
100
AcDbSpline
210
0.0
220
0.0
230
1.0
 70
     8
 71
     3
 72
    14
 73
    10
 74
     0
 42
0.00000001
 43
0.00000001
 40
0.0
 40
0.0
 40
0.0
 40
0.0
 40
0.25
 40
0.25
 40
0.5
 40
0.5
 40
0.75
 40
0.75
 40
1.0
 40
1.0
 40
1.0
 40
1.0
 10
634.7149607207374
 20
492.3665425882806
 30
0.0
 10
636.2752657988505
 20
492.3664413080873
 30
0.0
 10
637.85327172485
 20
492.3667184395638
 30
0.0
 10
640.7612017158837
 20
492.3672769685484
 30
0.0
 10
642.0908492651522
 20
492.3675580839959
 30
0.0
 10
644.3102800320455
 20
492.3674341392507
 30
0.0
 10
645.1997440992716
 20
492.3670192454545
 30
0.0
 10
646.4011859603354
 20
492.3664259740122
 30
0.0
 10
646.7123008544525
 20
492.3662475023839
 30
0.0
 10
646.714863719059
 20
492.3666664764083
 30
0.0
  0
SPLINE
  5
D3
330
1F
100
AcDbEntity
  8
0
  6
Continuous
 62
     7
370
    25
100
AcDbSpline
210
0.0
220
0.0
230
1.0
 70
     8
 71
     3
 72
    11
 73
     7
 74
     0
 42
0.00000001
 43
0.00000001
 40
0.0
 40
0.0
 40
0.0
 40
0.0
 40
0.25
 40
0.5
 40
0.75
 40
1.0
 40
1.0
 40
1.0
 40
1.0
 10
158.7148440643562
 20
104.3664169791131
 30
0.0
 10
158.7149119646722
 20
104.3664047898041
 30
0.0
 10
158.7150538337166
 20
104.9908947277518
 30
0.0
 10
158.7151910102881
 20
107.6614953239967
 30
0.0
 10
158.7151805215678
 20
111.6501601264366
 30
0.0
 10
158.7150515125218
 20
114.8058037867489
 30
0.0
 10
158.7149607092635
 20
116.3665425887687
 30
0.0
  0
LINE
  5
D4
330
1F
100
AcDbEntity
  8
0
  6
Continuous
 62
     7
370
    25
100
AcDbLine
 10
158.714960712
 20
116.3665425883
 30
0.0
 11
634.7149607163
 21
116.3665425883
 31
0.0
  0
SPLINE
  5
D5
330
1F
100
AcDbEntity
  8
0
  6
Continuous
 62
     7
370
    25
100
AcDbSpline
210
0.0
220
0.0
230
1.0
 70
    24
 71
     3
 72
    16
 73
    12
 74
     0
 42
0.00000001
 43
0.00000001
 40
0.0
 40
0.0
 40
0.0
 40
0.0
 40
0.2499999999999973
 40
0.3749999999999978
 40
0.3749999999999978
 40
0.4999999999999982
 40
0.4999999999999982
 40
0.6249999999999987
 40
0.6249999999999987
 40
0.7499999999999991
 40
1.0
 40
1.0
 40
1.0
 40
1.0
 10
634.7149607163449
 20
104.366542592177
 30
0.0
 10
634.7149607163449
 20
104.3647461108274
 30
0.0
 10
634.7149607163449
 20
104.8332700125929
 30
0.0
 10
634.7149607163448
 20
105.9426114049802
 30
0.0
 10
634.7149607163449
 20
106.817241044795
 30
0.0
 10
634.7149607163449
 20
107.323024989317
 30
0.0
 10
634.7149607163449
 20
108.4438234738993
 30
0.0
 10
634.7149607163449
 20
109.0587000383534
 30
0.0
 10
634.7149607163449
 20
110.3690828938395
 30
0.0
 10
634.7149607163449
 20
112.4560669459387
 30
0.0
 10
634.7149607163449
 20
114.7950270911607
 30
0.0
 10
634.7149607163449
 20
116.3665425951531
 30
0.0
  0
ARC
  5
D6
330
1F
100
AcDbEntity
  8
0
  6
Continuous
 62
     7
370
    25
100
AcDbCircle
 10
396.714960975
 20
384.3634342923
 30
0.0
 40
55.32500000000014
100
AcDbArc
 50
268.0418745297
 51
88.0418745297
  0
ARC
  5
D7
330
1F
100
AcDbEntity
  8
0
  6
Continuous
 62
     7
370
    25
100
AcDbCircle
 10
396.714960975
 20
384.3634342923
 30
0.0
 40
55.32500000000014
100
AcDbArc
 50
88.0418745297
 51
268.0418745297
  0
ARC
  5
D8
330
1F
100
AcDbEntity
  8
0
  6
Continuous
 62
     7
370
    25
100
AcDbCircle
 10
396.714960975
 20
384.3634342923
 30
0.0
 40
43.23139268164115
100
AcDbArc
 50
30.0
 51
88.0418745297
  0
ARC
  5
D9
330
1F
100
AcDbEntity
  8
0
  6
Continuous
 62
     7
370
    25
100
AcDbCircle
 10
396.714960975
 20
384.3634342923
 30
0.0
 40
43.23139268164135
100
AcDbArc
 50
268.0418745297
 51
30.0
  0
ARC
  5
DA
330
1F
100
AcDbEntity
  8
0
  6
Continuous
 62
     7
370
    25
100
AcDbCircle
 10
396.714960975
 20
384.3634342923
 30
0.0
 40
43.23139268164119
100
AcDbArc
 50
88.0418745297
 51
210.0
  0
ARC
  5
DB
330
1F
100
AcDbEntity
  8
0
  6
Continuous
 62
     7
370
    25
100
AcDbCircle
 10
396.714960975
 20
384.3634342923
 30
0.0
 40
43.23139268164135
100
AcDbArc
 50
210.0
 51
268.0418745297
  0
ARC
  5
DC
330
1F
100
AcDbEntity
  8
0
  6
Continuous
 62
     7
370
    25
100
AcDbCircle
 10
396.714960975
 20
384.3634342923
 30
0.0
 40
41.97499999999992
100
AcDbArc
 50
30.0
 51
88.0418745297
  0
ARC
  5
DD
330
1F
100
AcDbEntity
  8
0
  6
Continuous
 62
     7
370
    25
100
AcDbCircle
 10
396.714960975
 20
384.3634342923
 30
0.0
 40
41.97500000000006
100
AcDbArc
 50
88.0418745297
 51
210.0
  0
ARC
  5
DE
330
1F
100
AcDbEntity
  8
0
  6
Continuous
 62
     7
370
    25
100
AcDbCircle
 10
396.714960975
 20
384.3634342923
 30
0.0
 40
41.97500000000009
100
AcDbArc
 50
210.0
 51
268.0418745297
  0
ARC
  5
DF
330
1F
100
AcDbEntity
  8
0
  6
Continuous
 62
     7
370
    25
100
AcDbCircle
 10
396.714960975
 20
384.3634342923
 30
0.0
 40
41.97500000000009
100
AcDbArc
 50
268.0418745297
 51
30.0
  0
ARC
  5
E0
330
1F
100
AcDbEntity
  8
0
  6
Continuous
 62
     7
370
    25
100
AcDbCircle
 10
396.714960975
 20
384.3634342923
 30
0.0
 40
41.84698085272061
100
AcDbArc
 50
30.0
 51
210.0
  0
ARC
  5
E1
330
1F
100
AcDbEntity
  8
0
  6
Continuous
 62
     7
370
    25
100
AcDbCircle
 10
396.714960975
 20
384.3634342923
 30
0.0
 40
41.84698085272061
100
AcDbArc
 50
210.0
 51
30.0
  0
SPLINE
  5
E2
330
1F
100
AcDbEntity
  8
0
  6
Continuous
 62
     8
370
    25
100
AcDbSpline
210
0.0
220
0.0
230
1.0
 70
     8
 71
     3
 72
    12
 73
     8
 74
     0
 42
0.00000001
 43
0.00000001
 40
0.0
 40
0.0
 40
0.0
 40
0.0
 40
0.1427092643425981
 40
0.2860544167273234
 40
0.5743842975838973
 40
0.8629985992228606
 40
1.0
 40
1.0
 40
1.0
 40
1.0
 10
634.7149472783624
 20
506.3664750040009
 30
0.0
 10
634.7150108390379
 20
506.2367729749488
 30
0.0
 10
634.7151382436039
 20
505.9767909868157
 30
0.0
 10
634.7148341754287
 20
505.4768050062368
 30
0.0
 10
634.7144922896837
 20
504.9266176942307
 30
0.0
 10
634.7162192900715
 20
504.5428083040364
 30
0.0
 10
634.7161511754457
 20
504.4416383695329
 30
0.0
 10
634.7161292500349
 20
504.4090727882706
 30
0.0
  0
SPLINE
  5
E3
330
1F
100
AcDbEntity
  8
0
  6
Continuous
 62
     8
370
    25
100
AcDbSpline
210
0.0
220
0.0
230
1.0
 70
    24
 71
     3
 72
    11
 73
     7
 74
     0
 42
0.00000001
 43
0.00000001
 40
0.0
 40
0.0
 40
0.0
 40
0.0
 40
0.2865568397543234
 40
0.574906036964688
 40
0.863255184107416
 40
1.0
 40
1.0
 40
1.0
 40
1.0
 10
648.7149325696699
 20
492.3665425882803
 30
0.0
 10
648.4531371275868
 20
492.3665425882803
 30
0.0
 10
647.9279087637046
 20
492.3665425882803
 30
0.0
 10
647.2744839679378
 20
492.3665425882803
 30
0.0
 10
646.8661847649388
 20
492.3665425882803
 30
0.0
 10
646.81160960781
 20
492.3665425882803
 30
0.0
 10
646.7940537955359
 20
492.3665425882803
 30
0.0
  0
SPLINE
  5
E4
330
1F
100
AcDbEntity
  8
0
  6
Continuous
 62
     8
370
    25
100
AcDbSpline
210
0.0
220
0.0
230
1.0
 70
     8
 71
     3
 72
     9
 73
     5
 74
     0
 42
0.00000001
 43
0.00000001
 40
0.0
 40
0.0
 40
0.0
 40
0.0
 40
0.9742038838473408
 40
1.0
 40
1.0
 40
1.0
 40
1.0
 10
155.5246092314445
 20
503.87870766764
 30
0.0
 10
155.0444161367766
 20
503.7812972385796
 30
0.0
 10
154.5515079246153
 20
503.6813074616185
 30
0.0
 10
154.114167928036
 20
503.4468003895556
 30
0.0
 10
154.1028862546862
 20
503.440751017886
 30
0.0
  0
SPLINE
  5
E5
330
1F
100
AcDbEntity
  8
0
  6
Continuous
 62
     8
370
    25
100
AcDbSpline
210
0.0
220
0.0
230
1.0
 70
     8
 71
     3
 72
     9
 73
     5
 74
     0
 42
0.00000001
 43
0.00000001
 40
0.0
 40
0.0
 40
0.0
 40
0.0
 40
0.9726155932790564
 40
1.0
 40
1.0
 40
1.0
 40
1.0
 10
637.9275117454702
 20
104.8610846894752
 30
0.0
 10
638.3999359514303
 20
104.9570004288587
 30
0.0
 10
638.8856614623359
 20
105.05561671678
 30
0.0
 10
639.3166376883808
 20
105.2867754904631
 30
0.0
 10
639.3284397166419
 20
105.2931056363386
 30
0.0
  0
LINE
  5
E6
330
1F
100
AcDbEntity
  8
0
  6
Continuous
 62
     8
370
    25
100
AcDbLine
 10
360.4744124848
 20
363.4399438659
 30
0.0
 11
360.3635446511
 21
363.3759342923
 31
0.0
  0
ENDSEC
  0
SECTION
  2
OBJECTS
  0
DICTIONARY
  5
C
330
0
100
AcDbDictionary
281
     1
  3
ACAD_GROUP
350
D
  3
ACAD_LAYOUT
350
1A
  3
ACAD_MLINESTYLE
350
17
  3
ACAD_PLOTSETTINGS
350
19
  3
ACAD_PLOTSTYLENAME
350
E
  3
ACAD_SCALELIST
350
47
  3
DWGPROPS
350
E7
  0
DICTIONARY
  5
D
102
{ACAD_REACTORS
330
C
102
}
330
C
100
AcDbDictionary
281
     1
  0
DICTIONARY
  5
1A
102
{ACAD_REACTORS
330
C
102
}
330
C
100
AcDbDictionary
281
     1
  3
Layout1
350
1E
  3
Layout2
350
26
  3
Model
350
22
  0
DICTIONARY
  5
17
102
{ACAD_REACTORS
330
C
102
}
330
C
100
AcDbDictionary
281
     1
  3
Standard
350
18
  0
DICTIONARY
  5
19
102
{ACAD_REACTORS
330
C
102
}
330
C
100
AcDbDictionary
281
     1
  0
ACDBDICTIONARYWDFLT
  5
E
102
{ACAD_REACTORS
330
C
102
}
330
C
100
AcDbDictionary
281
     1
  3
Normal
350
F
100
AcDbDictionaryWithDefault
340
F
  0
DICTIONARY
  5
47
102
{ACAD_REACTORS
330
C
102
}
330
C
100
AcDbDictionary
281
     1
  3
A0
350
48
  3
A1
350
49
  3
A2
350
4A
  3
A3
350
4B
  3
A4
350
4C
  3
A5
350
4D
  3
A6
350
4E
  3
A7
350
4F
  3
A8
350
50
  3
A9
350
51
  3
B0
350
52
  3
B1
350
53
  3
B2
350
54
  3
B3
350
55
  3
B4
350
56
  3
B5
350
57
  3
B6
350
58
  3
B7
350
59
  3
B8
350
5A
  3
B9
350
5B
  3
C0
350
5C
  3
C1
350
5D
  3
C2
350
5E
  3
C3
350
5F
  3
C4
350
60
  3
C5
350
61
  3
C6
350
62
  3
C7
350
63
  3
C8
350
64
  3
C9
350
65
  3
D0
350
66
  3
D1
350
67
  3
D2
350
68
  0
XRECORD
  5
E7
102
{ACAD_REACTORS
330
C
102
}
330
C
100
AcDbXrecord
280
     1
  1
DWGPROPS COOKIE
  2

  3

  4

  6

  7

  8
villesi
  9

300
=
301
=
302
=
303
=
304
=
305
=
306
=
307
=
308
=
309
=
 40
0.0
 41
2459704.471024734
 42
2459704.471024988
  1

 90
        0
  0
LAYOUT
  5
1E
102
{ACAD_REACTORS
330
1A
102
}
330
1A
100
AcDbPlotSettings
  1

  2
none_device
  4

  6

 40
0.0
 41
0.0
 42
0.0
 43
0.0
 44
0.0
 45
0.0
 46
0.0
 47
0.0
 48
0.0
 49
0.0
140
0.0
141
0.0
142
1.0
143
1.0
 70
   688
 72
     1
 73
     0
 74
     5
  7

 75
    16
147
1.0
148
0.0
149
0.0
100
AcDbLayout
  1
Layout1
 70
     1
 71
     1
 10
0.0
 20
0.0
 11
420.0
 21
297.0
 12
0.0
 22
0.0
 32
0.0
 14
1.0000000000E+20
 24
1.0000000000E+20
 34
1.0000000000E+20
 15
-1.0000000000E+20
 25
-1.0000000000E+20
 35
-1.0000000000E+20
146
0.0
 13
0.0
 23
0.0
 33
0.0
 16
1.0
 26
0.0
 36
0.0
 17
0.0
 27
1.0
 37
0.0
 76
     0
330
1B
  0
LAYOUT
  5
26
102
{ACAD_REACTORS
330
1A
102
}
330
1A
100
AcDbPlotSettings
  1

  2
none_device
  4

  6

 40
0.0
 41
0.0
 42
0.0
 43
0.0
 44
0.0
 45
0.0
 46
0.0
 47
0.0
 48
0.0
 49
0.0
140
0.0
141
0.0
142
1.0
143
1.0
 70
   688
 72
     1
 73
     0
 74
     5
  7

 75
    16
147
1.0
148
0.0
149
0.0
100
AcDbLayout
  1
Layout2
 70
     1
 71
     2
 10
0.0
 20
0.0
 11
0.0
 21
0.0
 12
0.0
 22
0.0
 32
0.0
 14
0.0
 24
0.0
 34
0.0
 15
0.0
 25
0.0
 35
0.0
146
0.0
 13
0.0
 23
0.0
 33
0.0
 16
1.0
 26
0.0
 36
0.0
 17
0.0
 27
1.0
 37
0.0
 76
     0
330
23
  0
LAYOUT
  5
22
102
{ACAD_REACTORS
330
1A
102
}
330
1A
100
AcDbPlotSettings
  1

  2
none_device
  4
Letter_(8.50_x_11.00_Inches)
  6

 40
6.35
 41
6.35
 42
6.35000508
 43
6.35000508
 44
215.9
 45
279.4
 46
0.0
 47
0.0
 48
0.0
 49
0.0
140
0.0
141
0.0
142
1.0
143
1.0
 70
  1712
 72
     1
 73
     0
 74
     0
  7

 75
     0
147
1.0
148
0.0
149
0.0
100
AcDbLayout
  1
Model
 70
     1
 71
     0
 10
0.0
 20
0.0
 11
800.0
 21
600.0
 12
0.0
 22
0.0
 32
0.0
 14
0.0
 24
0.0
 34
0.0
 15
800.0
 25
600.0
 35
0.0
146
0.0
 13
0.0
 23
0.0
 33
0.0
 16
1.0
 26
0.0
 36
0.0
 17
0.0
 27
1.0
 37
0.0
 76
     0
330
1F
331
29
  0
MLINESTYLE
  5
18
102
{ACAD_REACTORS
330
17
102
}
330
17
100
AcDbMlineStyle
  2
Standard
 70
     0
  3

 62
   256
 51
90.0
 52
90.0
 71
     2
 49
0.5
 62
   256
  6
BYLAYER
 49
-0.5
 62
   256
  6
BYLAYER
  0
ACDBPLACEHOLDER
  5
F
102
{ACAD_REACTORS
330
E
102
}
330
E
  0
SCALE
  5
48
102
{ACAD_REACTORS
330
47
102
}
330
47
100
AcDbScale
 70
     0
300
1:1
140
1.0
141
1.0
290
     1
  0
SCALE
  5
49
102
{ACAD_REACTORS
330
47
102
}
330
47
100
AcDbScale
 70
     0
300
1:2
140
1.0
141
2.0
290
     0
  0
SCALE
  5
4A
102
{ACAD_REACTORS
330
47
102
}
330
47
100
AcDbScale
 70
     0
300
1:4
140
1.0
141
4.0
290
     0
  0
SCALE
  5
4B
102
{ACAD_REACTORS
330
47
102
}
330
47
100
AcDbScale
 70
     0
300
1:5
140
1.0
141
5.0
290
     0
  0
SCALE
  5
4C
102
{ACAD_REACTORS
330
47
102
}
330
47
100
AcDbScale
 70
     0
300
1:8
140
1.0
141
8.0
290
     0
  0
SCALE
  5
4D
102
{ACAD_REACTORS
330
47
102
}
330
47
100
AcDbScale
 70
     0
300
1:10
140
1.0
141
10.0
290
     0
  0
SCALE
  5
4E
102
{ACAD_REACTORS
330
47
102
}
330
47
100
AcDbScale
 70
     0
300
1:16
140
1.0
141
16.0
290
     0
  0
SCALE
  5
4F
102
{ACAD_REACTORS
330
47
102
}
330
47
100
AcDbScale
 70
     0
300
1:20
140
1.0
141
20.0
290
     0
  0
SCALE
  5
50
102
{ACAD_REACTORS
330
47
102
}
330
47
100
AcDbScale
 70
     0
300
1:30
140
1.0
141
30.0
290
     0
  0
SCALE
  5
51
102
{ACAD_REACTORS
330
47
102
}
330
47
100
AcDbScale
 70
     0
300
1:40
140
1.0
141
40.0
290
     0
  0
SCALE
  5
52
102
{ACAD_REACTORS
330
47
102
}
330
47
100
AcDbScale
 70
     0
300
1:50
140
1.0
141
50.0
290
     0
  0
SCALE
  5
53
102
{ACAD_REACTORS
330
47
102
}
330
47
100
AcDbScale
 70
     0
300
1:100
140
1.0
141
100.0
290
     0
  0
SCALE
  5
54
102
{ACAD_REACTORS
330
47
102
}
330
47
100
AcDbScale
 70
     0
300
2:1
140
2.0
141
1.0
290
     0
  0
SCALE
  5
55
102
{ACAD_REACTORS
330
47
102
}
330
47
100
AcDbScale
 70
     0
300
4:1
140
4.0
141
1.0
290
     0
  0
SCALE
  5
56
102
{ACAD_REACTORS
330
47
102
}
330
47
100
AcDbScale
 70
     0
300
8:1
140
8.0
141
1.0
290
     0
  0
SCALE
  5
57
102
{ACAD_REACTORS
330
47
102
}
330
47
100
AcDbScale
 70
     0
300
10:1
140
10.0
141
1.0
290
     0
  0
SCALE
  5
58
102
{ACAD_REACTORS
330
47
102
}
330
47
100
AcDbScale
 70
     0
300
100:1
140
100.0
141
1.0
290
     0
  0
SCALE
  5
59
102
{ACAD_REACTORS
330
47
102
}
330
47
100
AcDbScale
 70
     0
300
1/128" = 1'-0"
140
0.0078125
141
12.0
290
     0
  0
SCALE
  5
5A
102
{ACAD_REACTORS
330
47
102
}
330
47
100
AcDbScale
 70
     0
300
1/64" = 1'-0"
140
0.015625
141
12.0
290
     0
  0
SCALE
  5
5B
102
{ACAD_REACTORS
330
47
102
}
330
47
100
AcDbScale
 70
     0
300
1/32" = 1'-0"
140
0.03125
141
12.0
290
     0
  0
SCALE
  5
5C
102
{ACAD_REACTORS
330
47
102
}
330
47
100
AcDbScale
 70
     0
300
1/16" = 1'-0"
140
0.0625
141
12.0
290
     0
  0
SCALE
  5
5D
102
{ACAD_REACTORS
330
47
102
}
330
47
100
AcDbScale
 70
     0
300
3/32" = 1'-0"
140
0.09375
141
12.0
290
     0
  0
SCALE
  5
5E
102
{ACAD_REACTORS
330
47
102
}
330
47
100
AcDbScale
 70
     0
300
1/8" = 1'-0"
140
0.125
141
12.0
290
     0
  0
SCALE
  5
5F
102
{ACAD_REACTORS
330
47
102
}
330
47
100
AcDbScale
 70
     0
300
3/16" = 1'-0"
140
0.1875
141
12.0
290
     0
  0
SCALE
  5
60
102
{ACAD_REACTORS
330
47
102
}
330
47
100
AcDbScale
 70
     0
300
1/4" = 1'-0"
140
0.25
141
12.0
290
     0
  0
SCALE
  5
61
102
{ACAD_REACTORS
330
47
102
}
330
47
100
AcDbScale
 70
     0
300
3/8" = 1'-0"
140
0.375
141
12.0
290
     0
  0
SCALE
  5
62
102
{ACAD_REACTORS
330
47
102
}
330
47
100
AcDbScale
 70
     0
300
1/2" = 1'-0"
140
0.5
141
12.0
290
     0
  0
SCALE
  5
63
102
{ACAD_REACTORS
330
47
102
}
330
47
100
AcDbScale
 70
     0
300
3/4" = 1'-0"
140
0.75
141
12.0
290
     0
  0
SCALE
  5
64
102
{ACAD_REACTORS
330
47
102
}
330
47
100
AcDbScale
 70
     0
300
1" = 1'-0"
140
1.0
141
12.0
290
     0
  0
SCALE
  5
65
102
{ACAD_REACTORS
330
47
102
}
330
47
100
AcDbScale
 70
     0
300
1-1/2" = 1'-0"
140
1.5
141
12.0
290
     0
  0
SCALE
  5
66
102
{ACAD_REACTORS
330
47
102
}
330
47
100
AcDbScale
 70
     0
300
3" = 1'-0"
140
3.0
141
12.0
290
     0
  0
SCALE
  5
67
102
{ACAD_REACTORS
330
47
102
}
330
47
100
AcDbScale
 70
     0
300
6" = 1'-0"
140
6.0
141
12.0
290
     0
  0
SCALE
  5
68
102
{ACAD_REACTORS
330
47
102
}
330
47
100
AcDbScale
 70
     0
300
1'-0" = 1'-0"
140
12.0
141
12.0
290
     0
  0
ENDSEC
  0
EOF
