  0
SECTION
  2
HEADER
  9
$ACADVER
  1
AC1015
  9
$ACADMAINTVER
 70
     6
  9
$DWGCODEPAGE
  3
ANSI_1252
  9
$INSBASE
 10
0.0
 20
0.0
 30
0.0
  9
$EXTMIN
 10
0.0
 20
0.0
 30
0.0
  9
$EXTMAX
 10
800.0
 20
600.0
 30
0.0
  9
$LIMMIN
 10
0.0
 20
0.0
  9
$LIMMAX
 10
800.0
 20
600.0
  9
$ORTHOMODE
 70
     0
  9
$REGENMODE
 70
     1
  9
$FILLMODE
 70
     1
  9
$QTEXTMODE
 70
     0
  9
$MIRRTEXT
 70
     1
  9
$LTSCALE
 40
1.0
  9
$ATTMODE
 70
     1
  9
$TEXTSIZE
 40
3.5
  9
$TRACEWID
 40
1.0
  9
$TEXTSTYLE
  7
Standard
  9
$CLAYER
  8
0
  9
$CELTYPE
  6
ByLayer
  9
$CECOLOR
 62
   256
  9
$CELTSCALE
 40
1.0
  9
$DISPSILH
 70
     0
  9
$DIMSCALE
 40
1.0
  9
$DIMASZ
 40
3.302
  9
$DIMEXO
 40
1.0
  9
$DIMDLI
 40
3.75
  9
$DIMRND
 40
0.0
  9
$DIMDLE
 40
0.0
  9
$DIMEXE
 40
1.0
  9
$DIMTP
 40
0.0
  9
$DIMTM
 40
0.0
  9
$DIMTXT
 40
3.5
  9
$DIMCEN
 40
2.5
  9
$DIMTSZ
 40
0.0
  9
$DIMTOL
 70
     0
  9
$DIMLIM
 70
     0
  9
$DIMTIH
 70
     1
  9
$DIMTOH
 70
     1
  9
$DIMSE1
 70
     0
  9
$DIMSE2
 70
     0
  9
$DIMTAD
 70
     1
  9
$DIMZIN
 70
     1
  9
$DIMBLK
  1

  9
$DIMASO
 70
     1
  9
$DIMSHO
 70
     1
  9
$DIMPOST
  1

  9
$DIMAPOST
  1

  9
$DIMALT
 70
     0
  9
$DIMALTD
 70
     3
  9
$DIMALTF
 40
0.0393700787
  9
$DIMLFAC
 40
1.0
  9
$DIMTOFL
 70
     1
  9
$DIMTVP
 40
0.0
  9
$DIMTIX
 70
     0
  9
$DIMSOXD
 70
     0
  9
$DIMSAH
 70
     0
  9
$DIMBLK1
  1

  9
$DIMBLK2
  1

  9
$DIMSTYLE
  2
ISO-25
  9
$DIMCLRD
 70
     0
  9
$DIMCLRE
 70
     0
  9
$DIMCLRT
 70
     0
  9
$DIMTFAC
 40
1.0
  9
$DIMGAP
 40
1.524
  9
$DIMJUST
 70
     0
  9
$DIMSD1
 70
     0
  9
$DIMSD2
 70
     0
  9
$DIMTOLJ
 70
     0
  9
$DIMTZIN
 70
     1
  9
$DIMALTZ
 70
     0
  9
$DIMALTTZ
 70
     0
  9
$DIMUPT
 70
     0
  9
$DIMDEC
 70
     0
  9
$DIMTDEC
 70
     0
  9
$DIMALTU
 70
     2
  9
$DIMALTTD
 70
     3
  9
$DIMTXSTY
  7
Standard
  9
$DIMAUNIT
 70
     0
  9
$DIMADEC
 70
     2
  9
$DIMALTRND
 40
0.0
  9
$DIMAZIN
 70
     0
  9
$DIMDSEP
 70
    44
  9
$DIMATFIT
 70
     3
  9
$DIMFRAC
 70
     0
  9
$DIMLDRBLK
  1

  9
$DIMLUNIT
 70
     2
  9
$DIMLWD
 70
    -2
  9
$DIMLWE
 70
    -2
  9
$DIMTMOVE
 70
     0
  9
$LUNITS
 70
     2
  9
$LUPREC
 70
     2
  9
$SKETCHINC
 40
1.0
  9
$FILLETRAD
 40
10.0
  9
$AUNITS
 70
     0
  9
$AUPREC
 70
     2
  9
$MENU
  1
.
  9
$ELEVATION
 40
0.0
  9
$PELEVATION
 40
0.0
  9
$THICKNESS
 40
0.0
  9
$LIMCHECK
 70
     0
  9
$CHAMFERA
 40
0.0
  9
$CHAMFERB
 40
0.0
  9
$CHAMFERC
 40
0.0
  9
$CHAMFERD
 40
0.0
  9
$SKPOLY
 70
     0
  9
$TDCREATE
 40
2459704.609192442
  9
$TDUCREATE
 40
2459704.484192442
  9
$TDUPDATE
 40
2459704.609192627
  9
$TDUUPDATE
 40
2459704.484192627
  9
$TDINDWG
 40
0.0000000116
  9
$TDUSRTIMER
 40
0.0000000116
  9
$USRTIMER
 70
     1
  9
$ANGBASE
 50
0.0
  9
$ANGDIR
 70
     0
  9
$PDMODE
 70
     0
  9
$PDSIZE
 40
-1.0
  9
$PLINEWID
 40
0.0
  9
$SPLFRAME
 70
     0
  9
$SPLINETYPE
 70
     6
  9
$SPLINESEGS
 70
     8
  9
$HANDSEED
  5
129
  9
$SURFTAB1
 70
     6
  9
$SURFTAB2
 70
     6
  9
$SURFTYPE
 70
     6
  9
$SURFU
 70
     6
  9
$SURFV
 70
     6
  9
$UCSBASE
  2

  9
$UCSNAME
  2

  9
$UCSORG
 10
0.0
 20
0.0
 30
0.0
  9
$UCSXDIR
 10
1.0
 20
0.0
 30
0.0
  9
$UCSYDIR
 10
0.0
 20
1.0
 30
0.0
  9
$UCSORTHOREF
  2

  9
$UCSORTHOVIEW
 70
     0
  9
$UCSORGTOP
 10
0.0
 20
0.0
 30
0.0
  9
$UCSORGBOTTOM
 10
0.0
 20
0.0
 30
0.0
  9
$UCSORGLEFT
 10
0.0
 20
0.0
 30
0.0
  9
$UCSORGRIGHT
 10
0.0
 20
0.0
 30
0.0
  9
$UCSORGFRONT
 10
0.0
 20
0.0
 30
0.0
  9
$UCSORGBACK
 10
0.0
 20
0.0
 30
0.0
  9
$PUCSBASE
  2

  9
$PUCSNAME
  2

  9
$PUCSORG
 10
0.0
 20
0.0
 30
0.0
  9
$PUCSXDIR
 10
1.0
 20
0.0
 30
0.0
  9
$PUCSYDIR
 10
0.0
 20
1.0
 30
0.0
  9
$PUCSORTHOREF
  2

  9
$PUCSORTHOVIEW
 70
     0
  9
$PUCSORGTOP
 10
0.0
 20
0.0
 30
0.0
  9
$PUCSORGBOTTOM
 10
0.0
 20
0.0
 30
0.0
  9
$PUCSORGLEFT
 10
0.0
 20
0.0
 30
0.0
  9
$PUCSORGRIGHT
 10
0.0
 20
0.0
 30
0.0
  9
$PUCSORGFRONT
 10
0.0
 20
0.0
 30
0.0
  9
$PUCSORGBACK
 10
0.0
 20
0.0
 30
0.0
  9
$USERI1
 70
     0
  9
$USERI2
 70
     0
  9
$USERI3
 70
     0
  9
$USERI4
 70
     0
  9
$USERI5
 70
     0
  9
$USERR1
 40
0.0
  9
$USERR2
 40
0.0
  9
$USERR3
 40
0.0
  9
$USERR4
 40
0.0
  9
$USERR5
 40
0.0
  9
$WORLDVIEW
 70
     1
  9
$SHADEDGE
 70
     3
  9
$SHADEDIF
 70
    70
  9
$TILEMODE
 70
     1
  9
$MAXACTVP
 70
    64
  9
$PINSBASE
 10
0.0
 20
0.0
 30
0.0
  9
$PLIMCHECK
 70
     0
  9
$PEXTMIN
 10
1.0000000000E+20
 20
1.0000000000E+20
 30
1.0000000000E+20
  9
$PEXTMAX
 10
-1.0000000000E+20
 20
-1.0000000000E+20
 30
-1.0000000000E+20
  9
$PLIMMIN
 10
0.0
 20
0.0
  9
$PLIMMAX
 10
420.0
 20
297.0
  9
$UNITMODE
 70
     0
  9
$VISRETAIN
 70
     1
  9
$PLINEGEN
 70
     0
  9
$PSLTSCALE
 70
     1
  9
$TREEDEPTH
 70
  3020
  9
$CMLSTYLE
  2
Standard
  9
$CMLJUST
 70
     0
  9
$CMLSCALE
 40
20.0
  9
$PROXYGRAPHICS
 70
     1
  9
$MEASUREMENT
 70
     1
  9
$CELWEIGHT
370
    -1
  9
$ENDCAPS
280
     0
  9
$JOINSTYLE
280
     0
  9
$LWDISPLAY
290
     1
  9
$INSUNITS
 70
     4
  9
$HYPERLINKBASE
  1

  9
$STYLESHEET
  1

  9
$XEDIT
290
     1
  9
$CEPSNTYPE
380
     0
  9
$PSTYLEMODE
290
     1
  9
$FINGERPRINTGUID
  2
{cd52168b-66d8-4e82-bb1d-ebf7e871b30f}
  9
$VERSIONGUID
  2
{FAEB1C32-E019-11D5-929B-00C0DF256EC4}
  9
$EXTNAMES
290
     1
  9
$PSVPSCALE
 40
0.0
  9
$OLESTARTUP
290
     0
  0
ENDSEC
  0
SECTION
  2
CLASSES
  0
CLASS
  1
ACDBDICTIONARYWDFLT
  2
AcDbDictionaryWithDefault
  3
ObjectDBX Classes
 90
        0
280
     0
281
     0
  0
CLASS
  1
VISUALSTYLE
  2
AcDbVisualStyle
  3
ObjectDBX Classes
 90
     4095
280
     0
281
     0
  0
CLASS
  1
MATERIAL
  2
AcDbMaterial
  3
ObjectDBX Classes
 90
     1153
280
     0
281
     0
  0
CLASS
  1
SCALE
  2
AcDbScale
  3
ObjectDBX Classes
 90
     1153
280
     0
281
     0
  0
CLASS
  1
TABLESTYLE
  2
AcDbTableStyle
  3
ObjectDBX Classes
 90
     4095
280
     0
281
     0
  0
CLASS
  1
MLEADERSTYLE
  2
AcDbMLeaderStyle
  3
ACDB_MLEADERSTYLE_CLASS
 90
     4095
280
     0
281
     0
  0
CLASS
  1
SUN
  2
AcDbSun
  3
SCENEOE
 90
     1153
280
     0
281
     0
  0
CLASS
  1
ACDBPLACEHOLDER
  2
AcDbPlaceHolder
  3
ObjectDBX Classes
 90
        0
280
     0
281
     0
  0
CLASS
  1
LAYOUT
  2
AcDbLayout
  3
ObjectDBX Classes
 90
        0
280
     0
281
     0
  0
ENDSEC
  0
SECTION
  2
TABLES
  0
TABLE
  2
VPORT
  5
8
330
0
100
AcDbSymbolTable
 70
     1
  0
VPORT
  5
29
330
8
100
AcDbSymbolTableRecord
100
AcDbViewportTableRecord
  2
*Active
 70
     0
 10
0.0
 20
0.0
 11
1.0
 21
1.0
 12
400.0
 22
300.0
 13
0.0
 23
0.0
 14
10.0
 24
10.0
 15
10.0
 25
10.0
 16
0.0
 26
0.0
 36
1.0
 17
0.0
 27
0.0
 37
0.0
 40
600.0
 41
1.3333333333
 42
50.0
 43
0.0
 44
0.0
 50
0.0
 51
0.0
 71
     0
 72
  2000
 73
     1
 74
     3
 75
     0
 76
     0
 77
     0
 78
     0
281
     0
 65
     1
110
0.0
120
0.0
130
0.0
111
1.0
121
0.0
131
0.0
112
0.0
122
1.0
132
0.0
 79
     0
146
0.0
  0
ENDTAB
  0
TABLE
  2
LTYPE
  5
5
330
0
100
AcDbSymbolTable
 70
     6
  0
LTYPE
  5
14
330
5
100
AcDbSymbolTableRecord
100
AcDbLinetypeTableRecord
  2
ByBlock
 70
     0
  3

 72
    65
 73
     0
 40
0.0
  0
LTYPE
  5
15
330
5
100
AcDbSymbolTableRecord
100
AcDbLinetypeTableRecord
  2
ByLayer
 70
     0
  3

 72
    65
 73
     0
 40
0.0
  0
LTYPE
  5
16
330
5
100
AcDbSymbolTableRecord
100
AcDbLinetypeTableRecord
  2
Continuous
 70
     0
  3
Solid line
 72
    65
 73
     0
 40
0.0
  0
LTYPE
  5
6E
330
5
100
AcDbSymbolTableRecord
100
AcDbLinetypeTableRecord
  2
HIDDEN
 70
     0
  3
Hidden __ __ __ __ __ __ __ __ __ __ __ __ __ __
 72
    65
 73
     2
 40
1.905
 49
1.27
 74
     0
 49
-0.635
 74
     0
  0
LTYPE
  5
6F
330
5
100
AcDbSymbolTableRecord
100
AcDbLinetypeTableRecord
  2
PHANTOM
 70
     0
  3
Phantom ______  __  __  ______  __  __  ______
 72
    65
 73
     6
 40
12.7
 49
6.35
 74
     0
 49
-1.27
 74
     0
 49
1.27
 74
     0
 49
-1.27
 74
     0
 49
1.27
 74
     0
 49
-1.27
 74
     0
  0
LTYPE
  5
70
330
5
100
AcDbSymbolTableRecord
100
AcDbLinetypeTableRecord
  2
CENTER
 70
     0
  3
Center ____ _ ____ _ ____ _ ____ _ ____ _ ____
 72
    65
 73
     4
 40
10.16
 49
6.35
 74
     0
 49
-1.27
 74
     0
 49
1.27
 74
     0
 49
-1.27
 74
     0
  0
LTYPE
  5
71
330
5
100
AcDbSymbolTableRecord
100
AcDbLinetypeTableRecord
  2
CENTERX2
 70
     0
  3
Center (2x) ________  __  ________  __  _____
 72
    65
 73
     4
 40
20.32
 49
12.7
 74
     0
 49
-2.54
 74
     0
 49
2.54
 74
     0
 49
-2.54
 74
     0
  0
LTYPE
  5
72
330
5
100
AcDbSymbolTableRecord
100
AcDbLinetypeTableRecord
  2
DOT2
 70
     0
  3
Dot (.5x) ........................................
 72
    65
 73
     2
 40
0.635
 49
0.0
 74
     0
 49
-0.635
 74
     0
  0
ENDTAB
  0
TABLE
  2
LAYER
  5
2
330
0
100
AcDbSymbolTable
 70
     2
  0
LAYER
  5
10
330
2
100
AcDbSymbolTableRecord
100
AcDbLayerTableRecord
  2
0
 70
     0
 62
     7
  6
Continuous
370
    -3
390
F
  0
LAYER
  5
73
330
2
100
AcDbSymbolTableRecord
100
AcDbLayerTableRecord
  2
TABLE_BL1
 70
     0
 62
   179
  6
Continuous
370
    -3
390
F
  0
ENDTAB
  0
TABLE
  2
STYLE
  5
3
330
0
100
AcDbSymbolTable
 70
     1
  0
STYLE
  5
11
330
3
100
AcDbSymbolTableRecord
100
AcDbTextStyleTableRecord
  2
Standard
 70
     0
 40
0.0
 41
1.0
 50
0.0
 71
     0
 42
3.5
  3
txt
  4

  0
ENDTAB
  0
TABLE
  2
VIEW
  5
6
330
0
100
AcDbSymbolTable
 70
     0
  0
ENDTAB
  0
TABLE
  2
UCS
  5
7
330
0
100
AcDbSymbolTable
 70
     0
  0
ENDTAB
  0
TABLE
  2
APPID
  5
9
330
0
100
AcDbSymbolTable
 70
     1
  0
APPID
  5
12
330
9
100
AcDbSymbolTableRecord
100
AcDbRegAppTableRecord
  2
ACAD
 70
     0
  0
ENDTAB
  0
TABLE
  2
DIMSTYLE
  5
A
330
0
100
AcDbSymbolTable
 70
     1
100
AcDbDimStyleTable
  0
DIMSTYLE
105
27
330
A
100
AcDbSymbolTableRecord
100
AcDbDimStyleTableRecord
  2
ISO-25
 70
     0
 41
2.5
 42
0.625
 43
3.75
 44
1.25
 73
     0
 74
     0
 77
     1
 78
     8
140
2.5
141
2.5
143
0.0393700787
147
0.625
171
     3
172
     1
178
     0
271
     2
272
     2
274
     3
278
    44
283
     0
284
     8
340
11
  0
ENDTAB
  0
TABLE
  2
BLOCK_RECORD
  5
1
330
0
100
AcDbSymbolTable
 70
     1
  0
BLOCK_RECORD
  5
1F
330
1
100
AcDbSymbolTableRecord
100
AcDbBlockTableRecord
  2
*Model_Space
340
22
  0
BLOCK_RECORD
  5
1B
330
1
100
AcDbSymbolTableRecord
100
AcDbBlockTableRecord
  2
*Paper_Space
340
1E
  0
BLOCK_RECORD
  5
23
330
1
100
AcDbSymbolTableRecord
100
AcDbBlockTableRecord
  2
*Paper_Space0
340
26
  0
ENDTAB
  0
ENDSEC
  0
SECTION
  2
BLOCKS
  0
BLOCK
  5
20
330
1F
100
AcDbEntity
  8
0
100
AcDbBlockBegin
  2
*Model_Space
 70
     0
 10
0.0
 20
0.0
 30
0.0
  3
*Model_Space
  1

  0
ENDBLK
  5
21
330
1F
100
AcDbEntity
  8
0
100
AcDbBlockEnd
  0
BLOCK
  5
1C
330
1B
100
AcDbEntity
 67
     1
  8
0
100
AcDbBlockBegin
  2
*Paper_Space
 70
     0
 10
0.0
 20
0.0
 30
0.0
  3
*Paper_Space
  1

  0
ENDBLK
  5
1D
330
1B
100
AcDbEntity
 67
     1
  8
0
100
AcDbBlockEnd
  0
BLOCK
  5
24
330
23
100
AcDbEntity
  8
0
100
AcDbBlockBegin
  2
*Paper_Space0
 70
     0
 10
0.0
 20
0.0
 30
0.0
  3
*Paper_Space0
  1

  0
ENDBLK
  5
25
330
23
100
AcDbEntity
  8
0
100
AcDbBlockEnd
  0
ENDSEC
  0
SECTION
  2
ENTITIES
  0
SPLINE
  5
74
330
1F
100
AcDbEntity
  8
0
  6
Continuous
 62
     7
370
    25
100
AcDbSpline
210
0.0
220
0.0
230
1.0
 70
     8
 71
     3
 72
    29
 73
    25
 74
     0
 42
0.00000001
 43
0.00000001
 40
0.0
 40
0.0
 40
0.0
 40
0.0
 40
0.0349321406882634
 40
0.0633980643159915
 40
0.0838985515737896
 40
0.141048159829577
 40
0.1993926718331193
 40
0.2579538570990188
 40
0.3167358876867428
 40
0.3756685440136576
 40
0.4347110736298803
 40
0.4938368192040538
 40
0.5530116495173844
 40
0.6120983013386024
 40
0.6710428299972757
 40
0.7298261731686602
 40
0.7884258360426925
 40
0.8467958145206173
 40
0.8655669647427027
 40
0.8834823951604174
 40
0.9012873219477365
 40
0.9267778521638321
 40
0.9604934909203238
 40
0.9999999999999999
 40
0.9999999999999999
 40
0.9999999999999999
 40
0.9999999999999999
 10
201.7258868137243
 20
421.2920955815882
 30
0.0
 10
201.3024091958654
 20
419.9971618613168
 30
0.0
 10
200.5338430351773
 20
417.6469969511459
 30
0.0
 10
199.924038918867
 20
414.4278105895777
 30
0.0
 10
199.4406583851884
 20
410.3207913137009
 30
0.0
 10
199.4739991557979
 20
404.9895157704264
 30
0.0
 10
200.743622168403
 20
398.2904634248927
 30
0.0
 10
203.2398384070991
 20
391.8745610047049
 30
0.0
 10
206.8819660261306
 20
386.0055972833457
 30
0.0
 10
211.5542233167221
 20
380.8923393095951
 30
0.0
 10
217.0996972436427
 20
376.7196364244471
 30
0.0
 10
223.3287693056209
 20
373.6380991936663
 30
0.0
 10
230.021771083034
 20
371.7603396411785
 30
0.0
 10
236.9392895928332
 20
371.1520837104335
 30
0.0
 10
243.834815021359
 20
371.8281830746034
 30
0.0
 10
250.4701064330694
 20
373.7559263782935
 30
0.0
 10
256.6179870147229
 20
376.8563439539439
 30
0.0
 10
260.8514689477581
 20
380.0816632601482
 30
0.0
 10
263.5058389046292
 20
382.6665091552967
 30
0.0
 10
264.9399130824036
 20
384.2337089038409
 30
0.0
 10
266.4503986395027
 20
386.0811421540727
 30
0.0
 10
268.1843584025492
 20
388.5323945999139
 30
0.0
 10
270.1373424797922
 20
391.8594792433734
 30
0.0
 10
271.2039011573773
 20
394.5095472902122
 30
0.0
 10
271.779355597396
 20
395.9393733803789
 30
0.0
  0
SPLINE
  5
75
330
1F
100
AcDbEntity
  8
0
  6
Continuous
 62
     7
370
    25
100
AcDbSpline
210
0.0
220
0.0
230
1.0
 70
     8
 71
     3
 72
    29
 73
    25
 74
     0
 42
0.00000001
 43
0.00000001
 40
0.0
 40
0.0
 40
0.0
 40
0.0
 40
0.0349321406882615
 40
0.0633980643159896
 40
0.0838985515737878
 40
0.1410481598295756
 40
0.1993926718331183
 40
0.2579538570990178
 40
0.3167358876867423
 40
0.3756685440136566
 40
0.4347110736298794
 40
0.4938368192040531
 40
0.5530116495173839
 40
0.6120983013386019
 40
0.6710428299972753
 40
0.7298261731686597
 40
0.7884258360426923
 40
0.8467958145206169
 40
0.8655669647427023
 40
0.8834823951604172
 40
0.9012873219477362
 40
0.926777852163832
 40
0.9604934909203235
 40
1.0
 40
1.0
 40
1.0
 40
1.0
 10
271.779355597396
 20
395.9393733803789
 30
0.0
 10
272.2028332152547
 20
397.2343071006503
 30
0.0
 10
272.971399375943
 20
399.5844720108211
 30
0.0
 10
273.5812034922531
 20
402.8036583723894
 30
0.0
 10
274.0645840259319
 20
406.9106776482659
 30
0.0
 10
274.0312432553222
 20
412.2419531915407
 30
0.0
 10
272.7616202427174
 20
418.9410055370743
 30
0.0
 10
270.2654040040212
 20
425.3569079572623
 30
0.0
 10
266.6232763849897
 20
431.2258716786214
 30
0.0
 10
261.9510190943982
 20
436.3391296523719
 30
0.0
 10
256.4055451674776
 20
440.5118325375199
 30
0.0
 10
250.1764731054995
 20
443.593369768301
 30
0.0
 10
243.4834713280863
 20
445.4711293207884
 30
0.0
 10
236.5659528182871
 20
446.0793852515337
 30
0.0
 10
229.6704273897613
 20
445.4032858873637
 30
0.0
 10
223.0351359780508
 20
443.4755425836738
 30
0.0
 10
216.8872553963974
 20
440.3751250080231
 30
0.0
 10
212.6537734633622
 20
437.149805701819
 30
0.0
 10
209.999403506491
 20
434.5649598066705
 30
0.0
 10
208.5653293287167
 20
432.9977600581265
 30
0.0
 10
207.0548437716175
 20
431.1503268078945
 30
0.0
 10
205.3208840085711
 20
428.6990743620533
 30
0.0
 10
203.367899931328
 20
425.3719897185939
 30
0.0
 10
202.3013412537429
 20
422.721921671755
 30
0.0
 10
201.7258868137243
 20
421.2920955815882
 30
0.0
  0
SPLINE
  5
76
330
1F
100
AcDbEntity
  8
0
  6
Continuous
 62
     7
370
    25
100
AcDbSpline
210
0.0
220
0.0
230
1.0
 70
     8
 71
     3
 72
    29
 73
    25
 74
     0
 42
0.00000001
 43
0.00000001
 40
0.0
 40
0.0
 40
0.0
 40
0.0
 40
0.0349321406882631
 40
0.063398064315991
 40
0.0838985515737894
 40
0.1410481598295766
 40
0.1993926718331193
 40
0.2579538570990185
 40
0.3167358876867426
 40
0.3756685440136576
 40
0.4347110736298805
 40
0.4938368192040538
 40
0.5530116495173841
 40
0.6120983013386022
 40
0.6710428299972759
 40
0.7298261731686603
 40
0.7884258360426925
 40
0.8467958145206174
 40
0.8655669647427027
 40
0.8834823951604177
 40
0.9012873219477365
 40
0.9267778521638325
 40
0.9604934909203235
 40
0.9999999999999999
 40
0.9999999999999999
 40
0.9999999999999999
 40
0.9999999999999999
 10
473.3301724879655
 20
397.0929700860671
 30
0.0
 10
473.7918526654489
 20
395.8111596295479
 30
0.0
 10
474.6297523477705
 20
393.4848120263899
 30
0.0
 10
476.12693044913
 20
390.5704545288295
 30
0.0
 10
478.2694351242533
 20
387.0333741240556
 30
0.0
 10
481.5719115999951
 20
382.8480115767393
 30
0.0
 10
486.6902187544245
 20
378.3433277037856
 30
0.0
 10
492.6021858972458
 20
374.8157869346512
 30
0.0
 10
499.0820596016283
 20
372.4239120359177
 30
0.0
 10
505.9102080414697
 20
371.2612494971282
 30
0.0
 10
512.8492487296182
 20
371.3772010822726
 30
0.0
 10
519.6570381908917
 20
372.7740593818065
 30
0.0
 10
526.0910773782309
 20
375.4056736136421
 30
0.0
 10
531.9221031499904
 20
379.1767710745649
 30
0.0
 10
536.9465169061726
 20
383.9475831325232
 30
0.0
 10
540.9964717953253
 20
389.5459000009283
 30
0.0
 10
543.9412761128395
 20
395.7698177639795
 30
0.0
 10
545.2990539490766
 20
400.9158349862333
 30
0.0
 10
545.8046515614061
 20
404.5861863623297
 30
0.0
 10
545.9729196543169
 20
406.7038193919417
 30
0.0
 10
546.0292597868577
 20
409.0894853412593
 30
0.0
 10
545.8908402526853
 20
412.088834444926
 30
0.0
 10
545.3869931749563
 20
415.9137236136434
 30
0.0
 10
544.5998838388522
 20
418.6597875165098
 30
0.0
 10
544.1752043798027
 20
420.1414075142556
 30
0.0
  0
SPLINE
  5
77
330
1F
100
AcDbEntity
  8
0
  6
Continuous
 62
     7
370
    25
100
AcDbSpline
210
0.0
220
0.0
230
1.0
 70
     8
 71
     3
 72
    29
 73
    25
 74
     0
 42
0.00000001
 43
0.00000001
 40
0.0
 40
0.0
 40
0.0
 40
0.0
 40
0.0349321406882616
 40
0.0633980643159899
 40
0.0838985515737875
 40
0.1410481598295756
 40
0.1993926718331182
 40
0.2579538570990176
 40
0.3167358876867417
 40
0.3756685440136561
 40
0.434711073629879
 40
0.4938368192040526
 40
0.5530116495173835
 40
0.6120983013386015
 40
0.6710428299972747
 40
0.7298261731686594
 40
0.788425836042692
 40
0.8467958145206165
 40
0.8655669647427018
 40
0.8834823951604168
 40
0.9012873219477356
 40
0.926777852163832
 40
0.9604934909203232
 40
1.0
 40
1.0
 40
1.0
 40
1.0
 10
544.1752043798027
 20
420.1414075142556
 30
0.0
 10
543.7135242023194
 20
421.4232179707748
 30
0.0
 10
542.8756245199976
 20
423.7495655739326
 30
0.0
 10
541.3784464186383
 20
426.6639230714932
 30
0.0
 10
539.235941743515
 20
430.2010034762669
 30
0.0
 10
535.9334652677733
 20
434.3863660235833
 30
0.0
 10
530.8151581133437
 20
438.891049896537
 30
0.0
 10
524.9031909705226
 20
442.4185906656716
 30
0.0
 10
518.4233172661399
 20
444.8104655644049
 30
0.0
 10
511.5951688262987
 20
445.9731281031946
 30
0.0
 10
504.6561281381501
 20
445.8571765180503
 30
0.0
 10
497.8483386768765
 20
444.4603182185162
 30
0.0
 10
491.4142994895374
 20
441.8287039866807
 30
0.0
 10
485.583273717778
 20
438.0576065257579
 30
0.0
 10
480.5588599615953
 20
433.2867944677994
 30
0.0
 10
476.5089050724428
 20
427.6884775993945
 30
0.0
 10
473.5641007549286
 20
421.4645598363433
 30
0.0
 10
472.2063229186918
 20
416.3185426140896
 30
0.0
 10
471.7007253063621
 20
412.648191237993
 30
0.0
 10
471.5324572134512
 20
410.5305582083811
 30
0.0
 10
471.4761170809104
 20
408.1448922590635
 30
0.0
 10
471.6145366150828
 20
405.1455431553969
 30
0.0
 10
472.1183836928118
 20
401.3206539866793
 30
0.0
 10
472.9054930289161
 20
398.5745900838128
 30
0.0
 10
473.3301724879655
 20
397.0929700860671
 30
0.0
  0
ARC
  5
78
330
1F
100
AcDbEntity
  8
0
  6
Continuous
 62
     7
370
    25
100
AcDbCircle
 10
236.7526212056
 20
408.615734481
 30
0.0
 40
36.31056399417619
100
AcDbArc
 50
340.1045409913
 51
160.1045410082
  0
ARC
  5
79
330
1F
100
AcDbEntity
  8
0
  6
Continuous
 62
     7
370
    25
100
AcDbCircle
 10
236.7526212056
 20
408.615734481
 30
0.0
 40
36.31056399417619
100
AcDbArc
 50
160.1045410082
 51
340.1045409913
  0
ARC
  5
7A
330
1F
100
AcDbEntity
  8
0
  6
Continuous
 62
     7
370
    25
100
AcDbCircle
 10
508.7526884339
 20
408.6171888002
 30
0.0
 40
36.31056399417622
100
AcDbArc
 50
18.0215707315
 51
198.0215707484
  0
ARC
  5
7B
330
1F
100
AcDbEntity
  8
0
  6
Continuous
 62
     7
370
    25
100
AcDbCircle
 10
508.7526884339
 20
408.6171888002
 30
0.0
 40
36.31056399417622
100
AcDbArc
 50
198.0215707484
 51
18.0215707315
  0
ARC
  5
7C
330
1F
100
AcDbEntity
  8
0
  6
Continuous
 62
     7
370
    25
100
AcDbCircle
 10
236.7526212056
 20
408.615734481
 30
0.0
 40
38.2989980570001
100
AcDbArc
 50
196.3719887255
 51
16.3719887255
  0
ARC
  5
7D
330
1F
100
AcDbEntity
  8
0
  6
Continuous
 62
     7
370
    25
100
AcDbCircle
 10
236.7526212056
 20
408.615734481
 30
0.0
 40
39.50000000000021
100
AcDbArc
 50
196.3719887255
 51
16.371988749
  0
ARC
  5
7E
330
1F
100
AcDbEntity
  8
0
  6
Continuous
 62
     7
370
    25
100
AcDbCircle
 10
236.7526212056
 20
408.615734481
 30
0.0
 40
38.2989980570001
100
AcDbArc
 50
16.3719887255
 51
196.3719887255
  0
ARC
  5
7F
330
1F
100
AcDbEntity
  8
0
  6
Continuous
 62
     7
370
    25
100
AcDbCircle
 10
236.7526212056
 20
408.615734481
 30
0.0
 40
39.50000000000021
100
AcDbArc
 50
16.371988749
 51
196.3719887152
  0
ARC
  5
80
330
1F
100
AcDbEntity
  8
0
  6
Continuous
 62
     7
370
    25
100
AcDbCircle
 10
508.7526884339
 20
408.6171888002
 30
0.0
 40
38.29899805700018
100
AcDbArc
 50
196.3719887255
 51
16.3719887255
  0
ARC
  5
81
330
1F
100
AcDbEntity
  8
0
  6
Continuous
 62
     7
370
    25
100
AcDbCircle
 10
508.7526884339
 20
408.6171888002
 30
0.0
 40
39.50000000000018
100
AcDbArc
 50
196.3719887255
 51
16.371988749
  0
ARC
  5
82
330
1F
100
AcDbEntity
  8
0
  6
Continuous
 62
     7
370
    25
100
AcDbCircle
 10
508.7526884339
 20
408.6171888002
 30
0.0
 40
38.29899805700018
100
AcDbArc
 50
16.3719887255
 51
196.3719887255
  0
ARC
  5
83
330
1F
100
AcDbEntity
  8
0
  6
Continuous
 62
     7
370
    25
100
AcDbCircle
 10
508.7526884339
 20
408.6171888002
 30
0.0
 40
39.50000000000018
100
AcDbArc
 50
16.371988749
 51
196.3719887152
  0
SPLINE
  5
84
330
1F
100
AcDbEntity
  8
0
  6
Continuous
 62
     7
370
    25
100
AcDbSpline
210
0.0
220
0.0
230
1.0
 70
     8
 71
     3
 72
    18
 73
    14
 74
     0
 42
0.00000001
 43
0.00000001
 40
0.0
 40
0.0
 40
0.0
 40
0.0
 40
0.1250000000000006
 40
0.1250000000000006
 40
0.2500000000000012
 40
0.2500000000000012
 40
0.5000000000000004
 40
0.5000000000000004
 40
0.7499999999999998
 40
0.7499999999999998
 40
0.8749999999999999
 40
0.8749999999999999
 40
1.0
 40
1.0
 40
1.0
 40
1.0
 10
148.7524056722855
 20
128.6166624567142
 30
0.0
 10
147.9648016903461
 20
128.6167605485725
 30
0.0
 10
147.180543775183
 20
128.6941199978409
 30
0.0
 10
145.6404360613553
 20
129.0007662322093
 30
0.0
 10
144.8845429161549
 20
129.2300527960894
 30
0.0
 10
142.7067325754923
 20
130.1321116628907
 30
0.0
 10
141.3761115795336
 20
131.0215394909241
 30
0.0
 10
139.1549545568784
 20
133.2417337180053
 30
0.0
 10
138.2660344146537
 20
134.5729480532598
 30
0.0
 10
137.3639797088012
 20
136.7501525936546
 30
0.0
 10
137.1346587154766
 20
137.5065552971544
 30
0.0
 10
136.8279971579443
 20
139.0470807385737
 30
0.0
 10
136.7506857036057
 20
139.830845897542
 30
0.0
 10
136.7505725721416
 20
140.618499369507
 30
0.0
  0
SPLINE
  5
85
330
1F
100
AcDbEntity
  8
0
  6
Continuous
 62
     7
370
    25
100
AcDbSpline
210
0.0
220
0.0
230
1.0
 70
     8
 71
     3
 72
     8
 73
     4
 74
     0
 42
0.00000001
 43
0.00000001
 40
0.0
 40
0.0
 40
0.0
 40
0.0
 40
1.0
 40
1.0
 40
1.0
 40
1.0
 10
148.7526346176793
 20
126.6188025726853
 30
0.0
 10
148.7525042578162
 20
127.6888725963401
 30
0.0
 10
148.7523839415792
 20
128.6465231447179
 30
0.0
 10
148.7524056722855
 20
128.6166624567142
 30
0.0
  0
SPLINE
  5
86
330
1F
100
AcDbEntity
  8
0
  6
Continuous
 62
     7
370
    25
100
AcDbSpline
210
0.0
220
0.0
230
1.0
 70
     8
 71
     3
 72
    20
 73
    16
 74
     0
 42
0.00000001
 43
0.00000001
 40
0.0
 40
0.0
 40
0.0
 40
0.0
 40
0.1249999999999999
 40
0.1249999999999999
 40
0.2499999999999997
 40
0.2499999999999997
 40
0.4999999999999997
 40
0.4999999999999997
 40
0.6249999999999998
 40
0.6249999999999998
 40
0.7499999999999998
 40
0.7499999999999998
 40
0.8749999999999999
 40
0.8749999999999999
 40
1.0
 40
1.0
 40
1.0
 40
1.0
 10
134.7527080358277
 20
140.618715210041
 30
0.0
 10
134.7528910507607
 20
139.7033135767012
 30
0.0
 10
134.8430257351191
 20
138.784724894547
 30
0.0
 10
135.2007286073404
 20
136.9861412638645
 30
0.0
 10
135.4682342071707
 20
136.1059067314488
 30
0.0
 10
136.5205252054579
 20
133.5667317433441
 30
0.0
 10
137.5583550094646
 20
132.0149621770898
 30
0.0
 10
139.5011943115504
 20
130.0718503808861
 30
0.0
 10
140.2122344510646
 20
129.4876959945877
 30
0.0
 10
141.7354090955132
 20
128.4697944406731
 30
0.0
 10
142.547128659794
 20
128.0358300289046
 30
0.0
 10
144.2394315515288
 20
127.334249945628
 30
0.0
 10
145.1200900747128
 20
127.0668308181131
 30
0.0
 10
146.9190086027609
 20
126.7091596231735
 30
0.0
 10
147.8371956284271
 20
126.6189626807538
 30
0.0
 10
148.7526346170031
 20
126.6187987955455
 30
0.0
  0
SPLINE
  5
87
330
1F
100
AcDbEntity
  8
0
  6
Continuous
 62
     7
370
    25
100
AcDbSpline
210
0.0
220
0.0
230
1.0
 70
     8
 71
     3
 72
    14
 73
    10
 74
     0
 42
0.00000001
 43
0.00000001
 40
0.0
 40
0.0
 40
0.0
 40
0.0
 40
0.25
 40
0.25
 40
0.5
 40
0.5
 40
0.75
 40
0.75
 40
1.0
 40
1.0
 40
1.0
 40
1.0
 10
134.7526695170714
 20
140.6187152023364
 30
0.0
 10
135.0144610592743
 20
140.6186972703324
 30
0.0
 10
135.2761483522856
 20
140.6186793383283
 30
0.0
 10
135.7598735642308
 20
140.6186434743204
 30
0.0
 10
135.9817211806794
 20
140.6186255423164
 30
0.0
 10
136.3519500985011
 20
140.6185896783084
 30
0.0
 10
136.5001857480009
 20
140.6185717463044
 30
0.0
 10
136.7005577097177
 20
140.6185358822964
 30
0.0
 10
136.752615193539
 20
140.6185179502924
 30
0.0
 10
136.7526211913149
 20
140.6185000182884
 30
0.0
  0
SPLINE
  5
88
330
1F
100
AcDbEntity
  8
0
  6
Continuous
 62
     7
370
    25
100
AcDbSpline
210
0.0
220
0.0
230
1.0
 70
     8
 71
     3
 72
    18
 73
    14
 74
     0
 42
0.00000001
 43
0.00000001
 40
0.0
 40
0.0
 40
0.0
 40
0.0
 40
0.1249999999999963
 40
0.1249999999999963
 40
0.2499999999999927
 40
0.2499999999999927
 40
0.4999999999999967
 40
0.4999999999999967
 40
0.7500000000000007
 40
0.7500000000000007
 40
0.8750000000000003
 40
0.8750000000000003
 40
1.0
 40
1.0
 40
1.0
 40
1.0
 10
666.7528367110157
 20
528.6207675962663
 30
0.0
 10
667.540441469455
 20
528.6206695149285
 30
0.0
 10
668.3246998793287
 20
528.5433102769928
 30
0.0
 10
669.864807705732
 20
528.2366646006133
 30
0.0
 10
670.6207005250511
 20
528.0073783782847
 30
0.0
 10
672.7985095522167
 20
527.105320371224
 30
0.0
 10
674.1291292473186
 20
526.215892843203
 30
0.0
 10
676.3502848050152
 20
523.9956985854342
 30
0.0
 10
677.2392049335705
 20
522.6644839576148
 30
0.0
 10
678.1412607415356
 20
520.4872787646235
 30
0.0
 10
678.3705822699466
 20
519.7308757728467
 30
0.0
 10
678.6772447954105
 20
518.1903497814068
 30
0.0
 10
678.7545566775724
 20
517.4065843777722
 30
0.0
 10
678.7546698117121
 20
516.6189306537884
 30
0.0
  0
SPLINE
  5
89
330
1F
100
AcDbEntity
  8
0
  6
Continuous
 62
     7
370
    25
100
AcDbSpline
210
0.0
220
0.0
230
1.0
 70
     8
 71
     3
 72
     8
 73
     4
 74
     0
 42
0.00000001
 43
0.00000001
 40
0.0
 40
0.0
 40
0.0
 40
0.0
 40
1.0
 40
1.0
 40
1.0
 40
1.0
 10
666.7526077547478
 20
530.6186274787581
 30
0.0
 10
666.7527381165024
 20
529.54855745322
 30
0.0
 10
666.7528584325491
 20
528.5909069045941
 30
0.0
 10
666.7528367110162
 20
528.6207675962662
 30
0.0
  0
SPLINE
  5
8A
330
1F
100
AcDbEntity
  8
0
  6
Continuous
 62
     7
370
    25
100
AcDbSpline
210
0.0
220
0.0
230
1.0
 70
     8
 71
     3
 72
    20
 73
    16
 74
     0
 42
0.00000001
 43
0.00000001
 40
0.0
 40
0.0
 40
0.0
 40
0.0
 40
0.1250000000000013
 40
0.1250000000000013
 40
0.2500000000000027
 40
0.2500000000000027
 40
0.5000000000000053
 40
0.5000000000000053
 40
0.625000000000004
 40
0.625000000000004
 40
0.7500000000000027
 40
0.7500000000000027
 40
0.8750000000000013
 40
0.8750000000000013
 40
1.0
 40
1.0
 40
1.0
 40
1.0
 10
680.752534450993
 20
516.6187148413225
 30
0.0
 10
680.7523514305111
 20
517.5341173775361
 30
0.0
 10
680.6622161895557
 20
518.4527066902032
 30
0.0
 10
680.3045121870673
 20
520.251290967518
 30
0.0
 10
680.0370060180654
 20
521.1315255528386
 30
0.0
 10
678.9847140964584
 20
523.6707004225782
 30
0.0
 10
677.9468848168289
 20
525.2224697162704
 30
0.0
 10
676.0040467620454
 20
527.165581569444
 30
0.0
 10
675.293007076948
 20
527.749736000376
 30
0.0
 10
673.7698331800257
 20
528.7676375264597
 30
0.0
 10
672.958113908523
 20
529.2016018487252
 30
0.0
 10
671.265811361609
 20
529.9031815065775
 30
0.0
 10
670.3851528950479
 20
530.170600297005
 30
0.0
 10
668.5862343125045
 20
530.5282708508216
 30
0.0
 10
667.6680471730466
 20
530.6184674933057
 30
0.0
 10
666.7526077554429
 20
530.6186313608883
 30
0.0
  0
SPLINE
  5
8B
330
1F
100
AcDbEntity
  8
0
  6
Continuous
 62
     7
370
    25
100
AcDbSpline
210
0.0
220
0.0
230
1.0
 70
     8
 71
     3
 72
    14
 73
    10
 74
     0
 42
0.00000001
 43
0.00000001
 40
0.0
 40
0.0
 40
0.0
 40
0.0
 40
0.25
 40
0.25
 40
0.5
 40
0.5
 40
0.75
 40
0.75
 40
1.0
 40
1.0
 40
1.0
 40
1.0
 10
680.7525729699289
 20
516.6187148490278
 30
0.0
 10
680.4907814195005
 20
516.6187327786935
 30
0.0
 10
680.2290941155912
 20
516.6187507083591
 30
0.0
 10
679.745368880569
 20
516.6187865676908
 30
0.0
 10
679.5235212519747
 20
516.6188044973566
 30
0.0
 10
679.1532923125303
 20
516.618840356688
 30
0.0
 10
679.0050566535805
 20
516.6188582863538
 30
0.0
 10
678.8046846784829
 20
516.6188941456853
 30
0.0
 10
678.7526271907457
 20
516.6189120753511
 30
0.0
 10
678.7526211923648
 20
516.6189300050168
 30
0.0
  0
SPLINE
  5
8C
330
1F
100
AcDbEntity
  8
0
  6
Continuous
 62
     7
370
    25
100
AcDbSpline
210
0.0
220
0.0
230
1.0
 70
     8
 71
     3
 72
    18
 73
    14
 74
     0
 42
0.00000001
 43
0.00000001
 40
0.0
 40
0.0
 40
0.0
 40
0.0
 40
0.1249999999999977
 40
0.1249999999999977
 40
0.2499999999999953
 40
0.2499999999999953
 40
0.4999999999999987
 40
0.4999999999999987
 40
0.750000000000002
 40
0.750000000000002
 40
0.875000000000001
 40
0.875000000000001
 40
1.0
 40
1.0
 40
1.0
 40
1.0
 10
136.7505686217978
 20
516.6189305178882
 30
0.0
 10
136.7506667065684
 20
517.406536504451
 30
0.0
 10
136.8280261745383
 20
518.1907951931126
 30
0.0
 10
137.1346723481619
 20
519.7309029541861
 30
0.0
 10
137.3639588297246
 20
520.4867954931901
 30
0.0
 10
138.266017126705
 20
522.6646035945195
 30
0.0
 10
139.155444045724
 20
523.9952226720045
 30
0.0
 10
141.3756361481494
 20
526.2163782208562
 30
0.0
 10
142.7068493200301
 20
527.1052987368895
 30
0.0
 10
144.8840538891979
 20
528.0073547529704
 30
0.0
 10
145.6404569237816
 20
528.2366762827023
 30
0.0
 10
147.1809839211205
 20
528.5433387210101
 30
0.0
 10
147.9647503373949
 20
528.6206505156773
 30
0.0
 10
148.752405591889
 20
528.6207636455392
 30
0.0
  0
SPLINE
  5
8D
330
1F
100
AcDbEntity
  8
0
  6
Continuous
 62
     7
370
    25
100
AcDbSpline
210
0.0
220
0.0
230
1.0
 70
     8
 71
     3
 72
     8
 73
     4
 74
     0
 42
0.00000001
 43
0.00000001
 40
0.0
 40
0.0
 40
0.0
 40
0.0
 40
1.0
 40
1.0
 40
1.0
 40
1.0
 10
134.752708364725
 20
516.6187015899792
 30
0.0
 10
135.8227785431384
 20
516.6188319429282
 30
0.0
 10
136.7804293209074
 20
516.6189522541285
 30
0.0
 10
136.7505686217978
 20
516.6189305178882
 30
0.0
  0
SPLINE
  5
8E
330
1F
100
AcDbEntity
  8
0
  6
Continuous
 62
     7
370
    25
100
AcDbSpline
210
0.0
220
0.0
230
1.0
 70
     8
 71
     3
 72
    20
 73
    16
 74
     0
 42
0.00000001
 43
0.00000001
 40
0.0
 40
0.0
 40
0.0
 40
0.0
 40
0.1250000000000006
 40
0.1250000000000006
 40
0.2500000000000012
 40
0.2500000000000012
 40
0.5000000000000052
 40
0.5000000000000052
 40
0.6250000000000039
 40
0.6250000000000039
 40
0.7500000000000026
 40
0.7500000000000026
 40
0.8750000000000013
 40
0.8750000000000013
 40
1.0
 40
1.0
 40
1.0
 40
1.0
 10
148.7526213761936
 20
530.6186281534525
 30
0.0
 10
147.8372177046045
 20
530.618445135586
 30
0.0
 10
146.9186274759501
 20
530.5283100486412
 30
0.0
 10
145.1200419666563
 20
530.1706061292723
 30
0.0
 10
144.2398070497272
 20
529.9030998905889
 30
0.0
 10
141.7006320696565
 20
528.8508073777052
 30
0.0
 10
140.1488640997428
 20
527.8129772781576
 30
0.0
 10
138.2057543546787
 20
525.8701394669869
 30
0.0
 10
137.6216006079131
 20
525.1591000948938
 30
0.0
 10
136.6036999804035
 20
523.6359271807845
 30
0.0
 10
136.1697358547236
 20
522.8242085568834
 30
0.0
 10
135.468156063025
 20
521.1319070333268
 30
0.0
 10
135.2007369563186
 20
520.2512489392033
 30
0.0
 10
134.843065789101
 20
518.4523301338688
 30
0.0
 10
134.7528688655646
 20
517.5341423307636
 30
0.0
 10
134.7527049888243
 20
516.6187015905836
 30
0.0
  0
SPLINE
  5
8F
330
1F
100
AcDbEntity
  8
0
  6
Continuous
 62
     7
370
    25
100
AcDbSpline
210
0.0
220
0.0
230
1.0
 70
     8
 71
     3
 72
    14
 73
    10
 74
     0
 42
0.00000001
 43
0.00000001
 40
0.0
 40
0.0
 40
0.0
 40
0.0
 40
0.25
 40
0.25
 40
0.5
 40
0.5
 40
0.75
 40
0.75
 40
1.0
 40
1.0
 40
1.0
 40
1.0
 10
148.7526213684893
 20
530.6186666721554
 30
0.0
 10
148.7526034411655
 20
530.3568751320599
 30
0.0
 10
148.7525855138415
 20
530.0951878418887
 30
0.0
 10
148.7525496591938
 20
529.6114626360397
 30
0.0
 10
148.7525317318699
 20
529.389615022839
 30
0.0
 10
148.7524958772221
 20
529.019386110897
 30
0.0
 10
148.7524779498982
 20
528.8711504640219
 30
0.0
 10
148.7524420952505
 20
528.6707785061773
 30
0.0
 10
148.7524241679266
 20
528.6187210235992
 30
0.0
 10
148.7524062406027
 20
528.6187150262185
 30
0.0
  0
SPLINE
  5
90
330
1F
100
AcDbEntity
  8
0
  6
Continuous
 62
     7
370
    25
100
AcDbSpline
210
0.0
220
0.0
230
1.0
 70
     8
 71
     3
 72
    18
 73
    14
 74
     0
 42
0.00000001
 43
0.00000001
 40
0.0
 40
0.0
 40
0.0
 40
0.0
 40
0.1250000000000013
 40
0.1250000000000013
 40
0.2500000000000027
 40
0.2500000000000027
 40
0.5000000000000018
 40
0.5000000000000018
 40
0.7500000000000009
 40
0.7500000000000009
 40
0.8750000000000004
 40
0.8750000000000004
 40
1.0
 40
1.0
 40
1.0
 40
1.0
 10
678.7546738132637
 20
140.6184996891225
 30
0.0
 10
678.7545995390961
 20
139.8310620629861
 30
0.0
 10
678.6772209519279
 20
139.0468663436355
 30
0.0
 10
678.3705593360631
 20
137.5064487227839
 30
0.0
 10
678.1412765058327
 20
136.7502743004745
 30
0.0
 10
677.2391875005652
 20
134.5729379717925
 30
0.0
 10
676.3499074608457
 20
133.2420385559445
 30
0.0
 10
674.1293388593555
 20
131.0212735900866
 30
0.0
 10
672.7984578401563
 20
130.1321181813626
 30
0.0
 10
670.6210741953553
 20
129.2300990030509
 30
0.0
 10
669.8652215690603
 20
129.0008073707902
 30
0.0
 10
668.3246712335189
 20
128.6941250860715
 30
0.0
 10
667.5398960349839
 20
128.6166946595152
 30
0.0
 10
666.752836264782
 20
128.6166553829486
 30
0.0
  0
SPLINE
  5
91
330
1F
100
AcDbEntity
  8
0
  6
Continuous
 62
     7
370
    25
100
AcDbSpline
210
0.0
220
0.0
230
1.0
 70
     8
 71
     3
 72
     8
 73
     4
 74
     0
 42
0.00000001
 43
0.00000001
 40
0.0
 40
0.0
 40
0.0
 40
0.0
 40
1.0
 40
1.0
 40
1.0
 40
1.0
 10
680.7525344835569
 20
140.6187115557751
 30
0.0
 10
679.6824274409523
 20
140.6185930819143
 30
0.0
 10
678.7248132955734
 20
140.6184846940733
 30
0.0
 10
678.7546738132638
 20
140.6184996891225
 30
0.0
  0
SPLINE
  5
92
330
1F
100
AcDbEntity
  8
0
  6
Continuous
 62
     7
370
    25
100
AcDbSpline
210
0.0
220
0.0
230
1.0
 70
     8
 71
     3
 72
    22
 73
    18
 74
     0
 42
0.00000001
 43
0.00000001
 40
0.0
 40
0.0
 40
0.0
 40
0.0
 40
0.125
 40
0.125
 40
0.25
 40
0.25
 40
0.375
 40
0.375
 40
0.5
 40
0.5
 40
0.625
 40
0.625
 40
0.75
 40
0.75
 40
0.875
 40
0.875
 40
1.0
 40
1.0
 40
1.0
 40
1.0
 10
666.7526210201398
 20
126.6188018442741
 30
0.0
 10
667.668520025162
 20
126.6188544776315
 30
0.0
 10
668.586265693803
 20
126.7091617474801
 30
0.0
 10
670.3848196460689
 20
127.0668736354853
 30
0.0
 10
671.265488965075
 20
127.3343066523726
 30
0.0
 10
672.9581165769657
 20
128.0358286100011
 30
0.0
 10
673.7698584862213
 20
128.4698199045745
 30
0.0
 10
675.2929425312344
 20
129.4877764014703
 30
0.0
 10
676.0041578188923
 20
130.0718649357187
 30
0.0
 10
677.2993909641445
 20
131.3672704297839
 30
0.0
 10
677.8835090375828
 20
132.0784465389981
 30
0.0
 10
678.9014786530311
 20
133.6014275481475
 30
0.0
 10
679.3354697545013
 20
134.4131819214294
 30
0.0
 10
680.0370211387259
 20
136.1058117122332
 30
0.0
 10
680.3044823212773
 20
136.9862460069484
 30
0.0
 10
680.6621784354119
 20
138.7849083117612
 30
0.0
 10
680.7524127222465
 20
139.7031316685407
 30
0.0
 10
680.7525260491719
 20
140.6187115568191
 30
0.0
  0
SPLINE
  5
93
330
1F
100
AcDbEntity
  8
0
  6
Continuous
 62
     7
370
    25
100
AcDbSpline
210
0.0
220
0.0
230
1.0
 70
     8
 71
     3
 72
     8
 73
     4
 74
     0
 42
0.00000001
 43
0.00000001
 40
0.0
 40
0.0
 40
0.0
 40
0.0
 40
1.0
 40
1.0
 40
1.0
 40
1.0
 10
666.7528362647818
 20
128.6166553891214
 30
0.0
 10
666.7528151466025
 20
128.6465157074386
 30
0.0
 10
666.752726059939
 20
127.6889061095511
 30
0.0
 10
666.752621020139
 20
126.6188018442741
 30
0.0
  0
LINE
  5
94
330
1F
100
AcDbEntity
  8
0
  6
Continuous
 62
     7
370
    25
100
AcDbLine
 10
678.7526211919
 20
516.618930005
 30
0.0
 11
678.7526211919
 21
140.6185001154
 31
0.0
  0
LINE
  5
95
330
1F
100
AcDbEntity
  8
0
  6
Continuous
 62
     7
370
    25
100
AcDbLine
 10
680.7525922768
 20
140.618711551
 30
0.0
 11
680.7525922768
 21
516.618714849
 31
0.0
  0
LINE
  5
96
330
1F
100
AcDbEntity
  8
0
  6
Continuous
 62
     7
370
    25
100
AcDbLine
 10
136.7526211918
 20
516.618929955
 30
0.0
 11
136.7526211918
 21
140.6185000183
 31
0.0
  0
LINE
  5
97
330
1F
100
AcDbEntity
  8
0
  6
Continuous
 62
     7
370
    25
100
AcDbLine
 10
134.7526505959
 20
516.6187015969
 30
0.0
 11
134.7526505959
 21
140.6187152023
 31
0.0
  0
LINE
  5
98
330
1F
100
AcDbEntity
  8
0
  6
Continuous
 62
     7
370
    25
100
AcDbLine
 10
666.752836039
 20
128.6187150256
 30
0.0
 11
350.7526211919
 21
128.6187150256
 31
0.0
  0
LINE
  5
99
330
1F
100
AcDbEntity
  8
0
  6
Continuous
 62
     7
370
    25
100
AcDbLine
 10
350.7526245466
 20
126.6187447695
 30
0.0
 11
666.7526210224
 21
126.6187447695
 31
0.0
  0
LINE
  5
9A
330
1F
100
AcDbEntity
  8
0
  6
Continuous
 62
     7
370
    25
100
AcDbLine
 10
324.7526211513
 20
126.6187150257
 30
0.0
 11
350.7526245466
 21
126.6187150257
 31
0.0
  0
LINE
  5
9B
330
1F
100
AcDbEntity
  8
0
  6
Continuous
 62
     7
370
    25
100
AcDbLine
 10
148.7526346108
 20
126.6187447695
 30
0.0
 11
324.7526211513
 21
126.6187447695
 31
0.0
  0
LINE
  5
9C
330
1F
100
AcDbEntity
  8
0
  6
Continuous
 62
     7
370
    25
100
AcDbLine
 10
324.7527016195
 20
128.6187150256
 30
0.0
 11
148.7524062352
 21
128.6187150256
 31
0.0
  0
LINE
  5
9D
330
1F
100
AcDbEntity
  8
0
  6
Continuous
 62
     7
370
    25
100
AcDbLine
 10
324.7527016195
 20
128.6187150257
 30
0.0
 11
350.7526211919
 21
128.6187150257
 31
0.0
  0
LINE
  5
9E
330
1F
100
AcDbEntity
  8
0
  6
Continuous
 62
     7
370
    25
100
AcDbLine
 10
324.7526211918
 20
528.6187150257
 30
0.0
 11
148.7524062406
 21
528.6187150257
 31
0.0
  0
LINE
  5
9F
330
1F
100
AcDbEntity
  8
0
  6
Continuous
 62
     7
370
    25
100
AcDbLine
 10
324.752618119
 20
530.618685282
 30
0.0
 11
148.7526213685
 21
530.618685282
 31
0.0
  0
LINE
  5
A0
330
1F
100
AcDbEntity
  8
0
  6
Continuous
 62
     7
370
    25
100
AcDbLine
 10
350.7526212341
 20
530.6187150257
 30
0.0
 11
324.752618119
 21
530.6187150257
 31
0.0
  0
LINE
  5
A1
330
1F
100
AcDbEntity
  8
0
  6
Continuous
 62
     7
370
    25
100
AcDbLine
 10
666.7526077616
 20
530.618685282
 30
0.0
 11
350.7526212341
 21
530.618685282
 31
0.0
  0
LINE
  5
A2
330
1F
100
AcDbEntity
  8
0
  6
Continuous
 62
     7
370
    25
100
AcDbLine
 10
666.7528361482
 20
528.6187150257
 30
0.0
 11
350.7525407196
 21
528.6187150257
 31
0.0
  0
LINE
  5
A3
330
1F
100
AcDbEntity
  8
0
  6
Continuous
 62
     7
370
    25
100
AcDbLine
 10
350.7525407196
 20
528.6187150257
 30
0.0
 11
324.7526211918
 21
528.6187150257
 31
0.0
  0
ARC
  5
A4
330
1F
100
AcDbEntity
  8
0
  6
Continuous
 62
     7
370
    25
100
AcDbCircle
 10
688.7526211918
 20
118.6187150257
 30
0.0
 40
9.49999999999909
100
AcDbArc
 50
270.0
 51
0.0
  0
LINE
  5
A5
330
1F
100
AcDbEntity
  8
0
  6
Continuous
 62
     7
370
    25
100
AcDbLine
 10
126.7526211918
 20
109.1187150257
 30
0.0
 11
688.7526211918
 21
109.1187150257
 31
0.0
  0
ARC
  5
A6
330
1F
100
AcDbEntity
  8
0
  6
Continuous
 62
     7
370
    25
100
AcDbCircle
 10
126.7526211918
 20
118.6187150257
 30
0.0
 40
9.500000000016684
100
AcDbArc
 50
180.0
 51
270.0
  0
LINE
  5
A7
330
1F
100
AcDbEntity
  8
0
  6
Continuous
 62
     7
370
    25
100
AcDbLine
 10
117.2526211918
 20
538.6187150257
 30
0.0
 11
117.2526211918
 21
118.6187150257
 31
0.0
  0
ARC
  5
A8
330
1F
100
AcDbEntity
  8
0
  6
Continuous
 62
     7
370
    25
100
AcDbCircle
 10
126.7526211918
 20
538.6187150257
 30
0.0
 40
9.499999999999204
100
AcDbArc
 50
90.0
 51
180.0
  0
LINE
  5
A9
330
1F
100
AcDbEntity
  8
0
  6
Continuous
 62
     7
370
    25
100
AcDbLine
 10
688.7526211918
 20
548.1187150257
 30
0.0
 11
126.7526211918
 21
548.1187150257
 31
0.0
  0
ARC
  5
AA
330
1F
100
AcDbEntity
  8
0
  6
Continuous
 62
     7
370
    25
100
AcDbCircle
 10
688.7526211918
 20
538.6187150257
 30
0.0
 40
9.500000000002501
100
AcDbArc
 50
360.0
 51
90.0
  0
LINE
  5
AB
330
1F
100
AcDbEntity
  8
0
  6
Continuous
 62
     7
370
    25
100
AcDbLine
 10
698.2526211918
 20
118.6187150257
 30
0.0
 11
698.2526211918
 21
538.6187150257
 31
0.0
  0
LINE
  5
AC
330
1F
100
AcDbEntity
  8
0
  6
Continuous
 62
     7
370
    25
100
AcDbLine
 10
698.2526211918
 20
118.6187150257
 30
0.0
 11
698.7526211918
 21
118.6187150257
 31
0.0
  0
ARC
  5
AD
330
1F
100
AcDbEntity
  8
0
  6
Continuous
 62
     7
370
    25
100
AcDbCircle
 10
688.7526211918
 20
118.6187150257
 30
0.0
 40
9.999999999998678
100
AcDbArc
 50
270.0
 51
0.0
  0
LINE
  5
AE
330
1F
100
AcDbEntity
  8
0
  6
Continuous
 62
     7
370
    25
100
AcDbLine
 10
688.7526211918
 20
109.1187150257
 30
0.0
 11
688.7526211918
 21
108.6187150257
 31
0.0
  0
LINE
  5
AF
330
1F
100
AcDbEntity
  8
0
  6
Continuous
 62
     7
370
    25
100
AcDbLine
 10
688.7526211918
 20
548.6187150257
 30
0.0
 11
688.7526211918
 21
548.1187150257
 31
0.0
  0
ARC
  5
B0
330
1F
100
AcDbEntity
  8
0
  6
Continuous
 62
     7
370
    25
100
AcDbCircle
 10
688.7526211918
 20
538.6187150257
 30
0.0
 40
9.999999999998977
100
AcDbArc
 50
360.0
 51
90.0
  0
LINE
  5
B1
330
1F
100
AcDbEntity
  8
0
  6
Continuous
 62
     7
370
    25
100
AcDbLine
 10
698.2526211918
 20
538.6187150257
 30
0.0
 11
698.7526211918
 21
538.6187150257
 31
0.0
  0
LINE
  5
B2
330
1F
100
AcDbEntity
  8
0
  6
Continuous
 62
     7
370
    25
100
AcDbLine
 10
126.7526211918
 20
548.6187150257
 30
0.0
 11
688.7526211918
 21
548.6187150257
 31
0.0
  0
LINE
  5
B3
330
1F
100
AcDbEntity
  8
0
  6
Continuous
 62
     7
370
    25
100
AcDbLine
 10
126.7526211918
 20
548.6187150257
 30
0.0
 11
126.7526211918
 21
548.1187150257
 31
0.0
  0
ARC
  5
B4
330
1F
100
AcDbEntity
  8
0
  6
Continuous
 62
     7
370
    25
100
AcDbCircle
 10
126.7526211918
 20
538.6187150257
 30
0.0
 40
9.999999999999204
100
AcDbArc
 50
90.0
 51
180.0
  0
LINE
  5
B5
330
1F
100
AcDbEntity
  8
0
  6
Continuous
 62
     7
370
    25
100
AcDbLine
 10
116.7526211918
 20
538.6187150257
 30
0.0
 11
117.2526211918
 21
538.6187150257
 31
0.0
  0
LINE
  5
B6
330
1F
100
AcDbEntity
  8
0
  6
Continuous
 62
     7
370
    25
100
AcDbLine
 10
688.7526211918
 20
108.6187150257
 30
0.0
 11
126.7526211918
 21
108.6187150257
 31
0.0
  0
LINE
  5
B7
330
1F
100
AcDbEntity
  8
0
  6
Continuous
 62
     7
370
    25
100
AcDbLine
 10
126.7526211918
 20
109.1187150257
 30
0.0
 11
126.7526211918
 21
108.6187150257
 31
0.0
  0
LINE
  5
B8
330
1F
100
AcDbEntity
  8
0
  6
Continuous
 62
     7
370
    25
100
AcDbLine
 10
698.7526211918
 20
538.6187150257
 30
0.0
 11
698.7526211918
 21
118.6187150257
 31
0.0
  0
LINE
  5
B9
330
1F
100
AcDbEntity
  8
0
  6
Continuous
 62
     7
370
    25
100
AcDbLine
 10
116.7526211918
 20
118.6187150257
 30
0.0
 11
116.7526211918
 21
538.6187150257
 31
0.0
  0
LINE
  5
BA
330
1F
100
AcDbEntity
  8
0
  6
Continuous
 62
     7
370
    25
100
AcDbLine
 10
116.7526211918
 20
118.6187150257
 30
0.0
 11
117.2526211918
 21
118.6187150257
 31
0.0
  0
ARC
  5
BB
330
1F
100
AcDbEntity
  8
0
  6
Continuous
 62
     7
370
    25
100
AcDbCircle
 10
126.7526211918
 20
118.6187150257
 30
0.0
 40
9.999999999999616
100
AcDbArc
 50
180.0
 51
270.0
  0
SPLINE
  5
BC
330
1F
100
AcDbEntity
  8
0
  6
Continuous
 62
     7
370
    25
100
AcDbSpline
210
0.0
220
0.0
230
1.0
 70
     8
 71
     3
 72
    20
 73
    16
 74
     0
 42
0.00000001
 43
0.00000001
 40
0.0
 40
0.0
 40
0.0
 40
0.0
 40
0.0500440874709654
 40
0.1036322558277517
 40
0.1607753535115956
 40
0.2214823229193748
 40
0.2857606187992532
 40
0.3536165186165335
 40
0.4250553564985357
 40
0.500081702146305
 40
0.6215809260668164
 40
0.7498275051406068
 40
0.8581089128335384
 40
0.9414938215495273
 40
0.9999999999999999
 40
0.9999999999999999
 40
0.9999999999999999
 40
0.9999999999999999
 10
344.0262322103371
 20
527.6187150256864
 30
0.0
 10
344.1237025788631
 20
527.6501401105497
 30
0.0
 10
344.3255460868011
 20
527.7152157787966
 30
0.0
 10
344.6406473586194
 20
527.8090563872902
 30
0.0
 10
344.977809684901
 20
527.9033905257756
 30
0.0
 10
345.3372152588152
 20
527.9966529561852
 30
0.0
 10
345.7188130864277
 20
528.0879156079603
 30
0.0
 10
346.1226204754036
 20
528.1759699588897
 30
0.0
 10
346.5486326561223
 20
528.2596245712868
 30
0.0
 10
347.0822505712774
 20
528.3524396911951
 30
0.0
 10
347.7302894526595
 20
528.446334772081
 30
0.0
 10
348.4459965101771
 20
528.524460954082
 30
0.0
 10
349.086551973362
 20
528.5730614138957
 30
0.0
 10
349.5881690366767
 20
528.598390174748
 30
0.0
 10
349.8742411366963
 20
528.6060538295955
 30
0.0
 10
349.9921977023106
 20
528.6092137966309
 30
0.0
  0
LINE
  5
BD
330
1F
100
AcDbEntity
  8
0
  6
Continuous
 62
     7
370
    25
100
AcDbLine
 10
331.4790101763
 20
527.6187150257
 30
0.0
 11
344.0262322103
 21
527.6187150257
 31
0.0
  0
SPLINE
  5
BE
330
1F
100
AcDbEntity
  8
0
  6
Continuous
 62
     7
370
    25
100
AcDbSpline
210
0.0
220
0.0
230
1.0
 70
     8
 71
     3
 72
    18
 73
    14
 74
     0
 42
0.00000001
 43
0.00000001
 40
0.0
 40
0.0
 40
0.0
 40
0.0
 40
0.0415479843687494
 40
0.0970879470681286
 40
0.1666307808063783
 40
0.2501816848756849
 40
0.3784197815974651
 40
0.4999330419548126
 40
0.6182484540406294
 40
0.7273877225871299
 40
0.8273724278808549
 40
0.9182306783643679
 40
1.0
 40
1.0
 40
1.0
 40
1.0
 10
325.5130366605719
 20
528.6092142373003
 30
0.0
 10
325.5968511320602
 20
528.6070861704727
 30
0.0
 10
325.7927059995113
 20
528.6021133747361
 30
0.0
 10
326.1272734838082
 20
528.5881549934136
 30
0.0
 10
326.5455283011763
 20
528.5638905080184
 30
0.0
 10
327.1086264614589
 20
528.5190055551583
 30
0.0
 10
327.7749367514145
 20
528.4463531704173
 30
0.0
 10
328.5093285685447
 20
528.3399418775649
 30
0.0
 10
329.2039670002666
 20
528.2146055904905
 30
0.0
 10
329.8537251179008
 20
528.0745748867648
 30
0.0
 10
330.4465556120479
 20
527.9265877168974
 30
0.0
 10
330.9829764941352
 20
527.776822167025
 30
0.0
 10
331.3195729398751
 20
527.6695344893258
 30
0.0
 10
331.4790101763214
 20
527.6187150256814
 30
0.0
  0
SPLINE
  5
BF
330
1F
100
AcDbEntity
  8
0
  6
Continuous
 62
     7
370
    25
100
AcDbSpline
210
0.0
220
0.0
230
1.0
 70
     8
 71
     3
 72
    12
 73
     8
 74
     0
 42
0.00000001
 43
0.00000001
 40
0.0
 40
0.0
 40
0.0
 40
0.0
 40
0.4999999999999276
 40
0.4999999999999276
 40
0.7499999999999638
 40
0.7499999999999638
 40
1.0
 40
1.0
 40
1.0
 40
1.0
 10
325.513036660572
 20
528.6092142372993
 30
0.0
 10
325.4738271130593
 20
528.6113684518135
 30
0.0
 10
325.4348740043534
 20
528.6133252799443
 30
0.0
 10
325.3790884791155
 20
528.6158913783004
 30
0.0
 10
325.3608549887391
 20
528.6166879965624
 30
0.0
 10
325.3280467297826
 20
528.6180619014449
 30
0.0
 10
325.3114433612683
 20
528.6187150256712
 30
0.0
 10
325.3114433612687
 20
528.6187150256713
 30
0.0
  0
SPLINE
  5
C0
330
1F
100
AcDbEntity
  8
0
  6
Continuous
 62
     7
370
    25
100
AcDbSpline
210
0.0
220
0.0
230
1.0
 70
     8
 71
     3
 72
    18
 73
    14
 74
     0
 42
0.00000001
 43
0.00000001
 40
0.0
 40
0.0
 40
0.0
 40
0.0
 40
0.0415480025213675
 40
0.0970879712834407
 40
0.1666307988887921
 40
0.2501816845811299
 40
0.3784197946210473
 40
0.4999330423568763
 40
0.6182484582718455
 40
0.7273877288228223
 40
0.8273724341837876
 40
0.9182306826523369
 40
1.0
 40
1.0
 40
1.0
 40
1.0
 10
349.9922045538845
 20
128.6282158782854
 30
0.0
 10
349.9083901043006
 20
128.6303439559906
 30
0.0
 10
349.7125353247562
 20
128.6353167762127
 30
0.0
 10
349.3779680322384
 20
128.6492752029079
 30
0.0
 10
348.9597135348334
 20
128.6735397413972
 30
0.0
 10
348.3966157749577
 20
128.7184247624449
 30
0.0
 10
347.7303059647642
 20
128.791077215585
 30
0.0
 10
346.995914623905
 20
128.8974885609362
 30
0.0
 10
346.3012766605538
 20
129.0228248565732
 30
0.0
 10
345.6515189519075
 20
129.1628555297615
 30
0.0
 10
345.0586888352554
 20
129.3108426213238
 30
0.0
 10
344.5222683010157
 20
129.4606080536793
 30
0.0
 10
344.1856720694848
 20
129.5678956170083
 30
0.0
 10
344.0262349370435
 20
129.618715025669
 30
0.0
  0
SPLINE
  5
C1
330
1F
100
AcDbEntity
  8
0
  6
Continuous
 62
     7
370
    25
100
AcDbSpline
210
0.0
220
0.0
230
1.0
 70
     8
 71
     3
 72
    12
 73
     8
 74
     0
 42
0.00000001
 43
0.00000001
 40
0.0
 40
0.0
 40
0.0
 40
0.0
 40
0.5
 40
0.5
 40
0.75
 40
0.75
 40
1.0
 40
1.0
 40
1.0
 40
1.0
 10
349.9922045538845
 20
128.6282158782854
 30
0.0
 10
350.0314143050392
 20
128.626061649027
 30
0.0
 10
350.0703676193049
 20
128.6241048079602
 30
0.0
 10
350.1261534527725
 20
128.6215386930298
 30
0.0
 10
350.1443870487252
 20
128.6207420695936
 30
0.0
 10
350.1771955108554
 20
128.6193681555817
 30
0.0
 10
350.1937990223554
 20
128.6187150256764
 30
0.0
 10
350.1937990223549
 20
128.6187150256765
 30
0.0
  0
SPLINE
  5
C2
330
1F
100
AcDbEntity
  8
0
  6
Continuous
 62
     7
370
    25
100
AcDbSpline
210
0.0
220
0.0
230
1.0
 70
     8
 71
     3
 72
    20
 73
    16
 74
     0
 42
0.00000001
 43
0.00000001
 40
0.0
 40
0.0
 40
0.0
 40
0.0
 40
0.0500440860345062
 40
0.1036322533828455
 40
0.1607753504694798
 40
0.2214823196772267
 40
0.2857606157423669
 40
0.3536165161200716
 40
0.425055354928958
 40
0.5000817018625676
 40
0.6215810609011875
 40
0.7498275045109949
 40
0.8581090990066705
 40
0.9414940074835896
 40
0.9999999999999999
 40
0.9999999999999999
 40
0.9999999999999999
 40
0.9999999999999999
 10
331.479008897595
 20
129.6187150256641
 30
0.0
 10
331.3815385575086
 20
129.5872899351525
 30
0.0
 10
331.179695107432
 20
129.5222142548766
 30
0.0
 10
330.8645939249523
 20
129.428373621347
 30
0.0
 10
330.5274316916476
 20
129.3340394526171
 30
0.0
 10
330.1680262144492
 20
129.2407769876481
 30
0.0
 10
329.7864284872653
 20
129.1495142990485
 30
0.0
 10
329.3826212024406
 20
129.0614599113253
 30
0.0
 10
328.9566091295935
 20
128.977805264865
 30
0.0
 10
328.4229910829511
 20
128.8849900656091
 30
0.0
 10
327.7749523711219
 20
128.7910949761473
 30
0.0
 10
327.0592451275138
 20
128.7129687884967
 30
0.0
 10
326.418689706063
 20
128.6643684122806
 30
0.0
 10
325.9170727319848
 20
128.6390397662104
 30
0.0
 10
325.6310010042639
 20
128.6313761904451
 30
0.0
 10
325.5130448122598
 20
128.6282162619138
 30
0.0
  0
LINE
  5
C3
330
1F
100
AcDbEntity
  8
0
  6
Continuous
 62
     7
370
    25
100
AcDbLine
 10
344.026234937
 20
129.6187150257
 30
0.0
 11
331.4790088976
 21
129.6187150257
 31
0.0
  0
SPLINE
  5
C4
330
1F
100
AcDbEntity
  8
0
  6
Continuous
 62
     7
370
    25
100
AcDbSpline
210
0.0
220
0.0
230
1.0
 70
     8
 71
     3
 72
    19
 73
    15
 74
     0
 42
0.00000001
 43
0.00000001
 40
0.0
 40
0.0
 40
0.0
 40
0.0
 40
0.0558832573981251
 40
0.1134816148877659
 40
0.1728664829451996
 40
0.2341037540012204
 40
0.2972545134742304
 40
0.3623757464883759
 40
0.4295210369880204
 40
0.49874125903843
 40
0.6201567157033144
 40
0.7494150999403041
 40
0.8697670235817284
 40
1.0
 40
1.0
 40
1.0
 40
1.0
 10
331.0027776436926
 20
526.8550380161627
 30
0.0
 10
330.9380172453825
 20
526.8949389740847
 30
0.0
 10
330.8065089023981
 20
526.9759654809742
 30
0.0
 10
330.6035457253133
 20
527.0943892049605
 30
0.0
 10
330.3926315128915
 20
527.2123312821534
 30
0.0
 10
330.1734193512747
 20
527.3290239687693
 30
0.0
 10
329.9458466371342
 20
527.4441272047608
 30
0.0
 10
329.7097801166987
 20
527.5571514439673
 30
0.0
 10
329.4651136464117
 20
527.6676252094853
 30
0.0
 10
329.1506767681212
 20
527.8009100589138
 30
0.0
 10
328.7583581016273
 20
527.9524616939891
 30
0.0
 10
328.300849093537
 20
528.1066212454577
 30
0.0
 10
327.8307322975725
 20
528.2444951782405
 30
0.0
 10
327.5192994792082
 20
528.317496275696
 30
0.0
 10
327.3574428674161
 20
528.3554361124586
 30
0.0
  0
SPLINE
  5
C5
330
1F
100
AcDbEntity
  8
0
  6
Continuous
 62
     7
370
    25
100
AcDbSpline
210
0.0
220
0.0
230
1.0
 70
     8
 71
     3
 72
     8
 73
     4
 74
     0
 42
0.00000001
 43
0.00000001
 40
0.0
 40
0.0
 40
0.0
 40
0.0
 40
1.0
 40
1.0
 40
1.0
 40
1.0
 10
327.3574516456683
 20
528.3554758526909
 30
0.0
 10
327.5962699406697
 20
528.3027230860822
 30
0.0
 10
327.8359475346923
 20
528.254161697022
 30
0.0
 10
328.0761442567569
 20
528.2081324435374
 30
0.0
  0
LINE
  5
C6
330
1F
100
AcDbEntity
  8
0
  6
Continuous
 62
     7
370
    25
100
AcDbLine
 10
331.4790101763
 20
527.6187150257
 30
0.0
 11
331.0027776437
 21
526.8550380162
 31
0.0
  0
SPLINE
  5
C7
330
1F
100
AcDbEntity
  8
0
  6
Continuous
 62
     7
370
    25
100
AcDbSpline
210
0.0
220
0.0
230
1.0
 70
     8
 71
     3
 72
    17
 73
    13
 74
     0
 42
0.00000001
 43
0.00000001
 40
0.0
 40
0.0
 40
0.0
 40
0.0
 40
0.1049722668212992
 40
0.2074219077178278
 40
0.3073699092427195
 40
0.4048388748755751
 40
0.4998531783535352
 40
0.6277153559711475
 40
0.7498875553442451
 40
0.8749528015626781
 40
0.9477723455170683
 40
0.9999999999999999
 40
0.9999999999999999
 40
0.9999999999999999
 40
0.9999999999999999
 10
328.0761460476472
 20
528.2081417890284
 30
0.0
 10
327.9858648866016
 20
528.2311293184974
 30
0.0
 10
327.8074721432408
 20
528.276551955929
 30
0.0
 10
327.5425518008886
 20
528.3364168665213
 30
0.0
 10
327.2840135361802
 20
528.3896629623329
 30
0.0
 10
327.0320195241102
 20
528.4361992818345
 30
0.0
 10
326.7563433970688
 20
528.48160250803
 30
0.0
 10
326.4605898409777
 20
528.5234938191276
 30
0.0
 10
326.1415588937771
 20
528.5606079396745
 30
0.0
 10
325.8730737778881
 20
528.5851704324084
 30
0.0
 10
325.6630484287702
 20
528.6005137439603
 30
0.0
 10
325.5572322284642
 20
528.6066509501075
 30
0.0
 10
325.5130366605719
 20
528.6092142372993
 30
0.0
  0
SPLINE
  5
C8
330
1F
100
AcDbEntity
  8
0
  6
Continuous
 62
     7
370
    25
100
AcDbSpline
210
0.0
220
0.0
230
1.0
 70
     8
 71
     3
 72
    19
 73
    15
 74
     0
 42
0.00000001
 43
0.00000001
 40
0.0
 40
0.0
 40
0.0
 40
0.0
 40
0.0559458335761594
 40
0.1135889495751469
 40
0.1730008594805468
 40
0.2342475033567871
 40
0.2973899017717285
 40
0.3624848071990651
 40
0.4295853494863299
 40
0.4987416733226867
 40
0.6202736290183376
 40
0.7494153053259109
 40
0.8699928296902034
 40
1.0
 40
1.0
 40
1.0
 40
1.0
 10
344.5024673015826
 20
130.3823921400082
 30
0.0
 10
344.5673005358151
 20
130.3424468527555
 30
0.0
 10
344.6989339123024
 20
130.2613444197504
 30
0.0
 10
344.9020586326029
 20
130.1428345503541
 30
0.0
 10
345.1130734429888
 20
130.0248475024869
 30
0.0
 10
345.3323233583587
 20
129.908148034646
 30
0.0
 10
345.5598686697802
 20
129.7930722366125
 30
0.0
 10
345.7958404537378
 20
129.6801054290692
 30
0.0
 10
346.040342586134
 20
129.5697145296623
 30
0.0
 10
346.3547883311552
 20
129.436429884004
 30
0.0
 10
346.7470320274114
 20
129.2849162333891
 30
0.0
 10
347.2048180038307
 20
129.1306729729427
 30
0.0
 10
347.6747946710411
 20
128.9928592501953
 30
0.0
 10
347.9862267255442
 20
128.9198646404879
 30
0.0
 10
348.1478024363127
 20
128.881993921096
 30
0.0
  0
SPLINE
  5
C9
330
1F
100
AcDbEntity
  8
0
  6
Continuous
 62
     7
370
    25
100
AcDbSpline
210
0.0
220
0.0
230
1.0
 70
     8
 71
     3
 72
     8
 73
     4
 74
     0
 42
0.00000001
 43
0.00000001
 40
0.0
 40
0.0
 40
0.0
 40
0.0
 40
1.0
 40
1.0
 40
1.0
 40
1.0
 10
348.1477936581045
 20
128.8819541810794
 30
0.0
 10
347.9089715811214
 20
128.9347078056502
 30
0.0
 10
347.6692901773558
 20
128.9832699143131
 30
0.0
 10
347.4290896334477
 20
129.0292998265997
 30
0.0
  0
LINE
  5
CA
330
1F
100
AcDbEntity
  8
0
  6
Continuous
 62
     7
370
    25
100
AcDbLine
 10
344.026234937
 20
129.6187150257
 30
0.0
 11
344.5024673016
 21
130.38239214
 31
0.0
  0
SPLINE
  5
CB
330
1F
100
AcDbEntity
  8
0
  6
Continuous
 62
     7
370
    25
100
AcDbSpline
210
0.0
220
0.0
230
1.0
 70
     8
 71
     3
 72
    17
 73
    13
 74
     0
 42
0.00000001
 43
0.00000001
 40
0.0
 40
0.0
 40
0.0
 40
0.0
 40
0.1049719199109708
 40
0.207421388167488
 40
0.3073693911833335
 40
0.4048385321724656
 40
0.4998531844548032
 40
0.6277155275207766
 40
0.7498875625264494
 40
0.8749528032397822
 40
0.9477726533323243
 40
1.0
 40
1.0
 40
1.0
 40
1.0
 10
347.4290878426084
 20
129.0292904813603
 30
0.0
 10
347.5193689305828
 20
129.0063029050225
 30
0.0
 10
347.6977616722683
 20
128.9608801386424
 30
0.0
 10
347.9626822365676
 20
128.9010149882098
 30
0.0
 10
348.22122116888
 20
128.8477685814896
 30
0.0
 10
348.4732162992316
 20
128.8012319068379
 30
0.0
 10
348.7488937720883
 20
128.7558283277271
 30
0.0
 10
349.0446484935875
 20
128.7139367464006
 30
0.0
 10
349.3636804679339
 20
128.6768224187987
 30
0.0
 10
349.6321666085776
 20
128.6522597771365
 30
0.0
 10
349.8421926175511
 20
128.6369163938537
 30
0.0
 10
349.9480091197761
 20
128.6307791613941
 30
0.0
 10
349.9922045538846
 20
128.6282158782854
 30
0.0
  0
SPLINE
  5
CC
330
1F
100
AcDbEntity
  8
0
  6
Continuous
 62
     7
370
    25
100
AcDbSpline
210
0.0
220
0.0
230
1.0
 70
     8
 71
     3
 72
     8
 73
     4
 74
     0
 42
0.00000001
 43
0.00000001
 40
0.0
 40
0.0
 40
0.0
 40
0.0
 40
1.0
 40
1.0
 40
1.0
 40
1.0
 10
347.4290798139448
 20
528.2081276594304
 30
0.0
 10
347.6692853291424
 20
528.2541582997292
 30
0.0
 10
347.9089716949148
 20
528.3027211922148
 30
0.0
 10
348.1477987087491
 20
528.3554757407419
 30
0.0
  0
SPLINE
  5
CD
330
1F
100
AcDbEntity
  8
0
  6
Continuous
 62
     7
370
    25
100
AcDbSpline
210
0.0
220
0.0
230
1.0
 70
     8
 71
     3
 72
    18
 73
    14
 74
     0
 42
0.00000001
 43
0.00000001
 40
0.0
 40
0.0
 40
0.0
 40
0.0
 40
0.0661939051221353
 40
0.1300128708444295
 40
0.1914778579276004
 40
0.2506086857580348
 40
0.3797418083340455
 40
0.5012890498084428
 40
0.6109412688587305
 40
0.7154088370165473
 40
0.8149084196956792
 40
0.9096812661147012
 40
1.0
 40
1.0
 40
1.0
 40
1.0
 10
348.1478074866074
 20
528.3554360021847
 30
0.0
 10
348.0655158297879
 20
528.336694975067
 30
0.0
 10
347.9038850190674
 20
528.2998853211624
 30
0.0
 10
347.6663083121858
 20
528.2385985065742
 30
0.0
 10
347.4378600639029
 20
528.174774047813
 30
0.0
 10
347.1290631068747
 20
528.0814313744987
 30
0.0
 10
346.7470461471838
 20
527.9524504755838
 30
0.0
 10
346.3051523768221
 20
527.7818514295551
 30
0.0
 10
345.8961537376754
 20
527.6051484135475
 30
0.0
 10
345.5169618347786
 20
527.4247827705161
 30
0.0
 10
345.1593719578567
 20
527.2390201306386
 30
0.0
 10
344.8223068527655
 20
527.0506295004417
 30
0.0
 10
344.6073542175328
 20
526.9191805605903
 30
0.0
 10
344.5024642499415
 20
526.8550377087199
 30
0.0
  0
LINE
  5
CE
330
1F
100
AcDbEntity
  8
0
  6
Continuous
 62
     7
370
    25
100
AcDbLine
 10
344.0262322103
 20
527.6187150257
 30
0.0
 11
344.5024642499
 21
526.8550377087
 31
0.0
  0
SPLINE
  5
CF
330
1F
100
AcDbEntity
  8
0
  6
Continuous
 62
     7
370
    25
100
AcDbSpline
210
0.0
220
0.0
230
1.0
 70
     8
 71
     3
 72
    15
 73
    11
 74
     0
 42
0.00000001
 43
0.00000001
 40
0.0
 40
0.0
 40
0.0
 40
0.0
 40
0.0524067790269376
 40
0.1255750642311892
 40
0.2510712379416113
 40
0.3736230090201807
 40
0.5020644597783241
 40
0.6612539506721705
 40
0.8271980515058223
 40
1.0
 40
1.0
 40
1.0
 40
1.0
 10
349.9921977023106
 20
528.6092137966301
 30
0.0
 10
349.9478515197505
 20
528.6066412852063
 30
0.0
 10
349.8415909399786
 20
528.6004771344367
 30
0.0
 10
349.6307645728784
 20
528.5850595965704
 30
0.0
 10
349.3613031409064
 20
528.5603712500687
 30
0.0
 10
349.0410656265524
 20
528.5230328700623
 30
0.0
 10
348.6894413494585
 20
528.4731550340605
 30
0.0
 10
348.2987463648822
 20
528.4058626946302
 30
0.0
 10
347.8692525501412
 20
528.3183319592764
 30
0.0
 10
347.5777698688133
 20
528.2453610831307
 30
0.0
 10
347.4290780231498
 20
528.2081370044843
 30
0.0
  0
SPLINE
  5
D0
330
1F
100
AcDbEntity
  8
0
  6
Continuous
 62
     7
370
    25
100
AcDbSpline
210
0.0
220
0.0
230
1.0
 70
     8
 71
     3
 72
     8
 73
     4
 74
     0
 42
0.00000001
 43
0.00000001
 40
0.0
 40
0.0
 40
0.0
 40
0.0
 40
1.0
 40
1.0
 40
1.0
 40
1.0
 10
328.0761590562697
 20
129.0293014742194
 30
0.0
 10
327.835955317399
 20
128.9832710934443
 30
0.0
 10
327.5962707244351
 20
128.9347084812954
 30
0.0
 10
327.3574454731101
 20
128.8819542693868
 30
0.0
  0
SPLINE
  5
D1
330
1F
100
AcDbEntity
  8
0
  6
Continuous
 62
     7
370
    25
100
AcDbSpline
210
0.0
220
0.0
230
1.0
 70
     8
 71
     3
 72
    18
 73
    14
 74
     0
 42
0.00000001
 43
0.00000001
 40
0.0
 40
0.0
 40
0.0
 40
0.0
 40
0.0663641305023455
 40
0.1302387120791739
 40
0.1916465363399342
 40
0.2506088936133316
 40
0.3798587236423021
 40
0.5012894658305389
 40
0.6110346199426682
 40
0.7155472503650021
 40
0.8150460198078905
 40
0.9097727925567426
 40
1.0
 40
1.0
 40
1.0
 40
1.0
 10
327.357436695135
 20
128.8819940084336
 30
0.0
 10
327.4399399188234
 20
128.9007846299345
 30
0.0
 10
327.6018513838606
 20
128.9376609714901
 30
0.0
 10
327.8396363266764
 20
128.9990194861165
 30
0.0
 10
328.0678717427512
 20
129.0628011895896
 30
0.0
 10
328.3765316366573
 20
129.1561122722682
 30
0.0
 10
328.7583417073567
 20
129.2850318925753
 30
0.0
 10
329.2003450916882
 20
129.4556836089387
 30
0.0
 10
329.6093715280304
 20
129.6324063613264
 30
0.0
 10
329.9887278318714
 20
129.812868737669
 30
0.0
 10
330.3463093551604
 20
129.9986483739453
 30
0.0
 10
330.6832026019628
 20
130.1869608141965
 30
0.0
 10
330.8979938181459
 20
130.3183136202479
 30
0.0
 10
331.0027767030527
 20
130.3823922460095
 30
0.0
  0
LINE
  5
D2
330
1F
100
AcDbEntity
  8
0
  6
Continuous
 62
     7
370
    25
100
AcDbLine
 10
331.4790088976
 20
129.6187150257
 30
0.0
 11
331.0027767031
 21
130.382392246
 31
0.0
  0
SPLINE
  5
D3
330
1F
100
AcDbEntity
  8
0
  6
Continuous
 62
     7
370
    25
100
AcDbSpline
210
0.0
220
0.0
230
1.0
 70
     8
 71
     3
 72
    15
 73
    11
 74
     0
 42
0.00000001
 43
0.00000001
 40
0.0
 40
0.0
 40
0.0
 40
0.0
 40
0.0524072888551041
 40
0.1255750613336127
 40
0.251071232895869
 40
0.3736229158658995
 40
0.5020644509874228
 40
0.6612533181154077
 40
0.8271974216069117
 40
0.9999999999999999
 40
0.9999999999999999
 40
0.9999999999999999
 40
0.9999999999999999
 10
325.5130448122599
 20
128.6282162619137
 30
0.0
 10
325.5573913627297
 20
128.6307887961472
 30
0.0
 10
325.6636517878888
 20
128.6369529414635
 30
0.0
 10
325.8744776960801
 20
128.6523704531007
 30
0.0
 10
326.1439379514089
 20
128.6770586734644
 30
0.0
 10
326.4641748865605
 20
128.7143969434698
 30
0.0
 10
326.8157981719708
 20
128.7642745784701
 30
0.0
 10
327.2064922862826
 20
128.831566665033
 30
0.0
 10
327.6359856822402
 20
128.9190971564538
 30
0.0
 10
327.9274686109173
 20
128.9920680004895
 30
0.0
 10
328.0761608471121
 20
129.0292921289348
 30
0.0
  0
SPLINE
  5
D4
330
1F
100
AcDbEntity
  8
0
  6
Continuous
 62
     7
370
    25
100
AcDbSpline
210
0.0
220
0.0
230
1.0
 70
     8
 71
     3
 72
    20
 73
    16
 74
     0
 42
0.00000001
 43
0.00000001
 40
0.0
 40
0.0
 40
0.0
 40
0.0
 40
0.25
 40
0.25
 40
0.375
 40
0.375
 40
0.5
 40
0.5
 40
0.625
 40
0.625
 40
0.75
 40
0.75
 40
0.875
 40
0.875
 40
1.0
 40
1.0
 40
1.0
 40
1.0
 10
337.8648654339207
 20
516.5949866502574
 30
0.0
 10
337.8351257970663
 20
517.7053233491708
 30
0.0
 10
337.9652308106147
 20
518.7922177054172
 30
0.0
 10
338.3818139492679
 20
520.3900856148814
 30
0.0
 10
338.5592965424177
 20
520.9189800883545
 30
0.0
 10
338.9771652293288
 20
521.9363589196005
 30
0.0
 10
339.2182430536512
 20
522.4286380899324
 30
0.0
 10
339.7619642729184
 20
523.3817652946994
 30
0.0
 10
340.0661216139926
 20
523.8445846108868
 30
0.0
 10
340.7300512148482
 20
524.7293273402914
 30
0.0
 10
341.0864012188753
 20
525.1472661929732
 30
0.0
 10
341.8459110030981
 20
525.9362433090434
 30
0.0
 10
342.2490751163336
 20
526.307277230985
 30
0.0
 10
343.1032070911601
 20
527.0014485850335
 30
0.0
 10
343.5556319229883
 20
527.3252469211609
 30
0.0
 10
344.0262322103371
 20
527.6187150256853
 30
0.0
  0
LINE
  5
D5
330
1F
100
AcDbEntity
  8
0
  6
Continuous
 62
     7
370
    25
100
AcDbLine
 10
337.8526211918
 20
140.6303963253
 30
0.0
 11
337.8526211918
 21
516.5949866503
 31
0.0
  0
SPLINE
  5
D6
330
1F
100
AcDbEntity
  8
0
  6
Continuous
 62
     7
370
    25
100
AcDbSpline
210
0.0
220
0.0
230
1.0
 70
     8
 71
     3
 72
    20
 73
    16
 74
     0
 42
0.00000001
 43
0.00000001
 40
0.0
 40
0.0
 40
0.0
 40
0.0
 40
0.1249999999999999
 40
0.1249999999999999
 40
0.2499999999999999
 40
0.2499999999999999
 40
0.3749999999999998
 40
0.3749999999999998
 40
0.4999999999999998
 40
0.4999999999999998
 40
0.6249999999999998
 40
0.6249999999999998
 40
0.7499999999999997
 40
0.7499999999999997
 40
1.0
 40
1.0
 40
1.0
 40
1.0
 10
344.0262349370436
 20
129.618715025669
 30
0.0
 10
343.5556346669592
 20
129.9121833975331
 30
0.0
 10
343.1032096283481
 20
130.2359820651572
 30
0.0
 10
342.2490768255375
 20
130.9301542813776
 30
0.0
 10
341.8459124410861
 20
131.3011884506289
 30
0.0
 10
341.0864022662325
 20
132.0901655732316
 30
0.0
 10
340.7300521437199
 20
132.5081041861269
 30
0.0
 10
340.0661223763221
 20
133.3928458396504
 30
0.0
 10
339.7619639292016
 20
133.8556658994377
 30
0.0
 10
339.2182415081122
 20
134.8087933482576
 30
0.0
 10
338.9771631825897
 20
135.3010725205709
 30
0.0
 10
338.5592937926022
 20
136.3184511515764
 30
0.0
 10
338.3818109096011
 20
136.8473456075734
 30
0.0
 10
337.9652275514965
 20
138.4452145920469
 30
0.0
 10
337.8351236699672
 20
139.5321093929957
 30
0.0
 10
337.8526211918397
 20
140.6303963252582
 30
0.0
  0
SPLINE
  5
D7
330
1F
100
AcDbEntity
  8
0
  6
Continuous
 62
     7
370
    25
100
AcDbSpline
210
0.0
220
0.0
230
1.0
 70
     8
 71
     3
 72
    20
 73
    16
 74
     0
 42
0.00000001
 43
0.00000001
 40
0.0
 40
0.0
 40
0.0
 40
0.0
 40
0.2500000000000002
 40
0.2500000000000002
 40
0.3750000000000003
 40
0.3750000000000003
 40
0.5000000000000004
 40
0.5000000000000004
 40
0.6250000000000003
 40
0.6250000000000003
 40
0.7500000000000002
 40
0.7500000000000002
 40
0.8750000000000001
 40
0.8750000000000001
 40
1.0
 40
1.0
 40
1.0
 40
1.0
 10
337.6403764074071
 20
140.6424437243882
 30
0.0
 10
337.6701169905435
 20
139.5321069683433
 30
0.0
 10
337.5400121517533
 20
138.4452125494217
 30
0.0
 10
337.123428767923
 20
136.8473444559248
 30
0.0
 10
336.9459460376447
 20
136.3184500308471
 30
0.0
 10
336.5280770607358
 20
135.3010713379053
 30
0.0
 10
336.2869990586234
 20
134.8087922069932
 30
0.0
 10
335.7432774517707
 20
133.8556650083966
 30
0.0
 10
335.4391197883643
 20
133.3928455199357
 30
0.0
 10
334.7751901408985
 20
132.5081031486231
 30
0.0
 10
334.4188401145108
 20
132.0901643817757
 30
0.0
 10
333.6593302630465
 20
131.3011872828292
 30
0.0
 10
333.2561661052359
 20
130.9301532918534
 30
0.0
 10
332.402033979596
 20
130.2359816806468
 30
0.0
 10
331.9496091361456
 20
129.9121832323644
 30
0.0
 10
331.479008897595
 20
129.6187150256641
 30
0.0
  0
LINE
  5
D8
330
1F
100
AcDbEntity
  8
0
  6
Continuous
 62
     7
370
    25
100
AcDbLine
 10
337.6526211918
 20
516.6070347471
 30
0.0
 11
337.6526211918
 21
140.6424437244
 31
0.0
  0
SPLINE
  5
D9
330
1F
100
AcDbEntity
  8
0
  6
Continuous
 62
     7
370
    25
100
AcDbSpline
210
0.0
220
0.0
230
1.0
 70
     8
 71
     3
 72
    20
 73
    16
 74
     0
 42
0.00000001
 43
0.00000001
 40
0.0
 40
0.0
 40
0.0
 40
0.0
 40
0.125
 40
0.125
 40
0.25
 40
0.25
 40
0.375
 40
0.375
 40
0.5
 40
0.5
 40
0.625
 40
0.625
 40
0.75
 40
0.75
 40
1.0
 40
1.0
 40
1.0
 40
1.0
 10
331.4790101763214
 20
527.6187150256803
 30
0.0
 10
331.949610248752
 20
527.3252466332108
 30
0.0
 10
332.4020349447609
 20
527.0014479861311
 30
0.0
 10
333.2561668314695
 20
526.3072759844475
 30
0.0
 10
333.659330842027
 20
525.9362418463833
 30
0.0
 10
334.4188403912593
 20
525.1472645943684
 30
0.0
 10
334.7751902624068
 20
524.729325821265
 30
0.0
 10
335.4391196271322
 20
523.844583620289
 30
0.0
 10
335.7432773882797
 20
523.3817639771346
 30
0.0
 10
336.2869990584554
 20
522.4286367644776
 30
0.0
 10
336.5280771075483
 20
521.9363576727611
 30
0.0
 10
336.9459461860385
 20
520.9189791423062
 30
0.0
 10
337.1234289889252
 20
520.3900848083823
 30
0.0
 10
337.5400125450271
 20
518.7922167470243
 30
0.0
 10
337.6701173578521
 20
517.7053224056264
 30
0.0
 10
337.6526211918397
 20
516.6070347470779
 30
0.0
  0
LINE
  5
DA
330
1F
100
AcDbEntity
  8
0
  6
Continuous
 62
     7
370
    25
100
AcDbLine
 10
336.7526211918
 20
140.618345967
 30
0.0
 11
336.7526211918
 21
516.6190840613
 31
0.0
  0
SPLINE
  5
DB
330
1F
100
AcDbEntity
  8
0
  6
Continuous
 62
     7
370
    25
100
AcDbSpline
210
0.0
220
0.0
230
1.0
 70
     8
 71
     3
 72
    10
 73
     6
 74
     0
 42
0.00000001
 43
0.00000001
 40
0.0
 40
0.0
 40
0.0
 40
0.0
 40
0.5
 40
0.5
 40
1.0
 40
1.0
 40
1.0
 40
1.0
 10
337.6526211918398
 20
516.6070347470783
 30
0.0
 10
337.4170017426487
 20
516.6090429661224
 30
0.0
 10
337.1828331986143
 20
516.6110511851668
 30
0.0
 10
336.8496169782002
 20
516.6150676232554
 30
0.0
 10
336.7526211915697
 20
516.6170758422995
 30
0.0
 10
336.7526211918398
 20
516.6190840613438
 30
0.0
  0
SPLINE
  5
DC
330
1F
100
AcDbEntity
  8
0
  6
Continuous
 62
     7
370
    25
100
AcDbSpline
210
0.0
220
0.0
230
1.0
 70
    24
 71
     3
 72
    14
 73
    10
 74
     0
 42
0.00000001
 43
0.00000001
 40
0.0
 40
0.0
 40
0.0
 40
0.0
 40
0.25
 40
0.25
 40
0.5
 40
0.5
 40
0.75
 40
0.75
 40
1.0
 40
1.0
 40
1.0
 40
1.0
 10
337.6403762916152
 20
140.64258366998
 30
0.0
 10
337.5343482285055
 20
140.6397459586289
 30
0.0
 10
337.4199572101113
 20
140.6366844230143
 30
0.0
 10
337.1984619863792
 20
140.6307563744186
 30
0.0
 10
337.0920444363805
 20
140.6279082389273
 30
0.0
 10
336.9163713894108
 20
140.6232065648148
 30
0.0
 10
336.8477102293723
 20
140.6213689328941
 30
0.0
 10
336.7600222900894
 20
140.6190220725116
 30
0.0
 10
336.7406983423786
 20
140.6185048906995
 30
0.0
 10
336.7406983423539
 20
140.6185048906984
 30
0.0
  0
LINE
  5
DD
330
1F
100
AcDbEntity
  8
0
  6
Continuous
 62
     7
370
    25
100
AcDbLine
 10
338.7526211918
 20
516.619083844
 30
0.0
 11
338.7526211918
 21
140.6183461434
 31
0.0
  0
SPLINE
  5
DE
330
1F
100
AcDbEntity
  8
0
  6
Continuous
 62
     7
370
    25
100
AcDbSpline
210
0.0
220
0.0
230
1.0
 70
     8
 71
     3
 72
    10
 73
     6
 74
     0
 42
0.00000001
 43
0.00000001
 40
0.0
 40
0.0
 40
0.0
 40
0.0
 40
0.5
 40
0.5
 40
1.0
 40
1.0
 40
1.0
 40
1.0
 10
337.8526211918397
 20
140.6303963252582
 30
0.0
 10
338.0882406410312
 20
140.628387961616
 30
0.0
 10
338.3224091850659
 20
140.6263795979739
 30
0.0
 10
338.65562540548
 20
140.6223628706896
 30
0.0
 10
338.7526211921103
 20
140.6203545070474
 30
0.0
 10
338.7526211918398
 20
140.6183461434052
 30
0.0
  0
SPLINE
  5
DF
330
1F
100
AcDbEntity
  8
0
  6
Continuous
 62
     7
370
    25
100
AcDbSpline
210
0.0
220
0.0
230
1.0
 70
    24
 71
     3
 72
    14
 73
    10
 74
     0
 42
0.00000001
 43
0.00000001
 40
0.0
 40
0.0
 40
0.0
 40
0.0
 40
0.25
 40
0.25
 40
0.5
 40
0.5
 40
0.75
 40
0.75
 40
1.0
 40
1.0
 40
1.0
 40
1.0
 10
337.8648655449632
 20
516.5948468805123
 30
0.0
 10
337.9708936105261
 20
516.5976845001434
 30
0.0
 10
338.0852846315672
 20
516.6007459368038
 30
0.0
 10
338.3067798604251
 20
516.6066737937944
 30
0.0
 10
338.4131974128868
 20
516.6095218372286
 30
0.0
 10
338.5888704639231
 20
516.6142233593749
 30
0.0
 10
338.6575316255513
 20
516.6160609319
 30
0.0
 10
338.7452195668655
 20
516.6184077164279
 30
0.0
 10
338.7645435150245
 20
516.618924881524
 30
0.0
 10
338.7645435150504
 20
516.618924881525
 30
0.0
  0
LINE
  5
E0
330
1F
100
AcDbEntity
  8
0
  6
Continuous
 62
     7
370
    25
100
AcDbLine
 10
348.1478024363
 20
128.8819939211
 30
0.0
 11
348.7287309955
 21
128.8259232842
 31
0.0
  0
LINE
  5
E1
330
1F
100
AcDbEntity
  8
0
  6
Continuous
 62
     7
370
    25
100
AcDbLine
 10
350.0552133141
 20
128.6978925525
 30
0.0
 11
350.7520719415
 21
128.6306324626
 31
0.0
  0
LINE
  5
E2
330
1F
100
AcDbEntity
  8
0
  6
Continuous
 62
     7
370
    25
100
AcDbLine
 10
324.7531705088
 20
528.606797605
 30
0.0
 11
325.4500282226
 21
528.5395376679
 31
0.0
  0
LINE
  5
E3
330
1F
100
AcDbEntity
  8
0
  6
Continuous
 62
     7
370
    25
100
AcDbLine
 10
326.7765141953
 20
528.4115067065
 30
0.0
 11
327.3574428674
 21
528.3554361125
 31
0.0
  0
LINE
  5
E4
330
1F
100
AcDbEntity
  8
0
  6
Continuous
 62
     7
370
    25
100
AcDbLine
 10
327.3574366951
 20
128.8819940084
 30
0.0
 11
326.7765165808
 21
128.8259240629
 31
0.0
  0
LINE
  5
E5
330
1F
100
AcDbEntity
  8
0
  6
Continuous
 62
     7
370
    25
100
AcDbLine
 10
325.3122148278
 20
128.6845908272
 30
0.0
 11
324.7531704894
 21
128.6306323141
 31
0.0
  0
LINE
  5
E6
330
1F
100
AcDbEntity
  8
0
  6
Continuous
 62
     7
370
    25
100
AcDbLine
 10
350.7520720079
 20
528.6067982688
 30
0.0
 11
350.1930275451
 21
528.552839586
 31
0.0
  0
LINE
  5
E7
330
1F
100
AcDbEntity
  8
0
  6
Continuous
 62
     7
370
    25
100
AcDbLine
 10
348.7287281019
 20
528.41150616
 30
0.0
 11
348.1478074866
 21
528.3554360022
 31
0.0
  0
SPLINE
  5
E8
330
1F
100
AcDbEntity
  8
0
  6
Continuous
 62
     7
370
    25
100
AcDbSpline
210
0.0
220
0.0
230
1.0
 70
     8
 71
     3
 72
     8
 73
     4
 74
     0
 42
0.00000001
 43
0.00000001
 40
0.0
 40
0.0
 40
0.0
 40
0.0
 40
1.0
 40
1.0
 40
1.0
 40
1.0
 10
344.5024642499415
 20
526.8550377087199
 30
0.0
 10
341.0442024884945
 20
524.6984527014877
 30
0.0
 10
338.6524251929728
 20
520.8073858521064
 30
0.0
 10
338.7645385094036
 20
516.6192432955172
 30
0.0
  0
SPLINE
  5
E9
330
1F
100
AcDbEntity
  8
0
  6
Continuous
 62
     7
370
    25
100
AcDbSpline
210
0.0
220
0.0
230
1.0
 70
     8
 71
     3
 72
     8
 73
     4
 74
     0
 42
0.00000001
 43
0.00000001
 40
0.0
 40
0.0
 40
0.0
 40
0.0
 40
1.0
 40
1.0
 40
1.0
 40
1.0
 10
331.0027767030527
 20
130.3823922460095
 30
0.0
 10
334.4610392979675
 20
132.5389787474707
 30
0.0
 10
336.852820171631
 20
136.4300488262733
 30
0.0
 10
336.7407033474885
 20
140.6181865032017
 30
0.0
  0
SPLINE
  5
EA
330
1F
100
AcDbEntity
  8
0
  6
Continuous
 62
     7
370
    25
100
AcDbSpline
210
0.0
220
0.0
230
1.0
 70
     8
 71
     3
 72
     8
 73
     4
 74
     0
 42
0.00000001
 43
0.00000001
 40
0.0
 40
0.0
 40
0.0
 40
0.0
 40
1.0
 40
1.0
 40
1.0
 40
1.0
 10
338.7645401340701
 20
140.6181866496367
 30
0.0
 10
338.6524128855264
 20
136.4300622557742
 30
0.0
 10
341.0441990745488
 20
132.5389832228716
 30
0.0
 10
344.5024673015826
 20
130.3823921400082
 30
0.0
  0
SPLINE
  5
EB
330
1F
100
AcDbEntity
  8
0
  6
Continuous
 62
     7
370
    25
100
AcDbSpline
210
0.0
220
0.0
230
1.0
 70
     8
 71
     3
 72
     8
 73
     4
 74
     0
 42
0.00000001
 43
0.00000001
 40
0.0
 40
0.0
 40
0.0
 40
0.0
 40
1.0
 40
1.0
 40
1.0
 40
1.0
 10
336.740702993184
 20
516.6192435338718
 30
0.0
 10
336.8528223820417
 20
520.8073729549458
 30
0.0
 10
334.4610413925936
 20
524.6984486686875
 30
0.0
 10
331.0027776436926
 20
526.8550380161627
 30
0.0
  0
SPLINE
  5
EC
330
1F
100
AcDbEntity
  8
0
  6
Continuous
 62
     7
370
    25
100
AcDbSpline
210
0.0
220
0.0
230
1.0
 70
     8
 71
     3
 72
    14
 73
    10
 74
     0
 42
0.00000001
 43
0.00000001
 40
0.0
 40
0.0
 40
0.0
 40
0.0
 40
0.25
 40
0.25
 40
0.5
 40
0.5
 40
0.75
 40
0.75
 40
1.0
 40
1.0
 40
1.0
 40
1.0
 10
324.7528308006201
 20
128.618715025687
 30
0.0
 10
324.7528133334038
 20
128.6187150256868
 30
0.0
 10
324.7527958661875
 20
128.9310429057855
 30
0.0
 10
324.7527609317548
 20
130.1332783659934
 30
0.0
 10
324.7527434645385
 20
131.0227129177865
 30
0.0
 10
324.7527085301058
 20
133.2441543876097
 30
0.0
 10
324.7526910628894
 20
134.5752872632807
 30
0.0
 10
324.7526561284568
 20
137.4777404162303
 30
0.0
 10
324.7526386612405
 20
139.047918702133
 30
0.0
 10
324.7526211940241
 20
140.6187150292226
 30
0.0
  0
SPLINE
  5
ED
330
1F
100
AcDbEntity
  8
0
  6
Continuous
 62
     7
370
    25
100
AcDbSpline
210
0.0
220
0.0
230
1.0
 70
     8
 71
     3
 72
    14
 73
    10
 74
     0
 42
0.00000001
 43
0.00000001
 40
0.0
 40
0.0
 40
0.0
 40
0.0
 40
0.2500000000000001
 40
0.2500000000000001
 40
0.5000000000000001
 40
0.5000000000000001
 40
0.7500000000000002
 40
0.7500000000000002
 40
1.0
 40
1.0
 40
1.0
 40
1.0
 10
324.7526211940239
 20
140.6187150292226
 30
0.0
 10
326.3234175205744
 20
140.6186975614589
 30
0.0
 10
327.89359580579
 20
140.6186800936951
 30
0.0
 10
330.7960489573324
 20
140.6186451581676
 30
0.0
 10
332.1271818322853
 20
140.6186276904038
 30
0.0
 10
334.3486233008861
 20
140.6185927548763
 30
0.0
 10
335.2380578521764
 20
140.6185752871125
 30
0.0
 10
336.4402933117619
 20
140.618540351585
 30
0.0
 10
336.7526211917418
 20
140.6185228838212
 30
0.0
 10
336.75262119184
 20
140.6185054160574
 30
0.0
  0
SPLINE
  5
EE
330
1F
100
AcDbEntity
  8
0
  6
Continuous
 62
     7
370
    25
100
AcDbSpline
210
0.0
220
0.0
230
1.0
 70
     8
 71
     3
 72
    14
 73
    10
 74
     0
 42
0.00000001
 43
0.00000001
 40
0.0
 40
0.0
 40
0.0
 40
0.0
 40
0.25
 40
0.25
 40
0.5
 40
0.5
 40
0.75
 40
0.75
 40
1.0
 40
1.0
 40
1.0
 40
1.0
 10
666.7526211963847
 20
516.6187150343042
 30
0.0
 10
668.323417522454
 20
516.6187324958562
 30
0.0
 10
669.893595807362
 20
516.6187499574087
 30
0.0
 10
672.7960489583688
 20
516.6187848805129
 30
0.0
 10
674.127181833091
 20
516.6188023420651
 30
0.0
 10
676.3486233010898
 20
516.6188372651696
 30
0.0
 10
677.2380578520074
 20
516.6188547267218
 30
0.0
 10
678.4402933106278
 20
516.6188896498263
 30
0.0
 10
678.7526211900151
 20
516.6189071113783
 30
0.0
 10
678.7526211894633
 20
516.6189245729306
 30
0.0
  0
SPLINE
  5
EF
330
1F
100
AcDbEntity
  8
0
  6
Continuous
 62
     7
370
    25
100
AcDbSpline
210
0.0
220
0.0
230
1.0
 70
     8
 71
     3
 72
    14
 73
    10
 74
     0
 42
0.00000001
 43
0.00000001
 40
0.0
 40
0.0
 40
0.0
 40
0.0
 40
0.2500000000000001
 40
0.2500000000000001
 40
0.5000000000000001
 40
0.5000000000000001
 40
0.7500000000000001
 40
0.7500000000000001
 40
1.0
 40
1.0
 40
1.0
 40
1.0
 10
666.7526211617181
 20
528.6187150170676
 30
0.0
 10
666.7523273960171
 20
528.6186875725723
 30
0.0
 10
666.7521090331808
 20
528.3063392928384
 30
0.0
 10
666.7518450684863
 20
527.1040791741592
 30
0.0
 10
666.751799346036
 20
526.2146403522624
 30
0.0
 10
666.7518561111121
 20
523.9932041890786
 30
0.0
 10
666.7519581615916
 20
522.6620808493171
 30
0.0
 10
666.7522475216551
 20
519.7596547334475
 30
0.0
 10
666.7524341755477
 20
518.1894938874542
 30
0.0
 10
666.7526211963847
 20
516.6187150343042
 30
0.0
  0
SPLINE
  5
F0
330
1F
100
AcDbEntity
  8
0
  6
Continuous
 62
     7
370
    25
100
AcDbSpline
210
0.0
220
0.0
230
1.0
 70
     8
 71
     3
 72
    14
 73
    10
 74
     0
 42
0.00000001
 43
0.00000001
 40
0.0
 40
0.0
 40
0.0
 40
0.0
 40
0.2500000000000001
 40
0.2500000000000001
 40
0.5000000000000001
 40
0.5000000000000001
 40
0.7500000000000002
 40
0.7500000000000002
 40
1.0
 40
1.0
 40
1.0
 40
1.0
 10
666.752830800621
 20
128.6187150256778
 30
0.0
 10
666.7528133332227
 20
128.6187150256777
 30
0.0
 10
666.7527958658243
 20
128.9310429056612
 30
0.0
 10
666.7527609310274
 20
130.1332783654424
 30
0.0
 10
666.7527434636289
 20
131.0227129169245
 30
0.0
 10
666.7527085288322
 20
133.2441543860249
 30
0.0
 10
666.7526910614338
 20
134.5752872612852
 30
0.0
 10
666.7526561266369
 20
137.4777404134478
 30
0.0
 10
666.7526386592385
 20
139.0479186989754
 30
0.0
 10
666.75262119184
 20
140.6187150257788
 30
0.0
  0
SPLINE
  5
F1
330
1F
100
AcDbEntity
  8
0
  6
Continuous
 62
     7
370
    25
100
AcDbSpline
210
0.0
220
0.0
230
1.0
 70
     8
 71
     3
 72
    14
 73
    10
 74
     0
 42
0.00000001
 43
0.00000001
 40
0.0
 40
0.0
 40
0.0
 40
0.0
 40
0.25
 40
0.25
 40
0.5
 40
0.5
 40
0.75
 40
0.75
 40
1.0
 40
1.0
 40
1.0
 40
1.0
 10
666.75262119184
 20
140.6187150257787
 30
0.0
 10
668.3234175185723
 20
140.6186975583012
 30
0.0
 10
669.8935958040266
 20
140.6186800908237
 30
0.0
 10
672.7960489560692
 20
140.6186451558687
 30
0.0
 10
674.1271818312833
 20
140.6186276883912
 30
0.0
 10
676.3486233003433
 20
140.6185927534361
 30
0.0
 10
677.2380578518316
 20
140.6185752859586
 30
0.0
 10
678.4402933116884
 20
140.6185403510036
 30
0.0
 10
678.7526211917416
 20
140.6185228835261
 30
0.0
 10
678.7526211918398
 20
140.6185054160485
 30
0.0
  0
LINE
  5
F2
330
1F
100
AcDbEntity
  8
0
  6
Continuous
 62
     7
370
    25
100
AcDbLine
 10
350.7526211918
 20
516.6187150401
 30
0.0
 11
666.7526211964
 21
516.6187150401
 31
0.0
  0
SPLINE
  5
F3
330
1F
100
AcDbEntity
  8
0
  6
Continuous
 62
     7
370
    25
100
AcDbSpline
210
0.0
220
0.0
230
1.0
 70
     8
 71
     3
 72
    14
 73
    10
 74
     0
 42
0.00000001
 43
0.00000001
 40
0.0
 40
0.0
 40
0.0
 40
0.0
 40
0.2500000000000001
 40
0.2500000000000001
 40
0.5000000000000001
 40
0.5000000000000001
 40
0.7500000000000001
 40
0.7500000000000001
 40
1.0
 40
1.0
 40
1.0
 40
1.0
 10
350.7524115994367
 20
528.6187150256783
 30
0.0
 10
350.7524290654703
 20
528.6187150256783
 30
0.0
 10
350.7524465315038
 20
528.3063871459393
 30
0.0
 10
350.752481463571
 20
527.1041516870648
 30
0.0
 10
350.7524989296046
 20
526.2147171362435
 30
0.0
 10
350.7525338616717
 20
523.9932756686787
 30
0.0
 10
350.7525513277053
 20
522.6621427942913
 30
0.0
 10
350.7525862597725
 20
519.7596896438008
 30
0.0
 10
350.7526037258061
 20
518.1895113590704
 30
0.0
 10
350.7526211918397
 20
516.6187150328752
 30
0.0
  0
LINE
  5
F4
330
1F
100
AcDbEntity
  8
0
  6
Continuous
 62
     7
370
    25
100
AcDbLine
 10
666.7526211918
 20
516.6187150343
 30
0.0
 11
666.7526211918
 21
140.6187150258
 31
0.0
  0
SPLINE
  5
F5
330
1F
100
AcDbEntity
  8
0
  6
Continuous
 62
     7
370
    25
100
AcDbSpline
210
0.0
220
0.0
230
1.0
 70
     8
 71
     3
 72
    14
 73
    10
 74
     0
 42
0.00000001
 43
0.00000001
 40
0.0
 40
0.0
 40
0.0
 40
0.0
 40
0.2500000000000001
 40
0.2500000000000001
 40
0.5000000000000001
 40
0.5000000000000001
 40
0.7500000000000002
 40
0.7500000000000002
 40
1.0
 40
1.0
 40
1.0
 40
1.0
 10
324.7526211963869
 20
516.6187150328293
 30
0.0
 10
326.3234175224727
 20
516.6187324945053
 30
0.0
 10
327.8935958073199
 20
516.6187499561811
 30
0.0
 10
330.7960489582014
 20
516.618784879533
 30
0.0
 10
332.1271818328596
 20
516.6188023412088
 30
0.0
 10
334.348623300858
 20
516.6188372645607
 30
0.0
 10
335.2380578518396
 20
516.6188547262367
 30
0.0
 10
336.4402933107869
 20
516.6188896495884
 30
0.0
 10
336.7526211904375
 20
516.6189071112643
 30
0.0
 10
336.7526211902427
 20
516.6189245729403
 30
0.0
  0
SPLINE
  5
F6
330
1F
100
AcDbEntity
  8
0
  6
Continuous
 62
     7
370
    25
100
AcDbSpline
210
0.0
220
0.0
230
1.0
 70
     8
 71
     3
 72
    14
 73
    10
 74
     0
 42
0.00000001
 43
0.00000001
 40
0.0
 40
0.0
 40
0.0
 40
0.0
 40
0.2500000000000002
 40
0.2500000000000002
 40
0.5000000000000002
 40
0.5000000000000002
 40
0.7500000000000001
 40
0.7500000000000001
 40
1.0
 40
1.0
 40
1.0
 40
1.0
 10
324.7526211685081
 20
528.6187150178671
 30
0.0
 10
324.7524006091891
 20
528.6186875729812
 30
0.0
 10
324.7522366624115
 20
528.3063392929092
 30
0.0
 10
324.7520384779221
 20
527.1040791736872
 30
0.0
 10
324.7520041496696
 20
526.2146403515853
 30
0.0
 10
324.7520467692843
 20
523.9932041880937
 30
0.0
 10
324.7521233890161
 20
522.6620808482281
 30
0.0
 10
324.7523406410054
 20
519.7596547321742
 30
0.0
 10
324.7524807809694
 20
518.1894938860992
 30
0.0
 10
324.7526211963869
 20
516.6187150328293
 30
0.0
  0
LINE
  5
F7
330
1F
100
AcDbEntity
  8
0
  6
Continuous
 62
     7
370
    25
100
AcDbLine
 10
148.7526211918
 20
516.6187150401
 30
0.0
 11
324.7526211964
 21
516.6187150401
 31
0.0
  0
SPLINE
  5
F8
330
1F
100
AcDbEntity
  8
0
  6
Continuous
 62
     7
370
    25
100
AcDbSpline
210
0.0
220
0.0
230
1.0
 70
     8
 71
     3
 72
    14
 73
    10
 74
     0
 42
0.00000001
 43
0.00000001
 40
0.0
 40
0.0
 40
0.0
 40
0.0
 40
0.25
 40
0.25
 40
0.5
 40
0.5
 40
0.75
 40
0.75
 40
1.0
 40
1.0
 40
1.0
 40
1.0
 10
148.7524115994352
 20
528.6187150256878
 30
0.0
 10
148.7524290654688
 20
528.6187150256882
 30
0.0
 10
148.7524465315024
 20
528.3063871459497
 30
0.0
 10
148.7524814635697
 20
527.1041516870758
 30
0.0
 10
148.7524989296033
 20
526.2147171362549
 30
0.0
 10
148.7525338616706
 20
523.9932756686904
 30
0.0
 10
148.7525513277042
 20
522.6621427943032
 30
0.0
 10
148.7525862597714
 20
519.759689643813
 30
0.0
 10
148.752603725805
 20
518.1895113590826
 30
0.0
 10
148.7526211918387
 20
516.6187150328877
 30
0.0
  0
LINE
  5
F9
330
1F
100
AcDbEntity
  8
0
  6
Continuous
 62
     7
370
    25
100
AcDbLine
 10
324.7526211948
 20
516.6187150328
 30
0.0
 11
324.7526211948
 21
140.6187150292
 31
0.0
  0
SPLINE
  5
FA
330
1F
100
AcDbEntity
  8
0
  6
Continuous
 62
     7
370
    25
100
AcDbSpline
210
0.0
220
0.0
230
1.0
 70
     8
 71
     3
 72
    10
 73
     6
 74
     0
 42
0.00000001
 43
0.00000001
 40
0.0
 40
0.0
 40
0.0
 40
0.0
 40
0.5
 40
0.5
 40
1.0
 40
1.0
 40
1.0
 40
1.0
 10
138.6614313776642
 20
140.6187157628759
 30
0.0
 10
138.0425920341215
 20
140.6186807004536
 30
0.0
 10
137.5622199544729
 20
140.6186456380313
 30
0.0
 10
136.9171987623481
 20
140.6185755131868
 30
0.0
 10
136.7526211925081
 20
140.6185404507645
 30
0.0
 10
136.7526211931207
 20
140.6185053883422
 30
0.0
  0
SPLINE
  5
FB
330
1F
100
AcDbEntity
  8
0
  6
Continuous
 62
     7
370
    25
100
AcDbSpline
210
0.0
220
0.0
230
1.0
 70
     8
 71
     3
 72
    14
 73
    10
 74
     0
 42
0.00000001
 43
0.00000001
 40
0.0
 40
0.0
 40
0.0
 40
0.0
 40
0.25
 40
0.25
 40
0.5
 40
0.5
 40
0.75
 40
0.75
 40
1.0
 40
1.0
 40
1.0
 40
1.0
 10
148.7526211899487
 20
140.6187150270151
 30
0.0
 10
147.7536170828753
 20
140.6187150883368
 30
0.0
 10
146.7546775642442
 20
140.6187151496586
 30
0.0
 10
144.8186595755965
 20
140.618715272302
 30
0.0
 10
143.8817062746593
 20
140.6187153336238
 30
0.0
 10
142.1278123437813
 20
140.6187154562672
 30
0.0
 10
141.3109851080808
 20
140.618715517589
 30
0.0
 10
139.8480479010679
 20
140.6187156402324
 30
0.0
 10
139.2020325128144
 20
140.6187157015542
 30
0.0
 10
138.6614313776642
 20
140.6187157628759
 30
0.0
  0
SPLINE
  5
FC
330
1F
100
AcDbEntity
  8
0
  6
Continuous
 62
     7
370
    25
100
AcDbSpline
210
0.0
220
0.0
230
1.0
 70
     8
 71
     3
 72
    14
 73
    10
 74
     0
 42
0.00000001
 43
0.00000001
 40
0.0
 40
0.0
 40
0.0
 40
0.0
 40
0.2499999999999999
 40
0.2499999999999999
 40
0.5
 40
0.5
 40
0.7499999999999999
 40
0.7499999999999999
 40
1.0
 40
1.0
 40
1.0
 40
1.0
 10
148.7526212083066
 20
128.6187150329299
 30
0.0
 10
148.752772899702
 20
128.6187424782492
 30
0.0
 10
148.7528856554069
 20
128.9310907589271
 30
0.0
 10
148.7530219584396
 20
130.1333508795992
 30
0.0
 10
148.7530455680374
 20
131.0227897025442
 30
0.0
 10
148.7530162562358
 20
133.244225867789
 30
0.0
 10
148.752963560514
 20
134.5753492085629
 30
0.0
 10
148.7528141439475
 20
137.4777753262966
 30
0.0
 10
148.7527177616813
 20
139.0479361731414
 30
0.0
 10
148.7526211899487
 20
140.6187150270151
 30
0.0
  0
SPLINE
  5
FD
330
1F
100
AcDbEntity
  8
0
  6
Continuous
 62
     7
370
    25
100
AcDbSpline
210
0.0
220
0.0
230
1.0
 70
     8
 71
     3
 72
    10
 73
     6
 74
     0
 42
0.00000001
 43
0.00000001
 40
0.0
 40
0.0
 40
0.0
 40
0.0
 40
0.5
 40
0.5
 40
1.0
 40
1.0
 40
1.0
 40
1.0
 10
340.6614242314265
 20
140.6187157626812
 30
0.0
 10
340.0425871372555
 20
140.6186807002671
 30
0.0
 10
339.5622168679284
 20
140.618645637853
 30
0.0
 10
338.9171981246701
 20
140.6185755130248
 30
0.0
 10
338.7526211925535
 20
140.6185404506107
 30
0.0
 10
338.7526211931661
 20
140.6185053881966
 30
0.0
  0
SPLINE
  5
FE
330
1F
100
AcDbEntity
  8
0
  6
Continuous
 62
     7
370
    25
100
AcDbSpline
210
0.0
220
0.0
230
1.0
 70
     8
 71
     3
 72
    14
 73
    10
 74
     0
 42
0.00000001
 43
0.00000001
 40
0.0
 40
0.0
 40
0.0
 40
0.0
 40
0.25
 40
0.25
 40
0.5
 40
0.5
 40
0.75
 40
0.75
 40
1.0
 40
1.0
 40
1.0
 40
1.0
 10
350.7526211898664
 20
140.618715026784
 30
0.0
 10
349.7536159823097
 20
140.6187150881088
 30
0.0
 10
348.7546753635499
 20
140.6187151494335
 30
0.0
 10
346.8186553780856
 20
140.618715272083
 30
0.0
 10
345.8817011811404
 20
140.6187153334078
 30
0.0
 10
344.1278058448038
 20
140.6187154560574
 30
0.0
 10
343.3109781002426
 20
140.6187155173822
 30
0.0
 10
341.8480404048729
 20
140.6187156400316
 30
0.0
 10
341.2020250375714
 20
140.6187157013564
 30
0.0
 10
340.6614242314265
 20
140.6187157626812
 30
0.0
  0
SPLINE
  5
FF
330
1F
100
AcDbEntity
  8
0
  6
Continuous
 62
     7
370
    25
100
AcDbSpline
210
0.0
220
0.0
230
1.0
 70
     8
 71
     3
 72
    14
 73
    10
 74
     0
 42
0.00000001
 43
0.00000001
 40
0.0
 40
0.0
 40
0.0
 40
0.0
 40
0.25
 40
0.25
 40
0.5
 40
0.5
 40
0.75
 40
0.75
 40
1.0
 40
1.0
 40
1.0
 40
1.0
 10
350.7526212095314
 20
128.6187150329611
 30
0.0
 10
350.7527833138755
 20
128.6187424782587
 30
0.0
 10
350.7529038097632
 20
128.9310907589133
 30
0.0
 10
350.753049469395
 20
130.1333508795384
 30
0.0
 10
350.7530746996837
 20
131.0227897024598
 30
0.0
 10
350.7530433757458
 20
133.2442258676589
 30
0.0
 10
350.7529870626884
 20
134.5753492084108
 30
0.0
 10
350.7528273893195
 20
137.4777753261029
 30
0.0
 10
350.7527243908286
 20
139.0479361729283
 30
0.0
 10
350.7526211898664
 20
140.618715026784
 30
0.0
  0
LINE
  5
100
330
1F
100
AcDbEntity
  8
0
  6
Continuous
 62
     7
370
    25
100
AcDbLine
 10
350.7526211899
 20
140.6187150259
 30
0.0
 11
666.7526211918
 21
140.6187150259
 31
0.0
  0
LINE
  5
101
330
1F
100
AcDbEntity
  8
0
  6
Continuous
 62
     7
370
    25
100
AcDbLine
 10
148.7526211899
 20
140.6187150262
 30
0.0
 11
324.752621194
 21
140.6187150262
 31
0.0
  0
LINE
  5
102
330
1F
100
AcDbEntity
  8
0
  6
Continuous
 62
     7
370
    25
100
AcDbLine
 10
350.7526211918
 20
516.6187150329
 30
0.0
 11
350.7526211918
 21
140.6187150268
 31
0.0
  0
SPLINE
  5
103
330
1F
100
AcDbEntity
  8
0
  6
Continuous
 62
     7
370
    25
100
AcDbSpline
210
0.0
220
0.0
230
1.0
 70
     8
 71
     3
 72
    14
 73
    10
 74
     0
 42
0.00000001
 43
0.00000001
 40
0.0
 40
0.0
 40
0.0
 40
0.0
 40
0.2499999999999999
 40
0.2499999999999999
 40
0.4999999999999999
 40
0.4999999999999999
 40
0.7499999999999998
 40
0.7499999999999998
 40
1.0
 40
1.0
 40
1.0
 40
1.0
 10
350.7526211918393
 20
516.6187150328752
 30
0.0
 10
349.1818248651069
 20
516.618732498973
 30
0.0
 10
347.6116465796528
 20
516.6187499650708
 30
0.0
 10
344.7091934276099
 20
516.6187848972664
 30
0.0
 10
343.3780605523958
 20
516.6188023633641
 30
0.0
 10
341.1566190833356
 20
516.6188372955596
 30
0.0
 10
340.2671845318474
 20
516.6188547616573
 30
0.0
 10
339.0649490719906
 20
516.6188896938529
 30
0.0
 10
338.7526211919375
 20
516.6189071599505
 30
0.0
 10
338.7526211918395
 20
516.6189246260484
 30
0.0
  0
LINE
  5
104
330
1F
100
AcDbEntity
  8
0
  6
Continuous
 62
     7
370
    25
100
AcDbLine
 10
148.7526211918
 20
516.6187150329
 30
0.0
 11
148.7526211918
 21
140.618715027
 31
0.0
  0
SPLINE
  5
105
330
1F
100
AcDbEntity
  8
0
  6
Continuous
 62
     7
370
    25
100
AcDbSpline
210
0.0
220
0.0
230
1.0
 70
     8
 71
     3
 72
    14
 73
    10
 74
     0
 42
0.00000001
 43
0.00000001
 40
0.0
 40
0.0
 40
0.0
 40
0.0
 40
0.2499999999999999
 40
0.2499999999999999
 40
0.4999999999999999
 40
0.4999999999999999
 40
0.7499999999999998
 40
0.7499999999999998
 40
1.0
 40
1.0
 40
1.0
 40
1.0
 10
148.7526211918384
 20
516.6187150328872
 30
0.0
 10
147.181824865106
 20
516.6187324989849
 30
0.0
 10
145.6116465796519
 20
516.6187499650824
 30
0.0
 10
142.7091934276093
 20
516.6187848972778
 30
0.0
 10
141.3780605523952
 20
516.6188023633753
 30
0.0
 10
139.1566190833352
 20
516.6188372955704
 30
0.0
 10
138.2671845318471
 20
516.618854761668
 30
0.0
 10
137.0649490719906
 20
516.6188896938634
 30
0.0
 10
136.7526211919377
 20
516.6189071599608
 30
0.0
 10
136.7526211918399
 20
516.6189246260586
 30
0.0
  0
ARC
  5
106
330
1F
100
AcDbEntity
  8
0
  6
Continuous
 62
     7
370
    25
100
AcDbCircle
 10
508.7526884339
 20
408.6171888002
 30
0.0
 40
55.32500000000027
100
AcDbArc
 50
88.0418745297
 51
268.0418745297
  0
ARC
  5
107
330
1F
100
AcDbEntity
  8
0
  6
Continuous
 62
     7
370
    25
100
AcDbCircle
 10
508.7526884339
 20
408.6171888002
 30
0.0
 40
55.32500000000027
100
AcDbArc
 50
268.0418745297
 51
88.0418745297
  0
ARC
  5
108
330
1F
100
AcDbEntity
  8
0
  6
Continuous
 62
     7
370
    25
100
AcDbCircle
 10
236.7526212056
 20
408.615734481
 30
0.0
 40
55.32500000000013
100
AcDbArc
 50
88.0418745297
 51
268.0418745297
  0
ARC
  5
109
330
1F
100
AcDbEntity
  8
0
  6
Continuous
 62
     7
370
    25
100
AcDbCircle
 10
236.7526212056
 20
408.615734481
 30
0.0
 40
55.32500000000013
100
AcDbArc
 50
268.0418745297
 51
88.0418745297
  0
ARC
  5
10A
330
1F
100
AcDbEntity
  8
0
  6
Continuous
 62
     7
370
    25
100
AcDbCircle
 10
236.7526212056
 20
408.615734481
 30
0.0
 40
43.23139268164138
100
AcDbArc
 50
268.0418745297
 51
30.0
  0
ARC
  5
10B
330
1F
100
AcDbEntity
  8
0
  6
Continuous
 62
     7
370
    25
100
AcDbCircle
 10
236.7526212056
 20
408.615734481
 30
0.0
 40
43.23139268164114
100
AcDbArc
 50
30.0
 51
88.0418745297
  0
ARC
  5
10C
330
1F
100
AcDbEntity
  8
0
  6
Continuous
 62
     7
370
    25
100
AcDbCircle
 10
236.7526212056
 20
408.615734481
 30
0.0
 40
43.23139268164138
100
AcDbArc
 50
210.0
 51
268.0418745297
  0
ARC
  5
10D
330
1F
100
AcDbEntity
  8
0
  6
Continuous
 62
     7
370
    25
100
AcDbCircle
 10
236.7526212056
 20
408.615734481
 30
0.0
 40
43.23139268164114
100
AcDbArc
 50
88.0418745297
 51
210.0
  0
ARC
  5
10E
330
1F
100
AcDbEntity
  8
0
  6
Continuous
 62
     7
370
    25
100
AcDbCircle
 10
508.7526884339
 20
408.6171888002
 30
0.0
 40
43.2313926816414
100
AcDbArc
 50
268.0418745297
 51
30.0
  0
ARC
  5
10F
330
1F
100
AcDbEntity
  8
0
  6
Continuous
 62
     7
370
    25
100
AcDbCircle
 10
508.7526884339
 20
408.6171888002
 30
0.0
 40
43.23139268164129
100
AcDbArc
 50
30.0
 51
88.0418745297
  0
ARC
  5
110
330
1F
100
AcDbEntity
  8
0
  6
Continuous
 62
     7
370
    25
100
AcDbCircle
 10
508.7526884339
 20
408.6171888002
 30
0.0
 40
43.2313926816414
100
AcDbArc
 50
210.0
 51
268.0418745297
  0
ARC
  5
111
330
1F
100
AcDbEntity
  8
0
  6
Continuous
 62
     7
370
    25
100
AcDbCircle
 10
508.7526884339
 20
408.6171888002
 30
0.0
 40
43.23139268164121
100
AcDbArc
 50
88.0418745297
 51
210.0
  0
ARC
  5
112
330
1F
100
AcDbEntity
  8
0
  6
Continuous
 62
     7
370
    25
100
AcDbCircle
 10
236.7526212056
 20
408.615734481
 30
0.0
 40
41.97500000000013
100
AcDbArc
 50
30.0
 51
88.0418745297
  0
ARC
  5
113
330
1F
100
AcDbEntity
  8
0
  6
Continuous
 62
     7
370
    25
100
AcDbCircle
 10
236.7526212056
 20
408.615734481
 30
0.0
 40
41.97500000000013
100
AcDbArc
 50
88.0418745297
 51
210.0
  0
ARC
  5
114
330
1F
100
AcDbEntity
  8
0
  6
Continuous
 62
     7
370
    25
100
AcDbCircle
 10
236.7526212056
 20
408.615734481
 30
0.0
 40
41.97500000000013
100
AcDbArc
 50
210.0
 51
268.0418745297
  0
ARC
  5
115
330
1F
100
AcDbEntity
  8
0
  6
Continuous
 62
     7
370
    25
100
AcDbCircle
 10
236.7526212056
 20
408.615734481
 30
0.0
 40
41.97500000000013
100
AcDbArc
 50
268.0418745297
 51
30.0
  0
ARC
  5
116
330
1F
100
AcDbEntity
  8
0
  6
Continuous
 62
     7
370
    25
100
AcDbCircle
 10
508.7526884339
 20
408.6171888002
 30
0.0
 40
41.97500000000021
100
AcDbArc
 50
210.0
 51
268.0418745297
  0
ARC
  5
117
330
1F
100
AcDbEntity
  8
0
  6
Continuous
 62
     7
370
    25
100
AcDbCircle
 10
508.7526884339
 20
408.6171888002
 30
0.0
 40
41.97500000000021
100
AcDbArc
 50
268.0418745297
 51
30.0
  0
ARC
  5
118
330
1F
100
AcDbEntity
  8
0
  6
Continuous
 62
     7
370
    25
100
AcDbCircle
 10
508.7526884339
 20
408.6171888002
 30
0.0
 40
41.97500000000014
100
AcDbArc
 50
30.0
 51
88.0418745297
  0
ARC
  5
119
330
1F
100
AcDbEntity
  8
0
  6
Continuous
 62
     7
370
    25
100
AcDbCircle
 10
508.7526884339
 20
408.6171888002
 30
0.0
 40
41.97500000000016
100
AcDbArc
 50
88.0418745297
 51
210.0
  0
ARC
  5
11A
330
1F
100
AcDbEntity
  8
0
  6
Continuous
 62
     7
370
    25
100
AcDbCircle
 10
236.7526212056
 20
408.615734481
 30
0.0
 40
41.84698085272078
100
AcDbArc
 50
30.0
 51
210.0
  0
ARC
  5
11B
330
1F
100
AcDbEntity
  8
0
  6
Continuous
 62
     7
370
    25
100
AcDbCircle
 10
236.7526212056
 20
408.615734481
 30
0.0
 40
41.84698085272078
100
AcDbArc
 50
210.0
 51
30.0
  0
ARC
  5
11C
330
1F
100
AcDbEntity
  8
0
  6
Continuous
 62
     7
370
    25
100
AcDbCircle
 10
508.7526884339
 20
408.6171888002
 30
0.0
 40
41.84698085272073
100
AcDbArc
 50
30.0
 51
210.0
  0
ARC
  5
11D
330
1F
100
AcDbEntity
  8
0
  6
Continuous
 62
     7
370
    25
100
AcDbCircle
 10
508.7526884339
 20
408.6171888002
 30
0.0
 40
41.84698085272073
100
AcDbArc
 50
210.0
 51
30.0
  0
ARC
  5
11E
330
1F
100
AcDbEntity
  8
0
  6
Continuous
 62
     8
370
    25
100
AcDbCircle
 10
236.7526212056
 20
408.615734481
 30
0.0
 40
37.14879404600008
100
AcDbArc
 50
160.10454102
 51
181.7152588753
  0
SPLINE
  5
11F
330
1F
100
AcDbEntity
  8
0
  6
Continuous
 62
     8
370
    25
100
AcDbSpline
210
0.0
220
0.0
230
1.0
 70
     8
 71
     3
 72
    12
 73
     8
 74
     0
 42
0.00000001
 43
0.00000001
 40
0.0
 40
0.0
 40
0.0
 40
0.0
 40
0.2636005345609666
 40
0.4531130705265312
 40
0.6509913616037366
 40
0.8488696526565568
 40
1.0
 40
1.0
 40
1.0
 40
1.0
 10
202.6092495551443
 20
420.9724019086011
 30
0.0
 10
202.4854588976395
 20
421.0172024080935
 30
0.0
 10
202.2726703878668
 20
421.0942117052104
 30
0.0
 10
202.0168406060625
 20
421.1867978593848
 30
0.0
 10
201.84341032954
 20
421.2495631974891
 30
0.0
 10
201.7400963318947
 20
421.2869530815195
 30
0.0
 10
201.7344829392768
 20
421.2889845981165
 30
0.0
 10
201.7320521857573
 20
421.2898643007233
 30
0.0
  0
SPLINE
  5
120
330
1F
100
AcDbEntity
  8
0
  6
Continuous
 62
     8
370
    25
100
AcDbSpline
210
0.0
220
0.0
230
1.0
 70
     8
 71
     3
 72
    12
 73
     8
 74
     0
 42
0.00000001
 43
0.00000001
 40
0.0
 40
0.0
 40
0.0
 40
0.0
 40
0.1511297784501303
 40
0.3490077426240106
 40
0.5468857068222565
 40
0.7363979297284297
 40
1.0
 40
1.0
 40
1.0
 40
1.0
 10
271.7731901860674
 20
395.9416046754651
 30
0.0
 10
271.7707594334696
 20
395.9424843777306
 30
0.0
 10
271.7651460362573
 20
395.9445158959726
 30
0.0
 10
271.6618320760938
 20
395.9819057666032
 30
0.0
 10
271.4884018075969
 20
396.0446711011538
 30
0.0
 10
271.2325712429899
 20
396.137257541248
 30
0.0
 10
271.0197816776523
 20
396.2142672118463
 30
0.0
 10
270.8959900189037
 20
396.2590680687301
 30
0.0
  0
ARC
  5
121
330
1F
100
AcDbEntity
  8
0
  6
Continuous
 62
     8
370
    25
100
AcDbCircle
 10
236.7526212056
 20
408.615734481
 30
0.0
 40
37.14879404599997
100
AcDbArc
 50
340.1045409965
 51
1.7152588426
  0
ARC
  5
122
330
1F
100
AcDbEntity
  8
0
  6
Continuous
 62
     8
370
    25
100
AcDbCircle
 10
508.7526884339
 20
408.6171888002
 30
0.0
 40
37.14879404600005
100
AcDbArc
 50
343.2280062751
 51
18.0215707264
  0
ARC
  5
123
330
1F
100
AcDbEntity
  8
0
  6
Continuous
 62
     8
370
    25
100
AcDbCircle
 10
508.7526884339
 20
408.6171888002
 30
0.0
 40
37.14879404600009
100
AcDbArc
 50
163.2280062361
 51
198.0215707601
  0
LINE
  5
124
330
1F
100
AcDbEntity
  8
0
  6
Continuous
 62
     8
370
    25
100
AcDbLine
 10
200.5120727154
 20
387.6922440546
 30
0.0
 11
200.4012048817
 21
387.628234481
 31
0.0
  0
LINE
  5
125
330
1F
100
AcDbEntity
  8
0
  6
Continuous
 62
     8
370
    25
100
AcDbLine
 10
272.9931696957
 20
429.5392249073
 30
0.0
 11
273.1040375294
 21
429.603234481
 31
0.0
  0
LINE
  5
126
330
1F
100
AcDbEntity
  8
0
  6
Continuous
 62
     8
370
    25
100
AcDbLine
 10
472.5121399437
 20
387.6936983738
 30
0.0
 11
472.40127211
 21
387.6296888002
 31
0.0
  0
LINE
  5
127
330
1F
100
AcDbEntity
  8
0
  6
Continuous
 62
     8
370
    25
100
AcDbLine
 10
544.993236924
 20
429.5406792265
 30
0.0
 11
545.1041047577
 21
429.6046888002
 31
0.0
  0
ENDSEC
  0
SECTION
  2
OBJECTS
  0
DICTIONARY
  5
C
330
0
100
AcDbDictionary
281
     1
  3
ACAD_GROUP
350
D
  3
ACAD_LAYOUT
350
1A
  3
ACAD_MLINESTYLE
350
17
  3
ACAD_PLOTSETTINGS
350
19
  3
ACAD_PLOTSTYLENAME
350
E
  3
ACAD_SCALELIST
350
47
  3
DWGPROPS
350
128
  0
DICTIONARY
  5
D
102
{ACAD_REACTORS
330
C
102
}
330
C
100
AcDbDictionary
281
     1
  0
DICTIONARY
  5
1A
102
{ACAD_REACTORS
330
C
102
}
330
C
100
AcDbDictionary
281
     1
  3
Layout1
350
1E
  3
Layout2
350
26
  3
Model
350
22
  0
DICTIONARY
  5
17
102
{ACAD_REACTORS
330
C
102
}
330
C
100
AcDbDictionary
281
     1
  3
Standard
350
18
  0
DICTIONARY
  5
19
102
{ACAD_REACTORS
330
C
102
}
330
C
100
AcDbDictionary
281
     1
  0
ACDBDICTIONARYWDFLT
  5
E
102
{ACAD_REACTORS
330
C
102
}
330
C
100
AcDbDictionary
281
     1
  3
Normal
350
F
100
AcDbDictionaryWithDefault
340
F
  0
DICTIONARY
  5
47
102
{ACAD_REACTORS
330
C
102
}
330
C
100
AcDbDictionary
281
     1
  3
A0
350
48
  3
A1
350
49
  3
A2
350
4A
  3
A3
350
4B
  3
A4
350
4C
  3
A5
350
4D
  3
A6
350
4E
  3
A7
350
4F
  3
A8
350
50
  3
A9
350
51
  3
B0
350
52
  3
B1
350
53
  3
B2
350
54
  3
B3
350
55
  3
B4
350
56
  3
B5
350
57
  3
B6
350
58
  3
B7
350
59
  3
B8
350
5A
  3
B9
350
5B
  3
C0
350
5C
  3
C1
350
5D
  3
C2
350
5E
  3
C3
350
5F
  3
C4
350
60
  3
C5
350
61
  3
C6
350
62
  3
C7
350
63
  3
C8
350
64
  3
C9
350
65
  3
D0
350
66
  3
D1
350
67
  3
D2
350
68
  0
XRECORD
  5
128
102
{ACAD_REACTORS
330
C
102
}
330
C
100
AcDbXrecord
280
     1
  1
DWGPROPS COOKIE
  2

  3

  4

  6

  7

  8
villesi
  9

300
=
301
=
302
=
303
=
304
=
305
=
306
=
307
=
308
=
309
=
 40
0.0
 41
2459704.484192442
 42
2459704.484192627
  1

 90
        0
  0
LAYOUT
  5
1E
102
{ACAD_REACTORS
330
1A
102
}
330
1A
100
AcDbPlotSettings
  1

  2
none_device
  4

  6

 40
0.0
 41
0.0
 42
0.0
 43
0.0
 44
0.0
 45
0.0
 46
0.0
 47
0.0
 48
0.0
 49
0.0
140
0.0
141
0.0
142
1.0
143
1.0
 70
   688
 72
     1
 73
     0
 74
     5
  7

 75
    16
147
1.0
148
0.0
149
0.0
100
AcDbLayout
  1
Layout1
 70
     1
 71
     1
 10
0.0
 20
0.0
 11
420.0
 21
297.0
 12
0.0
 22
0.0
 32
0.0
 14
1.0000000000E+20
 24
1.0000000000E+20
 34
1.0000000000E+20
 15
-1.0000000000E+20
 25
-1.0000000000E+20
 35
-1.0000000000E+20
146
0.0
 13
0.0
 23
0.0
 33
0.0
 16
1.0
 26
0.0
 36
0.0
 17
0.0
 27
1.0
 37
0.0
 76
     0
330
1B
  0
LAYOUT
  5
26
102
{ACAD_REACTORS
330
1A
102
}
330
1A
100
AcDbPlotSettings
  1

  2
none_device
  4

  6

 40
0.0
 41
0.0
 42
0.0
 43
0.0
 44
0.0
 45
0.0
 46
0.0
 47
0.0
 48
0.0
 49
0.0
140
0.0
141
0.0
142
1.0
143
1.0
 70
   688
 72
     1
 73
     0
 74
     5
  7

 75
    16
147
1.0
148
0.0
149
0.0
100
AcDbLayout
  1
Layout2
 70
     1
 71
     2
 10
0.0
 20
0.0
 11
0.0
 21
0.0
 12
0.0
 22
0.0
 32
0.0
 14
0.0
 24
0.0
 34
0.0
 15
0.0
 25
0.0
 35
0.0
146
0.0
 13
0.0
 23
0.0
 33
0.0
 16
1.0
 26
0.0
 36
0.0
 17
0.0
 27
1.0
 37
0.0
 76
     0
330
23
  0
LAYOUT
  5
22
102
{ACAD_REACTORS
330
1A
102
}
330
1A
100
AcDbPlotSettings
  1

  2
none_device
  4
Letter_(8.50_x_11.00_Inches)
  6

 40
6.35
 41
6.35
 42
6.35000508
 43
6.35000508
 44
215.9
 45
279.4
 46
0.0
 47
0.0
 48
0.0
 49
0.0
140
0.0
141
0.0
142
1.0
143
1.0
 70
  1712
 72
     1
 73
     0
 74
     0
  7

 75
     0
147
1.0
148
0.0
149
0.0
100
AcDbLayout
  1
Model
 70
     1
 71
     0
 10
0.0
 20
0.0
 11
800.0
 21
600.0
 12
0.0
 22
0.0
 32
0.0
 14
0.0
 24
0.0
 34
0.0
 15
800.0
 25
600.0
 35
0.0
146
0.0
 13
0.0
 23
0.0
 33
0.0
 16
1.0
 26
0.0
 36
0.0
 17
0.0
 27
1.0
 37
0.0
 76
     0
330
1F
331
29
  0
MLINESTYLE
  5
18
102
{ACAD_REACTORS
330
17
102
}
330
17
100
AcDbMlineStyle
  2
Standard
 70
     0
  3

 62
   256
 51
90.0
 52
90.0
 71
     2
 49
0.5
 62
   256
  6
BYLAYER
 49
-0.5
 62
   256
  6
BYLAYER
  0
ACDBPLACEHOLDER
  5
F
102
{ACAD_REACTORS
330
E
102
}
330
E
  0
SCALE
  5
48
102
{ACAD_REACTORS
330
47
102
}
330
47
100
AcDbScale
 70
     0
300
1:1
140
1.0
141
1.0
290
     1
  0
SCALE
  5
49
102
{ACAD_REACTORS
330
47
102
}
330
47
100
AcDbScale
 70
     0
300
1:2
140
1.0
141
2.0
290
     0
  0
SCALE
  5
4A
102
{ACAD_REACTORS
330
47
102
}
330
47
100
AcDbScale
 70
     0
300
1:4
140
1.0
141
4.0
290
     0
  0
SCALE
  5
4B
102
{ACAD_REACTORS
330
47
102
}
330
47
100
AcDbScale
 70
     0
300
1:5
140
1.0
141
5.0
290
     0
  0
SCALE
  5
4C
102
{ACAD_REACTORS
330
47
102
}
330
47
100
AcDbScale
 70
     0
300
1:8
140
1.0
141
8.0
290
     0
  0
SCALE
  5
4D
102
{ACAD_REACTORS
330
47
102
}
330
47
100
AcDbScale
 70
     0
300
1:10
140
1.0
141
10.0
290
     0
  0
SCALE
  5
4E
102
{ACAD_REACTORS
330
47
102
}
330
47
100
AcDbScale
 70
     0
300
1:16
140
1.0
141
16.0
290
     0
  0
SCALE
  5
4F
102
{ACAD_REACTORS
330
47
102
}
330
47
100
AcDbScale
 70
     0
300
1:20
140
1.0
141
20.0
290
     0
  0
SCALE
  5
50
102
{ACAD_REACTORS
330
47
102
}
330
47
100
AcDbScale
 70
     0
300
1:30
140
1.0
141
30.0
290
     0
  0
SCALE
  5
51
102
{ACAD_REACTORS
330
47
102
}
330
47
100
AcDbScale
 70
     0
300
1:40
140
1.0
141
40.0
290
     0
  0
SCALE
  5
52
102
{ACAD_REACTORS
330
47
102
}
330
47
100
AcDbScale
 70
     0
300
1:50
140
1.0
141
50.0
290
     0
  0
SCALE
  5
53
102
{ACAD_REACTORS
330
47
102
}
330
47
100
AcDbScale
 70
     0
300
1:100
140
1.0
141
100.0
290
     0
  0
SCALE
  5
54
102
{ACAD_REACTORS
330
47
102
}
330
47
100
AcDbScale
 70
     0
300
2:1
140
2.0
141
1.0
290
     0
  0
SCALE
  5
55
102
{ACAD_REACTORS
330
47
102
}
330
47
100
AcDbScale
 70
     0
300
4:1
140
4.0
141
1.0
290
     0
  0
SCALE
  5
56
102
{ACAD_REACTORS
330
47
102
}
330
47
100
AcDbScale
 70
     0
300
8:1
140
8.0
141
1.0
290
     0
  0
SCALE
  5
57
102
{ACAD_REACTORS
330
47
102
}
330
47
100
AcDbScale
 70
     0
300
10:1
140
10.0
141
1.0
290
     0
  0
SCALE
  5
58
102
{ACAD_REACTORS
330
47
102
}
330
47
100
AcDbScale
 70
     0
300
100:1
140
100.0
141
1.0
290
     0
  0
SCALE
  5
59
102
{ACAD_REACTORS
330
47
102
}
330
47
100
AcDbScale
 70
     0
300
1/128" = 1'-0"
140
0.0078125
141
12.0
290
     0
  0
SCALE
  5
5A
102
{ACAD_REACTORS
330
47
102
}
330
47
100
AcDbScale
 70
     0
300
1/64" = 1'-0"
140
0.015625
141
12.0
290
     0
  0
SCALE
  5
5B
102
{ACAD_REACTORS
330
47
102
}
330
47
100
AcDbScale
 70
     0
300
1/32" = 1'-0"
140
0.03125
141
12.0
290
     0
  0
SCALE
  5
5C
102
{ACAD_REACTORS
330
47
102
}
330
47
100
AcDbScale
 70
     0
300
1/16" = 1'-0"
140
0.0625
141
12.0
290
     0
  0
SCALE
  5
5D
102
{ACAD_REACTORS
330
47
102
}
330
47
100
AcDbScale
 70
     0
300
3/32" = 1'-0"
140
0.09375
141
12.0
290
     0
  0
SCALE
  5
5E
102
{ACAD_REACTORS
330
47
102
}
330
47
100
AcDbScale
 70
     0
300
1/8" = 1'-0"
140
0.125
141
12.0
290
     0
  0
SCALE
  5
5F
102
{ACAD_REACTORS
330
47
102
}
330
47
100
AcDbScale
 70
     0
300
3/16" = 1'-0"
140
0.1875
141
12.0
290
     0
  0
SCALE
  5
60
102
{ACAD_REACTORS
330
47
102
}
330
47
100
AcDbScale
 70
     0
300
1/4" = 1'-0"
140
0.25
141
12.0
290
     0
  0
SCALE
  5
61
102
{ACAD_REACTORS
330
47
102
}
330
47
100
AcDbScale
 70
     0
300
3/8" = 1'-0"
140
0.375
141
12.0
290
     0
  0
SCALE
  5
62
102
{ACAD_REACTORS
330
47
102
}
330
47
100
AcDbScale
 70
     0
300
1/2" = 1'-0"
140
0.5
141
12.0
290
     0
  0
SCALE
  5
63
102
{ACAD_REACTORS
330
47
102
}
330
47
100
AcDbScale
 70
     0
300
3/4" = 1'-0"
140
0.75
141
12.0
290
     0
  0
SCALE
  5
64
102
{ACAD_REACTORS
330
47
102
}
330
47
100
AcDbScale
 70
     0
300
1" = 1'-0"
140
1.0
141
12.0
290
     0
  0
SCALE
  5
65
102
{ACAD_REACTORS
330
47
102
}
330
47
100
AcDbScale
 70
     0
300
1-1/2" = 1'-0"
140
1.5
141
12.0
290
     0
  0
SCALE
  5
66
102
{ACAD_REACTORS
330
47
102
}
330
47
100
AcDbScale
 70
     0
300
3" = 1'-0"
140
3.0
141
12.0
290
     0
  0
SCALE
  5
67
102
{ACAD_REACTORS
330
47
102
}
330
47
100
AcDbScale
 70
     0
300
6" = 1'-0"
140
6.0
141
12.0
290
     0
  0
SCALE
  5
68
102
{ACAD_REACTORS
330
47
102
}
330
47
100
AcDbScale
 70
     0
300
1'-0" = 1'-0"
140
12.0
141
12.0
290
     0
  0
ENDSEC
  0
EOF
