  0
SECTION
  2
HEADER
  9
$ACADVER
  1
AC1015
  9
$ACADMAINTVER
 70
     6
  9
$DWGCODEPAGE
  3
ANSI_1252
  9
$INSBASE
 10
0.0
 20
0.0
 30
0.0
  9
$EXTMIN
 10
0.0
 20
0.0
 30
0.0
  9
$EXTMAX
 10
800.0
 20
600.0
 30
0.0
  9
$LIMMIN
 10
0.0
 20
0.0
  9
$LIMMAX
 10
800.0
 20
600.0
  9
$ORTHOMODE
 70
     0
  9
$REGENMODE
 70
     1
  9
$FILLMODE
 70
     1
  9
$QTEXTMODE
 70
     0
  9
$MIRRTEXT
 70
     1
  9
$LTSCALE
 40
1.0
  9
$ATTMODE
 70
     1
  9
$TEXTSIZE
 40
3.5
  9
$TRACEWID
 40
1.0
  9
$TEXTSTYLE
  7
Standard
  9
$CLAYER
  8
0
  9
$CELTYPE
  6
ByLayer
  9
$CECOLOR
 62
   256
  9
$CELTSCALE
 40
1.0
  9
$DISPSILH
 70
     0
  9
$DIMSCALE
 40
1.0
  9
$DIMASZ
 40
3.302
  9
$DIMEXO
 40
1.0
  9
$DIMDLI
 40
3.75
  9
$DIMRND
 40
0.0
  9
$DIMDLE
 40
0.0
  9
$DIMEXE
 40
1.0
  9
$DIMTP
 40
0.0
  9
$DIMTM
 40
0.0
  9
$DIMTXT
 40
3.5
  9
$DIMCEN
 40
2.5
  9
$DIMTSZ
 40
0.0
  9
$DIMTOL
 70
     0
  9
$DIMLIM
 70
     0
  9
$DIMTIH
 70
     1
  9
$DIMTOH
 70
     1
  9
$DIMSE1
 70
     0
  9
$DIMSE2
 70
     0
  9
$DIMTAD
 70
     1
  9
$DIMZIN
 70
     1
  9
$DIMBLK
  1

  9
$DIMASO
 70
     1
  9
$DIMSHO
 70
     1
  9
$DIMPOST
  1

  9
$DIMAPOST
  1

  9
$DIMALT
 70
     0
  9
$DIMALTD
 70
     3
  9
$DIMALTF
 40
0.0393700787
  9
$DIMLFAC
 40
1.0
  9
$DIMTOFL
 70
     1
  9
$DIMTVP
 40
0.0
  9
$DIMTIX
 70
     0
  9
$DIMSOXD
 70
     0
  9
$DIMSAH
 70
     0
  9
$DIMBLK1
  1

  9
$DIMBLK2
  1

  9
$DIMSTYLE
  2
ISO-25
  9
$DIMCLRD
 70
     0
  9
$DIMCLRE
 70
     0
  9
$DIMCLRT
 70
     0
  9
$DIMTFAC
 40
1.0
  9
$DIMGAP
 40
1.524
  9
$DIMJUST
 70
     0
  9
$DIMSD1
 70
     0
  9
$DIMSD2
 70
     0
  9
$DIMTOLJ
 70
     0
  9
$DIMTZIN
 70
     1
  9
$DIMALTZ
 70
     0
  9
$DIMALTTZ
 70
     0
  9
$DIMUPT
 70
     0
  9
$DIMDEC
 70
     0
  9
$DIMTDEC
 70
     0
  9
$DIMALTU
 70
     2
  9
$DIMALTTD
 70
     3
  9
$DIMTXSTY
  7
Standard
  9
$DIMAUNIT
 70
     0
  9
$DIMADEC
 70
     2
  9
$DIMALTRND
 40
0.0
  9
$DIMAZIN
 70
     0
  9
$DIMDSEP
 70
    44
  9
$DIMATFIT
 70
     3
  9
$DIMFRAC
 70
     0
  9
$DIMLDRBLK
  1

  9
$DIMLUNIT
 70
     2
  9
$DIMLWD
 70
    -2
  9
$DIMLWE
 70
    -2
  9
$DIMTMOVE
 70
     0
  9
$LUNITS
 70
     2
  9
$LUPREC
 70
     2
  9
$SKETCHINC
 40
1.0
  9
$FILLETRAD
 40
10.0
  9
$AUNITS
 70
     0
  9
$AUPREC
 70
     2
  9
$MENU
  1
.
  9
$ELEVATION
 40
0.0
  9
$PELEVATION
 40
0.0
  9
$THICKNESS
 40
0.0
  9
$LIMCHECK
 70
     0
  9
$CHAMFERA
 40
0.0
  9
$CHAMFERB
 40
0.0
  9
$CHAMFERC
 40
0.0
  9
$CHAMFERD
 40
0.0
  9
$SKPOLY
 70
     0
  9
$TDCREATE
 40
2459704.605253322
  9
$TDUCREATE
 40
2459704.480253322
  9
$TDUPDATE
 40
2459704.605253681
  9
$TDUUPDATE
 40
2459704.480253681
  9
$TDINDWG
 40
0.0000000116
  9
$TDUSRTIMER
 40
0.0000000116
  9
$USRTIMER
 70
     1
  9
$ANGBASE
 50
0.0
  9
$ANGDIR
 70
     0
  9
$PDMODE
 70
     0
  9
$PDSIZE
 40
-1.0
  9
$PLINEWID
 40
0.0
  9
$SPLFRAME
 70
     0
  9
$SPLINETYPE
 70
     6
  9
$SPLINESEGS
 70
     8
  9
$HANDSEED
  5
127
  9
$SURFTAB1
 70
     6
  9
$SURFTAB2
 70
     6
  9
$SURFTYPE
 70
     6
  9
$SURFU
 70
     6
  9
$SURFV
 70
     6
  9
$UCSBASE
  2

  9
$UCSNAME
  2

  9
$UCSORG
 10
0.0
 20
0.0
 30
0.0
  9
$UCSXDIR
 10
1.0
 20
0.0
 30
0.0
  9
$UCSYDIR
 10
0.0
 20
1.0
 30
0.0
  9
$UCSORTHOREF
  2

  9
$UCSORTHOVIEW
 70
     0
  9
$UCSORGTOP
 10
0.0
 20
0.0
 30
0.0
  9
$UCSORGBOTTOM
 10
0.0
 20
0.0
 30
0.0
  9
$UCSORGLEFT
 10
0.0
 20
0.0
 30
0.0
  9
$UCSORGRIGHT
 10
0.0
 20
0.0
 30
0.0
  9
$UCSORGFRONT
 10
0.0
 20
0.0
 30
0.0
  9
$UCSORGBACK
 10
0.0
 20
0.0
 30
0.0
  9
$PUCSBASE
  2

  9
$PUCSNAME
  2

  9
$PUCSORG
 10
0.0
 20
0.0
 30
0.0
  9
$PUCSXDIR
 10
1.0
 20
0.0
 30
0.0
  9
$PUCSYDIR
 10
0.0
 20
1.0
 30
0.0
  9
$PUCSORTHOREF
  2

  9
$PUCSORTHOVIEW
 70
     0
  9
$PUCSORGTOP
 10
0.0
 20
0.0
 30
0.0
  9
$PUCSORGBOTTOM
 10
0.0
 20
0.0
 30
0.0
  9
$PUCSORGLEFT
 10
0.0
 20
0.0
 30
0.0
  9
$PUCSORGRIGHT
 10
0.0
 20
0.0
 30
0.0
  9
$PUCSORGFRONT
 10
0.0
 20
0.0
 30
0.0
  9
$PUCSORGBACK
 10
0.0
 20
0.0
 30
0.0
  9
$USERI1
 70
     0
  9
$USERI2
 70
     0
  9
$USERI3
 70
     0
  9
$USERI4
 70
     0
  9
$USERI5
 70
     0
  9
$USERR1
 40
0.0
  9
$USERR2
 40
0.0
  9
$USERR3
 40
0.0
  9
$USERR4
 40
0.0
  9
$USERR5
 40
0.0
  9
$WORLDVIEW
 70
     1
  9
$SHADEDGE
 70
     3
  9
$SHADEDIF
 70
    70
  9
$TILEMODE
 70
     1
  9
$MAXACTVP
 70
    64
  9
$PINSBASE
 10
0.0
 20
0.0
 30
0.0
  9
$PLIMCHECK
 70
     0
  9
$PEXTMIN
 10
1.0000000000E+20
 20
1.0000000000E+20
 30
1.0000000000E+20
  9
$PEXTMAX
 10
-1.0000000000E+20
 20
-1.0000000000E+20
 30
-1.0000000000E+20
  9
$PLIMMIN
 10
0.0
 20
0.0
  9
$PLIMMAX
 10
420.0
 20
297.0
  9
$UNITMODE
 70
     0
  9
$VISRETAIN
 70
     1
  9
$PLINEGEN
 70
     0
  9
$PSLTSCALE
 70
     1
  9
$TREEDEPTH
 70
  3020
  9
$CMLSTYLE
  2
Standard
  9
$CMLJUST
 70
     0
  9
$CMLSCALE
 40
20.0
  9
$PROXYGRAPHICS
 70
     1
  9
$MEASUREMENT
 70
     1
  9
$CELWEIGHT
370
    -1
  9
$ENDCAPS
280
     0
  9
$JOINSTYLE
280
     0
  9
$LWDISPLAY
290
     1
  9
$INSUNITS
 70
     4
  9
$HYPERLINKBASE
  1

  9
$STYLESHEET
  1

  9
$XEDIT
290
     1
  9
$CEPSNTYPE
380
     0
  9
$PSTYLEMODE
290
     1
  9
$FINGERPRINTGUID
  2
{0aba6204-8c2c-4e75-bf04-1ebd79c2478b}
  9
$VERSIONGUID
  2
{FAEB1C32-E019-11D5-929B-00C0DF256EC4}
  9
$EXTNAMES
290
     1
  9
$PSVPSCALE
 40
0.0
  9
$OLESTARTUP
290
     0
  0
ENDSEC
  0
SECTION
  2
CLASSES
  0
CLASS
  1
ACDBDICTIONARYWDFLT
  2
AcDbDictionaryWithDefault
  3
ObjectDBX Classes
 90
        0
280
     0
281
     0
  0
CLASS
  1
VISUALSTYLE
  2
AcDbVisualStyle
  3
ObjectDBX Classes
 90
     4095
280
     0
281
     0
  0
CLASS
  1
MATERIAL
  2
AcDbMaterial
  3
ObjectDBX Classes
 90
     1153
280
     0
281
     0
  0
CLASS
  1
SCALE
  2
AcDbScale
  3
ObjectDBX Classes
 90
     1153
280
     0
281
     0
  0
CLASS
  1
TABLESTYLE
  2
AcDbTableStyle
  3
ObjectDBX Classes
 90
     4095
280
     0
281
     0
  0
CLASS
  1
MLEADERSTYLE
  2
AcDbMLeaderStyle
  3
ACDB_MLEADERSTYLE_CLASS
 90
     4095
280
     0
281
     0
  0
CLASS
  1
SUN
  2
AcDbSun
  3
SCENEOE
 90
     1153
280
     0
281
     0
  0
CLASS
  1
ACDBPLACEHOLDER
  2
AcDbPlaceHolder
  3
ObjectDBX Classes
 90
        0
280
     0
281
     0
  0
CLASS
  1
LAYOUT
  2
AcDbLayout
  3
ObjectDBX Classes
 90
        0
280
     0
281
     0
  0
ENDSEC
  0
SECTION
  2
TABLES
  0
TABLE
  2
VPORT
  5
8
330
0
100
AcDbSymbolTable
 70
     1
  0
VPORT
  5
29
330
8
100
AcDbSymbolTableRecord
100
AcDbViewportTableRecord
  2
*Active
 70
     0
 10
0.0
 20
0.0
 11
1.0
 21
1.0
 12
400.0
 22
300.0
 13
0.0
 23
0.0
 14
10.0
 24
10.0
 15
10.0
 25
10.0
 16
0.0
 26
0.0
 36
1.0
 17
0.0
 27
0.0
 37
0.0
 40
600.0
 41
1.3333333333
 42
50.0
 43
0.0
 44
0.0
 50
0.0
 51
0.0
 71
     0
 72
  2000
 73
     1
 74
     3
 75
     0
 76
     0
 77
     0
 78
     0
281
     0
 65
     1
110
0.0
120
0.0
130
0.0
111
1.0
121
0.0
131
0.0
112
0.0
122
1.0
132
0.0
 79
     0
146
0.0
  0
ENDTAB
  0
TABLE
  2
LTYPE
  5
5
330
0
100
AcDbSymbolTable
 70
     6
  0
LTYPE
  5
14
330
5
100
AcDbSymbolTableRecord
100
AcDbLinetypeTableRecord
  2
ByBlock
 70
     0
  3

 72
    65
 73
     0
 40
0.0
  0
LTYPE
  5
15
330
5
100
AcDbSymbolTableRecord
100
AcDbLinetypeTableRecord
  2
ByLayer
 70
     0
  3

 72
    65
 73
     0
 40
0.0
  0
LTYPE
  5
16
330
5
100
AcDbSymbolTableRecord
100
AcDbLinetypeTableRecord
  2
Continuous
 70
     0
  3
Solid line
 72
    65
 73
     0
 40
0.0
  0
LTYPE
  5
6E
330
5
100
AcDbSymbolTableRecord
100
AcDbLinetypeTableRecord
  2
HIDDEN
 70
     0
  3
Hidden __ __ __ __ __ __ __ __ __ __ __ __ __ __
 72
    65
 73
     2
 40
1.905
 49
1.27
 74
     0
 49
-0.635
 74
     0
  0
LTYPE
  5
6F
330
5
100
AcDbSymbolTableRecord
100
AcDbLinetypeTableRecord
  2
PHANTOM
 70
     0
  3
Phantom ______  __  __  ______  __  __  ______
 72
    65
 73
     6
 40
12.7
 49
6.35
 74
     0
 49
-1.27
 74
     0
 49
1.27
 74
     0
 49
-1.27
 74
     0
 49
1.27
 74
     0
 49
-1.27
 74
     0
  0
LTYPE
  5
70
330
5
100
AcDbSymbolTableRecord
100
AcDbLinetypeTableRecord
  2
CENTER
 70
     0
  3
Center ____ _ ____ _ ____ _ ____ _ ____ _ ____
 72
    65
 73
     4
 40
10.16
 49
6.35
 74
     0
 49
-1.27
 74
     0
 49
1.27
 74
     0
 49
-1.27
 74
     0
  0
LTYPE
  5
71
330
5
100
AcDbSymbolTableRecord
100
AcDbLinetypeTableRecord
  2
CENTERX2
 70
     0
  3
Center (2x) ________  __  ________  __  _____
 72
    65
 73
     4
 40
20.32
 49
12.7
 74
     0
 49
-2.54
 74
     0
 49
2.54
 74
     0
 49
-2.54
 74
     0
  0
LTYPE
  5
72
330
5
100
AcDbSymbolTableRecord
100
AcDbLinetypeTableRecord
  2
DOT2
 70
     0
  3
Dot (.5x) ........................................
 72
    65
 73
     2
 40
0.635
 49
0.0
 74
     0
 49
-0.635
 74
     0
  0
ENDTAB
  0
TABLE
  2
LAYER
  5
2
330
0
100
AcDbSymbolTable
 70
     2
  0
LAYER
  5
10
330
2
100
AcDbSymbolTableRecord
100
AcDbLayerTableRecord
  2
0
 70
     0
 62
     7
  6
Continuous
370
    -3
390
F
  0
LAYER
  5
73
330
2
100
AcDbSymbolTableRecord
100
AcDbLayerTableRecord
  2
TABLE_BL1
 70
     0
 62
   179
  6
Continuous
370
    -3
390
F
  0
ENDTAB
  0
TABLE
  2
STYLE
  5
3
330
0
100
AcDbSymbolTable
 70
     1
  0
STYLE
  5
11
330
3
100
AcDbSymbolTableRecord
100
AcDbTextStyleTableRecord
  2
Standard
 70
     0
 40
0.0
 41
1.0
 50
0.0
 71
     0
 42
3.5
  3
txt
  4

  0
ENDTAB
  0
TABLE
  2
VIEW
  5
6
330
0
100
AcDbSymbolTable
 70
     0
  0
ENDTAB
  0
TABLE
  2
UCS
  5
7
330
0
100
AcDbSymbolTable
 70
     0
  0
ENDTAB
  0
TABLE
  2
APPID
  5
9
330
0
100
AcDbSymbolTable
 70
     1
  0
APPID
  5
12
330
9
100
AcDbSymbolTableRecord
100
AcDbRegAppTableRecord
  2
ACAD
 70
     0
  0
ENDTAB
  0
TABLE
  2
DIMSTYLE
  5
A
330
0
100
AcDbSymbolTable
 70
     1
100
AcDbDimStyleTable
  0
DIMSTYLE
105
27
330
A
100
AcDbSymbolTableRecord
100
AcDbDimStyleTableRecord
  2
ISO-25
 70
     0
 41
2.5
 42
0.625
 43
3.75
 44
1.25
 73
     0
 74
     0
 77
     1
 78
     8
140
2.5
141
2.5
143
0.0393700787
147
0.625
171
     3
172
     1
178
     0
271
     2
272
     2
274
     3
278
    44
283
     0
284
     8
340
11
  0
ENDTAB
  0
TABLE
  2
BLOCK_RECORD
  5
1
330
0
100
AcDbSymbolTable
 70
     1
  0
BLOCK_RECORD
  5
1F
330
1
100
AcDbSymbolTableRecord
100
AcDbBlockTableRecord
  2
*Model_Space
340
22
  0
BLOCK_RECORD
  5
1B
330
1
100
AcDbSymbolTableRecord
100
AcDbBlockTableRecord
  2
*Paper_Space
340
1E
  0
BLOCK_RECORD
  5
23
330
1
100
AcDbSymbolTableRecord
100
AcDbBlockTableRecord
  2
*Paper_Space0
340
26
  0
ENDTAB
  0
ENDSEC
  0
SECTION
  2
BLOCKS
  0
BLOCK
  5
20
330
1F
100
AcDbEntity
  8
0
100
AcDbBlockBegin
  2
*Model_Space
 70
     0
 10
0.0
 20
0.0
 30
0.0
  3
*Model_Space
  1

  0
ENDBLK
  5
21
330
1F
100
AcDbEntity
  8
0
100
AcDbBlockEnd
  0
BLOCK
  5
1C
330
1B
100
AcDbEntity
 67
     1
  8
0
100
AcDbBlockBegin
  2
*Paper_Space
 70
     0
 10
0.0
 20
0.0
 30
0.0
  3
*Paper_Space
  1

  0
ENDBLK
  5
1D
330
1B
100
AcDbEntity
 67
     1
  8
0
100
AcDbBlockEnd
  0
BLOCK
  5
24
330
23
100
AcDbEntity
  8
0
100
AcDbBlockBegin
  2
*Paper_Space0
 70
     0
 10
0.0
 20
0.0
 30
0.0
  3
*Paper_Space0
  1

  0
ENDBLK
  5
25
330
23
100
AcDbEntity
  8
0
100
AcDbBlockEnd
  0
ENDSEC
  0
SECTION
  2
ENTITIES
  0
SPLINE
  5
74
330
1F
100
AcDbEntity
  8
0
  6
Continuous
 62
     7
370
    25
100
AcDbSpline
210
0.0
220
0.0
230
1.0
 70
     8
 71
     3
 72
    29
 73
    25
 74
     0
 42
0.00000001
 43
0.00000001
 40
0.0
 40
0.0
 40
0.0
 40
0.0
 40
0.0349321406882634
 40
0.0633980643159913
 40
0.0838985515737895
 40
0.1410481598295767
 40
0.1993926718331193
 40
0.2579538570990186
 40
0.3167358876867428
 40
0.3756685440136573
 40
0.4347110736298802
 40
0.4938368192040538
 40
0.5530116495173842
 40
0.6120983013386024
 40
0.6710428299972759
 40
0.7298261731686603
 40
0.7884258360426925
 40
0.8467958145206173
 40
0.8655669647427028
 40
0.8834823951604176
 40
0.9012873219477365
 40
0.9267778521638326
 40
0.9604934909203238
 40
1.0
 40
1.0
 40
1.0
 40
1.0
 10
532.2239334803027
 20
411.5528626204454
 30
0.0
 10
531.8884767050098
 20
410.2323871815851
 30
0.0
 10
531.2796588714551
 20
407.8358668094832
 30
0.0
 10
530.8876710055767
 20
404.5829654270584
 30
0.0
 10
530.681512574626
 20
400.4527399157686
 30
0.0
 10
531.0732170104384
 20
395.1357691465927
 30
0.0
 10
532.7903664436916
 20
388.537235768166
 30
0.0
 10
535.7122965740158
 20
382.3036795047474
 30
0.0
 10
539.7407727330822
 20
376.6928677460286
 30
0.0
 10
544.7462391012367
 20
371.9053107768759
 30
0.0
 10
550.559709666685
 20
368.1148898996452
 30
0.0
 10
556.9818689397225
 20
365.4591262185656
 30
0.0
 10
563.7859742730902
 20
364.0356079215793
 30
0.0
 10
570.7287354371149
 20
363.8938157144281
 30
0.0
 10
577.5632018733501
 20
365.031994003473
 30
0.0
 10
584.0538710094401
 20
367.4014877318991
 30
0.0
 10
589.9793894581045
 20
370.9082320773298
 30
0.0
 10
593.9864434473023
 20
374.4108842484656
 30
0.0
 10
596.461019666926
 20
377.1683433511323
 30
0.0
 10
597.7864809723549
 20
378.8284144722012
 30
0.0
 10
599.1693397442012
 20
380.7732223931525
 30
0.0
 10
600.734570322196
 20
383.3355081404525
 30
0.0
 10
602.4594445589128
 20
386.786370047023
 30
0.0
 10
603.345417167223
 20
389.5021499723726
 30
0.0
 10
603.8234376286397
 20
390.9674304571693
 30
0.0
  0
SPLINE
  5
75
330
1F
100
AcDbEntity
  8
0
  6
Continuous
 62
     7
370
    25
100
AcDbSpline
210
0.0
220
0.0
230
1.0
 70
     8
 71
     3
 72
    29
 73
    25
 74
     0
 42
0.00000001
 43
0.00000001
 40
0.0
 40
0.0
 40
0.0
 40
0.0
 40
0.0349321406882629
 40
0.0633980643159907
 40
0.0838985515737888
 40
0.1410481598295763
 40
0.199392671833119
 40
0.2579538570990181
 40
0.3167358876867424
 40
0.3756685440136567
 40
0.4347110736298798
 40
0.4938368192040534
 40
0.5530116495173839
 40
0.612098301338602
 40
0.6710428299972755
 40
0.7298261731686598
 40
0.7884258360426923
 40
0.8467958145206166
 40
0.8655669647427022
 40
0.8834823951604172
 40
0.9012873219477361
 40
0.9267778521638323
 40
0.9604934909203234
 40
1.0
 40
1.0
 40
1.0
 40
1.0
 10
603.8234376286396
 20
390.9674304571693
 30
0.0
 10
604.1588944039325
 20
392.2879058960296
 30
0.0
 10
604.7677122374872
 20
394.6844262681315
 30
0.0
 10
605.1597001033655
 20
397.9373276505562
 30
0.0
 10
605.3658585343162
 20
402.067553161846
 30
0.0
 10
604.9741540985037
 20
407.3845239310218
 30
0.0
 10
603.2570046652507
 20
413.9830573094486
 30
0.0
 10
600.3350745349265
 20
420.2166135728672
 30
0.0
 10
596.30659837586
 20
425.827425331586
 30
0.0
 10
591.3011320077055
 20
430.6149823007388
 30
0.0
 10
585.4876614422575
 20
434.4054031779695
 30
0.0
 10
579.0655021692197
 20
437.0611668590491
 30
0.0
 10
572.2613968358521
 20
438.4846851560354
 30
0.0
 10
565.3186356718272
 20
438.6264773631866
 30
0.0
 10
558.4841692355922
 20
437.4882990741417
 30
0.0
 10
551.9935000995022
 20
435.1188053457155
 30
0.0
 10
546.067981650838
 20
431.6120610002848
 30
0.0
 10
542.0609276616398
 20
428.1094088291493
 30
0.0
 10
539.5863514420163
 20
425.3519497264824
 30
0.0
 10
538.2608901365874
 20
423.6918786054135
 30
0.0
 10
536.878031364741
 20
421.7470706844622
 30
0.0
 10
535.3128007867463
 20
419.1847849371621
 30
0.0
 10
533.5879265500295
 20
415.7339230305917
 30
0.0
 10
532.7019539417192
 20
413.018143105242
 30
0.0
 10
532.2239334803027
 20
411.5528626204454
 30
0.0
  0
SPLINE
  5
76
330
1F
100
AcDbEntity
  8
0
  6
Continuous
 62
     7
370
    25
100
AcDbSpline
210
0.0
220
0.0
230
1.0
 70
     8
 71
     3
 72
    29
 73
    25
 74
     0
 42
0.00000001
 43
0.00000001
 40
0.0
 40
0.0
 40
0.0
 40
0.0
 40
0.0349321406882634
 40
0.0633980643159912
 40
0.0838985515737895
 40
0.1410481598295768
 40
0.1993926718331193
 40
0.2579538570990186
 40
0.3167358876867427
 40
0.3756685440136572
 40
0.4347110736298802
 40
0.4938368192040536
 40
0.5530116495173841
 40
0.6120983013386022
 40
0.6710428299972755
 40
0.7298261731686599
 40
0.7884258360426925
 40
0.846795814520617
 40
0.8655669647427023
 40
0.8834823951604174
 40
0.9012873219477362
 40
0.9267778521638322
 40
0.9604934909203237
 40
0.9999999999999999
 40
0.9999999999999999
 40
0.9999999999999999
 40
0.9999999999999999
 10
267.0638828149975
 20
424.6885924581221
 30
0.0
 10
266.2404214609947
 20
423.603190214165
 30
0.0
 10
264.7459279986932
 20
421.6333023139301
 30
0.0
 10
263.1174422275207
 20
418.7902307383512
 30
0.0
 10
261.3182533516197
 20
415.0667668320409
 30
0.0
 10
259.6072651082731
 20
410.017397588617
 30
0.0
 10
258.6176099214684
 20
403.2713003810781
 30
0.0
 10
258.8797271691001
 20
396.3918967787156
 30
0.0
 10
260.40358410137
 20
389.654858200385
 30
0.0
 10
263.1479923091636
 20
383.295328431243
 30
0.0
 10
267.0250736953964
 20
377.5392906997469
 30
0.0
 10
271.9048501878231
 20
372.5910595165901
 30
0.0
 10
277.6165245802317
 20
368.6288594503996
 30
0.0
 10
283.9553150553841
 20
365.7930574610468
 30
0.0
 10
290.6931047631331
 20
364.1782599072251
 30
0.0
 10
297.5940458769222
 20
363.8314197318484
 30
0.0
 10
304.4176277572989
 20
364.7521559109293
 30
0.0
 10
309.472776754064
 20
366.416644578603
 30
0.0
 10
312.8262063484453
 20
367.991959824874
 30
0.0
 10
314.6937490669745
 20
369.0043668545142
 30
0.0
 10
316.7250992776612
 20
370.2566418058767
 30
0.0
 10
319.1650050352359
 20
372.0065317759208
 30
0.0
 10
322.0981667870615
 20
374.5125647302802
 30
0.0
 10
323.9723081430585
 20
376.6684873270703
 30
0.0
 10
324.9834882939462
 20
377.8317006192526
 30
0.0
  0
SPLINE
  5
77
330
1F
100
AcDbEntity
  8
0
  6
Continuous
 62
     7
370
    25
100
AcDbSpline
210
0.0
220
0.0
230
1.0
 70
     8
 71
     3
 72
    29
 73
    25
 74
     0
 42
0.00000001
 43
0.00000001
 40
0.0
 40
0.0
 40
0.0
 40
0.0
 40
0.0349321406882629
 40
0.0633980643159906
 40
0.0838985515737889
 40
0.1410481598295762
 40
0.1993926718331189
 40
0.2579538570990182
 40
0.3167358876867424
 40
0.3756685440136568
 40
0.4347110736298796
 40
0.4938368192040533
 40
0.5530116495173838
 40
0.6120983013386018
 40
0.6710428299972754
 40
0.7298261731686597
 40
0.7884258360426923
 40
0.8467958145206167
 40
0.8655669647427023
 40
0.8834823951604172
 40
0.9012873219477361
 40
0.9267778521638322
 40
0.9604934909203234
 40
1.0
 40
1.0
 40
1.0
 40
1.0
 10
324.9834882939462
 20
377.8317006192526
 30
0.0
 10
325.806949647949
 20
378.9171028632097
 30
0.0
 10
327.3014431102503
 20
380.8869907634446
 30
0.0
 10
328.9299288814229
 20
383.7300623390236
 30
0.0
 10
330.7291177573239
 20
387.4535262453339
 30
0.0
 10
332.4401060006705
 20
392.5028954887578
 30
0.0
 10
333.4297611874752
 20
399.2489926962966
 30
0.0
 10
333.1676439398435
 20
406.1283962986591
 30
0.0
 10
331.6437870075735
 20
412.8654348769897
 30
0.0
 10
328.89937879978
 20
419.2249646461319
 30
0.0
 10
325.0222974135472
 20
424.9810023776279
 30
0.0
 10
320.1425209211205
 20
429.9292335607848
 30
0.0
 10
314.4308465287119
 20
433.8914336269752
 30
0.0
 10
308.0920560535595
 20
436.727235616328
 30
0.0
 10
301.3542663458105
 20
438.3420331701498
 30
0.0
 10
294.4533252320214
 20
438.6888733455264
 30
0.0
 10
287.6297433516447
 20
437.7681371664455
 30
0.0
 10
282.5745943548796
 20
436.1036484987718
 30
0.0
 10
279.2211647604983
 20
434.5283332525008
 30
0.0
 10
277.3536220419691
 20
433.5159262228607
 30
0.0
 10
275.3222718312823
 20
432.2636512714981
 30
0.0
 10
272.8823660737077
 20
430.513761301454
 30
0.0
 10
269.949204321882
 20
428.0077283470946
 30
0.0
 10
268.0750629658851
 20
425.8518057503044
 30
0.0
 10
267.0638828149975
 20
424.6885924581221
 30
0.0
  0
ARC
  5
78
330
1F
100
AcDbEntity
  8
0
  6
Continuous
 62
     7
370
    25
100
AcDbCircle
 10
568.0236855545
 20
401.2601465388
 30
0.0
 40
36.31056399417628
100
AcDbArc
 50
343.9596318953
 51
163.9596319122
  0
ARC
  5
79
330
1F
100
AcDbEntity
  8
0
  6
Continuous
 62
     7
370
    25
100
AcDbCircle
 10
568.0236855545
 20
401.2601465388
 30
0.0
 40
36.31056399417628
100
AcDbArc
 50
163.9596319122
 51
343.9596318953
  0
ARC
  5
7A
330
1F
100
AcDbEntity
  8
0
  6
Continuous
 62
     7
370
    25
100
AcDbCircle
 10
296.0236855545
 20
401.2601465387
 30
0.0
 40
36.31056399417626
100
AcDbArc
 50
321.0271824316
 51
141.0271824485
  0
ARC
  5
7B
330
1F
100
AcDbEntity
  8
0
  6
Continuous
 62
     7
370
    25
100
AcDbCircle
 10
296.0236855545
 20
401.2601465387
 30
0.0
 40
36.31056399417626
100
AcDbArc
 50
141.0271824485
 51
321.0271824316
  0
ARC
  5
7C
330
1F
100
AcDbEntity
  8
0
  6
Continuous
 62
     7
370
    25
100
AcDbCircle
 10
568.0236855545
 20
401.2601465388
 30
0.0
 40
38.29899805700003
100
AcDbArc
 50
196.3719887255
 51
16.3719887255
  0
ARC
  5
7D
330
1F
100
AcDbEntity
  8
0
  6
Continuous
 62
     7
370
    25
100
AcDbCircle
 10
568.0236855545
 20
401.2601465388
 30
0.0
 40
39.50000000000011
100
AcDbArc
 50
196.3719887255
 51
16.371988749
  0
ARC
  5
7E
330
1F
100
AcDbEntity
  8
0
  6
Continuous
 62
     7
370
    25
100
AcDbCircle
 10
568.0236855545
 20
401.2601465388
 30
0.0
 40
38.29899805700003
100
AcDbArc
 50
16.3719887255
 51
196.3719887255
  0
ARC
  5
7F
330
1F
100
AcDbEntity
  8
0
  6
Continuous
 62
     7
370
    25
100
AcDbCircle
 10
568.0236855545
 20
401.2601465388
 30
0.0
 40
39.50000000000012
100
AcDbArc
 50
16.371988749
 51
196.3719887152
  0
ARC
  5
80
330
1F
100
AcDbEntity
  8
0
  6
Continuous
 62
     7
370
    25
100
AcDbCircle
 10
296.0236855545
 20
401.2601465387
 30
0.0
 40
38.29899805700001
100
AcDbArc
 50
196.3719887255
 51
16.3719887255
  0
ARC
  5
81
330
1F
100
AcDbEntity
  8
0
  6
Continuous
 62
     7
370
    25
100
AcDbCircle
 10
296.0236855545
 20
401.2601465387
 30
0.0
 40
39.50000000000013
100
AcDbArc
 50
196.3719887255
 51
16.371988749
  0
ARC
  5
82
330
1F
100
AcDbEntity
  8
0
  6
Continuous
 62
     7
370
    25
100
AcDbCircle
 10
296.0236855545
 20
401.2601465387
 30
0.0
 40
38.29899805700001
100
AcDbArc
 50
16.3719887255
 51
196.3719887255
  0
ARC
  5
83
330
1F
100
AcDbEntity
  8
0
  6
Continuous
 62
     7
370
    25
100
AcDbCircle
 10
296.0236855545
 20
401.2601465387
 30
0.0
 40
39.5000000000001
100
AcDbArc
 50
16.371988749
 51
196.3719887152
  0
SPLINE
  5
84
330
1F
100
AcDbEntity
  8
0
  6
Continuous
 62
     7
370
    25
100
AcDbSpline
210
0.0
220
0.0
230
1.0
 70
     8
 71
     3
 72
    18
 73
    14
 74
     0
 42
0.00000001
 43
0.00000001
 40
0.0
 40
0.0
 40
0.0
 40
0.0
 40
0.125
 40
0.125
 40
0.25
 40
0.25
 40
0.5
 40
0.5
 40
0.75
 40
0.75
 40
0.875
 40
0.875
 40
1.0
 40
1.0
 40
1.0
 40
1.0
 10
138.0234700211968
 20
121.2610745145482
 30
0.0
 10
137.235866039257
 20
121.2611726064072
 30
0.0
 10
136.4516081240943
 20
121.3385320556747
 30
0.0
 10
134.9115004102669
 20
121.6451782900436
 30
0.0
 10
134.1556072650674
 20
121.8744648539237
 30
0.0
 10
131.9777969244027
 20
122.776523720723
 30
0.0
 10
130.6471759284456
 20
123.6659515487581
 30
0.0
 10
128.4260189057904
 20
125.8861457758373
 30
0.0
 10
127.5370987635655
 20
127.2173601110937
 30
0.0
 10
126.6350440577126
 20
129.3945646514873
 30
0.0
 10
126.4057230643885
 20
130.1509673549882
 30
0.0
 10
126.0990615068558
 20
131.6914927964073
 30
0.0
 10
126.0217500525177
 20
132.4752579553756
 30
0.0
 10
126.0216369210532
 20
133.2629114273405
 30
0.0
  0
SPLINE
  5
85
330
1F
100
AcDbEntity
  8
0
  6
Continuous
 62
     7
370
    25
100
AcDbSpline
210
0.0
220
0.0
230
1.0
 70
     8
 71
     3
 72
     8
 73
     4
 74
     0
 42
0.00000001
 43
0.00000001
 40
0.0
 40
0.0
 40
0.0
 40
0.0
 40
1.0
 40
1.0
 40
1.0
 40
1.0
 10
138.0236989665909
 20
119.2632146305196
 30
0.0
 10
138.0235686067278
 20
120.333284654168
 30
0.0
 10
138.0234482904941
 20
121.290935202552
 30
0.0
 10
138.0234700211969
 20
121.2610745145483
 30
0.0
  0
SPLINE
  5
86
330
1F
100
AcDbEntity
  8
0
  6
Continuous
 62
     7
370
    25
100
AcDbSpline
210
0.0
220
0.0
230
1.0
 70
     8
 71
     3
 72
    20
 73
    16
 74
     0
 42
0.00000001
 43
0.00000001
 40
0.0
 40
0.0
 40
0.0
 40
0.0
 40
0.125
 40
0.125
 40
0.25
 40
0.25
 40
0.5
 40
0.5
 40
0.625
 40
0.625
 40
0.75
 40
0.75
 40
0.875
 40
0.875
 40
1.0
 40
1.0
 40
1.0
 40
1.0
 10
124.0237723847392
 20
133.2631272678753
 30
0.0
 10
124.0239553996716
 20
132.3477256345347
 30
0.0
 10
124.1140900840309
 20
131.4291369523814
 30
0.0
 10
124.4717929562515
 20
129.6305533216982
 30
0.0
 10
124.739298556081
 20
128.7503187892845
 30
0.0
 10
125.7915895543707
 20
126.2111438011779
 30
0.0
 10
126.8294193583762
 20
124.6593742349249
 30
0.0
 10
128.7722586604619
 20
122.7162624387198
 30
0.0
 10
129.4832987999751
 20
122.1321080524207
 30
0.0
 10
131.0064734444243
 20
121.1142064985074
 30
0.0
 10
131.8181930087052
 20
120.680242086739
 30
0.0
 10
133.5104959004394
 20
119.9786620034614
 30
0.0
 10
134.3911544236239
 20
119.711242875947
 30
0.0
 10
136.190072951672
 20
119.353571681008
 30
0.0
 10
137.1082599773388
 20
119.2633747385886
 30
0.0
 10
138.0236989659148
 20
119.2632108533796
 30
0.0
  0
SPLINE
  5
87
330
1F
100
AcDbEntity
  8
0
  6
Continuous
 62
     7
370
    25
100
AcDbSpline
210
0.0
220
0.0
230
1.0
 70
     8
 71
     3
 72
    14
 73
    10
 74
     0
 42
0.00000001
 43
0.00000001
 40
0.0
 40
0.0
 40
0.0
 40
0.0
 40
0.25
 40
0.25
 40
0.5
 40
0.5
 40
0.75
 40
0.75
 40
1.0
 40
1.0
 40
1.0
 40
1.0
 10
124.0237338659826
 20
133.2631272601698
 30
0.0
 10
124.2855254081856
 20
133.263109328166
 30
0.0
 10
124.5472127011969
 20
133.263091396162
 30
0.0
 10
125.0309379131422
 20
133.2630555321542
 30
0.0
 10
125.2527855295908
 20
133.2630376001503
 30
0.0
 10
125.6230144474124
 20
133.2630017361424
 30
0.0
 10
125.7712500969124
 20
133.2629838041385
 30
0.0
 10
125.9716220586291
 20
133.2629479401306
 30
0.0
 10
126.0236795424505
 20
133.2629300081267
 30
0.0
 10
126.0236855402264
 20
133.2629120761228
 30
0.0
  0
SPLINE
  5
88
330
1F
100
AcDbEntity
  8
0
  6
Continuous
 62
     7
370
    25
100
AcDbSpline
210
0.0
220
0.0
230
1.0
 70
     8
 71
     3
 72
    18
 73
    14
 74
     0
 42
0.00000001
 43
0.00000001
 40
0.0
 40
0.0
 40
0.0
 40
0.0
 40
0.1249999999999964
 40
0.1249999999999964
 40
0.249999999999993
 40
0.249999999999993
 40
0.4999999999999942
 40
0.4999999999999942
 40
0.7499999999999953
 40
0.7499999999999953
 40
0.8749999999999977
 40
0.8749999999999977
 40
1.0
 40
1.0
 40
1.0
 40
1.0
 10
656.0239010599278
 20
521.2651796541015
 30
0.0
 10
656.8115058183663
 20
521.2650815727644
 30
0.0
 10
657.5957642282408
 20
521.1877223348272
 30
0.0
 10
659.1358720546441
 20
520.8810766584479
 30
0.0
 10
659.8917648739633
 20
520.6517904361206
 30
0.0
 10
662.0695739011297
 20
519.749732429059
 30
0.0
 10
663.4001935962306
 20
518.8603049010379
 30
0.0
 10
665.6213491539271
 20
516.6401106432697
 30
0.0
 10
666.5102692824819
 20
515.3088960154495
 30
0.0
 10
667.412325090447
 20
513.1316908224575
 30
0.0
 10
667.64164661886
 20
512.375287830683
 30
0.0
 10
667.9483091443224
 20
510.8347618392417
 30
0.0
 10
668.0256210264863
 20
510.0509964356083
 30
0.0
 10
668.0257341606242
 20
509.2633427116233
 30
0.0
  0
SPLINE
  5
89
330
1F
100
AcDbEntity
  8
0
  6
Continuous
 62
     7
370
    25
100
AcDbSpline
210
0.0
220
0.0
230
1.0
 70
     8
 71
     3
 72
     8
 73
     4
 74
     0
 42
0.00000001
 43
0.00000001
 40
0.0
 40
0.0
 40
0.0
 40
0.0
 40
1.0
 40
1.0
 40
1.0
 40
1.0
 10
656.0236721036596
 20
523.263039536594
 30
0.0
 10
656.0238024654121
 20
522.1929695110493
 30
0.0
 10
656.0239227814608
 20
521.2353189624307
 30
0.0
 10
656.0239010599278
 20
521.2651796541015
 30
0.0
  0
SPLINE
  5
8A
330
1F
100
AcDbEntity
  8
0
  6
Continuous
 62
     7
370
    25
100
AcDbSpline
210
0.0
220
0.0
230
1.0
 70
     8
 71
     3
 72
    20
 73
    16
 74
     0
 42
0.00000001
 43
0.00000001
 40
0.0
 40
0.0
 40
0.0
 40
0.0
 40
0.1249999999999975
 40
0.1249999999999975
 40
0.2499999999999951
 40
0.2499999999999951
 40
0.4999999999999931
 40
0.4999999999999931
 40
0.6249999999999949
 40
0.6249999999999949
 40
0.7499999999999966
 40
0.7499999999999966
 40
0.8749999999999983
 40
0.8749999999999983
 40
1.0
 40
1.0
 40
1.0
 40
1.0
 10
670.0235987999046
 20
509.2631268991583
 30
0.0
 10
670.0234157794232
 20
510.1785294353718
 30
0.0
 10
669.9332805384664
 20
511.097118748039
 30
0.0
 10
669.5755765359787
 20
512.8957030253545
 30
0.0
 10
669.3080703669765
 20
513.7759376106737
 30
0.0
 10
668.2557784453686
 20
516.3151124804137
 30
0.0
 10
667.2179491657396
 20
517.866881774106
 30
0.0
 10
665.2751111109567
 20
519.8099936272787
 30
0.0
 10
664.5640714258595
 20
520.3941480582099
 30
0.0
 10
663.040897528937
 20
521.412049584295
 30
0.0
 10
662.2291782574339
 20
521.8460139065606
 30
0.0
 10
660.5368757105197
 20
522.5475935644114
 30
0.0
 10
659.6562172439609
 20
522.8150123548394
 30
0.0
 10
657.8572986614163
 20
523.1726829086563
 30
0.0
 10
656.939111521958
 20
523.2628795511396
 30
0.0
 10
656.0236721043544
 20
523.263043418723
 30
0.0
  0
SPLINE
  5
8B
330
1F
100
AcDbEntity
  8
0
  6
Continuous
 62
     7
370
    25
100
AcDbSpline
210
0.0
220
0.0
230
1.0
 70
     8
 71
     3
 72
    14
 73
    10
 74
     0
 42
0.00000001
 43
0.00000001
 40
0.0
 40
0.0
 40
0.0
 40
0.0
 40
0.25
 40
0.25
 40
0.5
 40
0.5
 40
0.75
 40
0.75
 40
1.0
 40
1.0
 40
1.0
 40
1.0
 10
670.0236373188404
 20
509.263126906863
 30
0.0
 10
669.7618457684122
 20
509.2631448365288
 30
0.0
 10
669.5001584645029
 20
509.2631627661945
 30
0.0
 10
669.0164332294808
 20
509.2631986255259
 30
0.0
 10
668.794585600886
 20
509.2632165551917
 30
0.0
 10
668.4243566614418
 20
509.2632524145232
 30
0.0
 10
668.2761210024921
 20
509.2632703441889
 30
0.0
 10
668.0757490273945
 20
509.2633062035205
 30
0.0
 10
668.0236915396573
 20
509.2633241331862
 30
0.0
 10
668.0236855412764
 20
509.263342062852
 30
0.0
  0
SPLINE
  5
8C
330
1F
100
AcDbEntity
  8
0
  6
Continuous
 62
     7
370
    25
100
AcDbSpline
210
0.0
220
0.0
230
1.0
 70
     8
 71
     3
 72
    18
 73
    14
 74
     0
 42
0.00000001
 43
0.00000001
 40
0.0
 40
0.0
 40
0.0
 40
0.0
 40
0.1250000000000004
 40
0.1250000000000004
 40
0.250000000000001
 40
0.250000000000001
 40
0.500000000000002
 40
0.500000000000002
 40
0.7500000000000031
 40
0.7500000000000031
 40
0.8750000000000016
 40
0.8750000000000016
 40
1.0
 40
1.0
 40
1.0
 40
1.0
 10
126.0216329707091
 20
509.2633425757223
 30
0.0
 10
126.0217310554796
 20
510.0509485622853
 30
0.0
 10
126.0990905234496
 20
510.8352072509472
 30
0.0
 10
126.4057366970723
 20
512.3753150120208
 30
0.0
 10
126.6350231786368
 20
513.131207551023
 30
0.0
 10
127.5370814756164
 20
515.3090156523546
 30
0.0
 10
128.4265083946357
 20
516.6396347298379
 30
0.0
 10
130.6467004970615
 20
518.8607902786907
 30
0.0
 10
131.9779136689442
 20
519.7497107947229
 30
0.0
 10
134.1551182381085
 20
520.6517668108049
 30
0.0
 10
134.9115212726935
 20
520.8810883405358
 30
0.0
 10
136.4520482700333
 20
521.187750778844
 30
0.0
 10
137.2358146863053
 20
521.2650625735083
 30
0.0
 10
138.0234699408007
 20
521.2651757033727
 30
0.0
  0
SPLINE
  5
8D
330
1F
100
AcDbEntity
  8
0
  6
Continuous
 62
     7
370
    25
100
AcDbSpline
210
0.0
220
0.0
230
1.0
 70
     8
 71
     3
 72
     8
 73
     4
 74
     0
 42
0.00000001
 43
0.00000001
 40
0.0
 40
0.0
 40
0.0
 40
0.0
 40
1.0
 40
1.0
 40
1.0
 40
1.0
 10
124.0237727136368
 20
509.2631136478128
 30
0.0
 10
125.0938428920512
 20
509.2632440007658
 30
0.0
 10
126.0514936698265
 20
509.263364311966
 30
0.0
 10
126.0216329707091
 20
509.2633425757223
 30
0.0
  0
SPLINE
  5
8E
330
1F
100
AcDbEntity
  8
0
  6
Continuous
 62
     7
370
    25
100
AcDbSpline
210
0.0
220
0.0
230
1.0
 70
     8
 71
     3
 72
    20
 73
    16
 74
     0
 42
0.00000001
 43
0.00000001
 40
0.0
 40
0.0
 40
0.0
 40
0.0
 40
0.1250000000000007
 40
0.1250000000000007
 40
0.2500000000000013
 40
0.2500000000000013
 40
0.5000000000000027
 40
0.5000000000000027
 40
0.625000000000002
 40
0.625000000000002
 40
0.7500000000000013
 40
0.7500000000000013
 40
0.8750000000000007
 40
0.8750000000000007
 40
1.0
 40
1.0
 40
1.0
 40
1.0
 10
138.0236857251052
 20
523.2630402112867
 30
0.0
 10
137.1082820535162
 20
523.2628571934201
 30
0.0
 10
136.1896918248612
 20
523.1727221064755
 30
0.0
 10
134.391106315568
 20
522.8150181871063
 30
0.0
 10
133.5108713986387
 20
522.5475119484227
 30
0.0
 10
130.9716964185674
 20
521.4952194355413
 30
0.0
 10
129.4199284486548
 20
520.4573893359917
 30
0.0
 10
127.4768187035904
 20
518.5145515248215
 30
0.0
 10
126.892664956824
 20
517.8035121527278
 30
0.0
 10
125.8747643293155
 20
516.2803392386177
 30
0.0
 10
125.4408002036353
 20
515.4686206147173
 30
0.0
 10
124.7392204119356
 20
513.7763190911618
 30
0.0
 10
124.4718013052313
 20
512.8956609970363
 30
0.0
 10
124.1141301380125
 20
511.0967421917028
 30
0.0
 10
124.0239332144779
 20
510.1785543885975
 30
0.0
 10
124.023769337736
 20
509.2631136484171
 30
0.0
  0
SPLINE
  5
8F
330
1F
100
AcDbEntity
  8
0
  6
Continuous
 62
     7
370
    25
100
AcDbSpline
210
0.0
220
0.0
230
1.0
 70
     8
 71
     3
 72
    14
 73
    10
 74
     0
 42
0.00000001
 43
0.00000001
 40
0.0
 40
0.0
 40
0.0
 40
0.0
 40
0.25
 40
0.25
 40
0.5
 40
0.5
 40
0.75
 40
0.75
 40
1.0
 40
1.0
 40
1.0
 40
1.0
 10
138.0236857174008
 20
523.2630787299893
 30
0.0
 10
138.0236677900769
 20
523.001287189901
 30
0.0
 10
138.0236498627529
 20
522.7395998997372
 30
0.0
 10
138.0236140081052
 20
522.2558746939008
 30
0.0
 10
138.0235960807813
 20
522.034027080705
 30
0.0
 10
138.0235602261336
 20
521.6637981687676
 30
0.0
 10
138.0235422988096
 20
521.5155625218921
 30
0.0
 10
138.0235064441619
 20
521.3151905640406
 30
0.0
 10
138.023488516838
 20
521.2631330814557
 30
0.0
 10
138.0234705895141
 20
521.2631270840656
 30
0.0
  0
SPLINE
  5
90
330
1F
100
AcDbEntity
  8
0
  6
Continuous
 62
     7
370
    25
100
AcDbSpline
210
0.0
220
0.0
230
1.0
 70
     8
 71
     3
 72
    18
 73
    14
 74
     0
 42
0.00000001
 43
0.00000001
 40
0.0
 40
0.0
 40
0.0
 40
0.0
 40
0.125000000000002
 40
0.125000000000002
 40
0.2500000000000041
 40
0.2500000000000041
 40
0.5
 40
0.5
 40
0.749999999999996
 40
0.749999999999996
 40
0.874999999999998
 40
0.874999999999998
 40
1.0
 40
1.0
 40
1.0
 40
1.0
 10
668.0257381621757
 20
133.2629117469579
 30
0.0
 10
668.0256638880091
 20
132.4754741208202
 30
0.0
 10
667.9482853008399
 20
131.6912784014717
 30
0.0
 10
667.6416236849753
 20
130.1508607806195
 30
0.0
 10
667.412340854743
 20
129.3946863583102
 30
0.0
 10
666.510251849477
 20
127.2173500296266
 30
0.0
 10
665.6209718097572
 20
125.8864506137801
 30
0.0
 10
663.400403208267
 20
123.6656856479204
 30
0.0
 10
662.0695221890671
 20
122.7765302391964
 30
0.0
 10
659.8921385442671
 20
121.8745110608864
 30
0.0
 10
659.1362859179727
 20
121.6452194286252
 30
0.0
 10
657.5957355824307
 20
121.3385371439062
 30
0.0
 10
656.8109603838957
 20
121.26110671735
 30
0.0
 10
656.0239006136939
 20
121.2610674407839
 30
0.0
  0
SPLINE
  5
91
330
1F
100
AcDbEntity
  8
0
  6
Continuous
 62
     7
370
    25
100
AcDbSpline
210
0.0
220
0.0
230
1.0
 70
     8
 71
     3
 72
     8
 73
     4
 74
     0
 42
0.00000001
 43
0.00000001
 40
0.0
 40
0.0
 40
0.0
 40
0.0
 40
1.0
 40
1.0
 40
1.0
 40
1.0
 10
670.0235988324688
 20
133.2631236136101
 30
0.0
 10
668.9534917898599
 20
133.2630051397505
 30
0.0
 10
667.9958776444839
 20
133.2628967519117
 30
0.0
 10
668.0257381621756
 20
133.262911746958
 30
0.0
  0
SPLINE
  5
92
330
1F
100
AcDbEntity
  8
0
  6
Continuous
 62
     7
370
    25
100
AcDbSpline
210
0.0
220
0.0
230
1.0
 70
     8
 71
     3
 72
    22
 73
    18
 74
     0
 42
0.00000001
 43
0.00000001
 40
0.0
 40
0.0
 40
0.0
 40
0.0
 40
0.125
 40
0.125
 40
0.25
 40
0.25
 40
0.375
 40
0.375
 40
0.5
 40
0.5
 40
0.625
 40
0.625
 40
0.75
 40
0.75
 40
0.875
 40
0.875
 40
1.0
 40
1.0
 40
1.0
 40
1.0
 10
656.0236853690509
 20
119.2632139021091
 30
0.0
 10
656.9395843740722
 20
119.2632665354667
 30
0.0
 10
657.8573300427144
 20
119.3535738053156
 30
0.0
 10
659.6558839949796
 20
119.7112856933205
 30
0.0
 10
660.536553313988
 20
119.9787187102076
 30
0.0
 10
662.2291809258767
 20
120.6802406678373
 30
0.0
 10
663.0409228351319
 20
121.1142319624101
 30
0.0
 10
664.5640068801466
 20
122.1321884593043
 30
0.0
 10
665.2752221678038
 20
122.7162769935544
 30
0.0
 10
666.5704553130561
 20
124.0116824876199
 30
0.0
 10
667.1545733864942
 20
124.7228585968329
 30
0.0
 10
668.1725430019418
 20
126.2458396059824
 30
0.0
 10
668.6065341034127
 20
127.0575939792647
 30
0.0
 10
669.3080854876389
 20
128.7502237700683
 30
0.0
 10
669.5755466701883
 20
129.6306580647831
 30
0.0
 10
669.9332427843227
 20
131.4293203695962
 30
0.0
 10
670.0234770711573
 20
132.3475437263748
 30
0.0
 10
670.0235903980833
 20
133.2631236146541
 30
0.0
  0
SPLINE
  5
93
330
1F
100
AcDbEntity
  8
0
  6
Continuous
 62
     7
370
    25
100
AcDbSpline
210
0.0
220
0.0
230
1.0
 70
     8
 71
     3
 72
     8
 73
     4
 74
     0
 42
0.00000001
 43
0.00000001
 40
0.0
 40
0.0
 40
0.0
 40
0.0
 40
1.0
 40
1.0
 40
1.0
 40
1.0
 10
656.0239006136935
 20
121.2610674469566
 30
0.0
 10
656.0238794955135
 20
121.2909277652778
 30
0.0
 10
656.0237904088527
 20
120.333318167387
 30
0.0
 10
656.0236853690509
 20
119.2632139021091
 30
0.0
  0
LINE
  5
94
330
1F
100
AcDbEntity
  8
0
  6
Continuous
 62
     7
370
    25
100
AcDbLine
 10
138.0236989597
 20
119.2631568273
 30
0.0
 11
454.0236855002
 21
119.2631568273
 31
0.0
  0
LINE
  5
95
330
1F
100
AcDbEntity
  8
0
  6
Continuous
 62
     7
370
    25
100
AcDbLine
 10
454.0237615559
 20
121.2631270835
 30
0.0
 11
138.0234705841
 21
121.2631270835
 31
0.0
  0
LINE
  5
96
330
1F
100
AcDbEntity
  8
0
  6
Continuous
 62
     7
370
    25
100
AcDbLine
 10
454.0237615559
 20
121.2631270835
 30
0.0
 11
480.0236855408
 21
121.2631270835
 31
0.0
  0
LINE
  5
97
330
1F
100
AcDbEntity
  8
0
  6
Continuous
 62
     7
370
    25
100
AcDbLine
 10
656.0239003879
 20
121.2631270835
 30
0.0
 11
480.0236855408
 21
121.2631270835
 31
0.0
  0
LINE
  5
98
330
1F
100
AcDbEntity
  8
0
  6
Continuous
 62
     7
370
    25
100
AcDbLine
 10
480.0236888955
 20
119.2631568273
 30
0.0
 11
656.0236853713
 21
119.2631568273
 31
0.0
  0
LINE
  5
99
330
1F
100
AcDbEntity
  8
0
  6
Continuous
 62
     7
370
    25
100
AcDbLine
 10
454.0236855002
 20
119.2631270835
 30
0.0
 11
480.0236888955
 21
119.2631270835
 31
0.0
  0
LINE
  5
9A
330
1F
100
AcDbEntity
  8
0
  6
Continuous
 62
     7
370
    25
100
AcDbLine
 10
668.0236855408
 20
509.2633420629
 30
0.0
 11
668.0236855408
 21
133.2629121733
 31
0.0
  0
LINE
  5
9B
330
1F
100
AcDbEntity
  8
0
  6
Continuous
 62
     7
370
    25
100
AcDbLine
 10
670.0236566257
 20
133.2631236088
 30
0.0
 11
670.0236566257
 21
509.2631269069
 31
0.0
  0
LINE
  5
9C
330
1F
100
AcDbEntity
  8
0
  6
Continuous
 62
     7
370
    25
100
AcDbLine
 10
126.0236855408
 20
509.2633420129
 30
0.0
 11
126.0236855408
 21
133.2629120761
 31
0.0
  0
LINE
  5
9D
330
1F
100
AcDbEntity
  8
0
  6
Continuous
 62
     7
370
    25
100
AcDbLine
 10
124.0237149448
 20
509.2631136547
 30
0.0
 11
124.0237149448
 21
133.2631272602
 31
0.0
  0
LINE
  5
9E
330
1F
100
AcDbEntity
  8
0
  6
Continuous
 62
     7
370
    25
100
AcDbLine
 10
454.0236855407
 20
521.2631270835
 30
0.0
 11
138.0234705895
 21
521.2631270835
 31
0.0
  0
LINE
  5
9F
330
1F
100
AcDbEntity
  8
0
  6
Continuous
 62
     7
370
    25
100
AcDbLine
 10
454.0236788257
 20
523.2630973398
 30
0.0
 11
138.0236857174
 21
523.2630973398
 31
0.0
  0
LINE
  5
A0
330
1F
100
AcDbEntity
  8
0
  6
Continuous
 62
     7
370
    25
100
AcDbLine
 10
480.023685583
 20
523.2631270835
 30
0.0
 11
454.0236788257
 21
523.2631270835
 31
0.0
  0
LINE
  5
A1
330
1F
100
AcDbEntity
  8
0
  6
Continuous
 62
     7
370
    25
100
AcDbLine
 10
656.0236721106
 20
523.2630973398
 30
0.0
 11
480.023685583
 21
523.2630973398
 31
0.0
  0
LINE
  5
A2
330
1F
100
AcDbEntity
  8
0
  6
Continuous
 62
     7
370
    25
100
AcDbLine
 10
656.0239004971
 20
521.2631270835
 30
0.0
 11
480.0236050685
 21
521.2631270835
 31
0.0
  0
LINE
  5
A3
330
1F
100
AcDbEntity
  8
0
  6
Continuous
 62
     7
370
    25
100
AcDbLine
 10
480.0236050685
 20
521.2631270835
 30
0.0
 11
454.0236855407
 21
521.2631270835
 31
0.0
  0
ARC
  5
A4
330
1F
100
AcDbEntity
  8
0
  6
Continuous
 62
     7
370
    25
100
AcDbCircle
 10
678.0236855408
 20
111.2631270835
 30
0.0
 40
9.499999999999318
100
AcDbArc
 50
270.0
 51
360.0
  0
LINE
  5
A5
330
1F
100
AcDbEntity
  8
0
  6
Continuous
 62
     7
370
    25
100
AcDbLine
 10
116.0236855408
 20
101.7631270839
 30
0.0
 11
678.0236855408
 21
101.7631270835
 31
0.0
  0
ARC
  5
A6
330
1F
100
AcDbEntity
  8
0
  6
Continuous
 62
     7
370
    25
100
AcDbCircle
 10
116.0236855408
 20
111.2631270835
 30
0.0
 40
9.499999999998977
100
AcDbArc
 50
179.9999999999
 51
270.0
  0
LINE
  5
A7
330
1F
100
AcDbEntity
  8
0
  6
Continuous
 62
     7
370
    25
100
AcDbLine
 10
106.5236855408
 20
531.2631270835
 30
0.0
 11
106.5236855408
 21
111.2631270835
 31
0.0
  0
ARC
  5
A8
330
1F
100
AcDbEntity
  8
0
  6
Continuous
 62
     7
370
    25
100
AcDbCircle
 10
116.0236855408
 20
531.2631270835
 30
0.0
 40
9.499999999998977
100
AcDbArc
 50
90.0
 51
179.9999999999
  0
LINE
  5
A9
330
1F
100
AcDbEntity
  8
0
  6
Continuous
 62
     7
370
    25
100
AcDbLine
 10
678.0236855408
 20
540.7631270835
 30
0.0
 11
116.0236855408
 21
540.7631270835
 31
0.0
  0
ARC
  5
AA
330
1F
100
AcDbEntity
  8
0
  6
Continuous
 62
     7
370
    25
100
AcDbCircle
 10
678.0236855408
 20
531.2631270835
 30
0.0
 40
9.500000000001819
100
AcDbArc
 50
0.0
 51
90.0
  0
LINE
  5
AB
330
1F
100
AcDbEntity
  8
0
  6
Continuous
 62
     7
370
    25
100
AcDbLine
 10
687.5236855408
 20
111.2631270835
 30
0.0
 11
687.5236855408
 21
531.2631270835
 31
0.0
  0
LINE
  5
AC
330
1F
100
AcDbEntity
  8
0
  6
Continuous
 62
     7
370
    25
100
AcDbLine
 10
106.0236855408
 20
111.2631270835
 30
0.0
 11
106.0236855408
 21
531.2631270835
 31
0.0
  0
LINE
  5
AD
330
1F
100
AcDbEntity
  8
0
  6
Continuous
 62
     7
370
    25
100
AcDbLine
 10
106.0236855408
 20
531.2631270835
 30
0.0
 11
106.5236855408
 21
531.2631270835
 31
0.0
  0
LINE
  5
AE
330
1F
100
AcDbEntity
  8
0
  6
Continuous
 62
     7
370
    25
100
AcDbLine
 10
106.0236855408
 20
111.2631270835
 30
0.0
 11
106.5236855408
 21
111.2631270835
 31
0.0
  0
ARC
  5
AF
330
1F
100
AcDbEntity
  8
0
  6
Continuous
 62
     7
370
    25
100
AcDbCircle
 10
116.0236855408
 20
531.2631270835
 30
0.0
 40
9.999999999998977
100
AcDbArc
 50
90.0
 51
180.0
  0
LINE
  5
B0
330
1F
100
AcDbEntity
  8
0
  6
Continuous
 62
     7
370
    25
100
AcDbLine
 10
116.0236855408
 20
541.2631270835
 30
0.0
 11
116.0236855408
 21
540.7631270835
 31
0.0
  0
LINE
  5
B1
330
1F
100
AcDbEntity
  8
0
  6
Continuous
 62
     7
370
    25
100
AcDbLine
 10
116.0236855408
 20
101.7631270839
 30
0.0
 11
116.0236855408
 21
101.2631270835
 31
0.0
  0
ARC
  5
B2
330
1F
100
AcDbEntity
  8
0
  6
Continuous
 62
     7
370
    25
100
AcDbCircle
 10
116.0236855408
 20
111.2631270835
 30
0.0
 40
10.00000000000001
100
AcDbArc
 50
179.9999999999
 51
270.0
  0
LINE
  5
B3
330
1F
100
AcDbEntity
  8
0
  6
Continuous
 62
     7
370
    25
100
AcDbLine
 10
116.0236855408
 20
541.2631270835
 30
0.0
 11
678.0236855408
 21
541.2631270835
 31
0.0
  0
LINE
  5
B4
330
1F
100
AcDbEntity
  8
0
  6
Continuous
 62
     7
370
    25
100
AcDbLine
 10
678.0236855408
 20
541.2631270835
 30
0.0
 11
678.0236855408
 21
540.7631270835
 31
0.0
  0
LINE
  5
B5
330
1F
100
AcDbEntity
  8
0
  6
Continuous
 62
     7
370
    25
100
AcDbLine
 10
678.0236855408
 20
101.7631270835
 30
0.0
 11
678.0236855408
 21
101.2631270835
 31
0.0
  0
LINE
  5
B6
330
1F
100
AcDbEntity
  8
0
  6
Continuous
 62
     7
370
    25
100
AcDbLine
 10
678.0236855408
 20
101.2631270835
 30
0.0
 11
116.0236855408
 21
101.2631270835
 31
0.0
  0
ARC
  5
B7
330
1F
100
AcDbEntity
  8
0
  6
Continuous
 62
     7
370
    25
100
AcDbCircle
 10
678.0236855408
 20
531.2631270835
 30
0.0
 40
9.999999999999545
100
AcDbArc
 50
0.0000000001
 51
90.0
  0
LINE
  5
B8
330
1F
100
AcDbEntity
  8
0
  6
Continuous
 62
     7
370
    25
100
AcDbLine
 10
687.5236855408
 20
531.2631270835
 30
0.0
 11
688.0236855408
 21
531.2631270835
 31
0.0
  0
LINE
  5
B9
330
1F
100
AcDbEntity
  8
0
  6
Continuous
 62
     7
370
    25
100
AcDbLine
 10
687.5236855408
 20
111.2631270835
 30
0.0
 11
688.0236855408
 21
111.2631270835
 31
0.0
  0
ARC
  5
BA
330
1F
100
AcDbEntity
  8
0
  6
Continuous
 62
     7
370
    25
100
AcDbCircle
 10
678.0236855408
 20
111.2631270835
 30
0.0
 40
9.999999999999432
100
AcDbArc
 50
270.0
 51
360.0
  0
LINE
  5
BB
330
1F
100
AcDbEntity
  8
0
  6
Continuous
 62
     7
370
    25
100
AcDbLine
 10
688.0236855408
 20
531.2631270835
 30
0.0
 11
688.0236855408
 21
111.2631270835
 31
0.0
  0
SPLINE
  5
BC
330
1F
100
AcDbEntity
  8
0
  6
Continuous
 62
     7
370
    25
100
AcDbSpline
210
0.0
220
0.0
230
1.0
 70
     8
 71
     3
 72
    20
 73
    16
 74
     0
 42
0.00000001
 43
0.00000001
 40
0.0
 40
0.0
 40
0.0
 40
0.0
 40
0.0500440860238475
 40
0.1036322533645554
 40
0.1607753504465737
 40
0.2214823196527232
 40
0.2857606157192888
 40
0.3536165161014295
 40
0.4250553549177633
 40
0.5000817018618302
 40
0.6215810579783949
 40
0.749827504509712
 40
0.8581090979054132
 40
0.9414940063823571
 40
1.0
 40
1.0
 40
1.0
 40
1.0
 10
460.7500732465634
 20
122.2631270835326
 30
0.0
 10
460.6526029064859
 20
122.2317019930237
 30
0.0
 10
460.4507594564202
 20
122.1666263127512
 30
0.0
 10
460.1356582739469
 20
122.0727856792239
 30
0.0
 10
459.7984960406278
 20
121.978451510491
 30
0.0
 10
459.4390905633949
 20
121.8851890455133
 30
0.0
 10
459.0574928361559
 20
121.793926356901
 30
0.0
 10
458.6536855512565
 20
121.7058719691601
 30
0.0
 10
458.2276734783118
 20
121.6222173226875
 30
0.0
 10
457.6940554373984
 20
121.5294021244019
 30
0.0
 10
457.0460167254307
 20
121.4355070348297
 30
0.0
 10
456.3303094839816
 20
121.3573808469989
 30
0.0
 10
455.689754058915
 20
121.3087804702797
 30
0.0
 10
455.1881370847642
 20
121.283451824145
 30
0.0
 10
454.9020653547694
 20
121.2757882483363
 30
0.0
 10
454.784109160523
 20
121.2726283197522
 30
0.0
  0
LINE
  5
BD
330
1F
100
AcDbEntity
  8
0
  6
Continuous
 62
     7
370
    25
100
AcDbLine
 10
473.2972992859
 20
122.2631270835
 30
0.0
 11
460.7500732466
 21
122.2631270835
 31
0.0
  0
SPLINE
  5
BE
330
1F
100
AcDbEntity
  8
0
  6
Continuous
 62
     7
370
    25
100
AcDbSpline
210
0.0
220
0.0
230
1.0
 70
     8
 71
     3
 72
    18
 73
    14
 74
     0
 42
0.00000001
 43
0.00000001
 40
0.0
 40
0.0
 40
0.0
 40
0.0
 40
0.0415480022166102
 40
0.0970879708770392
 40
0.1666307985836733
 40
0.2501816845800661
 40
0.3784197912533075
 40
0.4999330423549748
 40
0.6182484574639843
 40
0.7273877276114351
 40
0.8273724329721004
 40
0.9182306818442978
 40
0.9999999999999999
 40
0.9999999999999999
 40
0.9999999999999999
 40
0.9999999999999999
 10
479.2632689030474
 20
121.2726279361212
 30
0.0
 10
479.1794544540761
 20
121.2747560138105
 30
0.0
 10
478.9835996753462
 20
121.279728834011
 30
0.0
 10
478.6490323834304
 20
121.2936872606614
 30
0.0
 10
478.2307778853928
 20
121.3179517991546
 30
0.0
 10
477.6676801313791
 20
121.3628368196424
 30
0.0
 10
477.0013703205726
 20
121.4354892726082
 30
0.0
 10
476.2669789812564
 20
121.5419006173994
 30
0.0
 10
475.5723410134468
 20
121.6672369133056
 30
0.0
 10
474.9225833071369
 20
121.8072675856966
 30
0.0
 10
474.3297531904539
 20
121.9552546771218
 30
0.0
 10
473.7933326538387
 20
122.1050201102071
 30
0.0
 10
473.4567364199413
 20
122.2123076743382
 30
0.0
 10
473.2972992859226
 20
122.2631270835241
 30
0.0
  0
SPLINE
  5
BF
330
1F
100
AcDbEntity
  8
0
  6
Continuous
 62
     7
370
    25
100
AcDbSpline
210
0.0
220
0.0
230
1.0
 70
     8
 71
     3
 72
    12
 73
     8
 74
     0
 42
0.00000001
 43
0.00000001
 40
0.0
 40
0.0
 40
0.0
 40
0.0
 40
0.5
 40
0.5
 40
0.75
 40
0.75
 40
1.0
 40
1.0
 40
1.0
 40
1.0
 10
479.2632689030473
 20
121.2726279361225
 30
0.0
 10
479.3024786541608
 20
121.2704737068675
 30
0.0
 10
479.3414319683843
 20
121.2685168658031
 30
0.0
 10
479.3972178017893
 20
121.265950750876
 30
0.0
 10
479.4154513977208
 20
121.2651541274409
 30
0.0
 10
479.4482598598098
 20
121.2637802134305
 30
0.0
 10
479.4648633712798
 20
121.2631270835265
 30
0.0
 10
479.4648633712793
 20
121.2631270835265
 30
0.0
  0
SPLINE
  5
C0
330
1F
100
AcDbEntity
  8
0
  6
Continuous
 62
     7
370
    25
100
AcDbSpline
210
0.0
220
0.0
230
1.0
 70
     8
 71
     3
 72
    18
 73
    14
 74
     0
 42
0.00000001
 43
0.00000001
 40
0.0
 40
0.0
 40
0.0
 40
0.0
 40
0.0415479846375284
 40
0.0970879474264202
 40
0.1666307810750744
 40
0.2501816848758088
 40
0.3784197819431535
 40
0.4999330419546246
 40
0.6182484538890058
 40
0.7273877223596698
 40
0.8273724276533031
 40
0.9182306782126057
 40
1.0
 40
1.0
 40
1.0
 40
1.0
 10
454.7841010095333
 20
521.2536262951329
 30
0.0
 10
454.8679154815648
 20
521.2514982282918
 30
0.0
 10
455.0637703497407
 20
521.2465254325375
 30
0.0
 10
455.3983378345799
 20
521.2325670511783
 30
0.0
 10
455.8165926514016
 20
521.2083025657851
 30
0.0
 10
456.3796908116306
 20
521.16341761287
 30
0.0
 10
457.0460011010258
 20
521.0907652281028
 30
0.0
 10
457.7803929178672
 20
520.9843539353117
 30
0.0
 10
458.4750313484617
 20
520.8590176485231
 30
0.0
 10
459.1247894656468
 20
520.7189869449522
 30
0.0
 10
459.7176199597887
 20
520.5709997751122
 30
0.0
 10
460.2540408423129
 20
520.4212342251055
 30
0.0
 10
460.5906372884915
 20
520.313946547258
 30
0.0
 10
460.7500745252313
 20
520.263127083516
 30
0.0
  0
SPLINE
  5
C1
330
1F
100
AcDbEntity
  8
0
  6
Continuous
 62
     7
370
    25
100
AcDbSpline
210
0.0
220
0.0
230
1.0
 70
     8
 71
     3
 72
    12
 73
     8
 74
     0
 42
0.00000001
 43
0.00000001
 40
0.0
 40
0.0
 40
0.0
 40
0.0
 40
0.5
 40
0.5
 40
0.75
 40
0.75
 40
1.0
 40
1.0
 40
1.0
 40
1.0
 10
454.7841010095333
 20
521.253626295133
 30
0.0
 10
454.7448914620143
 20
521.2557805096476
 30
0.0
 10
454.7059383533022
 20
521.2577373377792
 30
0.0
 10
454.6501528280548
 20
521.2603034361355
 30
0.0
 10
454.6319193376752
 20
521.2611000543976
 30
0.0
 10
454.5991110787123
 20
521.2624739592802
 30
0.0
 10
454.5825077101948
 20
521.2631270835086
 30
0.0
 10
454.5825077101953
 20
521.2631270835085
 30
0.0
  0
SPLINE
  5
C2
330
1F
100
AcDbEntity
  8
0
  6
Continuous
 62
     7
370
    25
100
AcDbSpline
210
0.0
220
0.0
230
1.0
 70
     8
 71
     3
 72
    20
 73
    16
 74
     0
 42
0.00000001
 43
0.00000001
 40
0.0
 40
0.0
 40
0.0
 40
0.0
 40
0.0500440873456593
 40
0.1036322556129821
 40
0.1607753532431848
 40
0.2214823226331271
 40
0.2857606185309264
 40
0.3536165184018548
 40
0.4250553563731824
 40
0.5000817021459174
 40
0.6215809256163978
 40
0.7498275051404696
 40
0.8581089128773652
 40
0.9414938215934108
 40
1.0
 40
1.0
 40
1.0
 40
1.0
 10
473.2972965592503
 20
520.263127083521
 30
0.0
 10
473.3947669275329
 20
520.294552168304
 30
0.0
 10
473.5966104350543
 20
520.3596278364126
 30
0.0
 10
473.9117117063523
 20
520.4534684447389
 30
0.0
 10
474.2488740323219
 20
520.547802583134
 30
0.0
 10
474.6082796061332
 20
520.641065013528
 30
0.0
 10
474.9898774338516
 20
520.7323276653567
 30
0.0
 10
475.3936848231421
 20
520.8203820163998
 30
0.0
 10
475.8196970043857
 20
520.904036628953
 30
0.0
 10
476.3533149190509
 20
520.9968517488585
 30
0.0
 10
477.0013538006766
 20
521.0907468298292
 30
0.0
 10
477.7170608582945
 20
521.1688730118557
 30
0.0
 10
478.3576163224727
 20
521.2174734717398
 30
0.0
 10
478.8592333857891
 20
521.2428022325881
 30
0.0
 10
479.1453054857204
 20
521.2504658874329
 30
0.0
 10
479.2632620512464
 20
521.2536258544661
 30
0.0
  0
LINE
  5
C3
330
1F
100
AcDbEntity
  8
0
  6
Continuous
 62
     7
370
    25
100
AcDbLine
 10
460.7500745252
 20
520.2631270835
 30
0.0
 11
473.2972965593
 21
520.2631270835
 31
0.0
  0
SPLINE
  5
C4
330
1F
100
AcDbEntity
  8
0
  6
Continuous
 62
     7
370
    25
100
AcDbSpline
210
0.0
220
0.0
230
1.0
 70
     8
 71
     3
 72
    19
 73
    15
 74
     0
 42
0.00000001
 43
0.00000001
 40
0.0
 40
0.0
 40
0.0
 40
0.0
 40
0.0559458226887305
 40
0.1135889302899751
 40
0.1730008346040117
 40
0.2342474760270094
 40
0.2973898754761274
 40
0.3624847857941991
 40
0.4295853372197484
 40
0.4987416748563945
 40
0.6202736213198551
 40
0.7494153066340636
 40
0.8699928221527201
 40
1.0
 40
1.0
 40
1.0
 40
1.0
 10
460.2738419926019
 20
519.4994500739982
 30
0.0
 10
460.2090087850612
 20
519.539395363736
 30
0.0
 10
460.0773754594993
 20
519.6204978038
 30
0.0
 10
459.8742508070214
 20
519.7390076811179
 30
0.0
 10
459.663236052619
 20
519.8569947382068
 30
0.0
 10
459.4439861797184
 20
519.9736942157275
 30
0.0
 10
459.2164408959723
 20
520.0887700236271
 30
0.0
 10
458.9804691233773
 20
520.2017368407862
 30
0.0
 10
458.735966984459
 20
520.3121277491745
 30
0.0
 10
458.4215212536864
 20
520.4454123849342
 30
0.0
 10
458.0292775733139
 20
520.5969260093834
 30
0.0
 10
457.5714916365529
 20
520.7511692176557
 30
0.0
 10
457.1015149803915
 20
520.8889828888766
 30
0.0
 10
456.7900829332768
 20
520.9619774656418
 30
0.0
 10
456.6285072161301
 20
520.9998481703361
 30
0.0
  0
SPLINE
  5
C5
330
1F
100
AcDbEntity
  8
0
  6
Continuous
 62
     7
370
    25
100
AcDbSpline
210
0.0
220
0.0
230
1.0
 70
     8
 71
     3
 72
     8
 73
     4
 74
     0
 42
0.00000001
 43
0.00000001
 40
0.0
 40
0.0
 40
0.0
 40
0.0
 40
1.0
 40
1.0
 40
1.0
 40
1.0
 10
456.6285159943823
 20
520.9998879105676
 30
0.0
 10
456.8673342893454
 20
520.9471351439779
 30
0.0
 10
457.1070118833278
 20
520.898573754929
 30
0.0
 10
457.3472086053528
 20
520.8525445014577
 30
0.0
  0
LINE
  5
C6
330
1F
100
AcDbEntity
  8
0
  6
Continuous
 62
     7
370
    25
100
AcDbLine
 10
460.7500745252
 20
520.2631270835
 30
0.0
 11
460.2738419926
 21
519.499450074
 31
0.0
  0
SPLINE
  5
C7
330
1F
100
AcDbEntity
  8
0
  6
Continuous
 62
     7
370
    25
100
AcDbSpline
210
0.0
220
0.0
230
1.0
 70
     8
 71
     3
 72
    17
 73
    13
 74
     0
 42
0.00000001
 43
0.00000001
 40
0.0
 40
0.0
 40
0.0
 40
0.0
 40
0.1049722671492417
 40
0.2074219082098463
 40
0.3073699097349787
 40
0.4048388752043607
 40
0.4998531783554128
 40
0.6277153562863437
 40
0.7498875553450326
 40
0.8749528015631023
 40
0.9477723457693006
 40
1.0
 40
1.0
 40
1.0
 40
1.0
 10
457.3472103962432
 20
520.8525538469502
 30
0.0
 10
457.2569292349284
 20
520.8755413764835
 30
0.0
 10
457.0785364911697
 20
520.920964014008
 30
0.0
 10
456.813616148424
 20
520.980828924659
 30
0.0
 10
456.5550778837472
 20
521.034075020432
 30
0.0
 10
456.3030838721353
 20
521.080611339823
 30
0.0
 10
456.0274077453099
 20
521.1260145659697
 30
0.0
 10
455.7316541895556
 20
521.1679058770076
 30
0.0
 10
455.4126232423855
 20
521.2050199975395
 30
0.0
 10
455.1441381265944
 20
521.229582490264
 30
0.0
 10
454.9341127774925
 20
521.2449258018095
 30
0.0
 10
454.8282965772046
 20
521.2510630079544
 30
0.0
 10
454.7841010095332
 20
521.253626295133
 30
0.0
  0
SPLINE
  5
C8
330
1F
100
AcDbEntity
  8
0
  6
Continuous
 62
     7
370
    25
100
AcDbSpline
210
0.0
220
0.0
230
1.0
 70
     8
 71
     3
 72
    19
 73
    15
 74
     0
 42
0.00000001
 43
0.00000001
 40
0.0
 40
0.0
 40
0.0
 40
0.0
 40
0.0558832682951646
 40
0.1134816341909847
 40
0.1728665078470125
 40
0.2341037813616677
 40
0.2972545398029467
 40
0.3623757679239725
 40
0.4295210492755523
 40
0.4987412575051611
 40
0.6201567229952004
 40
0.7494150986320273
 40
0.8697670306854602
 40
1.0
 40
1.0
 40
1.0
 40
1.0
 10
473.773531650463
 20
123.0268041978636
 30
0.0
 10
473.8382920754633
 20
122.9869032424068
 30
0.0
 10
473.9698004693731
 20
122.9058767425411
 30
0.0
 10
474.1727637142959
 20
122.7874530264435
 30
0.0
 10
474.3836779827262
 20
122.6695109584582
 30
0.0
 10
474.6028901868424
 20
122.5528182815229
 30
0.0
 10
474.8304629286851
 20
122.4377150554091
 30
0.0
 10
475.0665294604982
 20
122.3246908258373
 30
0.0
 10
475.3111959242534
 20
122.2142170693232
 30
0.0
 10
475.6256328162818
 20
122.0809322102193
 30
0.0
 10
476.0179514986277
 20
121.9293805489658
 30
0.0
 10
476.4754605458689
 20
121.775220945489
 30
0.0
 10
476.9455773534364
 20
121.6373469609782
 30
0.0
 10
477.2570101791898
 20
121.5643458305696
 30
0.0
 10
477.4188667851482
 20
121.5264059789484
 30
0.0
  0
SPLINE
  5
C9
330
1F
100
AcDbEntity
  8
0
  6
Continuous
 62
     7
370
    25
100
AcDbSpline
210
0.0
220
0.0
230
1.0
 70
     8
 71
     3
 72
     8
 73
     4
 74
     0
 42
0.00000001
 43
0.00000001
 40
0.0
 40
0.0
 40
0.0
 40
0.0
 40
1.0
 40
1.0
 40
1.0
 40
1.0
 10
477.4188580069403
 20
121.526366238932
 30
0.0
 10
477.1800359300498
 20
121.5791198634795
 30
0.0
 10
476.9403545263764
 20
121.6276819721203
 30
0.0
 10
476.7001539825633
 20
121.673711884395
 30
0.0
  0
LINE
  5
CA
330
1F
100
AcDbEntity
  8
0
  6
Continuous
 62
     7
370
    25
100
AcDbLine
 10
473.2972992859
 20
122.2631270835
 30
0.0
 11
473.7735316505
 21
123.0268041979
 31
0.0
  0
SPLINE
  5
CB
330
1F
100
AcDbEntity
  8
0
  6
Continuous
 62
     7
370
    25
100
AcDbSpline
210
0.0
220
0.0
230
1.0
 70
     8
 71
     3
 72
    17
 73
    13
 74
     0
 42
0.00000001
 43
0.00000001
 40
0.0
 40
0.0
 40
0.0
 40
0.0
 40
0.1049719202864753
 40
0.2074213887306984
 40
0.3073693917465341
 40
0.4048385325480995
 40
0.4998531844556635
 40
0.6277155274219532
 40
0.7498875625264247
 40
0.8749528032396878
 40
0.9477726533562826
 40
1.0
 40
1.0
 40
1.0
 40
1.0
 10
476.7001521917259
 20
121.6737025391632
 30
0.0
 10
476.7904332800271
 20
121.6507149627457
 30
0.0
 10
476.9688260222048
 20
121.6052921962471
 30
0.0
 10
477.2337465870083
 20
121.5454270457329
 30
0.0
 10
477.4922855193369
 20
121.4921806390447
 30
0.0
 10
477.7442806492122
 20
121.4456439645106
 30
0.0
 10
478.0199581214868
 20
121.4002403855116
 30
0.0
 10
478.3157128426332
 20
121.3583488042365
 30
0.0
 10
478.6347448170397
 20
121.32123447663
 30
0.0
 10
478.9032309577679
 20
121.2966718349656
 30
0.0
 10
479.1132569667383
 20
121.2813284516873
 30
0.0
 10
479.2190734689606
 20
121.2751912192297
 30
0.0
 10
479.2632689030476
 20
121.2726279361231
 30
0.0
  0
SPLINE
  5
CC
330
1F
100
AcDbEntity
  8
0
  6
Continuous
 62
     7
370
    25
100
AcDbSpline
210
0.0
220
0.0
230
1.0
 70
     8
 71
     3
 72
     8
 73
     4
 74
     0
 42
0.00000001
 43
0.00000001
 40
0.0
 40
0.0
 40
0.0
 40
0.0
 40
1.0
 40
1.0
 40
1.0
 40
1.0
 10
476.7001441632053
 20
520.8525397173524
 30
0.0
 10
476.9403496783503
 20
520.8985703576358
 30
0.0
 10
477.1800360440691
 20
520.9471332501101
 30
0.0
 10
477.4188630578513
 20
520.9998877986196
 30
0.0
  0
SPLINE
  5
CD
330
1F
100
AcDbEntity
  8
0
  6
Continuous
 62
     7
370
    25
100
AcDbSpline
210
0.0
220
0.0
230
1.0
 70
     8
 71
     3
 72
    18
 73
    14
 74
     0
 42
0.00000001
 43
0.00000001
 40
0.0
 40
0.0
 40
0.0
 40
0.0
 40
0.0663641133576235
 40
0.1302386888602795
 40
0.1916465184865784
 40
0.2506088929290928
 40
0.3798587250477169
 40
0.5012894643244369
 40
0.61103464074898
 40
0.7155472810806229
 40
0.815046049487201
 40
0.9097728115911972
 40
1.0
 40
1.0
 40
1.0
 40
1.0
 10
477.4188718357095
 20
520.9998480600624
 30
0.0
 10
477.336368558889
 20
520.9810574457483
 30
0.0
 10
477.1744569766178
 20
520.9441811153445
 30
0.0
 10
476.936671840239
 20
520.8828226189445
 30
0.0
 10
476.70843619647
 20
520.8190409234239
 30
0.0
 10
476.3997759923369
 20
520.7257298503753
 30
0.0
 10
476.0179655578278
 20
520.5968102461962
 30
0.0
 10
475.5759617521547
 20
520.4261585397047
 30
0.0
 10
475.166934918075
 20
520.2494357770282
 30
0.0
 10
474.7875782440636
 20
520.0689733698217
 30
0.0
 10
474.4299964128126
 20
519.8831937028774
 30
0.0
 10
474.0931029131089
 20
519.6948812348934
 30
0.0
 10
473.8783115500984
 20
519.5635284021185
 30
0.0
 10
473.7735285988546
 20
519.4994497665557
 30
0.0
  0
LINE
  5
CE
330
1F
100
AcDbEntity
  8
0
  6
Continuous
 62
     7
370
    25
100
AcDbLine
 10
473.2972965592
 20
520.2631270835
 30
0.0
 11
473.7735285988
 21
519.4994497666
 31
0.0
  0
SPLINE
  5
CF
330
1F
100
AcDbEntity
  8
0
  6
Continuous
 62
     7
370
    25
100
AcDbSpline
210
0.0
220
0.0
230
1.0
 70
     8
 71
     3
 72
    15
 73
    11
 74
     0
 42
0.00000001
 43
0.00000001
 40
0.0
 40
0.0
 40
0.0
 40
0.0
 40
0.0524067795786547
 40
0.1255750642311169
 40
0.2510712379414028
 40
0.3736230090529729
 40
0.5020644597774803
 40
0.66125395040213
 40
0.8271980512359086
 40
1.0
 40
1.0
 40
1.0
 40
1.0
 10
479.2632620512462
 20
521.2536258544662
 30
0.0
 10
479.2189158682215
 20
521.2510533430143
 30
0.0
 10
479.112655288455
 20
521.244889192242
 30
0.0
 10
478.901828921405
 20
521.2294716543684
 30
0.0
 10
478.6323674899
 20
521.2047833079117
 30
0.0
 10
478.3121299755645
 20
521.1674449279087
 30
0.0
 10
477.9605056987696
 20
521.1175670919519
 30
0.0
 10
477.5698107145139
 20
521.0502747525949
 30
0.0
 10
477.1403168998159
 20
520.9627440172843
 30
0.0
 10
476.8488342182887
 20
520.889773141101
 30
0.0
 10
476.7001423724097
 20
520.8525490624072
 30
0.0
  0
SPLINE
  5
D0
330
1F
100
AcDbEntity
  8
0
  6
Continuous
 62
     7
370
    25
100
AcDbSpline
210
0.0
220
0.0
230
1.0
 70
     8
 71
     3
 72
     8
 73
     4
 74
     0
 42
0.00000001
 43
0.00000001
 40
0.0
 40
0.0
 40
0.0
 40
0.0
 40
1.0
 40
1.0
 40
1.0
 40
1.0
 10
457.3472234049328
 20
121.673713532016
 30
0.0
 10
457.1070196662184
 20
121.6276831512634
 30
0.0
 10
456.8673350734089
 20
121.579120539146
 30
0.0
 10
456.6285098222382
 20
121.5263663272695
 30
0.0
  0
SPLINE
  5
D1
330
1F
100
AcDbEntity
  8
0
  6
Continuous
 62
     7
370
    25
100
AcDbSpline
210
0.0
220
0.0
230
1.0
 70
     8
 71
     3
 72
    18
 73
    14
 74
     0
 42
0.00000001
 43
0.00000001
 40
0.0
 40
0.0
 40
0.0
 40
0.0
 40
0.0661939215152231
 40
0.1300128930534774
 40
0.1914778750180379
 40
0.2506086864434951
 40
0.3797418071613459
 40
0.501289051317734
 40
0.6109412482945575
 40
0.715408806652373
 40
0.8149083903581504
 40
0.9096812473024725
 40
1.0
 40
1.0
 40
1.0
 40
1.0
 10
456.6285010442634
 20
121.5264060663161
 30
0.0
 10
456.7107926472067
 20
121.5451471003943
 30
0.0
 10
456.8724233396897
 20
121.5819567651421
 30
0.0
 10
457.1099998522574
 20
121.6432435976127
 30
0.0
 10
457.3384478735978
 20
121.7070680645266
 30
0.0
 10
457.647244521811
 20
121.8004107479013
 30
0.0
 10
458.0292611184091
 20
121.9293916632789
 30
0.0
 10
458.4711544678523
 20
122.0999907193271
 30
0.0
 10
458.8801527094686
 20
122.2766937251535
 30
0.0
 10
459.2593442427367
 20
122.4570593375877
 30
0.0
 10
459.6169338116415
 20
122.6428219468578
 30
0.0
 10
459.9539986632429
 20
122.8312125491248
 30
0.0
 10
460.1689511511123
 20
122.9626614619845
 30
0.0
 10
460.2738410520167
 20
123.0268043038772
 30
0.0
  0
LINE
  5
D2
330
1F
100
AcDbEntity
  8
0
  6
Continuous
 62
     7
370
    25
100
AcDbLine
 10
460.7500732466
 20
122.2631270835
 30
0.0
 11
460.273841052
 21
123.0268043039
 31
0.0
  0
SPLINE
  5
D3
330
1F
100
AcDbEntity
  8
0
  6
Continuous
 62
     7
370
    25
100
AcDbSpline
210
0.0
220
0.0
230
1.0
 70
     8
 71
     3
 72
    15
 73
    11
 74
     0
 42
0.00000001
 43
0.00000001
 40
0.0
 40
0.0
 40
0.0
 40
0.0
 40
0.0524072880224793
 40
0.125575061335221
 40
0.2510712328989304
 40
0.3736229155411091
 40
0.502064450993703
 40
0.6612533176073887
 40
0.8271974210965348
 40
1.0
 40
1.0
 40
1.0
 40
1.0
 10
454.7841091605233
 20
121.2726283197537
 30
0.0
 10
454.8284557102854
 20
121.2752008539418
 30
0.0
 10
454.9347161354384
 20
121.2813649992476
 30
0.0
 10
455.1455420436762
 20
121.2967825108596
 30
0.0
 10
455.4150022994286
 20
121.321470731249
 30
0.0
 10
455.7352392346637
 20
121.3588090012383
 30
0.0
 10
456.0868625196783
 20
121.4086866361557
 30
0.0
 10
456.477556633881
 20
121.4759787226637
 30
0.0
 10
456.9070500299362
 20
121.5635092140412
 30
0.0
 10
457.1985329591096
 20
121.6364800581851
 30
0.0
 10
457.3472251957737
 20
121.6737041867398
 30
0.0
  0
LINE
  5
D4
330
1F
100
AcDbEntity
  8
0
  6
Continuous
 62
     7
370
    25
100
AcDbLine
 10
466.0236855408
 20
133.2627582261
 30
0.0
 11
466.0236855408
 21
509.2634959176
 31
0.0
  0
SPLINE
  5
D5
330
1F
100
AcDbEntity
  8
0
  6
Continuous
 62
     7
370
    25
100
AcDbSpline
210
0.0
220
0.0
230
1.0
 70
     8
 71
     3
 72
    10
 73
     6
 74
     0
 42
0.00000001
 43
0.00000001
 40
0.0
 40
0.0
 40
0.0
 40
0.0
 40
0.5
 40
0.5
 40
1.0
 40
1.0
 40
1.0
 40
1.0
 10
466.9236855407523
 20
509.2514465861186
 30
0.0
 10
466.6880660917329
 20
509.2534548080286
 30
0.0
 10
466.453897547865
 20
509.2554630299387
 30
0.0
 10
466.120681327503
 20
509.2594794737588
 30
0.0
 10
466.0236855407518
 20
509.2614876956689
 30
0.0
 10
466.0236855407518
 20
509.2634959175789
 30
0.0
  0
LINE
  5
D6
330
1F
100
AcDbEntity
  8
0
  6
Continuous
 62
     7
370
    25
100
AcDbLine
 10
466.9236855408
 20
509.2514465861
 30
0.0
 11
466.9236855408
 21
133.2868562189
 31
0.0
  0
SPLINE
  5
D7
330
1F
100
AcDbEntity
  8
0
  6
Continuous
 62
     7
370
    25
100
AcDbSpline
210
0.0
220
0.0
230
1.0
 70
    24
 71
     3
 72
    14
 73
    10
 74
     0
 42
0.00000001
 43
0.00000001
 40
0.0
 40
0.0
 40
0.0
 40
0.0
 40
0.25
 40
0.25
 40
0.5
 40
0.5
 40
0.75
 40
0.75
 40
1.0
 40
1.0
 40
1.0
 40
1.0
 10
466.9114406335763
 20
133.286995986791
 30
0.0
 10
466.8054125705313
 20
133.2841582730543
 30
0.0
 10
466.691021552207
 20
133.2810967348658
 30
0.0
 10
466.4695263286098
 20
133.2751686812863
 30
0.0
 10
466.363108778676
 20
133.2723205434005
 30
0.0
 10
466.1874357318126
 20
133.2676188653352
 30
0.0
 10
466.1187745718156
 20
133.2657812318696
 30
0.0
 10
466.0310866325853
 20
133.2634343695141
 30
0.0
 10
466.011762684886
 20
133.2629171872673
 30
0.0
 10
466.0117626848607
 20
133.2629171872661
 30
0.0
  0
SPLINE
  5
D8
330
1F
100
AcDbEntity
  8
0
  6
Continuous
 62
     7
370
    25
100
AcDbSpline
210
0.0
220
0.0
230
1.0
 70
     8
 71
     3
 72
    20
 73
    16
 74
     0
 42
0.00000001
 43
0.00000001
 40
0.0
 40
0.0
 40
0.0
 40
0.0
 40
0.25
 40
0.25
 40
0.375
 40
0.375
 40
0.5
 40
0.5
 40
0.625
 40
0.625
 40
0.75
 40
0.75
 40
0.875
 40
0.875
 40
1.0
 40
1.0
 40
1.0
 40
1.0
 10
466.9114407446228
 20
133.2868562189175
 30
0.0
 10
466.9411813710832
 20
132.1765194276886
 30
0.0
 10
466.8110765639882
 20
131.0896249690057
 30
0.0
 10
466.3944932095197
 20
129.4917568098319
 30
0.0
 10
466.2170104863549
 20
128.9628623633368
 30
0.0
 10
465.7991415185848
 20
127.9454836292862
 30
0.0
 10
465.5580635182403
 20
127.453204477718
 30
0.0
 10
465.0143419092718
 20
126.500077237757
 30
0.0
 10
464.7101842403704
 20
126.0372577265153
 30
0.0
 10
464.0462545844638
 20
125.1525153212269
 30
0.0
 10
463.6899045515348
 20
124.7345765378141
 30
0.0
 10
462.9303946821613
 20
123.9455994069169
 30
0.0
 10
462.5272305129873
 20
123.574565400552
 30
0.0
 10
461.6730983591373
 20
122.8803937603294
 30
0.0
 10
461.2206735004764
 20
122.5565952998175
 30
0.0
 10
460.7500732465633
 20
122.263127083534
 30
0.0
  0
SPLINE
  5
D9
330
1F
100
AcDbEntity
  8
0
  6
Continuous
 62
     7
370
    25
100
AcDbSpline
210
0.0
220
0.0
230
1.0
 70
     8
 71
     3
 72
    20
 73
    16
 74
     0
 42
0.00000001
 43
0.00000001
 40
0.0
 40
0.0
 40
0.0
 40
0.0
 40
0.125
 40
0.125
 40
0.25
 40
0.25
 40
0.375
 40
0.375
 40
0.5
 40
0.5
 40
0.625
 40
0.625
 40
0.75
 40
0.75
 40
1.0
 40
1.0
 40
1.0
 40
1.0
 10
460.7500745252313
 20
520.263127083516
 30
0.0
 10
461.2206746130593
 20
519.9696586814447
 30
0.0
 10
461.6730993243142
 20
519.6458600221097
 30
0.0
 10
462.5272312392992
 20
518.9516879913504
 30
0.0
 10
462.9303952612478
 20
518.580653837865
 30
0.0
 10
463.6899048284328
 20
517.791676553833
 30
0.0
 10
464.0462547061383
 20
517.3737377641293
 30
0.0
 10
464.7101840793273
 20
516.488995529106
 30
0.0
 10
465.0143418459848
 20
516.0261758631218
 30
0.0
 10
465.5580635182858
 20
515.0730486090115
 30
0.0
 10
465.7991415656103
 20
514.5807694965938
 30
0.0
 10
466.2170106349463
 20
513.5633909249411
 30
0.0
 10
466.3944934307073
 20
513.0344965695543
 30
0.0
 10
466.8110769573918
 20
511.4366284423762
 30
0.0
 10
466.9411817384592
 20
510.3497340611305
 30
0.0
 10
466.9236855407518
 20
509.251446586116
 30
0.0
  0
SPLINE
  5
DA
330
1F
100
AcDbEntity
  8
0
  6
Continuous
 62
     7
370
    25
100
AcDbSpline
210
0.0
220
0.0
230
1.0
 70
     8
 71
     3
 72
    20
 73
    16
 74
     0
 42
0.00000001
 43
0.00000001
 40
0.0
 40
0.0
 40
0.0
 40
0.0
 40
0.2499999999999997
 40
0.2499999999999997
 40
0.3749999999999997
 40
0.3749999999999997
 40
0.4999999999999998
 40
0.4999999999999998
 40
0.6249999999999998
 40
0.6249999999999998
 40
0.7499999999999999
 40
0.7499999999999999
 40
0.8749999999999999
 40
0.8749999999999999
 40
1.0
 40
1.0
 40
1.0
 40
1.0
 10
467.1359297711597
 20
509.2393991439625
 30
0.0
 10
467.1061901775458
 20
510.3497358077529
 30
0.0
 10
467.2362952227282
 20
511.436630124308
 30
0.0
 10
467.6528783906842
 20
513.0344979682118
 30
0.0
 10
467.8303609909323
 20
513.5633924203061
 30
0.0
 10
468.2482296869613
 20
514.5807712105166
 30
0.0
 10
468.4893075130453
 20
515.0730503602297
 30
0.0
 10
469.0330287301958
 20
516.0261775237068
 30
0.0
 10
469.3371860657818
 20
516.4889968171561
 30
0.0
 10
470.0011156582073
 20
517.3737395126464
 30
0.0
 10
470.3574656557028
 20
517.7916783487929
 30
0.0
 10
471.1169754220434
 20
518.5806554329718
 30
0.0
 10
471.5201395239338
 20
518.9516893395526
 30
0.0
 10
472.3742714705967
 20
519.6458606646402
 30
0.0
 10
472.8266962872393
 20
519.9696589885606
 30
0.0
 10
473.2972965592502
 20
520.263127083521
 30
0.0
  0
LINE
  5
DB
330
1F
100
AcDbEntity
  8
0
  6
Continuous
 62
     7
370
    25
100
AcDbLine
 10
467.1236855408
 20
133.2748081643
 30
0.0
 11
467.1236855408
 21
509.239399144
 31
0.0
  0
SPLINE
  5
DC
330
1F
100
AcDbEntity
  8
0
  6
Continuous
 62
     7
370
    25
100
AcDbSpline
210
0.0
220
0.0
230
1.0
 70
     8
 71
     3
 72
    20
 73
    16
 74
     0
 42
0.00000001
 43
0.00000001
 40
0.0
 40
0.0
 40
0.0
 40
0.0
 40
0.1249999999999998
 40
0.1249999999999998
 40
0.2499999999999996
 40
0.2499999999999996
 40
0.3749999999999994
 40
0.3749999999999994
 40
0.4999999999999992
 40
0.4999999999999992
 40
0.624999999999999
 40
0.624999999999999
 40
0.7499999999999989
 40
0.7499999999999989
 40
1.0
 40
1.0
 40
1.0
 40
1.0
 10
473.2972992859228
 20
122.2631270835255
 30
0.0
 10
472.8266990312378
 20
122.5565954457886
 30
0.0
 10
472.3742740078738
 20
122.8803941011586
 30
0.0
 10
471.5201412333433
 20
123.5745662883034
 30
0.0
 10
471.1169768602843
 20
123.945600442134
 30
0.0
 10
470.3574667033873
 20
124.7345775327194
 30
0.0
 10
470.0011165874344
 20
125.1525161290139
 30
0.0
 10
469.3371868285033
 20
126.0372577484895
 30
0.0
 10
469.0330283868943
 20
126.5000777854478
 30
0.0
 10
468.4893059679338
 20
127.453205192813
 30
0.0
 10
468.2482276406438
 20
127.9454843444251
 30
0.0
 10
467.8303582415038
 20
128.9628629342307
 30
0.0
 10
467.6528753513783
 20
129.4917573687638
 30
0.0
 10
467.2362919638583
 20
131.0896262874142
 30
0.0
 10
467.1061880505718
 20
132.1765210485129
 30
0.0
 10
467.1236855407523
 20
133.2748081643235
 30
0.0
  0
LINE
  5
DD
330
1F
100
AcDbEntity
  8
0
  6
Continuous
 62
     7
370
    25
100
AcDbLine
 10
468.0236855408
 20
509.2634961026
 30
0.0
 11
468.0236855408
 21
133.2627579997
 31
0.0
  0
SPLINE
  5
DE
330
1F
100
AcDbEntity
  8
0
  6
Continuous
 62
     7
370
    25
100
AcDbSpline
210
0.0
220
0.0
230
1.0
 70
     8
 71
     3
 72
    10
 73
     6
 74
     0
 42
0.00000001
 43
0.00000001
 40
0.0
 40
0.0
 40
0.0
 40
0.0
 40
0.5
 40
0.5
 40
1.0
 40
1.0
 40
1.0
 40
1.0
 10
467.1236855407521
 20
133.2748081643261
 30
0.0
 10
467.3593049897711
 20
133.2727998035498
 30
0.0
 10
467.5934735336386
 20
133.2707914427732
 30
0.0
 10
467.9266897540002
 20
133.2667747212204
 30
0.0
 10
468.0236855407513
 20
133.2647663604438
 30
0.0
 10
468.0236855407513
 20
133.2627579996674
 30
0.0
  0
SPLINE
  5
DF
330
1F
100
AcDbEntity
  8
0
  6
Continuous
 62
     7
370
    25
100
AcDbSpline
210
0.0
220
0.0
230
1.0
 70
    24
 71
     3
 72
    14
 73
    10
 74
     0
 42
0.00000001
 43
0.00000001
 40
0.0
 40
0.0
 40
0.0
 40
0.0
 40
0.25
 40
0.25
 40
0.5
 40
0.5
 40
0.75
 40
0.75
 40
1.0
 40
1.0
 40
1.0
 40
1.0
 10
467.1359298869411
 20
509.2392591968346
 30
0.0
 10
467.2419579525679
 20
509.2420968140847
 30
0.0
 10
467.356348973678
 20
509.2451582481763
 30
0.0
 10
467.5778442026693
 20
509.251086100193
 30
0.0
 10
467.6842617551951
 20
509.2539341412377
 30
0.0
 10
467.8599348063372
 20
509.2586356594388
 30
0.0
 10
467.9285959680067
 20
509.2604732304221
 30
0.0
 10
468.0162839093737
 20
509.2628200129809
 30
0.0
 10
468.0356078575443
 20
509.2633371776428
 30
0.0
 10
468.0356078575702
 20
509.2633371776438
 30
0.0
  0
LINE
  5
E0
330
1F
100
AcDbEntity
  8
0
  6
Continuous
 62
     7
370
    25
100
AcDbLine
 10
477.4188667851
 20
121.5264059789
 30
0.0
 11
477.9997953754
 21
121.4703353372
 31
0.0
  0
LINE
  5
E1
330
1F
100
AcDbEntity
  8
0
  6
Continuous
 62
     7
370
    25
100
AcDbLine
 10
479.3262776629
 20
121.3423046042
 30
0.0
 11
480.0231362231
 21
121.2750445186
 31
0.0
  0
LINE
  5
E2
330
1F
100
AcDbEntity
  8
0
  6
Continuous
 62
     7
370
    25
100
AcDbLine
 10
454.0242347904
 20
521.2512096611
 30
0.0
 11
454.7210925712
 21
521.1839497197
 31
0.0
  0
LINE
  5
E3
330
1F
100
AcDbEntity
  8
0
  6
Continuous
 62
     7
370
    25
100
AcDbLine
 10
456.0475785751
 20
521.0559187595
 30
0.0
 11
456.6285072161
 21
520.9998481703
 31
0.0
  0
LINE
  5
E4
330
1F
100
AcDbEntity
  8
0
  6
Continuous
 62
     7
370
    25
100
AcDbLine
 10
456.6285010443
 20
121.5264060663
 30
0.0
 11
456.04758096
 21
121.4703361256
 31
0.0
  0
LINE
  5
E5
330
1F
100
AcDbEntity
  8
0
  6
Continuous
 62
     7
370
    25
100
AcDbLine
 10
454.5832791763
 20
121.3290028915
 30
0.0
 11
454.0242347709
 21
121.2750443737
 31
0.0
  0
LINE
  5
E6
330
1F
100
AcDbEntity
  8
0
  6
Continuous
 62
     7
370
    25
100
AcDbLine
 10
480.0231362897
 20
521.2512103284
 30
0.0
 11
479.4640918937
 21
521.1972516503
 31
0.0
  0
LINE
  5
E7
330
1F
100
AcDbEntity
  8
0
  6
Continuous
 62
     7
370
    25
100
AcDbLine
 10
477.9997924817
 20
521.0559182226
 30
0.0
 11
477.4188718357
 21
520.9998480601
 31
0.0
  0
SPLINE
  5
E8
330
1F
100
AcDbEntity
  8
0
  6
Continuous
 62
     7
370
    25
100
AcDbSpline
210
0.0
220
0.0
230
1.0
 70
     8
 71
     3
 72
     8
 73
     4
 74
     0
 42
0.00000001
 43
0.00000001
 40
0.0
 40
0.0
 40
0.0
 40
0.0
 40
1.0
 40
1.0
 40
1.0
 40
1.0
 10
460.2738410520167
 20
123.0268043038773
 30
0.0
 10
463.73210370225
 20
125.1833908398579
 30
0.0
 10
466.1238845970921
 20
129.0744610086755
 30
0.0
 10
466.0117676910175
 20
133.2625987621118
 30
0.0
  0
SPLINE
  5
E9
330
1F
100
AcDbEntity
  8
0
  6
Continuous
 62
     7
370
    25
100
AcDbSpline
210
0.0
220
0.0
230
1.0
 70
     8
 71
     3
 72
     8
 73
     4
 74
     0
 42
0.00000001
 43
0.00000001
 40
0.0
 40
0.0
 40
0.0
 40
0.0
 40
1.0
 40
1.0
 40
1.0
 40
1.0
 10
473.7735285988546
 20
519.4994497665557
 30
0.0
 10
470.3152668926475
 20
517.3428647937712
 30
0.0
 10
467.923489618282
 20
513.4517980342475
 30
0.0
 10
468.0356028529438
 20
509.2636555540498
 30
0.0
  0
SPLINE
  5
EA
330
1F
100
AcDbEntity
  8
0
  6
Continuous
 62
     7
370
    25
100
AcDbSpline
210
0.0
220
0.0
230
1.0
 70
     8
 71
     3
 72
     8
 73
     4
 74
     0
 42
0.00000001
 43
0.00000001
 40
0.0
 40
0.0
 40
0.0
 40
0.0
 40
1.0
 40
1.0
 40
1.0
 40
1.0
 10
468.0356044775873
 20
133.2625985060099
 30
0.0
 10
467.9234773111422
 20
129.0744741888325
 30
0.0
 10
470.3152634788974
 20
125.1833952461499
 30
0.0
 10
473.773531650463
 20
123.0268041978635
 30
0.0
  0
SPLINE
  5
EB
330
1F
100
AcDbEntity
  8
0
  6
Continuous
 62
     7
370
    25
100
AcDbSpline
210
0.0
220
0.0
230
1.0
 70
     8
 71
     3
 72
     8
 73
     4
 74
     0
 42
0.00000001
 43
0.00000001
 40
0.0
 40
0.0
 40
0.0
 40
0.0
 40
1.0
 40
1.0
 40
1.0
 40
1.0
 10
466.0117673367007
 20
509.2636553902181
 30
0.0
 10
466.1238868076704
 20
513.4517848879779
 30
0.0
 10
463.7321057969639
 20
517.3428606919381
 30
0.0
 10
460.2738419926019
 20
519.4994500739982
 30
0.0
  0
SPLINE
  5
EC
330
1F
100
AcDbEntity
  8
0
  6
Continuous
 62
     7
370
    25
100
AcDbSpline
210
0.0
220
0.0
230
1.0
 70
     8
 71
     3
 72
    14
 73
    10
 74
     0
 42
0.00000001
 43
0.00000001
 40
0.0
 40
0.0
 40
0.0
 40
0.0
 40
0.25
 40
0.25
 40
0.5
 40
0.5
 40
0.75
 40
0.75
 40
1.0
 40
1.0
 40
1.0
 40
1.0
 10
656.0238951495313
 20
121.2631270835134
 30
0.0
 10
656.023877682315
 20
121.2631270835134
 30
0.0
 10
656.0238602150987
 20
121.5754549636119
 30
0.0
 10
656.023825280666
 20
122.7776904238201
 30
0.0
 10
656.0238078134497
 20
123.6671249756129
 30
0.0
 10
656.0237728790171
 20
125.8885664454362
 30
0.0
 10
656.0237554118007
 20
127.2196993211072
 30
0.0
 10
656.023720477368
 20
130.1221524740567
 30
0.0
 10
656.0237030101516
 20
131.6923307599594
 30
0.0
 10
656.0236855429354
 20
133.263127087049
 30
0.0
  0
SPLINE
  5
ED
330
1F
100
AcDbEntity
  8
0
  6
Continuous
 62
     7
370
    25
100
AcDbSpline
210
0.0
220
0.0
230
1.0
 70
     8
 71
     3
 72
    14
 73
    10
 74
     0
 42
0.00000001
 43
0.00000001
 40
0.0
 40
0.0
 40
0.0
 40
0.0
 40
0.25
 40
0.25
 40
0.5
 40
0.5
 40
0.75
 40
0.75
 40
1.0
 40
1.0
 40
1.0
 40
1.0
 10
656.0236855429354
 20
133.2631270870486
 30
0.0
 10
657.5944818694858
 20
133.2631096192849
 30
0.0
 10
659.1646601547014
 20
133.263092151521
 30
0.0
 10
662.0671133062436
 20
133.2630572159936
 30
0.0
 10
663.3982461811967
 20
133.2630397482297
 30
0.0
 10
665.6196876497972
 20
133.2630048127021
 30
0.0
 10
666.5091222010877
 20
133.2629873449384
 30
0.0
 10
667.7113576606732
 20
133.262952409411
 30
0.0
 10
668.0236855406532
 20
133.2629349416471
 30
0.0
 10
668.0236855407513
 20
133.2629174738834
 30
0.0
  0
SPLINE
  5
EE
330
1F
100
AcDbEntity
  8
0
  6
Continuous
 62
     7
370
    25
100
AcDbSpline
210
0.0
220
0.0
230
1.0
 70
     8
 71
     3
 72
    14
 73
    10
 74
     0
 42
0.00000001
 43
0.00000001
 40
0.0
 40
0.0
 40
0.0
 40
0.0
 40
0.25
 40
0.25
 40
0.5
 40
0.5
 40
0.75
 40
0.75
 40
1.0
 40
1.0
 40
1.0
 40
1.0
 10
454.0236855452964
 20
509.2631270921474
 30
0.0
 10
455.5944818713658
 20
509.2631445536996
 30
0.0
 10
457.1646601562737
 20
509.2631620152518
 30
0.0
 10
460.0671133072807
 20
509.2631969383562
 30
0.0
 10
461.3982461820027
 20
509.2632143999084
 30
0.0
 10
463.6196876500016
 20
509.2632493230128
 30
0.0
 10
464.509122200919
 20
509.263266784565
 30
0.0
 10
465.7113576595395
 20
509.2633017076694
 30
0.0
 10
466.0236855389268
 20
509.2633191692216
 30
0.0
 10
466.023685538375
 20
509.2633366307738
 30
0.0
  0
SPLINE
  5
EF
330
1F
100
AcDbEntity
  8
0
  6
Continuous
 62
     7
370
    25
100
AcDbSpline
210
0.0
220
0.0
230
1.0
 70
     8
 71
     3
 72
    14
 73
    10
 74
     0
 42
0.00000001
 43
0.00000001
 40
0.0
 40
0.0
 40
0.0
 40
0.0
 40
0.2500000000000001
 40
0.2500000000000001
 40
0.5
 40
0.5
 40
0.7499999999999999
 40
0.7499999999999999
 40
1.0
 40
1.0
 40
1.0
 40
1.0
 10
454.0236855106299
 20
521.2631270749108
 30
0.0
 10
454.0233917449285
 20
521.2630996304155
 30
0.0
 10
454.0231733820923
 20
520.9507513506817
 30
0.0
 10
454.0229094173978
 20
519.7484912320025
 30
0.0
 10
454.0228636949476
 20
518.8590524101056
 30
0.0
 10
454.0229204600238
 20
516.637616246922
 30
0.0
 10
454.0230225105032
 20
515.3064929071602
 30
0.0
 10
454.0233118705668
 20
512.4040667912908
 30
0.0
 10
454.0234985244597
 20
510.8339059452974
 30
0.0
 10
454.0236855452964
 20
509.2631270921474
 30
0.0
  0
SPLINE
  5
F0
330
1F
100
AcDbEntity
  8
0
  6
Continuous
 62
     7
370
    25
100
AcDbSpline
210
0.0
220
0.0
230
1.0
 70
     8
 71
     3
 72
    14
 73
    10
 74
     0
 42
0.00000001
 43
0.00000001
 40
0.0
 40
0.0
 40
0.0
 40
0.0
 40
0.2499999999999999
 40
0.2499999999999999
 40
0.4999999999999999
 40
0.4999999999999999
 40
0.7499999999999999
 40
0.7499999999999999
 40
1.0
 40
1.0
 40
1.0
 40
1.0
 10
454.0238951495328
 20
121.2631270835216
 30
0.0
 10
454.0238776821344
 20
121.2631270835215
 30
0.0
 10
454.023860214736
 20
121.5754549635051
 30
0.0
 10
454.0238252799391
 20
122.7776904232861
 30
0.0
 10
454.0238078125407
 20
123.6671249747682
 30
0.0
 10
454.0237728777439
 20
125.8885664438687
 30
0.0
 10
454.0237554103455
 20
127.2196993191289
 30
0.0
 10
454.0237204755487
 20
130.1221524712915
 30
0.0
 10
454.0237030081502
 20
131.692330756819
 30
0.0
 10
454.0236855407518
 20
133.2631270836224
 30
0.0
  0
SPLINE
  5
F1
330
1F
100
AcDbEntity
  8
0
  6
Continuous
 62
     7
370
    25
100
AcDbSpline
210
0.0
220
0.0
230
1.0
 70
     8
 71
     3
 72
    14
 73
    10
 74
     0
 42
0.00000001
 43
0.00000001
 40
0.0
 40
0.0
 40
0.0
 40
0.0
 40
0.25
 40
0.25
 40
0.5
 40
0.5
 40
0.75
 40
0.75
 40
1.0
 40
1.0
 40
1.0
 40
1.0
 10
454.0236855407517
 20
133.2631270836219
 30
0.0
 10
455.5944818674841
 20
133.2631096161444
 30
0.0
 10
457.1646601529382
 20
133.2630921486669
 30
0.0
 10
460.0671133049809
 20
133.2630572137118
 30
0.0
 10
461.3982461801949
 20
133.2630397462342
 30
0.0
 10
463.619687649255
 20
133.2630048112792
 30
0.0
 10
464.5091222007433
 20
133.2629873438018
 30
0.0
 10
465.7113576606002
 20
133.2629524088466
 30
0.0
 10
466.0236855406533
 20
133.2629349413692
 30
0.0
 10
466.0236855407514
 20
133.2629174738917
 30
0.0
  0
LINE
  5
F2
330
1F
100
AcDbEntity
  8
0
  6
Continuous
 62
     7
370
    25
100
AcDbLine
 10
138.0236855408
 20
509.2631270979
 30
0.0
 11
454.0236855453
 21
509.2631270979
 31
0.0
  0
SPLINE
  5
F3
330
1F
100
AcDbEntity
  8
0
  6
Continuous
 62
     7
370
    25
100
AcDbSpline
210
0.0
220
0.0
230
1.0
 70
     8
 71
     3
 72
    14
 73
    10
 74
     0
 42
0.00000001
 43
0.00000001
 40
0.0
 40
0.0
 40
0.0
 40
0.0
 40
0.2500000000000001
 40
0.2500000000000001
 40
0.5000000000000001
 40
0.5000000000000001
 40
0.7500000000000001
 40
0.7500000000000001
 40
1.0
 40
1.0
 40
1.0
 40
1.0
 10
138.0234759483483
 20
521.2631270835215
 30
0.0
 10
138.0234934143818
 20
521.2631270835213
 30
0.0
 10
138.0235108804154
 20
520.9507992037825
 30
0.0
 10
138.0235458124826
 20
519.748563744908
 30
0.0
 10
138.0235632785162
 20
518.8591291940867
 30
0.0
 10
138.0235982105833
 20
516.6376877265219
 30
0.0
 10
138.0236156766169
 20
515.3065548521345
 30
0.0
 10
138.0236506086841
 20
512.4041017016441
 30
0.0
 10
138.0236680747177
 20
510.8339234169136
 30
0.0
 10
138.0236855407512
 20
509.2631270907184
 30
0.0
  0
LINE
  5
F4
330
1F
100
AcDbEntity
  8
0
  6
Continuous
 62
     7
370
    25
100
AcDbLine
 10
454.0236855408
 20
509.2631270921
 30
0.0
 11
454.0236855408
 21
133.2631270836
 31
0.0
  0
SPLINE
  5
F5
330
1F
100
AcDbEntity
  8
0
  6
Continuous
 62
     7
370
    25
100
AcDbSpline
210
0.0
220
0.0
230
1.0
 70
     8
 71
     3
 72
    14
 73
    10
 74
     0
 42
0.00000001
 43
0.00000001
 40
0.0
 40
0.0
 40
0.0
 40
0.0
 40
0.2499999999999999
 40
0.2499999999999999
 40
0.4999999999999999
 40
0.4999999999999999
 40
0.7499999999999998
 40
0.7499999999999998
 40
1.0
 40
1.0
 40
1.0
 40
1.0
 10
656.0236855452983
 20
509.2631270906557
 30
0.0
 10
657.594481871384
 20
509.2631445523316
 30
0.0
 10
659.1646601562313
 20
509.2631620140075
 30
0.0
 10
662.0671133071127
 20
509.2631969373593
 30
0.0
 10
663.3982461817709
 20
509.2632143990353
 30
0.0
 10
665.6196876497692
 20
509.2632493223871
 30
0.0
 10
666.5091222007509
 20
509.2632667840631
 30
0.0
 10
667.7113576596983
 20
509.2633017074148
 30
0.0
 10
668.0236855393487
 20
509.2633191690907
 30
0.0
 10
668.0236855391539
 20
509.2633366307667
 30
0.0
  0
SPLINE
  5
F6
330
1F
100
AcDbEntity
  8
0
  6
Continuous
 62
     7
370
    25
100
AcDbSpline
210
0.0
220
0.0
230
1.0
 70
     8
 71
     3
 72
    14
 73
    10
 74
     0
 42
0.00000001
 43
0.00000001
 40
0.0
 40
0.0
 40
0.0
 40
0.0
 40
0.2499999999999999
 40
0.2499999999999999
 40
0.4999999999999999
 40
0.4999999999999999
 40
0.7499999999999999
 40
0.7499999999999999
 40
1.0
 40
1.0
 40
1.0
 40
1.0
 10
656.0236855174194
 20
521.2631270756935
 30
0.0
 10
656.0234649581002
 20
521.2630996308078
 30
0.0
 10
656.0233010113225
 20
520.9507513507358
 30
0.0
 10
656.023102826833
 20
519.7484912315136
 30
0.0
 10
656.0230684985803
 20
518.8590524094119
 30
0.0
 10
656.023111118195
 20
516.6376162459201
 30
0.0
 10
656.0231877379271
 20
515.3064929060547
 30
0.0
 10
656.0234049899167
 20
512.4040667900007
 30
0.0
 10
656.0235451298807
 20
510.8339059439256
 30
0.0
 10
656.0236855452983
 20
509.2631270906557
 30
0.0
  0
LINE
  5
F7
330
1F
100
AcDbEntity
  8
0
  6
Continuous
 62
     7
370
    25
100
AcDbLine
 10
480.0236855407
 20
509.2631270979
 30
0.0
 11
656.0236855453
 21
509.2631270979
 31
0.0
  0
SPLINE
  5
F8
330
1F
100
AcDbEntity
  8
0
  6
Continuous
 62
     7
370
    25
100
AcDbSpline
210
0.0
220
0.0
230
1.0
 70
     8
 71
     3
 72
    14
 73
    10
 74
     0
 42
0.00000001
 43
0.00000001
 40
0.0
 40
0.0
 40
0.0
 40
0.0
 40
0.2500000000000001
 40
0.2500000000000001
 40
0.5000000000000001
 40
0.5000000000000001
 40
0.7500000000000001
 40
0.7500000000000001
 40
1.0
 40
1.0
 40
1.0
 40
1.0
 10
480.0234759483468
 20
521.2631270835138
 30
0.0
 10
480.0234934143804
 20
521.2631270835142
 30
0.0
 10
480.0235108804141
 20
520.9507992037758
 30
0.0
 10
480.0235458124814
 20
519.7485637449018
 30
0.0
 10
480.0235632785149
 20
518.859129194081
 30
0.0
 10
480.0235982105822
 20
516.6376877265166
 30
0.0
 10
480.0236156766158
 20
515.3065548521291
 30
0.0
 10
480.0236506086831
 20
512.4041017016392
 30
0.0
 10
480.0236680747166
 20
510.8339234169087
 30
0.0
 10
480.0236855407503
 20
509.2631270907137
 30
0.0
  0
LINE
  5
F9
330
1F
100
AcDbEntity
  8
0
  6
Continuous
 62
     7
370
    25
100
AcDbLine
 10
656.0236855437
 20
509.2631270907
 30
0.0
 11
656.0236855437
 21
133.263127087
 31
0.0
  0
SPLINE
  5
FA
330
1F
100
AcDbEntity
  8
0
  6
Continuous
 62
     7
370
    25
100
AcDbSpline
210
0.0
220
0.0
230
1.0
 70
     8
 71
     3
 72
    10
 73
     6
 74
     0
 42
0.00000001
 43
0.00000001
 40
0.0
 40
0.0
 40
0.0
 40
0.0
 40
0.5
 40
0.5
 40
1.0
 40
1.0
 40
1.0
 40
1.0
 10
469.9324957265756
 20
133.2631278207024
 30
0.0
 10
469.3136563830328
 20
133.26309275828
 30
0.0
 10
468.8332843033842
 20
133.2630576958577
 30
0.0
 10
468.1882631112594
 20
133.2629875710132
 30
0.0
 10
468.0236855414195
 20
133.2629525085908
 30
0.0
 10
468.023685542032
 20
133.2629174461686
 30
0.0
  0
SPLINE
  5
FB
330
1F
100
AcDbEntity
  8
0
  6
Continuous
 62
     7
370
    25
100
AcDbSpline
210
0.0
220
0.0
230
1.0
 70
     8
 71
     3
 72
    14
 73
    10
 74
     0
 42
0.00000001
 43
0.00000001
 40
0.0
 40
0.0
 40
0.0
 40
0.0
 40
0.25
 40
0.25
 40
0.5
 40
0.5
 40
0.75
 40
0.75
 40
1.0
 40
1.0
 40
1.0
 40
1.0
 10
480.0236855388599
 20
133.2631270848415
 30
0.0
 10
479.0246814317866
 20
133.2631271461633
 30
0.0
 10
478.0257419131555
 20
133.263127207485
 30
0.0
 10
476.0897239245078
 20
133.2631273301285
 30
0.0
 10
475.1527706235705
 20
133.2631273914502
 30
0.0
 10
473.3988766926926
 20
133.2631275140936
 30
0.0
 10
472.5820494569921
 20
133.2631275754154
 30
0.0
 10
471.1191122499791
 20
133.2631276980588
 30
0.0
 10
470.4730968617258
 20
133.2631277593806
 30
0.0
 10
469.9324957265756
 20
133.2631278207024
 30
0.0
  0
SPLINE
  5
FC
330
1F
100
AcDbEntity
  8
0
  6
Continuous
 62
     7
370
    25
100
AcDbSpline
210
0.0
220
0.0
230
1.0
 70
     8
 71
     3
 72
    14
 73
    10
 74
     0
 42
0.00000001
 43
0.00000001
 40
0.0
 40
0.0
 40
0.0
 40
0.0
 40
0.2500000000000001
 40
0.2500000000000001
 40
0.5000000000000001
 40
0.5000000000000001
 40
0.7500000000000001
 40
0.7500000000000001
 40
1.0
 40
1.0
 40
1.0
 40
1.0
 10
480.0236855572179
 20
121.2631270907562
 30
0.0
 10
480.0238372486135
 20
121.2631545360754
 30
0.0
 10
480.0239500043185
 20
121.5755028167533
 30
0.0
 10
480.0240863073512
 20
122.7777629374256
 30
0.0
 10
480.0241099169489
 20
123.6672017603706
 30
0.0
 10
480.0240806051473
 20
125.8886379256154
 30
0.0
 10
480.0240279094256
 20
127.2197612663892
 30
0.0
 10
480.0238784928589
 20
130.122187384123
 30
0.0
 10
480.0237821105926
 20
131.6923482309679
 30
0.0
 10
480.0236855388599
 20
133.2631270848415
 30
0.0
  0
SPLINE
  5
FD
330
1F
100
AcDbEntity
  8
0
  6
Continuous
 62
     7
370
    25
100
AcDbSpline
210
0.0
220
0.0
230
1.0
 70
     8
 71
     3
 72
    10
 73
     6
 74
     0
 42
0.00000001
 43
0.00000001
 40
0.0
 40
0.0
 40
0.0
 40
0.0
 40
0.5
 40
0.5
 40
1.0
 40
1.0
 40
1.0
 40
1.0
 10
127.9324885803379
 20
133.2631278205243
 30
0.0
 10
127.313651486167
 20
133.2630927581101
 30
0.0
 10
126.8332812168399
 20
133.263057695696
 30
0.0
 10
126.1882624735814
 20
133.2629875708678
 30
0.0
 10
126.023685541465
 20
133.2629525084537
 30
0.0
 10
126.0236855420775
 20
133.2629174460396
 30
0.0
  0
SPLINE
  5
FE
330
1F
100
AcDbEntity
  8
0
  6
Continuous
 62
     7
370
    25
100
AcDbSpline
210
0.0
220
0.0
230
1.0
 70
     8
 71
     3
 72
    14
 73
    10
 74
     0
 42
0.00000001
 43
0.00000001
 40
0.0
 40
0.0
 40
0.0
 40
0.0
 40
0.25
 40
0.25
 40
0.5
 40
0.5
 40
0.75
 40
0.75
 40
1.0
 40
1.0
 40
1.0
 40
1.0
 10
138.0236855387779
 20
133.263127084627
 30
0.0
 10
137.0246803312212
 20
133.2631271459519
 30
0.0
 10
136.0257397124613
 20
133.2631272072765
 30
0.0
 10
134.089719726997
 20
133.2631273299262
 30
0.0
 10
133.1527655300518
 20
133.2631273912509
 30
0.0
 10
131.3988701937153
 20
133.2631275139004
 30
0.0
 10
130.582042449154
 20
133.2631275752252
 30
0.0
 10
129.1191047537845
 20
133.2631276978747
 30
0.0
 10
128.4730893864829
 20
133.2631277591995
 30
0.0
 10
127.9324885803379
 20
133.2631278205243
 30
0.0
  0
SPLINE
  5
FF
330
1F
100
AcDbEntity
  8
0
  6
Continuous
 62
     7
370
    25
100
AcDbSpline
210
0.0
220
0.0
230
1.0
 70
     8
 71
     3
 72
    14
 73
    10
 74
     0
 42
0.00000001
 43
0.00000001
 40
0.0
 40
0.0
 40
0.0
 40
0.0
 40
0.2500000000000001
 40
0.2500000000000001
 40
0.5000000000000001
 40
0.5000000000000001
 40
0.7500000000000001
 40
0.7500000000000001
 40
1.0
 40
1.0
 40
1.0
 40
1.0
 10
138.0236855584428
 20
121.2631270908042
 30
0.0
 10
138.023847662787
 20
121.2631545361018
 30
0.0
 10
138.0239681586747
 20
121.5755028167565
 30
0.0
 10
138.0241138183066
 20
122.7777629373816
 30
0.0
 10
138.0241390485955
 20
123.667201760303
 30
0.0
 10
138.0241077246575
 20
125.8886379255021
 30
0.0
 10
138.0240514116001
 20
127.2197612662539
 30
0.0
 10
138.0238917382312
 20
130.1221873839462
 30
0.0
 10
138.0237887397402
 20
131.6923482307715
 30
0.0
 10
138.0236855387779
 20
133.263127084627
 30
0.0
  0
LINE
  5
100
330
1F
100
AcDbEntity
  8
0
  6
Continuous
 62
     7
370
    25
100
AcDbLine
 10
138.0236855388
 20
133.2631270837
 30
0.0
 11
454.0236855408
 21
133.2631270837
 31
0.0
  0
LINE
  5
101
330
1F
100
AcDbEntity
  8
0
  6
Continuous
 62
     7
370
    25
100
AcDbLine
 10
480.0236855389
 20
133.263127084
 30
0.0
 11
656.0236855429
 21
133.263127084
 31
0.0
  0
LINE
  5
102
330
1F
100
AcDbEntity
  8
0
  6
Continuous
 62
     7
370
    25
100
AcDbLine
 10
138.0236855408
 20
509.2631270907
 30
0.0
 11
138.0236855408
 21
133.2631270846
 31
0.0
  0
SPLINE
  5
103
330
1F
100
AcDbEntity
  8
0
  6
Continuous
 62
     7
370
    25
100
AcDbSpline
210
0.0
220
0.0
230
1.0
 70
     8
 71
     3
 72
    14
 73
    10
 74
     0
 42
0.00000001
 43
0.00000001
 40
0.0
 40
0.0
 40
0.0
 40
0.0
 40
0.2500000000000001
 40
0.2500000000000001
 40
0.5000000000000001
 40
0.5000000000000001
 40
0.7500000000000002
 40
0.7500000000000002
 40
1.0
 40
1.0
 40
1.0
 40
1.0
 10
138.0236855407512
 20
509.2631270907184
 30
0.0
 10
136.4528892140188
 20
509.2631445568161
 30
0.0
 10
134.8827109285646
 20
509.2631620229139
 30
0.0
 10
131.9802577765218
 20
509.2631969551095
 30
0.0
 10
130.6491249013077
 20
509.2632144212072
 30
0.0
 10
128.4276834322475
 20
509.2632493534027
 30
0.0
 10
127.5382488807593
 20
509.2632668195005
 30
0.0
 10
126.3360134209025
 20
509.263301751696
 30
0.0
 10
126.0236855408494
 20
509.2633192177938
 30
0.0
 10
126.0236855407514
 20
509.2633366838916
 30
0.0
  0
LINE
  5
104
330
1F
100
AcDbEntity
  8
0
  6
Continuous
 62
     7
370
    25
100
AcDbLine
 10
480.0236855408
 20
509.2631270907
 30
0.0
 11
480.0236855408
 21
133.2631270848
 31
0.0
  0
SPLINE
  5
105
330
1F
100
AcDbEntity
  8
0
  6
Continuous
 62
     7
370
    25
100
AcDbSpline
210
0.0
220
0.0
230
1.0
 70
     8
 71
     3
 72
    14
 73
    10
 74
     0
 42
0.00000001
 43
0.00000001
 40
0.0
 40
0.0
 40
0.0
 40
0.0
 40
0.2499999999999999
 40
0.2499999999999999
 40
0.4999999999999999
 40
0.4999999999999999
 40
0.7499999999999998
 40
0.7499999999999998
 40
1.0
 40
1.0
 40
1.0
 40
1.0
 10
480.0236855407498
 20
509.2631270907137
 30
0.0
 10
478.4528892140175
 20
509.2631445568114
 30
0.0
 10
476.8827109285633
 20
509.2631620229091
 30
0.0
 10
473.9802577765207
 20
509.2631969551044
 30
0.0
 10
472.6491249013066
 20
509.263214421202
 30
0.0
 10
470.4276834322466
 20
509.2632493533973
 30
0.0
 10
469.5382488807585
 20
509.2632668194948
 30
0.0
 10
468.336013420902
 20
509.2633017516901
 30
0.0
 10
468.023685540849
 20
509.2633192177878
 30
0.0
 10
468.0236855407513
 20
509.2633366838854
 30
0.0
  0
ARC
  5
106
330
1F
100
AcDbEntity
  8
0
  6
Continuous
 62
     7
370
    25
100
AcDbCircle
 10
296.0236855545
 20
401.2601465387
 30
0.0
 40
55.32500000000007
100
AcDbArc
 50
88.0418745297
 51
268.0418745297
  0
ARC
  5
107
330
1F
100
AcDbEntity
  8
0
  6
Continuous
 62
     7
370
    25
100
AcDbCircle
 10
296.0236855545
 20
401.2601465387
 30
0.0
 40
55.32500000000007
100
AcDbArc
 50
268.0418745297
 51
88.0418745297
  0
ARC
  5
108
330
1F
100
AcDbEntity
  8
0
  6
Continuous
 62
     7
370
    25
100
AcDbCircle
 10
568.0236855545
 20
401.2601465388
 30
0.0
 40
55.32500000000008
100
AcDbArc
 50
88.0418745297
 51
268.0418745297
  0
ARC
  5
109
330
1F
100
AcDbEntity
  8
0
  6
Continuous
 62
     7
370
    25
100
AcDbCircle
 10
568.0236855545
 20
401.2601465388
 30
0.0
 40
55.32500000000008
100
AcDbArc
 50
268.0418745297
 51
88.0418745297
  0
ARC
  5
10A
330
1F
100
AcDbEntity
  8
0
  6
Continuous
 62
     7
370
    25
100
AcDbCircle
 10
296.0236855545
 20
401.2601465387
 30
0.0
 40
43.23139268164132
100
AcDbArc
 50
268.0418745297
 51
30.0
  0
ARC
  5
10B
330
1F
100
AcDbEntity
  8
0
  6
Continuous
 62
     7
370
    25
100
AcDbCircle
 10
296.0236855545
 20
401.2601465387
 30
0.0
 40
43.23139268164119
100
AcDbArc
 50
30.0
 51
88.0418745297
  0
ARC
  5
10C
330
1F
100
AcDbEntity
  8
0
  6
Continuous
 62
     7
370
    25
100
AcDbCircle
 10
296.0236855545
 20
401.2601465387
 30
0.0
 40
43.23139268164132
100
AcDbArc
 50
210.0
 51
268.0418745297
  0
ARC
  5
10D
330
1F
100
AcDbEntity
  8
0
  6
Continuous
 62
     7
370
    25
100
AcDbCircle
 10
296.0236855545
 20
401.2601465387
 30
0.0
 40
43.23139268164117
100
AcDbArc
 50
88.0418745297
 51
210.0
  0
ARC
  5
10E
330
1F
100
AcDbEntity
  8
0
  6
Continuous
 62
     7
370
    25
100
AcDbCircle
 10
568.0236855545
 20
401.2601465388
 30
0.0
 40
43.23139268164129
100
AcDbArc
 50
210.0
 51
268.0418745297
  0
ARC
  5
10F
330
1F
100
AcDbEntity
  8
0
  6
Continuous
 62
     7
370
    25
100
AcDbCircle
 10
568.0236855545
 20
401.2601465388
 30
0.0
 40
43.23139268164127
100
AcDbArc
 50
88.0418745297
 51
210.0
  0
ARC
  5
110
330
1F
100
AcDbEntity
  8
0
  6
Continuous
 62
     7
370
    25
100
AcDbCircle
 10
568.0236855545
 20
401.2601465388
 30
0.0
 40
43.23139268164129
100
AcDbArc
 50
268.0418745297
 51
30.0
  0
ARC
  5
111
330
1F
100
AcDbEntity
  8
0
  6
Continuous
 62
     7
370
    25
100
AcDbCircle
 10
568.0236855545
 20
401.2601465388
 30
0.0
 40
43.23139268164111
100
AcDbArc
 50
30.0
 51
88.0418745297
  0
ARC
  5
112
330
1F
100
AcDbEntity
  8
0
  6
Continuous
 62
     7
370
    25
100
AcDbCircle
 10
296.0236855545
 20
401.2601465387
 30
0.0
 40
41.97500000000006
100
AcDbArc
 50
30.0
 51
88.0418745297
  0
ARC
  5
113
330
1F
100
AcDbEntity
  8
0
  6
Continuous
 62
     7
370
    25
100
AcDbCircle
 10
296.0236855545
 20
401.2601465387
 30
0.0
 40
41.97499999999997
100
AcDbArc
 50
88.0418745297
 51
210.0
  0
ARC
  5
114
330
1F
100
AcDbEntity
  8
0
  6
Continuous
 62
     7
370
    25
100
AcDbCircle
 10
296.0236855545
 20
401.2601465387
 30
0.0
 40
41.97500000000002
100
AcDbArc
 50
210.0
 51
268.0418745297
  0
ARC
  5
115
330
1F
100
AcDbEntity
  8
0
  6
Continuous
 62
     7
370
    25
100
AcDbCircle
 10
296.0236855545
 20
401.2601465387
 30
0.0
 40
41.97500000000006
100
AcDbArc
 50
268.0418745297
 51
30.0
  0
ARC
  5
116
330
1F
100
AcDbEntity
  8
0
  6
Continuous
 62
     7
370
    25
100
AcDbCircle
 10
568.0236855545
 20
401.2601465388
 30
0.0
 40
41.97500000000014
100
AcDbArc
 50
30.0
 51
88.0418745297
  0
ARC
  5
117
330
1F
100
AcDbEntity
  8
0
  6
Continuous
 62
     7
370
    25
100
AcDbCircle
 10
568.0236855545
 20
401.2601465388
 30
0.0
 40
41.97499999999998
100
AcDbArc
 50
88.0418745297
 51
210.0
  0
ARC
  5
118
330
1F
100
AcDbEntity
  8
0
  6
Continuous
 62
     7
370
    25
100
AcDbCircle
 10
568.0236855545
 20
401.2601465388
 30
0.0
 40
41.97500000000003
100
AcDbArc
 50
210.0
 51
268.0418745297
  0
ARC
  5
119
330
1F
100
AcDbEntity
  8
0
  6
Continuous
 62
     7
370
    25
100
AcDbCircle
 10
568.0236855545
 20
401.2601465388
 30
0.0
 40
41.97500000000014
100
AcDbArc
 50
268.0418745297
 51
30.0
  0
ARC
  5
11A
330
1F
100
AcDbEntity
  8
0
  6
Continuous
 62
     7
370
    25
100
AcDbCircle
 10
296.0236855545
 20
401.2601465387
 30
0.0
 40
41.84698085272061
100
AcDbArc
 50
210.0
 51
30.0
  0
ARC
  5
11B
330
1F
100
AcDbEntity
  8
0
  6
Continuous
 62
     7
370
    25
100
AcDbCircle
 10
296.0236855545
 20
401.2601465387
 30
0.0
 40
41.84698085272061
100
AcDbArc
 50
30.0
 51
210.0
  0
ARC
  5
11C
330
1F
100
AcDbEntity
  8
0
  6
Continuous
 62
     7
370
    25
100
AcDbCircle
 10
568.0236855545
 20
401.2601465388
 30
0.0
 40
41.84698085272064
100
AcDbArc
 50
210.0
 51
30.0
  0
ARC
  5
11D
330
1F
100
AcDbEntity
  8
0
  6
Continuous
 62
     7
370
    25
100
AcDbCircle
 10
568.0236855545
 20
401.2601465388
 30
0.0
 40
41.84698085272064
100
AcDbArc
 50
30.0
 51
210.0
  0
ARC
  5
11E
330
1F
100
AcDbEntity
  8
0
  6
Continuous
 62
     8
370
    25
100
AcDbCircle
 10
568.0236855545
 20
401.2601465388
 30
0.0
 40
37.14879404600021
100
AcDbArc
 50
163.9596319239
 51
185.5703497793
  0
SPLINE
  5
11F
330
1F
100
AcDbEntity
  8
0
  6
Continuous
 62
     8
370
    25
100
AcDbSpline
210
0.0
220
0.0
230
1.0
 70
     8
 71
     3
 72
    12
 73
     8
 74
     0
 42
0.00000001
 43
0.00000001
 40
0.0
 40
0.0
 40
0.0
 40
0.0
 40
0.2636005345609593
 40
0.4531130705265086
 40
0.6509913616037062
 40
0.8488696526565352
 40
1.0
 40
1.0
 40
1.0
 40
1.0
 10
533.1267914744071
 20
411.2932836922585
 30
0.0
 10
533.0002688358326
 20
411.3296599698087
 30
0.0
 10
532.7827842190012
 20
411.3921885486773
 30
0.0
 10
532.5213084372444
 20
411.4673649329848
 30
0.0
 10
532.3440506651305
 20
411.5183279657361
 30
0.0
 10
532.2384565934752
 20
411.5486871088157
 30
0.0
 10
532.2327193168626
 20
411.5503366219063
 30
0.0
 10
532.2302349181631
 20
411.5510509064796
 30
0.0
  0
SPLINE
  5
120
330
1F
100
AcDbEntity
  8
0
  6
Continuous
 62
     8
370
    25
100
AcDbSpline
210
0.0
220
0.0
230
1.0
 70
     8
 71
     3
 72
    12
 73
     8
 74
     0
 42
0.00000001
 43
0.00000001
 40
0.0
 40
0.0
 40
0.0
 40
0.0
 40
0.1511297784501084
 40
0.349007742623987
 40
0.5468857068222287
 40
0.7363979297284361
 40
1.0
 40
1.0
 40
1.0
 40
1.0
 10
603.8171361506164
 20
390.9692421826821
 30
0.0
 10
603.8146517528595
 20
390.969956466977
 30
0.0
 10
603.8089144715523
 20
390.9716059814
 30
0.0
 10
603.703320438195
 20
391.0019651136299
 30
0.0
 10
603.5260626743275
 20
391.0529281433753
 30
0.0
 10
603.2645860923158
 20
391.1281047603251
 30
0.0
 10
603.0471003971974
 20
391.1906336408611
 30
0.0
 10
602.920576735616
 20
391.2270102076769
 30
0.0
  0
ARC
  5
121
330
1F
100
AcDbEntity
  8
0
  6
Continuous
 62
     8
370
    25
100
AcDbCircle
 10
568.0236855545
 20
401.2601465388
 30
0.0
 40
37.14879404600005
100
AcDbArc
 50
343.9596319004
 51
5.5703497466
  0
LINE
  5
122
330
1F
100
AcDbEntity
  8
0
  6
Continuous
 62
     8
370
    25
100
AcDbLine
 10
259.7831370643
 20
380.3366561123
 30
0.0
 11
259.6722692306
 21
380.2726465387
 31
0.0
  0
LINE
  5
123
330
1F
100
AcDbEntity
  8
0
  6
Continuous
 62
     8
370
    25
100
AcDbLine
 10
332.2642340446
 20
422.183636965
 30
0.0
 11
332.3751018783
 21
422.2476465387
 31
0.0
  0
LINE
  5
124
330
1F
100
AcDbEntity
  8
0
  6
Continuous
 62
     8
370
    25
100
AcDbLine
 10
531.7831370643
 20
380.3366561124
 30
0.0
 11
531.6722692306
 21
380.2726465388
 31
0.0
  0
LINE
  5
125
330
1F
100
AcDbEntity
  8
0
  6
Continuous
 62
     8
370
    25
100
AcDbLine
 10
604.2642340446
 20
422.1836369652
 30
0.0
 11
604.3751018783
 21
422.2476465388
 31
0.0
  0
ENDSEC
  0
SECTION
  2
OBJECTS
  0
DICTIONARY
  5
C
330
0
100
AcDbDictionary
281
     1
  3
ACAD_GROUP
350
D
  3
ACAD_LAYOUT
350
1A
  3
ACAD_MLINESTYLE
350
17
  3
ACAD_PLOTSETTINGS
350
19
  3
ACAD_PLOTSTYLENAME
350
E
  3
ACAD_SCALELIST
350
47
  3
DWGPROPS
350
126
  0
DICTIONARY
  5
D
102
{ACAD_REACTORS
330
C
102
}
330
C
100
AcDbDictionary
281
     1
  0
DICTIONARY
  5
1A
102
{ACAD_REACTORS
330
C
102
}
330
C
100
AcDbDictionary
281
     1
  3
Layout1
350
1E
  3
Layout2
350
26
  3
Model
350
22
  0
DICTIONARY
  5
17
102
{ACAD_REACTORS
330
C
102
}
330
C
100
AcDbDictionary
281
     1
  3
Standard
350
18
  0
DICTIONARY
  5
19
102
{ACAD_REACTORS
330
C
102
}
330
C
100
AcDbDictionary
281
     1
  0
ACDBDICTIONARYWDFLT
  5
E
102
{ACAD_REACTORS
330
C
102
}
330
C
100
AcDbDictionary
281
     1
  3
Normal
350
F
100
AcDbDictionaryWithDefault
340
F
  0
DICTIONARY
  5
47
102
{ACAD_REACTORS
330
C
102
}
330
C
100
AcDbDictionary
281
     1
  3
A0
350
48
  3
A1
350
49
  3
A2
350
4A
  3
A3
350
4B
  3
A4
350
4C
  3
A5
350
4D
  3
A6
350
4E
  3
A7
350
4F
  3
A8
350
50
  3
A9
350
51
  3
B0
350
52
  3
B1
350
53
  3
B2
350
54
  3
B3
350
55
  3
B4
350
56
  3
B5
350
57
  3
B6
350
58
  3
B7
350
59
  3
B8
350
5A
  3
B9
350
5B
  3
C0
350
5C
  3
C1
350
5D
  3
C2
350
5E
  3
C3
350
5F
  3
C4
350
60
  3
C5
350
61
  3
C6
350
62
  3
C7
350
63
  3
C8
350
64
  3
C9
350
65
  3
D0
350
66
  3
D1
350
67
  3
D2
350
68
  0
XRECORD
  5
126
102
{ACAD_REACTORS
330
C
102
}
330
C
100
AcDbXrecord
280
     1
  1
DWGPROPS COOKIE
  2

  3

  4

  6

  7

  8
villesi
  9

300
=
301
=
302
=
303
=
304
=
305
=
306
=
307
=
308
=
309
=
 40
0.0
 41
2459704.480253322
 42
2459704.480253681
  1

 90
        0
  0
LAYOUT
  5
1E
102
{ACAD_REACTORS
330
1A
102
}
330
1A
100
AcDbPlotSettings
  1

  2
none_device
  4

  6

 40
0.0
 41
0.0
 42
0.0
 43
0.0
 44
0.0
 45
0.0
 46
0.0
 47
0.0
 48
0.0
 49
0.0
140
0.0
141
0.0
142
1.0
143
1.0
 70
   688
 72
     1
 73
     0
 74
     5
  7

 75
    16
147
1.0
148
0.0
149
0.0
100
AcDbLayout
  1
Layout1
 70
     1
 71
     1
 10
0.0
 20
0.0
 11
420.0
 21
297.0
 12
0.0
 22
0.0
 32
0.0
 14
1.0000000000E+20
 24
1.0000000000E+20
 34
1.0000000000E+20
 15
-1.0000000000E+20
 25
-1.0000000000E+20
 35
-1.0000000000E+20
146
0.0
 13
0.0
 23
0.0
 33
0.0
 16
1.0
 26
0.0
 36
0.0
 17
0.0
 27
1.0
 37
0.0
 76
     0
330
1B
  0
LAYOUT
  5
26
102
{ACAD_REACTORS
330
1A
102
}
330
1A
100
AcDbPlotSettings
  1

  2
none_device
  4

  6

 40
0.0
 41
0.0
 42
0.0
 43
0.0
 44
0.0
 45
0.0
 46
0.0
 47
0.0
 48
0.0
 49
0.0
140
0.0
141
0.0
142
1.0
143
1.0
 70
   688
 72
     1
 73
     0
 74
     5
  7

 75
    16
147
1.0
148
0.0
149
0.0
100
AcDbLayout
  1
Layout2
 70
     1
 71
     2
 10
0.0
 20
0.0
 11
0.0
 21
0.0
 12
0.0
 22
0.0
 32
0.0
 14
0.0
 24
0.0
 34
0.0
 15
0.0
 25
0.0
 35
0.0
146
0.0
 13
0.0
 23
0.0
 33
0.0
 16
1.0
 26
0.0
 36
0.0
 17
0.0
 27
1.0
 37
0.0
 76
     0
330
23
  0
LAYOUT
  5
22
102
{ACAD_REACTORS
330
1A
102
}
330
1A
100
AcDbPlotSettings
  1

  2
none_device
  4
Letter_(8.50_x_11.00_Inches)
  6

 40
6.35
 41
6.35
 42
6.35000508
 43
6.35000508
 44
215.9
 45
279.4
 46
0.0
 47
0.0
 48
0.0
 49
0.0
140
0.0
141
0.0
142
1.0
143
1.0
 70
  1712
 72
     1
 73
     0
 74
     0
  7

 75
     0
147
1.0
148
0.0
149
0.0
100
AcDbLayout
  1
Model
 70
     1
 71
     0
 10
0.0
 20
0.0
 11
800.0
 21
600.0
 12
0.0
 22
0.0
 32
0.0
 14
0.0
 24
0.0
 34
0.0
 15
800.0
 25
600.0
 35
0.0
146
0.0
 13
0.0
 23
0.0
 33
0.0
 16
1.0
 26
0.0
 36
0.0
 17
0.0
 27
1.0
 37
0.0
 76
     0
330
1F
331
29
  0
MLINESTYLE
  5
18
102
{ACAD_REACTORS
330
17
102
}
330
17
100
AcDbMlineStyle
  2
Standard
 70
     0
  3

 62
   256
 51
90.0
 52
90.0
 71
     2
 49
0.5
 62
   256
  6
BYLAYER
 49
-0.5
 62
   256
  6
BYLAYER
  0
ACDBPLACEHOLDER
  5
F
102
{ACAD_REACTORS
330
E
102
}
330
E
  0
SCALE
  5
48
102
{ACAD_REACTORS
330
47
102
}
330
47
100
AcDbScale
 70
     0
300
1:1
140
1.0
141
1.0
290
     1
  0
SCALE
  5
49
102
{ACAD_REACTORS
330
47
102
}
330
47
100
AcDbScale
 70
     0
300
1:2
140
1.0
141
2.0
290
     0
  0
SCALE
  5
4A
102
{ACAD_REACTORS
330
47
102
}
330
47
100
AcDbScale
 70
     0
300
1:4
140
1.0
141
4.0
290
     0
  0
SCALE
  5
4B
102
{ACAD_REACTORS
330
47
102
}
330
47
100
AcDbScale
 70
     0
300
1:5
140
1.0
141
5.0
290
     0
  0
SCALE
  5
4C
102
{ACAD_REACTORS
330
47
102
}
330
47
100
AcDbScale
 70
     0
300
1:8
140
1.0
141
8.0
290
     0
  0
SCALE
  5
4D
102
{ACAD_REACTORS
330
47
102
}
330
47
100
AcDbScale
 70
     0
300
1:10
140
1.0
141
10.0
290
     0
  0
SCALE
  5
4E
102
{ACAD_REACTORS
330
47
102
}
330
47
100
AcDbScale
 70
     0
300
1:16
140
1.0
141
16.0
290
     0
  0
SCALE
  5
4F
102
{ACAD_REACTORS
330
47
102
}
330
47
100
AcDbScale
 70
     0
300
1:20
140
1.0
141
20.0
290
     0
  0
SCALE
  5
50
102
{ACAD_REACTORS
330
47
102
}
330
47
100
AcDbScale
 70
     0
300
1:30
140
1.0
141
30.0
290
     0
  0
SCALE
  5
51
102
{ACAD_REACTORS
330
47
102
}
330
47
100
AcDbScale
 70
     0
300
1:40
140
1.0
141
40.0
290
     0
  0
SCALE
  5
52
102
{ACAD_REACTORS
330
47
102
}
330
47
100
AcDbScale
 70
     0
300
1:50
140
1.0
141
50.0
290
     0
  0
SCALE
  5
53
102
{ACAD_REACTORS
330
47
102
}
330
47
100
AcDbScale
 70
     0
300
1:100
140
1.0
141
100.0
290
     0
  0
SCALE
  5
54
102
{ACAD_REACTORS
330
47
102
}
330
47
100
AcDbScale
 70
     0
300
2:1
140
2.0
141
1.0
290
     0
  0
SCALE
  5
55
102
{ACAD_REACTORS
330
47
102
}
330
47
100
AcDbScale
 70
     0
300
4:1
140
4.0
141
1.0
290
     0
  0
SCALE
  5
56
102
{ACAD_REACTORS
330
47
102
}
330
47
100
AcDbScale
 70
     0
300
8:1
140
8.0
141
1.0
290
     0
  0
SCALE
  5
57
102
{ACAD_REACTORS
330
47
102
}
330
47
100
AcDbScale
 70
     0
300
10:1
140
10.0
141
1.0
290
     0
  0
SCALE
  5
58
102
{ACAD_REACTORS
330
47
102
}
330
47
100
AcDbScale
 70
     0
300
100:1
140
100.0
141
1.0
290
     0
  0
SCALE
  5
59
102
{ACAD_REACTORS
330
47
102
}
330
47
100
AcDbScale
 70
     0
300
1/128" = 1'-0"
140
0.0078125
141
12.0
290
     0
  0
SCALE
  5
5A
102
{ACAD_REACTORS
330
47
102
}
330
47
100
AcDbScale
 70
     0
300
1/64" = 1'-0"
140
0.015625
141
12.0
290
     0
  0
SCALE
  5
5B
102
{ACAD_REACTORS
330
47
102
}
330
47
100
AcDbScale
 70
     0
300
1/32" = 1'-0"
140
0.03125
141
12.0
290
     0
  0
SCALE
  5
5C
102
{ACAD_REACTORS
330
47
102
}
330
47
100
AcDbScale
 70
     0
300
1/16" = 1'-0"
140
0.0625
141
12.0
290
     0
  0
SCALE
  5
5D
102
{ACAD_REACTORS
330
47
102
}
330
47
100
AcDbScale
 70
     0
300
3/32" = 1'-0"
140
0.09375
141
12.0
290
     0
  0
SCALE
  5
5E
102
{ACAD_REACTORS
330
47
102
}
330
47
100
AcDbScale
 70
     0
300
1/8" = 1'-0"
140
0.125
141
12.0
290
     0
  0
SCALE
  5
5F
102
{ACAD_REACTORS
330
47
102
}
330
47
100
AcDbScale
 70
     0
300
3/16" = 1'-0"
140
0.1875
141
12.0
290
     0
  0
SCALE
  5
60
102
{ACAD_REACTORS
330
47
102
}
330
47
100
AcDbScale
 70
     0
300
1/4" = 1'-0"
140
0.25
141
12.0
290
     0
  0
SCALE
  5
61
102
{ACAD_REACTORS
330
47
102
}
330
47
100
AcDbScale
 70
     0
300
3/8" = 1'-0"
140
0.375
141
12.0
290
     0
  0
SCALE
  5
62
102
{ACAD_REACTORS
330
47
102
}
330
47
100
AcDbScale
 70
     0
300
1/2" = 1'-0"
140
0.5
141
12.0
290
     0
  0
SCALE
  5
63
102
{ACAD_REACTORS
330
47
102
}
330
47
100
AcDbScale
 70
     0
300
3/4" = 1'-0"
140
0.75
141
12.0
290
     0
  0
SCALE
  5
64
102
{ACAD_REACTORS
330
47
102
}
330
47
100
AcDbScale
 70
     0
300
1" = 1'-0"
140
1.0
141
12.0
290
     0
  0
SCALE
  5
65
102
{ACAD_REACTORS
330
47
102
}
330
47
100
AcDbScale
 70
     0
300
1-1/2" = 1'-0"
140
1.5
141
12.0
290
     0
  0
SCALE
  5
66
102
{ACAD_REACTORS
330
47
102
}
330
47
100
AcDbScale
 70
     0
300
3" = 1'-0"
140
3.0
141
12.0
290
     0
  0
SCALE
  5
67
102
{ACAD_REACTORS
330
47
102
}
330
47
100
AcDbScale
 70
     0
300
6" = 1'-0"
140
6.0
141
12.0
290
     0
  0
SCALE
  5
68
102
{ACAD_REACTORS
330
47
102
}
330
47
100
AcDbScale
 70
     0
300
1'-0" = 1'-0"
140
12.0
141
12.0
290
     0
  0
ENDSEC
  0
EOF
