  0
SECTION
  2
HEADER
  9
$ACADVER
  1
AC1015
  9
$ACADMAINTVER
 70
     6
  9
$DWGCODEPAGE
  3
ANSI_1252
  9
$INSBASE
 10
0.0
 20
0.0
 30
0.0
  9
$EXTMIN
 10
0.0
 20
0.0
 30
0.0
  9
$EXTMAX
 10
800.0
 20
600.0
 30
0.0
  9
$LIMMIN
 10
0.0
 20
0.0
  9
$LIMMAX
 10
800.0
 20
600.0
  9
$ORTHOMODE
 70
     0
  9
$REGENMODE
 70
     1
  9
$FILLMODE
 70
     1
  9
$QTEXTMODE
 70
     0
  9
$MIRRTEXT
 70
     1
  9
$LTSCALE
 40
1.0
  9
$ATTMODE
 70
     1
  9
$TEXTSIZE
 40
3.5
  9
$TRACEWID
 40
1.0
  9
$TEXTSTYLE
  7
Standard
  9
$CLAYER
  8
0
  9
$CELTYPE
  6
ByLayer
  9
$CECOLOR
 62
   256
  9
$CELTSCALE
 40
1.0
  9
$DISPSILH
 70
     0
  9
$DIMSCALE
 40
1.0
  9
$DIMASZ
 40
3.302
  9
$DIMEXO
 40
1.0
  9
$DIMDLI
 40
3.75
  9
$DIMRND
 40
0.0
  9
$DIMDLE
 40
0.0
  9
$DIMEXE
 40
1.0
  9
$DIMTP
 40
0.0
  9
$DIMTM
 40
0.0
  9
$DIMTXT
 40
3.5
  9
$DIMCEN
 40
2.5
  9
$DIMTSZ
 40
0.0
  9
$DIMTOL
 70
     0
  9
$DIMLIM
 70
     0
  9
$DIMTIH
 70
     1
  9
$DIMTOH
 70
     1
  9
$DIMSE1
 70
     0
  9
$DIMSE2
 70
     0
  9
$DIMTAD
 70
     1
  9
$DIMZIN
 70
     1
  9
$DIMBLK
  1

  9
$DIMASO
 70
     1
  9
$DIMSHO
 70
     1
  9
$DIMPOST
  1

  9
$DIMAPOST
  1

  9
$DIMALT
 70
     0
  9
$DIMALTD
 70
     3
  9
$DIMALTF
 40
0.0393700787
  9
$DIMLFAC
 40
1.0
  9
$DIMTOFL
 70
     1
  9
$DIMTVP
 40
0.0
  9
$DIMTIX
 70
     0
  9
$DIMSOXD
 70
     0
  9
$DIMSAH
 70
     0
  9
$DIMBLK1
  1

  9
$DIMBLK2
  1

  9
$DIMSTYLE
  2
ISO-25
  9
$DIMCLRD
 70
     0
  9
$DIMCLRE
 70
     0
  9
$DIMCLRT
 70
     0
  9
$DIMTFAC
 40
1.0
  9
$DIMGAP
 40
1.524
  9
$DIMJUST
 70
     0
  9
$DIMSD1
 70
     0
  9
$DIMSD2
 70
     0
  9
$DIMTOLJ
 70
     0
  9
$DIMTZIN
 70
     1
  9
$DIMALTZ
 70
     0
  9
$DIMALTTZ
 70
     0
  9
$DIMUPT
 70
     0
  9
$DIMDEC
 70
     0
  9
$DIMTDEC
 70
     0
  9
$DIMALTU
 70
     2
  9
$DIMALTTD
 70
     3
  9
$DIMTXSTY
  7
Standard
  9
$DIMAUNIT
 70
     0
  9
$DIMADEC
 70
     2
  9
$DIMALTRND
 40
0.0
  9
$DIMAZIN
 70
     0
  9
$DIMDSEP
 70
    44
  9
$DIMATFIT
 70
     3
  9
$DIMFRAC
 70
     0
  9
$DIMLDRBLK
  1

  9
$DIMLUNIT
 70
     2
  9
$DIMLWD
 70
    -2
  9
$DIMLWE
 70
    -2
  9
$DIMTMOVE
 70
     0
  9
$LUNITS
 70
     2
  9
$LUPREC
 70
     2
  9
$SKETCHINC
 40
1.0
  9
$FILLETRAD
 40
10.0
  9
$AUNITS
 70
     0
  9
$AUPREC
 70
     2
  9
$MENU
  1
.
  9
$ELEVATION
 40
0.0
  9
$PELEVATION
 40
0.0
  9
$THICKNESS
 40
0.0
  9
$LIMCHECK
 70
     0
  9
$CHAMFERA
 40
0.0
  9
$CHAMFERB
 40
0.0
  9
$CHAMFERC
 40
0.0
  9
$CHAMFERD
 40
0.0
  9
$SKPOLY
 70
     0
  9
$TDCREATE
 40
2459704.602295521
  9
$TDUCREATE
 40
2459704.477295521
  9
$TDUPDATE
 40
2459704.602295891
  9
$TDUUPDATE
 40
2459704.477295891
  9
$TDINDWG
 40
0.0000000116
  9
$TDUSRTIMER
 40
0.0000000116
  9
$USRTIMER
 70
     1
  9
$ANGBASE
 50
0.0
  9
$ANGDIR
 70
     0
  9
$PDMODE
 70
     0
  9
$PDSIZE
 40
-1.0
  9
$PLINEWID
 40
0.0
  9
$SPLFRAME
 70
     0
  9
$SPLINETYPE
 70
     6
  9
$SPLINESEGS
 70
     8
  9
$HANDSEED
  5
106
  9
$SURFTAB1
 70
     6
  9
$SURFTAB2
 70
     6
  9
$SURFTYPE
 70
     6
  9
$SURFU
 70
     6
  9
$SURFV
 70
     6
  9
$UCSBASE
  2

  9
$UCSNAME
  2

  9
$UCSORG
 10
0.0
 20
0.0
 30
0.0
  9
$UCSXDIR
 10
1.0
 20
0.0
 30
0.0
  9
$UCSYDIR
 10
0.0
 20
1.0
 30
0.0
  9
$UCSORTHOREF
  2

  9
$UCSORTHOVIEW
 70
     0
  9
$UCSORGTOP
 10
0.0
 20
0.0
 30
0.0
  9
$UCSORGBOTTOM
 10
0.0
 20
0.0
 30
0.0
  9
$UCSORGLEFT
 10
0.0
 20
0.0
 30
0.0
  9
$UCSORGRIGHT
 10
0.0
 20
0.0
 30
0.0
  9
$UCSORGFRONT
 10
0.0
 20
0.0
 30
0.0
  9
$UCSORGBACK
 10
0.0
 20
0.0
 30
0.0
  9
$PUCSBASE
  2

  9
$PUCSNAME
  2

  9
$PUCSORG
 10
0.0
 20
0.0
 30
0.0
  9
$PUCSXDIR
 10
1.0
 20
0.0
 30
0.0
  9
$PUCSYDIR
 10
0.0
 20
1.0
 30
0.0
  9
$PUCSORTHOREF
  2

  9
$PUCSORTHOVIEW
 70
     0
  9
$PUCSORGTOP
 10
0.0
 20
0.0
 30
0.0
  9
$PUCSORGBOTTOM
 10
0.0
 20
0.0
 30
0.0
  9
$PUCSORGLEFT
 10
0.0
 20
0.0
 30
0.0
  9
$PUCSORGRIGHT
 10
0.0
 20
0.0
 30
0.0
  9
$PUCSORGFRONT
 10
0.0
 20
0.0
 30
0.0
  9
$PUCSORGBACK
 10
0.0
 20
0.0
 30
0.0
  9
$USERI1
 70
     0
  9
$USERI2
 70
     0
  9
$USERI3
 70
     0
  9
$USERI4
 70
     0
  9
$USERI5
 70
     0
  9
$USERR1
 40
0.0
  9
$USERR2
 40
0.0
  9
$USERR3
 40
0.0
  9
$USERR4
 40
0.0
  9
$USERR5
 40
0.0
  9
$WORLDVIEW
 70
     1
  9
$SHADEDGE
 70
     3
  9
$SHADEDIF
 70
    70
  9
$TILEMODE
 70
     1
  9
$MAXACTVP
 70
    64
  9
$PINSBASE
 10
0.0
 20
0.0
 30
0.0
  9
$PLIMCHECK
 70
     0
  9
$PEXTMIN
 10
1.0000000000E+20
 20
1.0000000000E+20
 30
1.0000000000E+20
  9
$PEXTMAX
 10
-1.0000000000E+20
 20
-1.0000000000E+20
 30
-1.0000000000E+20
  9
$PLIMMIN
 10
0.0
 20
0.0
  9
$PLIMMAX
 10
420.0
 20
297.0
  9
$UNITMODE
 70
     0
  9
$VISRETAIN
 70
     1
  9
$PLINEGEN
 70
     0
  9
$PSLTSCALE
 70
     1
  9
$TREEDEPTH
 70
  3020
  9
$CMLSTYLE
  2
Standard
  9
$CMLJUST
 70
     0
  9
$CMLSCALE
 40
20.0
  9
$PROXYGRAPHICS
 70
     1
  9
$MEASUREMENT
 70
     1
  9
$CELWEIGHT
370
    -1
  9
$ENDCAPS
280
     0
  9
$JOINSTYLE
280
     0
  9
$LWDISPLAY
290
     1
  9
$INSUNITS
 70
     4
  9
$HYPERLINKBASE
  1

  9
$STYLESHEET
  1

  9
$XEDIT
290
     1
  9
$CEPSNTYPE
380
     0
  9
$PSTYLEMODE
290
     1
  9
$FINGERPRINTGUID
  2
{21d2f018-a776-49b9-9a34-d76316a38d09}
  9
$VERSIONGUID
  2
{FAEB1C32-E019-11D5-929B-00C0DF256EC4}
  9
$EXTNAMES
290
     1
  9
$PSVPSCALE
 40
0.0
  9
$OLESTARTUP
290
     0
  0
ENDSEC
  0
SECTION
  2
CLASSES
  0
CLASS
  1
ACDBDICTIONARYWDFLT
  2
AcDbDictionaryWithDefault
  3
ObjectDBX Classes
 90
        0
280
     0
281
     0
  0
CLASS
  1
VISUALSTYLE
  2
AcDbVisualStyle
  3
ObjectDBX Classes
 90
     4095
280
     0
281
     0
  0
CLASS
  1
MATERIAL
  2
AcDbMaterial
  3
ObjectDBX Classes
 90
     1153
280
     0
281
     0
  0
CLASS
  1
SCALE
  2
AcDbScale
  3
ObjectDBX Classes
 90
     1153
280
     0
281
     0
  0
CLASS
  1
TABLESTYLE
  2
AcDbTableStyle
  3
ObjectDBX Classes
 90
     4095
280
     0
281
     0
  0
CLASS
  1
MLEADERSTYLE
  2
AcDbMLeaderStyle
  3
ACDB_MLEADERSTYLE_CLASS
 90
     4095
280
     0
281
     0
  0
CLASS
  1
SUN
  2
AcDbSun
  3
SCENEOE
 90
     1153
280
     0
281
     0
  0
CLASS
  1
ACDBPLACEHOLDER
  2
AcDbPlaceHolder
  3
ObjectDBX Classes
 90
        0
280
     0
281
     0
  0
CLASS
  1
LAYOUT
  2
AcDbLayout
  3
ObjectDBX Classes
 90
        0
280
     0
281
     0
  0
ENDSEC
  0
SECTION
  2
TABLES
  0
TABLE
  2
VPORT
  5
8
330
0
100
AcDbSymbolTable
 70
     1
  0
VPORT
  5
29
330
8
100
AcDbSymbolTableRecord
100
AcDbViewportTableRecord
  2
*Active
 70
     0
 10
0.0
 20
0.0
 11
1.0
 21
1.0
 12
400.0
 22
300.0
 13
0.0
 23
0.0
 14
10.0
 24
10.0
 15
10.0
 25
10.0
 16
0.0
 26
0.0
 36
1.0
 17
0.0
 27
0.0
 37
0.0
 40
600.0
 41
1.3333333333
 42
50.0
 43
0.0
 44
0.0
 50
0.0
 51
0.0
 71
     0
 72
  2000
 73
     1
 74
     3
 75
     0
 76
     0
 77
     0
 78
     0
281
     0
 65
     1
110
0.0
120
0.0
130
0.0
111
1.0
121
0.0
131
0.0
112
0.0
122
1.0
132
0.0
 79
     0
146
0.0
  0
ENDTAB
  0
TABLE
  2
LTYPE
  5
5
330
0
100
AcDbSymbolTable
 70
     6
  0
LTYPE
  5
14
330
5
100
AcDbSymbolTableRecord
100
AcDbLinetypeTableRecord
  2
ByBlock
 70
     0
  3

 72
    65
 73
     0
 40
0.0
  0
LTYPE
  5
15
330
5
100
AcDbSymbolTableRecord
100
AcDbLinetypeTableRecord
  2
ByLayer
 70
     0
  3

 72
    65
 73
     0
 40
0.0
  0
LTYPE
  5
16
330
5
100
AcDbSymbolTableRecord
100
AcDbLinetypeTableRecord
  2
Continuous
 70
     0
  3
Solid line
 72
    65
 73
     0
 40
0.0
  0
LTYPE
  5
6E
330
5
100
AcDbSymbolTableRecord
100
AcDbLinetypeTableRecord
  2
HIDDEN
 70
     0
  3
Hidden __ __ __ __ __ __ __ __ __ __ __ __ __ __
 72
    65
 73
     2
 40
1.905
 49
1.27
 74
     0
 49
-0.635
 74
     0
  0
LTYPE
  5
6F
330
5
100
AcDbSymbolTableRecord
100
AcDbLinetypeTableRecord
  2
PHANTOM
 70
     0
  3
Phantom ______  __  __  ______  __  __  ______
 72
    65
 73
     6
 40
12.7
 49
6.35
 74
     0
 49
-1.27
 74
     0
 49
1.27
 74
     0
 49
-1.27
 74
     0
 49
1.27
 74
     0
 49
-1.27
 74
     0
  0
LTYPE
  5
70
330
5
100
AcDbSymbolTableRecord
100
AcDbLinetypeTableRecord
  2
CENTER
 70
     0
  3
Center ____ _ ____ _ ____ _ ____ _ ____ _ ____
 72
    65
 73
     4
 40
10.16
 49
6.35
 74
     0
 49
-1.27
 74
     0
 49
1.27
 74
     0
 49
-1.27
 74
     0
  0
LTYPE
  5
71
330
5
100
AcDbSymbolTableRecord
100
AcDbLinetypeTableRecord
  2
CENTERX2
 70
     0
  3
Center (2x) ________  __  ________  __  _____
 72
    65
 73
     4
 40
20.32
 49
12.7
 74
     0
 49
-2.54
 74
     0
 49
2.54
 74
     0
 49
-2.54
 74
     0
  0
LTYPE
  5
72
330
5
100
AcDbSymbolTableRecord
100
AcDbLinetypeTableRecord
  2
DOT2
 70
     0
  3
Dot (.5x) ........................................
 72
    65
 73
     2
 40
0.635
 49
0.0
 74
     0
 49
-0.635
 74
     0
  0
ENDTAB
  0
TABLE
  2
LAYER
  5
2
330
0
100
AcDbSymbolTable
 70
     2
  0
LAYER
  5
10
330
2
100
AcDbSymbolTableRecord
100
AcDbLayerTableRecord
  2
0
 70
     0
 62
     7
  6
Continuous
370
    -3
390
F
  0
LAYER
  5
73
330
2
100
AcDbSymbolTableRecord
100
AcDbLayerTableRecord
  2
TABLE_BL1
 70
     0
 62
   179
  6
Continuous
370
    -3
390
F
  0
ENDTAB
  0
TABLE
  2
STYLE
  5
3
330
0
100
AcDbSymbolTable
 70
     1
  0
STYLE
  5
11
330
3
100
AcDbSymbolTableRecord
100
AcDbTextStyleTableRecord
  2
Standard
 70
     0
 40
0.0
 41
1.0
 50
0.0
 71
     0
 42
3.5
  3
txt
  4

  0
ENDTAB
  0
TABLE
  2
VIEW
  5
6
330
0
100
AcDbSymbolTable
 70
     0
  0
ENDTAB
  0
TABLE
  2
UCS
  5
7
330
0
100
AcDbSymbolTable
 70
     0
  0
ENDTAB
  0
TABLE
  2
APPID
  5
9
330
0
100
AcDbSymbolTable
 70
     1
  0
APPID
  5
12
330
9
100
AcDbSymbolTableRecord
100
AcDbRegAppTableRecord
  2
ACAD
 70
     0
  0
ENDTAB
  0
TABLE
  2
DIMSTYLE
  5
A
330
0
100
AcDbSymbolTable
 70
     1
100
AcDbDimStyleTable
  0
DIMSTYLE
105
27
330
A
100
AcDbSymbolTableRecord
100
AcDbDimStyleTableRecord
  2
ISO-25
 70
     0
 41
2.5
 42
0.625
 43
3.75
 44
1.25
 73
     0
 74
     0
 77
     1
 78
     8
140
2.5
141
2.5
143
0.0393700787
147
0.625
171
     3
172
     1
178
     0
271
     2
272
     2
274
     3
278
    44
283
     0
284
     8
340
11
  0
ENDTAB
  0
TABLE
  2
BLOCK_RECORD
  5
1
330
0
100
AcDbSymbolTable
 70
     1
  0
BLOCK_RECORD
  5
1F
330
1
100
AcDbSymbolTableRecord
100
AcDbBlockTableRecord
  2
*Model_Space
340
22
  0
BLOCK_RECORD
  5
1B
330
1
100
AcDbSymbolTableRecord
100
AcDbBlockTableRecord
  2
*Paper_Space
340
1E
  0
BLOCK_RECORD
  5
23
330
1
100
AcDbSymbolTableRecord
100
AcDbBlockTableRecord
  2
*Paper_Space0
340
26
  0
ENDTAB
  0
ENDSEC
  0
SECTION
  2
BLOCKS
  0
BLOCK
  5
20
330
1F
100
AcDbEntity
  8
0
100
AcDbBlockBegin
  2
*Model_Space
 70
     0
 10
0.0
 20
0.0
 30
0.0
  3
*Model_Space
  1

  0
ENDBLK
  5
21
330
1F
100
AcDbEntity
  8
0
100
AcDbBlockEnd
  0
BLOCK
  5
1C
330
1B
100
AcDbEntity
 67
     1
  8
0
100
AcDbBlockBegin
  2
*Paper_Space
 70
     0
 10
0.0
 20
0.0
 30
0.0
  3
*Paper_Space
  1

  0
ENDBLK
  5
1D
330
1B
100
AcDbEntity
 67
     1
  8
0
100
AcDbBlockEnd
  0
BLOCK
  5
24
330
23
100
AcDbEntity
  8
0
100
AcDbBlockBegin
  2
*Paper_Space0
 70
     0
 10
0.0
 20
0.0
 30
0.0
  3
*Paper_Space0
  1

  0
ENDBLK
  5
25
330
23
100
AcDbEntity
  8
0
100
AcDbBlockEnd
  0
ENDSEC
  0
SECTION
  2
ENTITIES
  0
SPLINE
  5
74
330
1F
100
AcDbEntity
  8
0
  6
Continuous
 62
     7
370
    25
100
AcDbSpline
210
0.0
220
0.0
230
1.0
 70
     8
 71
     3
 72
    29
 73
    25
 74
     0
 42
0.00000001
 43
0.00000001
 40
0.0
 40
0.0
 40
0.0
 40
0.0
 40
0.0349321406882635
 40
0.0633980643159913
 40
0.0838985515737895
 40
0.1410481598295769
 40
0.1993926718331193
 40
0.2579538570990189
 40
0.316735887686743
 40
0.3756685440136573
 40
0.4347110736298802
 40
0.4938368192040538
 40
0.5530116495173844
 40
0.6120983013386023
 40
0.6710428299972756
 40
0.72982617316866
 40
0.7884258360426926
 40
0.8467958145206171
 40
0.8655669647427027
 40
0.8834823951604175
 40
0.9012873219477364
 40
0.9267778521638325
 40
0.9604934909203239
 40
1.0
 40
1.0
 40
1.0
 40
1.0
 10
604.6248298572917
 20
400.3374132066152
 30
0.0
 10
603.7018501197166
 20
401.3395584240107
 30
0.0
 10
602.0267415345501
 20
403.1583438088913
 30
0.0
 10
599.515819173839
 20
405.2631694048156
 30
0.0
 10
596.1684685564198
 20
407.6914420247709
 30
0.0
 10
591.5004671462887
 20
410.2669756316801
 30
0.0
 10
585.035043048712
 20
412.432047492106
 30
0.0
 10
578.2174175488667
 20
413.3885420919666
 30
0.0
 10
571.3171725621762
 20
413.0779815027165
 30
0.0
 10
564.5730299811186
 20
411.499394748061
 30
0.0
 10
558.2229376543423
 20
408.6993844117769
 30
0.0
 10
552.4909474158648
 20
404.7698172137255
 30
0.0
 10
547.5826371828208
 20
399.8473438125162
 30
0.0
 10
543.6723215479464
 20
394.1087491024539
 30
0.0
 10
540.8933928326081
 20
387.7618651047156
 30
0.0
 10
539.3337032506445
 20
381.0305461573507
 30
0.0
 10
539.0353376839731
 20
374.1515925466408
 30
0.0
 10
539.7812431499615
 20
368.8819930419234
 30
0.0
 10
540.7397985787302
 20
365.3031273473794
 30
0.0
 10
541.4066067380675
 20
363.2861864266192
 30
0.0
 10
542.2805966021645
 20
361.0656644272407
 30
0.0
 10
543.57225892371
 20
358.3551546116882
 30
0.0
 10
545.5211079789551
 20
355.0256461809168
 30
0.0
 10
547.3123059642649
 20
352.8003332044951
 30
0.0
 10
548.2787345867695
 20
351.5996808075614
 30
0.0
  0
SPLINE
  5
75
330
1F
100
AcDbEntity
  8
0
  6
Continuous
 62
     7
370
    25
100
AcDbSpline
210
0.0
220
0.0
230
1.0
 70
     8
 71
     3
 72
    29
 73
    25
 74
     0
 42
0.00000001
 43
0.00000001
 40
0.0
 40
0.0
 40
0.0
 40
0.0
 40
0.0349321406882636
 40
0.0633980643159913
 40
0.0838985515737896
 40
0.1410481598295769
 40
0.1993926718331194
 40
0.257953857099019
 40
0.316735887686743
 40
0.3756685440136575
 40
0.4347110736298803
 40
0.4938368192040538
 40
0.5530116495173844
 40
0.6120983013386024
 40
0.6710428299972756
 40
0.7298261731686602
 40
0.7884258360426925
 40
0.846795814520617
 40
0.8655669647427026
 40
0.8834823951604174
 40
0.9012873219477362
 40
0.9267778521638321
 40
0.9604934909203237
 40
1.0
 40
1.0
 40
1.0
 40
1.0
 10
548.2787345867695
 20
351.5996808075614
 30
0.0
 10
549.2017143243446
 20
350.5975355901659
 30
0.0
 10
550.8768229095111
 20
348.7787502052852
 30
0.0
 10
553.3877452702221
 20
346.673924609361
 30
0.0
 10
556.7350958876414
 20
344.2456519894057
 30
0.0
 10
561.4030972977725
 20
341.6701183824965
 30
0.0
 10
567.8685213953491
 20
339.5050465220705
 30
0.0
 10
574.6861468951945
 20
338.54855192221
 30
0.0
 10
581.586391881885
 20
338.8591125114601
 30
0.0
 10
588.3305344629426
 20
340.4376992661155
 30
0.0
 10
594.6806267897188
 20
343.2377096023997
 30
0.0
 10
600.4126170281963
 20
347.167276800451
 30
0.0
 10
605.3209272612403
 20
352.0897502016603
 30
0.0
 10
609.2312428961148
 20
357.8283449117227
 30
0.0
 10
612.010171611453
 20
364.1752289094609
 30
0.0
 10
613.5698611934167
 20
370.9065478568259
 30
0.0
 10
613.868226760088
 20
377.7855014675358
 30
0.0
 10
613.1223212940997
 20
383.0551009722532
 30
0.0
 10
612.1637658653309
 20
386.6339666667972
 30
0.0
 10
611.4969577059936
 20
388.6509075875574
 30
0.0
 10
610.6229678418968
 20
390.8714295869358
 30
0.0
 10
609.3313055203512
 20
393.5819394024883
 30
0.0
 10
607.382456465106
 20
396.9114478332598
 30
0.0
 10
605.5912584797964
 20
399.1367608096815
 30
0.0
 10
604.6248298572917
 20
400.3374132066152
 30
0.0
  0
SPLINE
  5
76
330
1F
100
AcDbEntity
  8
0
  6
Continuous
 62
     7
370
    25
100
AcDbSpline
210
0.0
220
0.0
230
1.0
 70
     8
 71
     3
 72
    29
 73
    25
 74
     0
 42
0.00000001
 43
0.00000001
 40
0.0
 40
0.0
 40
0.0
 40
0.0
 40
0.0349321406882636
 40
0.0633980643159913
 40
0.0838985515737896
 40
0.141048159829577
 40
0.1993926718331195
 40
0.257953857099019
 40
0.316735887686743
 40
0.3756685440136574
 40
0.4347110736298803
 40
0.4938368192040541
 40
0.5530116495173846
 40
0.6120983013386024
 40
0.6710428299972757
 40
0.7298261731686604
 40
0.7884258360426928
 40
0.8467958145206173
 40
0.8655669647427029
 40
0.8834823951604177
 40
0.9012873219477363
 40
0.9267778521638325
 40
0.9604934909203238
 40
1.0
 40
1.0
 40
1.0
 40
1.0
 10
181.0266916349104
 20
392.4106482524766
 30
0.0
 10
180.4637225446077
 20
391.1699821265237
 30
0.0
 10
179.4419944199723
 20
388.9183070416852
 30
0.0
 10
178.4827434603744
 20
385.7854394276154
 30
0.0
 10
177.5517628425161
 20
381.7562286907671
 30
0.0
 10
177.0000912152991
 20
376.4534681888182
 30
0.0
 10
177.5272038216005
 20
369.6555716595519
 30
0.0
 10
179.3045675711846
 20
363.004565910241
 30
0.0
 10
182.2809236618115
 20
356.7714981921963
 30
0.0
 10
186.3640896669393
 20
351.176576327668
 30
0.0
 10
191.4183764072183
 20
346.4207466430682
 30
0.0
 10
197.2718308003124
 20
342.6745109155714
 30
0.0
 10
203.7184629578784
 20
340.0738979965751
 30
0.0
 10
210.5275144379366
 20
338.7104994662049
 30
0.0
 10
217.4555921709692
 20
338.6261181250476
 30
0.0
 10
224.2623046668509
 20
339.8143737211421
 30
0.0
 10
230.7131835108488
 20
342.2216931701832
 30
0.0
 10
235.2749174395788
 20
344.9631594690429
 30
0.0
 10
238.1968124054842
 20
347.2412371625871
 30
0.0
 10
239.7941455325753
 20
348.6416694816561
 30
0.0
 10
241.4981689761566
 20
350.3122622914074
 30
0.0
 10
243.4905536375848
 20
352.5585165900148
 30
0.0
 10
245.796714788102
 20
355.6512920067811
 30
0.0
 10
247.1475348532902
 20
358.1683723028967
 30
0.0
 10
247.8763605808524
 20
359.5264457616985
 30
0.0
  0
SPLINE
  5
77
330
1F
100
AcDbEntity
  8
0
  6
Continuous
 62
     7
370
    25
100
AcDbSpline
210
0.0
220
0.0
230
1.0
 70
     8
 71
     3
 72
    29
 73
    25
 74
     0
 42
0.00000001
 43
0.00000001
 40
0.0
 40
0.0
 40
0.0
 40
0.0
 40
0.0349321406882634
 40
0.0633980643159913
 40
0.0838985515737895
 40
0.1410481598295769
 40
0.1993926718331193
 40
0.2579538570990187
 40
0.316735887686743
 40
0.3756685440136571
 40
0.4347110736298802
 40
0.4938368192040536
 40
0.5530116495173841
 40
0.6120983013386025
 40
0.6710428299972758
 40
0.72982617316866
 40
0.7884258360426928
 40
0.8467958145206173
 40
0.8655669647427029
 40
0.8834823951604178
 40
0.9012873219477364
 40
0.9267778521638323
 40
0.9604934909203235
 40
0.9999999999999999
 40
0.9999999999999999
 40
0.9999999999999999
 40
0.9999999999999999
 10
247.8763605808524
 20
359.5264457616985
 30
0.0
 10
248.439329671155
 20
360.7671118876515
 30
0.0
 10
249.4610577957905
 20
363.0187869724901
 30
0.0
 10
250.4203087553882
 20
366.1516545865599
 30
0.0
 10
251.3512893732468
 20
370.1808653234081
 30
0.0
 10
251.9029610004635
 20
375.483625825357
 30
0.0
 10
251.3758483941621
 20
382.2815223546233
 30
0.0
 10
249.5984846445783
 20
388.9325281039343
 30
0.0
 10
246.622128553951
 20
395.1655958219789
 30
0.0
 10
242.5389625488235
 20
400.7605176865073
 30
0.0
 10
237.4846758085444
 20
405.516347371107
 30
0.0
 10
231.6312214154505
 20
409.2625830986038
 30
0.0
 10
225.1845892578844
 20
411.8631960176002
 30
0.0
 10
218.375537777826
 20
413.2265945479704
 30
0.0
 10
211.4474600447936
 20
413.3109758891276
 30
0.0
 10
204.6407475489119
 20
412.1227202930331
 30
0.0
 10
198.1898687049139
 20
409.7154008439919
 30
0.0
 10
193.628134776184
 20
406.9739345451322
 30
0.0
 10
190.7062398102785
 20
404.6958568515881
 30
0.0
 10
189.1089066831875
 20
403.2954245325191
 30
0.0
 10
187.4048832396062
 20
401.6248317227678
 30
0.0
 10
185.4124985781778
 20
399.3785774241603
 30
0.0
 10
183.106337427661
 20
396.2858020073941
 30
0.0
 10
181.7555173624726
 20
393.7687217112785
 30
0.0
 10
181.0266916349103
 20
392.4106482524766
 30
0.0
  0
ARC
  5
78
330
1F
100
AcDbEntity
  8
0
  6
Continuous
 62
     7
370
    25
100
AcDbCircle
 10
576.451782222
 20
375.9685470071
 30
0.0
 40
36.31056399417617
100
AcDbArc
 50
40.8588515016
 51
220.8588515185
  0
ARC
  5
79
330
1F
100
AcDbEntity
  8
0
  6
Continuous
 62
     7
370
    25
100
AcDbCircle
 10
576.451782222
 20
375.9685470071
 30
0.0
 40
36.31056399417617
100
AcDbArc
 50
220.8588515185
 51
40.8588515016
  0
ARC
  5
7A
330
1F
100
AcDbEntity
  8
0
  6
Continuous
 62
     7
370
    25
100
AcDbCircle
 10
214.4515261079
 20
375.9685470071
 30
0.0
 40
36.31056399417614
100
AcDbArc
 50
333.8068402517
 51
153.8068402686
  0
ARC
  5
7B
330
1F
100
AcDbEntity
  8
0
  6
Continuous
 62
     7
370
    25
100
AcDbCircle
 10
214.4515261079
 20
375.9685470071
 30
0.0
 40
36.31056399417614
100
AcDbArc
 50
153.8068402686
 51
333.8068402517
  0
ARC
  5
7C
330
1F
100
AcDbEntity
  8
0
  6
Continuous
 62
     7
370
    25
100
AcDbCircle
 10
576.451782222
 20
375.9685470071
 30
0.0
 40
38.29899805700013
100
AcDbArc
 50
196.3719887255
 51
16.3719887255
  0
ARC
  5
7D
330
1F
100
AcDbEntity
  8
0
  6
Continuous
 62
     7
370
    25
100
AcDbCircle
 10
576.451782222
 20
375.9685470071
 30
0.0
 40
39.50000000000022
100
AcDbArc
 50
196.3719887255
 51
16.371988749
  0
ARC
  5
7E
330
1F
100
AcDbEntity
  8
0
  6
Continuous
 62
     7
370
    25
100
AcDbCircle
 10
576.451782222
 20
375.9685470071
 30
0.0
 40
38.29899805700013
100
AcDbArc
 50
16.3719887255
 51
196.3719887255
  0
ARC
  5
7F
330
1F
100
AcDbEntity
  8
0
  6
Continuous
 62
     7
370
    25
100
AcDbCircle
 10
576.451782222
 20
375.9685470071
 30
0.0
 40
39.50000000000022
100
AcDbArc
 50
16.371988749
 51
196.3719887152
  0
ARC
  5
80
330
1F
100
AcDbEntity
  8
0
  6
Continuous
 62
     7
370
    25
100
AcDbCircle
 10
214.4515261079
 20
375.9685470071
 30
0.0
 40
38.29899805700009
100
AcDbArc
 50
196.3719887255
 51
16.3719887255
  0
ARC
  5
81
330
1F
100
AcDbEntity
  8
0
  6
Continuous
 62
     7
370
    25
100
AcDbCircle
 10
214.4515261079
 20
375.9685470071
 30
0.0
 40
39.50000000000016
100
AcDbArc
 50
196.3719887255
 51
16.371988749
  0
ARC
  5
82
330
1F
100
AcDbEntity
  8
0
  6
Continuous
 62
     7
370
    25
100
AcDbCircle
 10
214.4515261079
 20
375.9685470071
 30
0.0
 40
38.29899805700009
100
AcDbArc
 50
16.3719887255
 51
196.3719887255
  0
ARC
  5
83
330
1F
100
AcDbEntity
  8
0
  6
Continuous
 62
     7
370
    25
100
AcDbCircle
 10
214.4515261079
 20
375.9685470071
 30
0.0
 40
39.50000000000016
100
AcDbArc
 50
16.371988749
 51
196.3719887152
  0
SPLINE
  5
84
330
1F
100
AcDbEntity
  8
0
  6
Continuous
 62
     7
370
    25
100
AcDbSpline
210
0.0
220
0.0
230
1.0
 70
     8
 71
     3
 72
    18
 73
    14
 74
     0
 42
0.00000001
 43
0.00000001
 40
0.0
 40
0.0
 40
0.0
 40
0.0
 40
0.1250000000000074
 40
0.1250000000000074
 40
0.2500000000000149
 40
0.2500000000000149
 40
0.5000000000000099
 40
0.5000000000000099
 40
0.7500000000000049
 40
0.7500000000000049
 40
0.8750000000000024
 40
0.8750000000000024
 40
1.0
 40
1.0
 40
1.0
 40
1.0
 10
46.45131057499785
 20
95.96947498312456
 30
0.0
 10
45.66370659305874
 20
95.96957307498042
 30
0.0
 10
44.87944867789595
 20
96.04693252424964
 30
0.0
 10
43.33934096406611
 20
96.35357875861553
 30
0.0
 10
42.5834478188668
 20
96.58286532249625
 30
0.0
 10
40.40563747820281
 20
97.4849241892928
 30
0.0
 10
39.07501648224532
 20
98.37435201732683
 30
0.0
 10
36.85385945958564
 20
100.594546244403
 30
0.0
 10
35.96493931736222
 20
101.9257605796596
 30
0.0
 10
35.06288461150442
 20
104.1029651200516
 30
0.0
 10
34.83356361817802
 20
104.8593678235525
 30
0.0
 10
34.52690206064535
 20
106.3998932649718
 30
0.0
 10
34.44959060630337
 20
107.1836584239392
 30
0.0
 10
34.44947747484029
 20
107.9713118959047
 30
0.0
  0
SPLINE
  5
85
330
1F
100
AcDbEntity
  8
0
  6
Continuous
 62
     7
370
    25
100
AcDbSpline
210
0.0
220
0.0
230
1.0
 70
     8
 71
     3
 72
     8
 73
     4
 74
     0
 42
0.00000001
 43
0.00000001
 40
0.0
 40
0.0
 40
0.0
 40
0.0
 40
1.0
 40
1.0
 40
1.0
 40
1.0
 10
46.45153952039338
 20
93.97161509909344
 30
0.0
 10
46.45140916052859
 20
95.04168512274666
 30
0.0
 10
46.45128884429739
 20
95.9993356711257
 30
0.0
 10
46.45131057499763
 20
95.9694749831245
 30
0.0
  0
SPLINE
  5
86
330
1F
100
AcDbEntity
  8
0
  6
Continuous
 62
     7
370
    25
100
AcDbSpline
210
0.0
220
0.0
230
1.0
 70
     8
 71
     3
 72
    20
 73
    16
 74
     0
 42
0.00000001
 43
0.00000001
 40
0.0
 40
0.0
 40
0.0
 40
0.0
 40
0.1249999999999992
 40
0.1249999999999992
 40
0.2499999999999983
 40
0.2499999999999983
 40
0.5000000000000024
 40
0.5000000000000024
 40
0.6250000000000018
 40
0.6250000000000018
 40
0.7500000000000012
 40
0.7500000000000012
 40
0.8750000000000006
 40
0.8750000000000006
 40
1.0
 40
1.0
 40
1.0
 40
1.0
 10
32.45161296112797
 20
107.971527736437
 30
0.0
 10
32.45179597606107
 20
107.0561261045416
 30
0.0
 10
32.54193066027633
 20
106.1375374239124
 30
0.0
 10
32.89963353192205
 20
104.3389537961484
 30
0.0
 10
33.16713913131897
 20
103.4587192651353
 30
0.0
 10
34.21943012791351
 20
100.9195442811242
 30
0.0
 10
35.25725993023588
 20
99.36777471736555
 30
0.0
 10
37.20009922919132
 20
97.42466292430827
 30
0.0
 10
37.91113936756296
 20
96.84050853895712
 30
0.0
 10
39.43431400955599
 20
95.82260698668824
 30
0.0
 10
40.24603357252787
 20
95.38864257562005
 30
0.0
 10
41.9383364615431
 20
94.68706249347794
 30
0.0
 10
42.81899498331854
 20
94.4196433663965
 30
0.0
 10
44.61791350844002
 20
94.06197217203635
 30
0.0
 10
45.53610053259183
 20
93.97177522976521
 30
0.0
 10
46.45153951972125
 20
93.97161134455753
 30
0.0
  0
SPLINE
  5
87
330
1F
100
AcDbEntity
  8
0
  6
Continuous
 62
     7
370
    25
100
AcDbSpline
210
0.0
220
0.0
230
1.0
 70
     8
 71
     3
 72
    14
 73
    10
 74
     0
 42
0.00000001
 43
0.00000001
 40
0.0
 40
0.0
 40
0.0
 40
0.0
 40
0.25
 40
0.25
 40
0.5
 40
0.5
 40
0.75
 40
0.75
 40
1.0
 40
1.0
 40
1.0
 40
1.0
 10
32.45157444241653
 20
107.9715277287321
 30
0.0
 10
32.71336598273245
 20
107.9715097967285
 30
0.0
 10
32.97505327327088
 20
107.9714918647248
 30
0.0
 10
33.45877848002743
 20
107.9714560007175
 30
0.0
 10
33.68062609376787
 20
107.9714380687138
 30
0.0
 10
34.05085500682481
 20
107.9714022047064
 30
0.0
 10
34.19909065427407
 20
107.9713842727026
 30
0.0
 10
34.39946261317706
 20
107.971348408695
 30
0.0
 10
34.45152009623853
 20
107.9713304766911
 30
0.0
 10
34.45152609401436
 20
107.9713125446872
 30
0.0
  0
SPLINE
  5
88
330
1F
100
AcDbEntity
  8
0
  6
Continuous
 62
     7
370
    25
100
AcDbSpline
210
0.0
220
0.0
230
1.0
 70
     8
 71
     3
 72
    18
 73
    14
 74
     0
 42
0.00000001
 43
0.00000001
 40
0.0
 40
0.0
 40
0.0
 40
0.0
 40
0.1249999999999983
 40
0.1249999999999983
 40
0.2499999999999966
 40
0.2499999999999966
 40
0.4999999999999972
 40
0.4999999999999972
 40
0.7499999999999979
 40
0.7499999999999979
 40
0.8749999999999989
 40
0.8749999999999989
 40
1.0
 40
1.0
 40
1.0
 40
1.0
 10
744.4517416130341
 20
495.9735801231975
 30
0.0
 10
745.2393463714714
 20
495.9734820418606
 30
0.0
 10
746.0236047813471
 20
495.8961228039251
 30
0.0
 10
747.5637126077495
 20
495.5894771275473
 30
0.0
 10
748.3196054270718
 20
495.3601909052192
 30
0.0
 10
750.4974144542367
 20
494.4581328981618
 30
0.0
 10
751.8280341493396
 20
493.5687053701411
 30
0.0
 10
754.0491897070368
 20
491.3485111123752
 30
0.0
 10
754.9381098355939
 20
490.0172964845569
 30
0.0
 10
755.8401656435624
 20
487.840091291566
 30
0.0
 10
756.0694871719751
 20
487.0836882997899
 30
0.0
 10
756.3761496974394
 20
485.5431623083506
 30
0.0
 10
756.4534615796035
 20
484.7593969047153
 30
0.0
 10
756.4535747137429
 20
483.9717431807318
 30
0.0
  0
SPLINE
  5
89
330
1F
100
AcDbEntity
  8
0
  6
Continuous
 62
     7
370
    25
100
AcDbSpline
210
0.0
220
0.0
230
1.0
 70
     8
 71
     3
 72
     8
 73
     4
 74
     0
 42
0.00000001
 43
0.00000001
 40
0.0
 40
0.0
 40
0.0
 40
0.0
 40
1.0
 40
1.0
 40
1.0
 40
1.0
 10
744.4515126567642
 20
497.9714400056907
 30
0.0
 10
744.451643018516
 20
496.901369980151
 30
0.0
 10
744.4517633345706
 20
495.9437194315256
 30
0.0
 10
744.4517416130341
 20
495.9735801231975
 30
0.0
  0
SPLINE
  5
8A
330
1F
100
AcDbEntity
  8
0
  6
Continuous
 62
     7
370
    25
100
AcDbSpline
210
0.0
220
0.0
230
1.0
 70
     8
 71
     3
 72
    20
 73
    16
 74
     0
 42
0.00000001
 43
0.00000001
 40
0.0
 40
0.0
 40
0.0
 40
0.0
 40
0.125
 40
0.125
 40
0.25
 40
0.25
 40
0.5
 40
0.5
 40
0.625
 40
0.625
 40
0.75
 40
0.75
 40
0.875
 40
0.875
 40
1.0
 40
1.0
 40
1.0
 40
1.0
 10
758.4514393530249
 20
483.971527368269
 30
0.0
 10
758.4512563325416
 20
484.8869299044825
 30
0.0
 10
758.3611210915851
 20
485.8055192171495
 30
0.0
 10
758.0034170890949
 20
487.6041034944644
 30
0.0
 10
757.7359109200936
 20
488.4843380797844
 30
0.0
 10
756.6836189984806
 20
491.0235129495236
 30
0.0
 10
755.6457897188515
 20
492.5752822432142
 30
0.0
 10
753.7029516640647
 20
494.5183940963858
 30
0.0
 10
752.991911978967
 20
495.1025485273168
 30
0.0
 10
751.4687380820436
 20
496.1204500533994
 30
0.0
 10
750.6570188105401
 20
496.5544143756643
 30
0.0
 10
748.964716263625
 20
497.2559940335145
 30
0.0
 10
748.0840577970656
 20
497.5234128239408
 30
0.0
 10
746.2851392145207
 20
497.8810833777554
 30
0.0
 10
745.3669520750633
 20
497.9712800202382
 30
0.0
 10
744.4515126574591
 20
497.9714438878204
 30
0.0
  0
SPLINE
  5
8B
330
1F
100
AcDbEntity
  8
0
  6
Continuous
 62
     7
370
    25
100
AcDbSpline
210
0.0
220
0.0
230
1.0
 70
     8
 71
     3
 72
    14
 73
    10
 74
     0
 42
0.00000001
 43
0.00000001
 40
0.0
 40
0.0
 40
0.0
 40
0.0
 40
0.25
 40
0.25
 40
0.5
 40
0.5
 40
0.75
 40
0.75
 40
1.0
 40
1.0
 40
1.0
 40
1.0
 10
758.4514778719594
 20
483.9715273759733
 30
0.0
 10
758.189686321531
 20
483.9715453056388
 30
0.0
 10
757.9279990176218
 20
483.9715632353042
 30
0.0
 10
757.4442737825997
 20
483.9715990946352
 30
0.0
 10
757.2224261540051
 20
483.9716170243007
 30
0.0
 10
756.8521972145609
 20
483.9716528836318
 30
0.0
 10
756.703961555611
 20
483.9716708132974
 30
0.0
 10
756.5035895805133
 20
483.9717066726287
 30
0.0
 10
756.451532092776
 20
483.9717246022944
 30
0.0
 10
756.4515260943951
 20
483.9717425319601
 30
0.0
  0
SPLINE
  5
8C
330
1F
100
AcDbEntity
  8
0
  6
Continuous
 62
     7
370
    25
100
AcDbSpline
210
0.0
220
0.0
230
1.0
 70
     8
 71
     3
 72
    18
 73
    14
 74
     0
 42
0.00000001
 43
0.00000001
 40
0.0
 40
0.0
 40
0.0
 40
0.0
 40
0.1249999999999979
 40
0.1249999999999979
 40
0.2499999999999957
 40
0.2499999999999957
 40
0.4999999999999917
 40
0.4999999999999917
 40
0.7499999999999877
 40
0.7499999999999877
 40
0.8749999999999938
 40
0.8749999999999938
 40
1.0
 40
1.0
 40
1.0
 40
1.0
 10
34.449473524098
 20
483.9717430442864
 30
0.0
 10
34.44957160886653
 20
484.7593490308491
 30
0.0
 10
34.52693107683713
 20
485.5436077195111
 30
0.0
 10
34.83357725045943
 20
487.0837154805841
 30
0.0
 10
35.06286373202183
 20
487.8396080195881
 30
0.0
 10
35.96492202899804
 20
490.0174161209196
 30
0.0
 10
36.8543489480182
 20
491.3480351984042
 30
0.0
 10
39.07454105043828
 20
493.5691907472589
 30
0.0
 10
40.4057542223214
 20
494.4581112632921
 30
0.0
 10
42.58295879148455
 20
495.3601672793776
 30
0.0
 10
43.3393618260709
 20
495.5894888091094
 30
0.0
 10
44.87988882340954
 20
495.8961512474185
 30
0.0
 10
45.66365523968341
 20
495.9734630420854
 30
0.0
 10
46.45131049417672
 20
495.9735761719495
 30
0.0
  0
SPLINE
  5
8D
330
1F
100
AcDbEntity
  8
0
  6
Continuous
 62
     7
370
    25
100
AcDbSpline
210
0.0
220
0.0
230
1.0
 70
     8
 71
     3
 72
     8
 73
     4
 74
     0
 42
0.00000001
 43
0.00000001
 40
0.0
 40
0.0
 40
0.0
 40
0.0
 40
1.0
 40
1.0
 40
1.0
 40
1.0
 10
32.45161351553772
 20
483.9715141163753
 30
0.0
 10
33.52168359383534
 20
483.9716444693287
 30
0.0
 10
34.47933422091065
 20
483.9717647805222
 30
0.0
 10
34.44947352409788
 20
483.9717430442864
 30
0.0
  0
SPLINE
  5
8E
330
1F
100
AcDbEntity
  8
0
  6
Continuous
 62
     7
370
    25
100
AcDbSpline
210
0.0
220
0.0
230
1.0
 70
     8
 71
     3
 72
    20
 73
    16
 74
     0
 42
0.00000001
 43
0.00000001
 40
0.0
 40
0.0
 40
0.0
 40
0.0
 40
0.1249999999999974
 40
0.1249999999999974
 40
0.2499999999999949
 40
0.2499999999999949
 40
0.5000000000000038
 40
0.5000000000000038
 40
0.6250000000000028
 40
0.6250000000000028
 40
0.7500000000000019
 40
0.7500000000000019
 40
0.875000000000001
 40
0.875000000000001
 40
1.0
 40
1.0
 40
1.0
 40
1.0
 10
46.4515261951467
 20
497.9714406798452
 30
0.0
 10
45.53612252679673
 20
497.9712576565512
 30
0.0
 10
44.61753230218901
 20
497.8811225648226
 30
0.0
 10
42.81894680173448
 20
497.5234186374144
 30
0.0
 10
41.9387118894664
 20
497.2559123954941
 30
0.0
 10
39.39953692370934
 20
496.2036198752755
 30
0.0
 10
37.84776896379982
 20
495.1657897740242
 30
0.0
 10
35.90465923188724
 20
493.2229519644612
 30
0.0
 10
35.32050548921295
 20
492.5119125935663
 30
0.0
 10
34.30260486897241
 20
490.9887396829553
 30
0.0
 10
33.86864074645901
 20
490.1770210613649
 30
0.0
 10
33.16706095993871
 20
488.4847195431854
 30
0.0
 10
32.89964185524363
 20
487.6040614521298
 30
0.0
 10
32.54197069071907
 20
485.8051426533407
 30
0.0
 10
32.45177376787012
 20
484.8869548537307
 30
0.0
 10
32.45160989112639
 20
483.9715141170241
 30
0.0
  0
SPLINE
  5
8F
330
1F
100
AcDbEntity
  8
0
  6
Continuous
 62
     7
370
    25
100
AcDbSpline
210
0.0
220
0.0
230
1.0
 70
     8
 71
     3
 72
    14
 73
    10
 74
     0
 42
0.00000001
 43
0.00000001
 40
0.0
 40
0.0
 40
0.0
 40
0.0
 40
0.25
 40
0.25
 40
0.5
 40
0.5
 40
0.75
 40
0.75
 40
1.0
 40
1.0
 40
1.0
 40
1.0
 10
46.45152618744175
 20
497.9714791985462
 30
0.0
 10
46.45150826706234
 20
497.7096876584839
 30
0.0
 10
46.45149034668306
 20
497.4480003683562
 30
0.0
 10
46.45145450592469
 20
496.9642751625988
 30
0.0
 10
46.4514365855454
 20
496.7424275494457
 30
0.0
 10
46.45140074478693
 20
496.3721986375875
 30
0.0
 10
46.45138282440753
 20
496.2239629907484
 30
0.0
 10
46.45134698364895
 20
496.0235910329533
 30
0.0
 10
46.45132906326987
 20
495.9715335503886
 30
0.0
 10
46.45131114289058
 20
495.9715275530079
 30
0.0
  0
SPLINE
  5
90
330
1F
100
AcDbEntity
  8
0
  6
Continuous
 62
     7
370
    25
100
AcDbSpline
210
0.0
220
0.0
230
1.0
 70
     8
 71
     3
 72
    18
 73
    14
 74
     0
 42
0.00000001
 43
0.00000001
 40
0.0
 40
0.0
 40
0.0
 40
0.0
 40
0.1249999999999968
 40
0.1249999999999968
 40
0.2499999999999937
 40
0.2499999999999937
 40
0.4999999999999971
 40
0.4999999999999971
 40
0.7500000000000007
 40
0.7500000000000007
 40
0.8750000000000003
 40
0.8750000000000003
 40
1.0
 40
1.0
 40
1.0
 40
1.0
 10
756.4535787156938
 20
107.9713122160666
 30
0.0
 10
756.4535044415284
 20
107.1838745899305
 30
0.0
 10
756.3761258543594
 20
106.3996788705793
 30
0.0
 10
756.0694642384973
 20
104.859261249727
 30
0.0
 10
755.8401814082652
 20
104.1030868274181
 30
0.0
 10
754.9380924030011
 20
101.9257504987343
 30
0.0
 10
754.0488123632831
 20
100.594851082886
 30
0.0
 10
751.828243761795
 20
98.37408611702456
 30
0.0
 10
750.4973627425964
 20
97.48493070829936
 30
0.0
 10
748.319979097797
 20
96.58291152998646
 30
0.0
 10
747.5641264715028
 20
96.35361989772426
 30
0.0
 10
746.0235761359611
 20
96.04693761300412
 30
0.0
 10
745.2388009374265
 20
95.96950718644662
 30
0.0
 10
744.4517411672244
 20
95.9694679098794
 30
0.0
  0
SPLINE
  5
91
330
1F
100
AcDbEntity
  8
0
  6
Continuous
 62
     7
370
    25
100
AcDbSpline
210
0.0
220
0.0
230
1.0
 70
     8
 71
     3
 72
     8
 73
     4
 74
     0
 42
0.00000001
 43
0.00000001
 40
0.0
 40
0.0
 40
0.0
 40
0.0
 40
1.0
 40
1.0
 40
1.0
 40
1.0
 10
758.4514393859835
 20
107.9715240827212
 30
0.0
 10
757.3813323433753
 20
107.9714056088633
 30
0.0
 10
756.4237181980018
 20
107.97129722102
 30
0.0
 10
756.4535787156938
 20
107.9713122160666
 30
0.0
  0
SPLINE
  5
92
330
1F
100
AcDbEntity
  8
0
  6
Continuous
 62
     7
370
    25
100
AcDbSpline
210
0.0
220
0.0
230
1.0
 70
     8
 71
     3
 72
    22
 73
    18
 74
     0
 42
0.00000001
 43
0.00000001
 40
0.0
 40
0.0
 40
0.0
 40
0.0
 40
0.125
 40
0.125
 40
0.25
 40
0.25
 40
0.375
 40
0.375
 40
0.5
 40
0.5
 40
0.625
 40
0.625
 40
0.75
 40
0.75
 40
0.875
 40
0.875
 40
1.0
 40
1.0
 40
1.0
 40
1.0
 10
744.4515260059173
 20
93.97161437138816
 30
0.0
 10
745.3674250075721
 20
93.9716670101984
 30
0.0
 10
746.2851706722049
 20
94.06197428481747
 30
0.0
 10
748.0837246156717
 20
94.41968618084348
 30
0.0
 10
748.9643939299884
 20
94.68711920096753
 30
0.0
 10
750.6570215323061
 20
95.38864116348047
 30
0.0
 10
751.4687634366647
 20
95.82263245970587
 30
0.0
 10
752.9918474720876
 20
96.84058895840117
 30
0.0
 10
753.7030627550557
 20
97.4246774927918
 30
0.0
 10
754.9982958915323
 20
98.72008298577781
 30
0.0
 10
755.5824139608771
 20
99.43125909377906
 30
0.0
 10
756.6003835690485
 20
100.9542400994148
 30
0.0
 10
757.0343746673442
 20
101.7659944703909
 30
0.0
 10
757.7359260463821
 20
103.4586242557985
 30
0.0
 10
758.0033872269204
 20
104.3390585474354
 30
0.0
 10
758.3610833383509
 20
106.1377208456913
 30
0.0
 10
758.4513176245013
 20
107.0559441989693
 30
0.0
 10
758.4514309514235
 20
107.9715240837652
 30
0.0
  0
SPLINE
  5
93
330
1F
100
AcDbEntity
  8
0
  6
Continuous
 62
     7
370
    25
100
AcDbSpline
210
0.0
220
0.0
230
1.0
 70
     8
 71
     3
 72
     8
 73
     4
 74
     0
 42
0.00000001
 43
0.00000001
 40
0.0
 40
0.0
 40
0.0
 40
0.0
 40
1.0
 40
1.0
 40
1.0
 40
1.0
 10
744.4517411672242
 20
95.96946791605218
 30
0.0
 10
744.4517200729193
 20
95.99932823437831
 30
0.0
 10
744.45163101166
 20
95.04171863659292
 30
0.0
 10
744.4515260059172
 20
93.97161437138821
 30
0.0
  0
LINE
  5
94
330
1F
100
AcDbEntity
  8
0
  6
Continuous
 62
     7
370
    25
100
AcDbLine
 10
756.4515260939
 20
483.971742532
 30
0.0
 11
756.4515260943
 21
107.9713126424
 31
0.0
  0
LINE
  5
95
330
1F
100
AcDbEntity
  8
0
  6
Continuous
 62
     7
370
    25
100
AcDbLine
 10
758.4514971792
 20
107.971524078
 30
0.0
 11
758.4514971788
 21
483.971527376
 31
0.0
  0
LINE
  5
96
330
1F
100
AcDbEntity
  8
0
  6
Continuous
 62
     7
370
    25
100
AcDbLine
 10
46.4513111429
 20
495.9715275525
 30
0.0
 11
744.4517410502
 21
495.9715275525
 31
0.0
  0
LINE
  5
97
330
1F
100
AcDbEntity
  8
0
  6
Continuous
 62
     7
370
    25
100
AcDbLine
 10
744.4515126637
 20
497.9714978089
 30
0.0
 11
46.4515261874
 21
497.971497809
 31
0.0
  0
LINE
  5
98
330
1F
100
AcDbEntity
  8
0
  6
Continuous
 62
     7
370
    25
100
AcDbLine
 10
34.4515260941
 20
483.9717424814
 30
0.0
 11
34.4515260945
 21
107.9713125447
 31
0.0
  0
LINE
  5
99
330
1F
100
AcDbEntity
  8
0
  6
Continuous
 62
     7
370
    25
100
AcDbLine
 10
32.45155577
 20
483.9715141233
 30
0.0
 11
32.4515557704
 21
107.9715277287
 31
0.0
  0
LINE
  5
9A
330
1F
100
AcDbEntity
  8
0
  6
Continuous
 62
     7
370
    25
100
AcDbLine
 10
744.4517409414
 20
95.9715275528
 30
0.0
 11
46.4513111379
 21
95.9715275521
 31
0.0
  0
LINE
  5
9B
330
1F
100
AcDbEntity
  8
0
  6
Continuous
 62
     7
370
    25
100
AcDbLine
 10
46.4515395135
 20
93.9715572959
 30
0.0
 11
744.4515260081
 21
93.9715572966
 31
0.0
  0
ARC
  5
9C
330
1F
100
AcDbEntity
  8
0
  6
Continuous
 62
     7
370
    25
100
AcDbCircle
 10
766.4515260938
 20
505.9715275526
 30
0.0
 40
9.499999999999432
100
AcDbArc
 50
0.0000000001
 51
90.0000000001
  0
LINE
  5
9D
330
1F
100
AcDbEntity
  8
0
  6
Continuous
 62
     7
370
    25
100
AcDbLine
 10
775.9515260943
 20
85.9715275527
 30
0.0
 11
775.9515260938
 21
505.9715275526
 31
0.0
  0
ARC
  5
9E
330
1F
100
AcDbEntity
  8
0
  6
Continuous
 62
     7
370
    25
100
AcDbCircle
 10
766.4515260943
 20
85.9715275526
 30
0.0
 40
9.49999999999909
100
AcDbArc
 50
270.0000000001
 51
0.0000000002
  0
LINE
  5
9F
330
1F
100
AcDbEntity
  8
0
  6
Continuous
 62
     7
370
    25
100
AcDbLine
 10
24.4515260945
 20
76.4715275521
 30
0.0
 11
766.4515260943
 21
76.4715275526
 31
0.0
  0
ARC
  5
A0
330
1F
100
AcDbEntity
  8
0
  6
Continuous
 62
     7
370
    25
100
AcDbCircle
 10
24.4515260946
 20
85.9715275521
 30
0.0
 40
9.500000000003055
100
AcDbArc
 50
180.0000000001
 51
269.9999999999
  0
LINE
  5
A1
330
1F
100
AcDbEntity
  8
0
  6
Continuous
 62
     7
370
    25
100
AcDbLine
 10
14.9515260941
 20
505.9715275521
 30
0.0
 11
14.9515260946
 21
85.9715275521
 31
0.0
  0
ARC
  5
A2
330
1F
100
AcDbEntity
  8
0
  6
Continuous
 62
     7
370
    25
100
AcDbCircle
 10
24.4515260941
 20
505.9715275521
 30
0.0
 40
9.500000000374769
100
AcDbArc
 50
89.9999999999
 51
180.0
  0
LINE
  5
A3
330
1F
100
AcDbEntity
  8
0
  6
Continuous
 62
     7
370
    25
100
AcDbLine
 10
766.4515260938
 20
515.4715275525
 30
0.0
 11
24.4515260941
 21
515.4715275524
 31
0.0
  0
LINE
  5
A4
330
1F
100
AcDbEntity
  8
0
  6
Continuous
 62
     7
370
    25
100
AcDbLine
 10
14.4515260941
 20
505.9715275521
 30
0.0
 11
14.9515260941
 21
505.9715275521
 31
0.0
  0
SPLINE
  5
A5
330
1F
100
AcDbEntity
  8
0
  6
Continuous
 62
     7
370
    25
100
AcDbSpline
210
0.0
220
0.0
230
1.0
 70
     8
 71
     3
 72
    14
 73
    10
 74
     0
 42
0.00000001
 43
0.00000001
 40
0.0
 40
0.0
 40
0.0
 40
0.0
 40
0.25
 40
0.25
 40
0.5
 40
0.5
 40
0.75
 40
0.75
 40
1.0
 40
1.0
 40
1.0
 40
1.0
 10
14.45152609411659
 20
505.9715275520645
 30
0.0
 10
14.45152609411526
 20
507.2805244910629
 30
0.0
 10
14.71179932743161
 20
508.5890063956628
 30
0.0
 10
15.71366221057369
 20
511.0077173557839
 30
0.0
 10
16.45485767013588
 20
512.1169947518263
 30
0.0
 10
18.30605889437342
 20
513.9681959760615
 30
0.0
 10
19.41533629041636
 20
514.7093914356227
 30
0.0
 10
21.83404725053861
 20
515.7112543187619
 30
0.0
 10
23.14252915513892
 20
515.9715275520771
 30
0.0
 10
24.45152609413714
 20
515.9715275520742
 30
0.0
  0
LINE
  5
A6
330
1F
100
AcDbEntity
  8
0
  6
Continuous
 62
     7
370
    25
100
AcDbLine
 10
24.4515260941
 20
515.4715275524
 30
0.0
 11
24.4515260941
 21
515.9715275524
 31
0.0
  0
LINE
  5
A7
330
1F
100
AcDbEntity
  8
0
  6
Continuous
 62
     7
370
    25
100
AcDbLine
 10
14.4515260946
 20
85.9715275521
 30
0.0
 11
14.4515260941
 21
505.9715275521
 31
0.0
  0
LINE
  5
A8
330
1F
100
AcDbEntity
  8
0
  6
Continuous
 62
     7
370
    25
100
AcDbLine
 10
14.4515260946
 20
85.9715275521
 30
0.0
 11
14.9515260946
 21
85.9715275521
 31
0.0
  0
LINE
  5
A9
330
1F
100
AcDbEntity
  8
0
  6
Continuous
 62
     7
370
    25
100
AcDbLine
 10
24.4515260941
 20
515.9715275524
 30
0.0
 11
766.4515260938
 21
515.9715275525
 31
0.0
  0
LINE
  5
AA
330
1F
100
AcDbEntity
  8
0
  6
Continuous
 62
     7
370
    25
100
AcDbLine
 10
766.4515260938
 20
515.4715275525
 30
0.0
 11
766.4515260938
 21
515.9715275526
 31
0.0
  0
LINE
  5
AB
330
1F
100
AcDbEntity
  8
0
  6
Continuous
 62
     7
370
    25
100
AcDbLine
 10
766.4515260943
 20
75.9715275529
 30
0.0
 11
24.4515260945
 21
75.9715275521
 31
0.0
  0
LINE
  5
AC
330
1F
100
AcDbEntity
  8
0
  6
Continuous
 62
     7
370
    25
100
AcDbLine
 10
24.4515260945
 20
75.9715275521
 30
0.0
 11
24.4515260945
 21
76.4715275521
 31
0.0
  0
LINE
  5
AD
330
1F
100
AcDbEntity
  8
0
  6
Continuous
 62
     7
370
    25
100
AcDbLine
 10
766.4515260943
 20
75.9715275526
 30
0.0
 11
766.4515260943
 21
76.4715275526
 31
0.0
  0
SPLINE
  5
AE
330
1F
100
AcDbEntity
  8
0
  6
Continuous
 62
     7
370
    25
100
AcDbSpline
210
0.0
220
0.0
230
1.0
 70
     8
 71
     3
 72
    14
 73
    10
 74
     0
 42
0.00000001
 43
0.00000001
 40
0.0
 40
0.0
 40
0.0
 40
0.0
 40
0.25
 40
0.25
 40
0.5
 40
0.5
 40
0.75
 40
0.75
 40
1.0
 40
1.0
 40
1.0
 40
1.0
 10
24.45152609453538
 20
75.97152755207429
 30
0.0
 10
23.14252915554271
 20
75.97152755207784
 30
0.0
 10
21.83404725094928
 20
76.23180078539674
 30
0.0
 10
19.41533629084102
 20
77.2336636685391
 30
0.0
 10
18.30605889480441
 20
77.97485912809924
 30
0.0
 10
16.45485767057786
 20
79.82606035232901
 30
0.0
 10
15.71366221101922
 20
80.9353377483665
 30
0.0
 10
14.71179932788069
 20
83.35404870847671
 30
0.0
 10
14.45152609456368
 20
84.66253061307036
 30
0.0
 10
14.45152609456235
 20
85.97152755206302
 30
0.0
  0
LINE
  5
AF
330
1F
100
AcDbEntity
  8
0
  6
Continuous
 62
     7
370
    25
100
AcDbLine
 10
775.9515260943
 20
85.9715275527
 30
0.0
 11
776.4515260943
 21
85.9715275527
 31
0.0
  0
SPLINE
  5
B0
330
1F
100
AcDbEntity
  8
0
  6
Continuous
 62
     7
370
    25
100
AcDbSpline
210
0.0
220
0.0
230
1.0
 70
     8
 71
     3
 72
    14
 73
    10
 74
     0
 42
0.00000001
 43
0.00000001
 40
0.0
 40
0.0
 40
0.0
 40
0.0
 40
0.25
 40
0.25
 40
0.5
 40
0.5
 40
0.75
 40
0.75
 40
1.0
 40
1.0
 40
1.0
 40
1.0
 10
776.4515260942927
 20
85.97152755266194
 30
0.0
 10
776.4515260942968
 20
84.66253061366466
 30
0.0
 10
776.1912528609835
 20
83.35404870906507
 30
0.0
 10
775.1893899778479
 20
80.93533774894333
 30
0.0
 10
774.4481945182888
 20
79.82606035289999
 30
0.0
 10
772.5969932940578
 20
77.97485912866122
 30
0.0
 10
771.4877158980175
 20
77.2336636690976
 30
0.0
 10
769.0690049378999
 20
76.23180078595202
 30
0.0
 10
767.7605230333015
 20
75.97152755263323
 30
0.0
 10
766.4515260943041
 20
75.97152755263195
 30
0.0
  0
LINE
  5
B1
330
1F
100
AcDbEntity
  8
0
  6
Continuous
 62
     7
370
    25
100
AcDbLine
 10
775.9515260938
 20
505.9715275526
 30
0.0
 11
776.4515260938
 21
505.9715275526
 31
0.0
  0
LINE
  5
B2
330
1F
100
AcDbEntity
  8
0
  6
Continuous
 62
     7
370
    25
100
AcDbLine
 10
776.4515260938
 20
505.9715275526
 30
0.0
 11
776.4515260943
 21
85.9715275527
 31
0.0
  0
ARC
  5
B3
330
1F
100
AcDbEntity
  8
0
  6
Continuous
 62
     7
370
    25
100
AcDbCircle
 10
766.4515260938
 20
505.9715275526
 30
0.0
 40
9.999999999999545
100
AcDbArc
 50
0.0000000001
 51
90.0000000001
  0
SPLINE
  5
B4
330
1F
100
AcDbEntity
  8
0
  6
Continuous
 62
     7
370
    25
100
AcDbSpline
210
0.0
220
0.0
230
1.0
 70
     8
 71
     3
 72
    20
 73
    16
 74
     0
 42
0.00000001
 43
0.00000001
 40
0.0
 40
0.0
 40
0.0
 40
0.0
 40
0.0500440870541566
 40
0.1036322551133669
 40
0.160775352618829
 40
0.2214823219673295
 40
0.2857606179068999
 40
0.353616517902702
 40
0.425055356081904
 40
0.5000817021454131
 40
0.6215809229940017
 40
0.7498275051407522
 40
0.8581089122377112
 40
0.9414938209533668
 40
1.0
 40
1.0
 40
1.0
 40
1.0
 10
401.7251371126931
 20
494.9715275524624
 30
0.0
 10
401.8226074803507
 20
495.0029526370378
 30
0.0
 10
402.0244509867803
 20
495.0680283047815
 30
0.0
 10
402.3395522566752
 20
495.1618689126576
 30
0.0
 10
402.6767145817134
 20
495.2562030507859
 30
0.0
 10
403.0361201550654
 20
495.3494654810918
 30
0.0
 10
403.4177179827969
 20
495.4407281330002
 30
0.0
 10
403.8215253725719
 20
495.5287824842728
 30
0.0
 10
404.247537554776
 20
495.6124370971605
 30
0.0
 10
404.7811554648322
 20
495.7052522165159
 30
0.0
 10
405.4291943466516
 20
495.7991472977381
 30
0.0
 10
406.1449014025659
 20
495.8772734799149
 30
0.0
 10
406.7854568702852
 20
495.92587394028
 30
0.0
 10
407.2870739333271
 20
495.9512027012312
 30
0.0
 10
407.5731460344042
 20
495.9588663561476
 30
0.0
 10
407.6911026011612
 20
495.9620263232306
 30
0.0
  0
LINE
  5
B5
330
1F
100
AcDbEntity
  8
0
  6
Continuous
 62
     7
370
    25
100
AcDbLine
 10
389.1779150786
 20
494.9715275525
 30
0.0
 11
401.7251371127
 21
494.9715275525
 31
0.0
  0
SPLINE
  5
B6
330
1F
100
AcDbEntity
  8
0
  6
Continuous
 62
     7
370
    25
100
AcDbSpline
210
0.0
220
0.0
230
1.0
 70
     8
 71
     3
 72
    18
 73
    14
 74
     0
 42
0.00000001
 43
0.00000001
 40
0.0
 40
0.0
 40
0.0
 40
0.0
 40
0.0415479848810598
 40
0.0970879477511339
 40
0.1666307813187453
 40
0.2501816848763355
 40
0.3784197837361017
 40
0.4999330419554825
 40
0.6182484542430907
 40
0.7273877228906103
 40
0.827372428184372
 40
0.9182306785667679
 40
1.0
 40
1.0
 40
1.0
 40
1.0
 10
383.2119415633015
 20
495.9620267640612
 30
0.0
 10
383.2957560358198
 20
495.9598986972066
 30
0.0
 10
383.4916109046404
 20
495.9549259014336
 30
0.0
 10
383.8261783899508
 20
495.9409675200366
 30
0.0
 10
384.2444332062542
 20
495.9167030346425
 30
0.0
 10
384.8075313693581
 20
495.8718180814275
 30
0.0
 10
385.473841658231
 20
495.7991656965634
 30
0.0
 10
386.2082334757205
 20
495.6927544035115
 30
0.0
 10
386.9028719036972
 20
495.5674181169508
 30
0.0
 10
387.5526300218777
 20
495.4273874130347
 30
0.0
 10
388.1454605159796
 20
495.279400243139
 30
0.0
 10
388.6818813974386
 20
495.1296346934579
 30
0.0
 10
389.0184778425651
 20
495.0223470159664
 30
0.0
 10
389.1779150786064
 20
494.9715275524568
 30
0.0
  0
SPLINE
  5
B7
330
1F
100
AcDbEntity
  8
0
  6
Continuous
 62
     7
370
    25
100
AcDbSpline
210
0.0
220
0.0
230
1.0
 70
     8
 71
     3
 72
    12
 73
     8
 74
     0
 42
0.00000001
 43
0.00000001
 40
0.0
 40
0.0
 40
0.0
 40
0.0
 40
0.5
 40
0.5
 40
0.75
 40
0.75
 40
1.0
 40
1.0
 40
1.0
 40
1.0
 10
383.2119415633012
 20
495.9620267640613
 30
0.0
 10
383.1727320157632
 20
495.9641809785786
 30
0.0
 10
383.1337789070313
 20
495.9661378067127
 30
0.0
 10
383.0779933817597
 20
495.9687039050726
 30
0.0
 10
383.0597598913722
 20
495.9695005233359
 30
0.0
 10
383.0269516324052
 20
495.9708744282203
 30
0.0
 10
383.0103482639456
 20
495.9715275524473
 30
0.0
 10
383.0103482636707
 20
495.9715275524541
 30
0.0
  0
SPLINE
  5
B8
330
1F
100
AcDbEntity
  8
0
  6
Continuous
 62
     7
370
    25
100
AcDbSpline
210
0.0
220
0.0
230
1.0
 70
     8
 71
     3
 72
    18
 73
    14
 74
     0
 42
0.00000001
 43
0.00000001
 40
0.0
 40
0.0
 40
0.0
 40
0.0
 40
0.041548002090444
 40
0.0970879707093856
 40
0.1666307984590407
 40
0.2501816845828442
 40
0.378419795678309
 40
0.4999330423590095
 40
0.6182484589245286
 40
0.7273877298011472
 40
0.8273724351622201
 40
0.9182306833047711
 40
0.9999999999999999
 40
0.9999999999999999
 40
0.9999999999999999
 40
0.9999999999999999
 10
407.6911094600878
 20
95.98102840488845
 30
0.0
 10
407.6072950113223
 20
95.98315648255814
 30
0.0
 10
407.4114402328169
 20
95.98812930271953
 30
0.0
 10
407.0768729409526
 20
96.00208772930444
 30
0.0
 10
406.6586184423967
 20
96.02635226774677
 30
0.0
 10
406.095520678849
 20
96.07123728894437
 30
0.0
 10
405.4292108672884
 20
96.14388974212687
 30
0.0
 10
404.6948195246617
 20
96.25030108785724
 30
0.0
 10
404.0001815610706
 20
96.37563738387536
 30
0.0
 10
403.350423850055
 20
96.5156680577817
 30
0.0
 10
402.757593732985
 20
96.6636551495477
 30
0.0
 10
402.2211732002638
 20
96.81342058142509
 30
0.0
 10
401.8845769703941
 20
96.92070814419343
 30
0.0
 10
401.725139839108
 20
96.97152755247104
 30
0.0
  0
SPLINE
  5
B9
330
1F
100
AcDbEntity
  8
0
  6
Continuous
 62
     7
370
    25
100
AcDbSpline
210
0.0
220
0.0
230
1.0
 70
     8
 71
     3
 72
    20
 73
    16
 74
     0
 42
0.00000001
 43
0.00000001
 40
0.0
 40
0.0
 40
0.0
 40
0.0
 40
0.0500440863283596
 40
0.1036322538865196
 40
0.1607753510989634
 40
0.2214823203485689
 40
0.2857606163717068
 40
0.3536165166236473
 40
0.4250553552231133
 40
0.5000817018637358
 40
0.6215810633027012
 40
0.7498275045118076
 40
0.8581090994294678
 40
0.9414940079063026
 40
1.0
 40
1.0
 40
1.0
 40
1.0
 10
389.1779138003257
 20
96.97152755245206
 30
0.0
 10
389.080443459673
 20
96.9401024617533
 30
0.0
 10
388.8786000086278
 20
96.8750267811557
 30
0.0
 10
388.5634988249404
 20
96.78118614723566
 30
0.0
 10
388.2263365909181
 20
96.68685197829716
 30
0.0
 10
387.8669311134931
 20
96.5935895132937
 30
0.0
 10
387.4853333865735
 20
96.5023268248211
 30
0.0
 10
387.0815261025035
 20
96.4142724373662
 30
0.0
 10
386.6555140309052
 20
96.3306177912693
 30
0.0
 10
386.1218959804538
 20
96.23780259155359
 30
0.0
 10
385.4738572692411
 20
96.14390750233623
 30
0.0
 10
384.7581500248285
 20
96.06578131482321
 30
0.0
 10
384.1175946073265
 20
96.01718093900367
 30
0.0
 10
383.6159776332833
 20
95.9918522929544
 30
0.0
 10
383.3299059064409
 20
95.98418871720551
 30
0.0
 10
383.2119497152998
 20
95.98102878869445
 30
0.0
  0
LINE
  5
BA
330
1F
100
AcDbEntity
  8
0
  6
Continuous
 62
     7
370
    25
100
AcDbLine
 10
401.7251398391
 20
96.9715275525
 30
0.0
 11
389.1779138003
 21
96.9715275525
 31
0.0
  0
SPLINE
  5
BB
330
1F
100
AcDbEntity
  8
0
  6
Continuous
 62
     7
370
    25
100
AcDbSpline
210
0.0
220
0.0
230
1.0
 70
     8
 71
     3
 72
    12
 73
     8
 74
     0
 42
0.00000001
 43
0.00000001
 40
0.0
 40
0.0
 40
0.0
 40
0.0
 40
0.5
 40
0.5
 40
0.75
 40
0.75
 40
1.0
 40
1.0
 40
1.0
 40
1.0
 10
407.6911094600877
 20
95.98102840488824
 30
0.0
 10
407.7303192105607
 20
95.97887417567738
 30
0.0
 10
407.7692725241378
 20
95.97691733465189
 30
0.0
 10
407.8250583565651
 20
95.97435121977414
 30
0.0
 10
407.8432919521606
 20
95.97355459635412
 30
0.0
 10
407.8761004135891
 20
95.97218068237115
 30
0.0
 10
407.8927039245177
 20
95.9715275524872
 30
0.0
 10
407.8927039248952
 20
95.97152755248025
 30
0.0
  0
SPLINE
  5
BC
330
1F
100
AcDbEntity
  8
0
  6
Continuous
 62
     7
370
    25
100
AcDbSpline
210
0.0
220
0.0
230
1.0
 70
     8
 71
     3
 72
    19
 73
    15
 74
     0
 42
0.00000001
 43
0.00000001
 40
0.0
 40
0.0
 40
0.0
 40
0.0
 40
0.0559767822201618
 40
0.1136420389014583
 40
0.1730673325677502
 40
0.2343186228982589
 40
0.2974568905438262
 40
0.3625387656509336
 40
0.4296171551641773
 40
0.4987418663041325
 40
0.6203165278775697
 40
0.7494154024964668
 40
0.8700576703723425
 40
1.0
 40
1.0
 40
1.0
 40
1.0
 10
388.7016825459785
 20
494.2078505429384
 30
0.0
 10
388.6368133125212
 20
494.2478177675505
 30
0.0
 10
388.5051181407073
 20
494.3289577815708
 30
0.0
 10
388.3019135899042
 20
494.4475102829047
 30
0.0
 10
388.0908490956032
 20
494.5655195876435
 30
0.0
 10
387.8715805784727
 20
494.6822224160049
 30
0.0
 10
387.644048881855
 20
494.7972846474228
 30
0.0
 10
387.4081239882978
 20
494.9102230577388
 30
0.0
 10
387.1637031209589
 20
495.0205729923438
 30
0.0
 10
386.8492711363634
 20
495.1538498326784
 30
0.0
 10
386.457065092821
 20
495.3053456134973
 30
0.0
 10
385.9991995639779
 20
495.4596120760417
 30
0.0
 10
385.5292747776384
 20
495.5974050492146
 30
0.0
 10
385.2178428778483
 20
495.6703977716431
 30
0.0
 10
385.0563477700793
 20
495.7082486391454
 30
0.0
  0
SPLINE
  5
BD
330
1F
100
AcDbEntity
  8
0
  6
Continuous
 62
     7
370
    25
100
AcDbSpline
210
0.0
220
0.0
230
1.0
 70
     8
 71
     3
 72
     8
 73
     4
 74
     0
 42
0.00000001
 43
0.00000001
 40
0.0
 40
0.0
 40
0.0
 40
0.0
 40
1.0
 40
1.0
 40
1.0
 40
1.0
 10
385.0563565483312
 20
495.7082883793773
 30
0.0
 10
385.2951748433765
 20
495.6555356127554
 30
0.0
 10
385.5348524374413
 20
495.6069742236741
 30
0.0
 10
385.7750491595486
 20
495.5609449701701
 30
0.0
  0
LINE
  5
BE
330
1F
100
AcDbEntity
  8
0
  6
Continuous
 62
     7
370
    25
100
AcDbLine
 10
389.1779150786
 20
494.9715275525
 30
0.0
 11
388.701682546
 21
494.2078505429
 31
0.0
  0
SPLINE
  5
BF
330
1F
100
AcDbEntity
  8
0
  6
Continuous
 62
     7
370
    25
100
AcDbSpline
210
0.0
220
0.0
230
1.0
 70
     8
 71
     3
 72
    17
 73
    13
 74
     0
 42
0.00000001
 43
0.00000001
 40
0.0
 40
0.0
 40
0.0
 40
0.0
 40
0.1049722670311002
 40
0.2074219080324197
 40
0.3073699095573112
 40
0.4048388750856752
 40
0.4998531783550345
 40
0.6277153563884164
 40
0.7498875553450518
 40
0.8749528015629697
 40
0.9477723445693857
 40
1.0
 40
1.0
 40
1.0
 40
1.0
 10
385.7750509504392
 20
495.5609543156621
 30
0.0
 10
385.6847697892069
 20
495.5839418451818
 30
0.0
 10
385.5063770455633
 20
495.6293644826914
 30
0.0
 10
385.2414567029211
 20
495.6892293933456
 30
0.0
 10
384.9829184381994
 20
495.742475489154
 30
0.0
 10
384.7309244263929
 20
495.7890118086038
 30
0.0
 10
384.4552482992827
 20
495.8344150348168
 30
0.0
 10
384.1594947433706
 20
495.8763063458895
 30
0.0
 10
383.8404637961708
 20
495.9134204664383
 30
0.0
 10
383.5719786814046
 20
495.937982959081
 30
0.0
 10
383.3619533323226
 20
495.9533262706601
 30
0.0
 10
383.2561371320018
 20
495.9594634768183
 30
0.0
 10
383.2119415633013
 20
495.9620267640613
 30
0.0
  0
SPLINE
  5
C0
330
1F
100
AcDbEntity
  8
0
  6
Continuous
 62
     7
370
    25
100
AcDbSpline
210
0.0
220
0.0
230
1.0
 70
     8
 71
     3
 72
     9
 73
     5
 74
     0
 42
0.00000001
 43
0.00000001
 40
0.0
 40
0.0
 40
0.0
 40
0.0
 40
0.4785042808529731
 40
1.0
 40
1.0
 40
1.0
 40
1.0
 10
405.846707337769
 20
96.23480644788503
 30
0.0
 10
405.7323202906872
 20
96.25951336129675
 30
0.0
 10
405.4932690394051
 20
96.3111469921761
 30
0.0
 10
405.253191932453
 20
96.35778269032394
 30
0.0
 10
405.1279927489123
 20
96.38210300726755
 30
0.0
  0
LINE
  5
C1
330
1F
100
AcDbEntity
  8
0
  6
Continuous
 62
     7
370
    25
100
AcDbLine
 10
401.7251398391
 20
96.9715275525
 30
0.0
 11
402.2013722037
 21
97.7352046668
 31
0.0
  0
SPLINE
  5
C2
330
1F
100
AcDbEntity
  8
0
  6
Continuous
 62
     7
370
    25
100
AcDbSpline
210
0.0
220
0.0
230
1.0
 70
     8
 71
     3
 72
    17
 73
    13
 74
     0
 42
0.00000001
 43
0.00000001
 40
0.0
 40
0.0
 40
0.0
 40
0.0
 40
0.1049719201066493
 40
0.2074213884609278
 40
0.3073693914765773
 40
0.4048385323676205
 40
0.4998531844540915
 40
0.6277155272103945
 40
0.7498875625247389
 40
0.8749528032381808
 40
0.9477726530838799
 40
0.9999999999999999
 40
0.9999999999999999
 40
0.9999999999999999
 40
0.9999999999999999
 10
405.1279927489122
 20
96.38210300726766
 30
0.0
 10
405.2182738370776
 20
96.35911543090839
 30
0.0
 10
405.3966665790602
 20
96.31369266450609
 30
0.0
 10
405.6615871436827
 20
96.25382751409158
 30
0.0
 10
405.9201260760632
 20
96.20058110744864
 30
0.0
 10
406.1721212062222
 20
96.15404443291872
 30
0.0
 10
406.4477986786267
 20
96.10864085396906
 30
0.0
 10
406.7435533999731
 20
96.0667492727417
 30
0.0
 10
407.06258537433
 20
96.0296349452219
 30
0.0
 10
407.3310715148534
 20
96.00507230364694
 30
0.0
 10
407.5410975236487
 20
95.9897289204271
 30
0.0
 10
407.6469140258003
 20
95.98359168799705
 30
0.0
 10
407.6911094600878
 20
95.98102840488856
 30
0.0
  0
SPLINE
  5
C3
330
1F
100
AcDbEntity
  8
0
  6
Continuous
 62
     7
370
    25
100
AcDbSpline
210
0.0
220
0.0
230
1.0
 70
     8
 71
     3
 72
    19
 73
    15
 74
     0
 42
0.00000001
 43
0.00000001
 40
0.0
 40
0.0
 40
0.0
 40
0.0
 40
0.0559767931064441
 40
0.113642058183835
 40
0.1730673574394205
 40
0.234318650220991
 40
0.2974569168307077
 40
0.3625387870468842
 40
0.4296171674243681
 40
0.4987418647709174
 40
0.6203165348251629
 40
0.7494154011879838
 40
0.8700576769155663
 40
1.0
 40
1.0
 40
1.0
 40
1.0
 10
402.2013722036718
 20
97.73520466679489
 30
0.0
 10
402.2662414638267
 20
97.69523744467138
 30
0.0
 10
402.3979366865747
 20
97.61409743771584
 30
0.0
 10
402.6011413052053
 20
97.49554494430343
 30
0.0
 10
402.8122058554862
 20
97.37753564878012
 30
0.0
 10
403.0314744150762
 20
97.26083283008639
 30
0.0
 10
403.2590061393577
 20
97.1457706085194
 30
0.0
 10
403.4949310442688
 20
97.03283220780143
 30
0.0
 10
403.7393519050826
 20
96.92248228216124
 30
0.0
 10
404.0537839030222
 20
96.78920543229738
 30
0.0
 10
404.4459899623799
 20
96.63770962526361
 30
0.0
 10
404.903855529702
 20
96.48344311085158
 30
0.0
 10
405.3737803280342
 20
96.34565008577992
 30
0.0
 10
405.6852122351673
 20
96.27265733038095
 30
0.0
 10
405.8467073377689
 20
96.2348064478852
 30
0.0
  0
SPLINE
  5
C4
330
1F
100
AcDbEntity
  8
0
  6
Continuous
 62
     7
370
    25
100
AcDbSpline
210
0.0
220
0.0
230
1.0
 70
     8
 71
     3
 72
     9
 73
     5
 74
     0
 42
0.00000001
 43
0.00000001
 40
0.0
 40
0.0
 40
0.0
 40
0.0
 40
0.5214961470957057
 40
1.0
 40
1.0
 40
1.0
 40
1.0
 10
405.1279829246212
 20
495.5609495310262
 30
0.0
 10
405.2531848032713
 20
495.5852702548215
 30
0.0
 10
405.4932668812453
 20
495.6319066948618
 30
0.0
 10
405.732323077914
 20
495.6835412129902
 30
0.0
 10
405.8467123890807
 20
495.7082485288574
 30
0.0
  0
LINE
  5
C5
330
1F
100
AcDbEntity
  8
0
  6
Continuous
 62
     7
370
    25
100
AcDbLine
 10
401.7251371127
 20
494.9715275525
 30
0.0
 11
402.2013691523
 21
494.2078502355
 31
0.0
  0
SPLINE
  5
C6
330
1F
100
AcDbEntity
  8
0
  6
Continuous
 62
     7
370
    25
100
AcDbSpline
210
0.0
220
0.0
230
1.0
 70
     8
 71
     3
 72
    18
 73
    14
 74
     0
 42
0.00000001
 43
0.00000001
 40
0.0
 40
0.0
 40
0.0
 40
0.0
 40
0.0661450309589106
 40
0.1299480184733117
 40
0.1914294111696621
 40
0.2506085899959519
 40
0.3796988996800951
 40
0.5012888592373874
 40
0.6108950504119586
 40
0.7153402977445396
 40
0.8148402983523377
 40
0.9096359648422429
 40
1.0
 40
1.0
 40
1.0
 40
1.0
 10
405.8467123890805
 20
495.7082485288574
 30
0.0
 10
405.7644814719882
 20
495.6895217331377
 30
0.0
 10
405.6029312454862
 20
495.6527312144721
 30
0.0
 10
405.3654143286071
 20
495.5914649589118
 30
0.0
 10
405.1369050943167
 20
495.5276282413469
 30
0.0
 10
404.8280804145664
 20
495.4342799843527
 30
0.0
 10
404.4460041095436
 20
495.3052821456679
 30
0.0
 10
404.0041653987761
 20
495.1347080815317
 30
0.0
 10
403.5951987026377
 20
494.9580226172286
 30
0.0
 10
403.2160883051834
 20
494.7777048294871
 30
0.0
 10
402.8584945076043
 20
494.5919506444158
 30
0.0
 10
402.5213445228933
 20
494.4035213638629
 30
0.0
 10
402.3063120728939
 20
494.2720248613408
 30
0.0
 10
402.2013691522751
 20
494.2078502354838
 30
0.0
  0
SPLINE
  5
C7
330
1F
100
AcDbEntity
  8
0
  6
Continuous
 62
     7
370
    25
100
AcDbSpline
210
0.0
220
0.0
230
1.0
 70
     8
 71
     3
 72
    15
 73
    11
 74
     0
 42
0.00000001
 43
0.00000001
 40
0.0
 40
0.0
 40
0.0
 40
0.0
 40
0.0523089156840984
 40
0.1252419633794044
 40
0.2503718771422573
 40
0.3725108151846768
 40
0.5003987082924668
 40
0.6600411596661108
 40
0.8265400859112934
 40
1.0
 40
1.0
 40
1.0
 40
1.0
 10
407.6911026011613
 20
495.9620263232308
 30
0.0
 10
407.6468389812921
 20
495.9594588666314
 30
0.0
 10
407.5408596738225
 20
495.9533116677992
 30
0.0
 10
407.3306194746542
 20
495.9379462565956
 30
0.0
 10
407.0620154802411
 20
495.9133634792203
 30
0.0
 10
406.7429385858095
 20
495.8762182383558
 30
0.0
 10
406.3917807984109
 20
495.826506183048
 30
0.0
 10
406.0007038259349
 20
495.7592648447936
 30
0.0
 10
405.5697701048394
 20
495.6715300077686
 30
0.0
 10
405.2772419177257
 20
495.598309444022
 30
0.0
 10
405.127982924621
 20
495.5609495310262
 30
0.0
  0
SPLINE
  5
C8
330
1F
100
AcDbEntity
  8
0
  6
Continuous
 62
     7
370
    25
100
AcDbSpline
210
0.0
220
0.0
230
1.0
 70
     8
 71
     3
 72
     9
 73
     5
 74
     0
 42
0.00000001
 43
0.00000001
 40
0.0
 40
0.0
 40
0.0
 40
0.0
 40
0.5214959651670937
 40
1.0
 40
1.0
 40
1.0
 40
1.0
 10
385.7750657483044
 20
96.382104655328
 30
0.0
 10
385.6498648396831
 20
96.3577840781216
 30
0.0
 10
385.4097845380433
 20
96.31114790290493
 30
0.0
 10
385.170730107476
 20
96.2595137065211
 30
0.0
 10
385.0563415979048
 20
96.23480653521607
 30
0.0
  0
LINE
  5
C9
330
1F
100
AcDbEntity
  8
0
  6
Continuous
 62
     7
370
    25
100
AcDbLine
 10
389.1779138003
 20
96.9715275525
 30
0.0
 11
388.7016816058
 21
97.7352047728
 31
0.0
  0
SPLINE
  5
CA
330
1F
100
AcDbEntity
  8
0
  6
Continuous
 62
     7
370
    25
100
AcDbSpline
210
0.0
220
0.0
230
1.0
 70
     8
 71
     3
 72
    18
 73
    14
 74
     0
 42
0.00000001
 43
0.00000001
 40
0.0
 40
0.0
 40
0.0
 40
0.0
 40
0.0661450469740243
 40
0.1299480401762282
 40
0.1914294278786452
 40
0.2506085906804161
 40
0.3796988981181066
 40
0.5012888607451575
 40
0.6108950297858421
 40
0.7153402672821445
 40
0.8148402689112415
 40
0.9096359459577619
 40
1.0
 40
1.0
 40
1.0
 40
1.0
 10
385.0563415979046
 20
96.23480653521612
 30
0.0
 10
385.138572460704
 20
96.25353333778628
 30
0.0
 10
385.3001225684086
 20
96.29032386714678
 30
0.0
 10
385.5376392905575
 20
96.35159014042941
 30
0.0
 10
385.766148298322
 20
96.41542686625051
 30
0.0
 10
386.0749726693616
 20
96.50877513333336
 30
0.0
 10
386.4570486117105
 20
96.63777298862622
 30
0.0
 10
386.8988869015465
 20
96.80834706273836
 30
0.0
 10
387.3078532005148
 20
96.98503251701283
 30
0.0
 10
387.6869632282926
 20
97.16535027411297
 30
0.0
 10
388.0445567178464
 20
97.35110442858428
 30
0.0
 10
388.381706449119
 20
97.53953368127719
 30
0.0
 10
388.5967387518094
 20
97.67103015687265
 30
0.0
 10
388.7016816057814
 20
97.73520477279592
 30
0.0
  0
SPLINE
  5
CB
330
1F
100
AcDbEntity
  8
0
  6
Continuous
 62
     7
370
    25
100
AcDbSpline
210
0.0
220
0.0
230
1.0
 70
     8
 71
     3
 72
    15
 73
    11
 74
     0
 42
0.00000001
 43
0.00000001
 40
0.0
 40
0.0
 40
0.0
 40
0.0
 40
0.0523094173256646
 40
0.1252419568556847
 40
0.250371869886033
 40
0.3725107173948486
 40
0.5003986845592707
 40
0.6600405071225177
 40
0.8265394409923043
 40
1.0
 40
1.0
 40
1.0
 40
1.0
 10
383.2119497152997
 20
95.98102878869454
 30
0.0
 10
383.2562136962646
 20
95.98359626767369
 30
0.0
 10
383.3621928464382
 20
95.98974346081742
 30
0.0
 10
383.5724325864073
 20
96.00510884547944
 30
0.0
 10
383.8410354093088
 20
96.02969149722205
 30
0.0
 10
384.1601117152192
 20
96.06683662708373
 30
0.0
 10
384.5112684947534
 20
96.11654847881043
 30
0.0
 10
384.902344587253
 20
96.18378956130056
 30
0.0
 10
385.3332779013808
 20
96.27152415469617
 30
0.0
 10
385.625806352204
 20
96.34474468977058
 30
0.0
 10
385.7750657483042
 20
96.38210465532812
 30
0.0
  0
SPLINE
  5
CC
330
1F
100
AcDbEntity
  8
0
  6
Continuous
 62
     7
370
    25
100
AcDbSpline
210
0.0
220
0.0
230
1.0
 70
     8
 71
     3
 72
    15
 73
    11
 74
     0
 42
0.00000001
 43
0.00000001
 40
0.0
 40
0.0
 40
0.0
 40
0.0
 40
0.1236936497629564
 40
0.2475590450196246
 40
0.371698006236476
 40
0.4962116827600719
 40
0.621200314204478
 40
0.746763002686287
 40
0.8729974983153261
 40
1.0
 40
1.0
 40
1.0
 40
1.0
 10
385.0563415979048
 20
96.23480653521607
 30
0.0
 10
384.9517128704774
 20
96.21261289329094
 30
0.0
 10
384.7423101412896
 20
96.16819479413205
 30
0.0
 10
384.42563662668
 20
96.11299573573653
 30
0.0
 10
384.106940381709
 20
96.06612463977429
 30
0.0
 10
383.7860401883455
 20
96.02842069582404
 30
0.0
 10
383.4629851525145
 20
95.99960541875849
 30
0.0
 10
383.1377644179845
 20
95.97995117371802
 30
0.0
 10
382.8103755851209
 20
95.96864094384841
 30
0.0
 10
382.5914055325903
 20
95.96867555822116
 30
0.0
 10
382.4815884649406
 20
95.96869291789609
 30
0.0
  0
SPLINE
  5
CD
330
1F
100
AcDbEntity
  8
0
  6
Continuous
 62
     7
370
    25
100
AcDbSpline
210
0.0
220
0.0
230
1.0
 70
     8
 71
     3
 72
     8
 73
     4
 74
     0
 42
0.00000001
 43
0.00000001
 40
0.0
 40
0.0
 40
0.0
 40
0.0
 40
1.0
 40
1.0
 40
1.0
 40
1.0
 10
408.4210696006083
 20
495.9603689116257
 30
0.0
 10
407.545422141379
 20
495.9813237449573
 30
0.0
 10
406.6829195335456
 20
495.8929000800774
 30
0.0
 10
405.8467123890804
 20
495.7082485288574
 30
0.0
  0
SPLINE
  5
CE
330
1F
100
AcDbEntity
  8
0
  6
Continuous
 62
     7
370
    25
100
AcDbSpline
210
0.0
220
0.0
230
1.0
 70
     8
 71
     3
 72
    20
 73
    16
 74
     0
 42
0.00000001
 43
0.00000001
 40
0.0
 40
0.0
 40
0.0
 40
0.0
 40
0.25
 40
0.25
 40
0.375
 40
0.375
 40
0.5
 40
0.5
 40
0.625
 40
0.625
 40
0.75
 40
0.75
 40
0.875
 40
0.875
 40
1.0
 40
1.0
 40
1.0
 40
1.0
 10
395.5637671613051
 20
483.9479177260016
 30
0.0
 10
395.5340392858247
 20
485.0582448718519
 30
0.0
 10
395.6641529029338
 20
486.145128432844
 30
0.0
 10
396.0807440110311
 20
487.7429785110331
 30
0.0
 10
396.2582285346572
 20
488.2718671699026
 30
0.0
 10
396.6760997015297
 20
489.2892348402376
 30
0.0
 10
396.9171780050832
 20
489.781508402388
 30
0.0
 10
397.4608986486336
 20
490.7346243770423
 30
0.0
 10
397.7650544969512
 20
491.1974375085556
 30
0.0
 10
398.4289818049926
 20
492.0821710140912
 30
0.0
 10
398.7853300324236
 20
492.5001053694696
 30
0.0
 10
399.5448349531002
 20
493.289073811819
 30
0.0
 10
399.9479959805682
 20
493.660103556067
 30
0.0
 10
400.8021202952456
 20
494.3542670331599
 30
0.0
 10
401.2545409967062
 20
494.6780620492345
 30
0.0
 10
401.7251371126932
 20
494.9715275524624
 30
0.0
  0
LINE
  5
CF
330
1F
100
AcDbEntity
  8
0
  6
Continuous
 62
     7
370
    25
100
AcDbLine
 10
395.5515260943
 20
107.9830949342
 30
0.0
 11
395.5515260939
 21
483.947917726
 31
0.0
  0
SPLINE
  5
D0
330
1F
100
AcDbEntity
  8
0
  6
Continuous
 62
     7
370
    25
100
AcDbSpline
210
0.0
220
0.0
230
1.0
 70
     8
 71
     3
 72
    20
 73
    16
 74
     0
 42
0.00000001
 43
0.00000001
 40
0.0
 40
0.0
 40
0.0
 40
0.0
 40
0.1250000000000017
 40
0.1250000000000017
 40
0.2500000000000034
 40
0.2500000000000034
 40
0.3750000000000052
 40
0.3750000000000052
 40
0.5000000000000069
 40
0.5000000000000069
 40
0.6250000000000087
 40
0.6250000000000087
 40
0.7500000000000103
 40
0.7500000000000103
 40
1.0
 40
1.0
 40
1.0
 40
1.0
 10
401.7251398391077
 20
96.97152755247126
 30
0.0
 10
401.2545437428041
 20
97.26499332156871
 30
0.0
 10
400.802122836812
 20
97.58878866736711
 30
0.0
 10
399.9479976986931
 20
98.28295300209125
 30
0.0
 10
399.5448364018427
 20
98.65398299124314
 30
0.0
 10
398.7853310934367
 20
99.44295143513929
 30
0.0
 10
398.4289827485874
 20
99.86088554814968
 30
0.0
 10
397.7650552754062
 20
100.7456179725198
 30
0.0
 10
397.4608983218603
 20
101.2084318442076
 30
0.0
 10
396.9171764769137
 20
102.1615480564443
 30
0.0
 10
396.6760976719227
 20
102.6538216173472
 30
0.0
 10
396.2582258006057
 20
103.671189081024
 30
0.0
 10
396.0807409860257
 20
104.2000777191196
 30
0.0
 10
395.6641496539196
 20
105.7979288620158
 30
0.0
 10
395.5340371638286
 20
106.8848128614986
 30
0.0
 10
395.5515260942697
 20
107.9830949342348
 30
0.0
  0
SPLINE
  5
D1
330
1F
100
AcDbEntity
  8
0
  6
Continuous
 62
     7
370
    25
100
AcDbSpline
210
0.0
220
0.0
230
1.0
 70
     8
 71
     3
 72
    20
 73
    16
 74
     0
 42
0.00000001
 43
0.00000001
 40
0.0
 40
0.0
 40
0.0
 40
0.0
 40
0.25
 40
0.25
 40
0.375
 40
0.375
 40
0.5
 40
0.5
 40
0.625
 40
0.625
 40
0.75
 40
0.75
 40
0.875
 40
0.875
 40
1.0
 40
1.0
 40
1.0
 40
1.0
 10
395.3392844731037
 20
107.9951381408953
 30
0.0
 10
395.3690133383422
 20
106.8848109025692
 30
0.0
 10
395.2388999278202
 20
105.7979272389704
 30
0.0
 10
394.8223086040597
 20
104.2000769107986
 30
0.0
 10
394.6448239504581
 20
103.6711882788013
 30
0.0
 10
394.2269525027951
 20
102.6538207054798
 30
0.0
 10
393.9858740232431
 20
102.1615471620022
 30
0.0
 10
393.4421529900202
 20
101.2084311519733
 30
0.0
 10
393.1379968138456
 20
100.7456178252683
 30
0.0
 10
392.4740694507491
 20
99.86088464368918
 30
0.0
 10
392.1177211944056
 20
99.44295035750375
 30
0.0
 10
391.3582161885376
 20
98.65398190018213
 30
0.0
 10
390.9550551051021
 20
98.28295207144124
 30
0.0
 10
390.1009306113247
 20
97.58878830804538
 30
0.0
 10
389.6485098829347
 20
97.26499316749174
 30
0.0
 10
389.1779138003257
 20
96.97152755245422
 30
0.0
  0
LINE
  5
D2
330
1F
100
AcDbEntity
  8
0
  6
Continuous
 62
     7
370
    25
100
AcDbLine
 10
395.3515260941
 20
483.9599609568
 30
0.0
 11
395.3515260945
 21
107.9951381409
 31
0.0
  0
SPLINE
  5
D3
330
1F
100
AcDbEntity
  8
0
  6
Continuous
 62
     7
370
    25
100
AcDbSpline
210
0.0
220
0.0
230
1.0
 70
     8
 71
     3
 72
    20
 73
    16
 74
     0
 42
0.00000001
 43
0.00000001
 40
0.0
 40
0.0
 40
0.0
 40
0.0
 40
0.1250000000000002
 40
0.1250000000000002
 40
0.2500000000000003
 40
0.2500000000000003
 40
0.3750000000000005
 40
0.3750000000000005
 40
0.5000000000000007
 40
0.5000000000000007
 40
0.6250000000000009
 40
0.6250000000000009
 40
0.750000000000001
 40
0.750000000000001
 40
1.0
 40
1.0
 40
1.0
 40
1.0
 10
389.1779150786062
 20
494.9715275524568
 30
0.0
 10
389.6485109932632
 20
494.6780617527954
 30
0.0
 10
390.1009315724202
 20
494.3542664148903
 30
0.0
 10
390.9550558238841
 20
493.660102264502
 30
0.0
 10
391.3582167587056
 20
493.2890722905182
 30
0.0
 10
392.1177214601987
 20
492.5001036839539
 30
0.0
 10
392.4740695605212
 20
492.0821693934931
 30
0.0
 10
393.1379966398692
 20
491.197436386308
 30
0.0
 10
393.4421529131428
 20
490.7346229076079
 30
0.0
 10
393.9858740094286
 20
489.7815068884671
 30
0.0
 10
394.2269525361701
 20
489.2892333866548
 30
0.0
 10
394.6448240865057
 20
488.2718659807315
 30
0.0
 10
394.8223088135696
 20
487.7429774424368
 30
0.0
 10
395.2389003131207
 20
486.1451271542627
 30
0.0
 10
395.3690137014902
 20
485.0582435729384
 30
0.0
 10
395.3515260941397
 20
483.9599609567945
 30
0.0
  0
LINE
  5
D4
330
1F
100
AcDbEntity
  8
0
  6
Continuous
 62
     7
370
    25
100
AcDbLine
 10
394.4515260945
 20
107.9710495023
 30
0.0
 11
394.4515260941
 21
483.9720056282
 31
0.0
  0
SPLINE
  5
D5
330
1F
100
AcDbEntity
  8
0
  6
Continuous
 62
     7
370
    25
100
AcDbSpline
210
0.0
220
0.0
230
1.0
 70
     8
 71
     3
 72
    10
 73
     6
 74
     0
 42
0.00000001
 43
0.00000001
 40
0.0
 40
0.0
 40
0.0
 40
0.0
 40
0.5
 40
0.5
 40
1.0
 40
1.0
 40
1.0
 40
1.0
 10
395.3515260941395
 20
483.9599609567946
 30
0.0
 10
395.1159066451202
 20
483.9619684020292
 30
0.0
 10
394.8817381012525
 20
483.963975847264
 30
0.0
 10
394.5485218808907
 20
483.9679907377334
 30
0.0
 10
394.4515260941396
 20
483.9699981829683
 30
0.0
 10
394.4515260941396
 20
483.9720056282032
 30
0.0
  0
SPLINE
  5
D6
330
1F
100
AcDbEntity
  8
0
  6
Continuous
 62
     7
370
    25
100
AcDbSpline
210
0.0
220
0.0
230
1.0
 70
    24
 71
     3
 72
    14
 73
    10
 74
     0
 42
0.00000001
 43
0.00000001
 40
0.0
 40
0.0
 40
0.0
 40
0.0
 40
0.25
 40
0.25
 40
0.5
 40
0.5
 40
0.75
 40
0.75
 40
1.0
 40
1.0
 40
1.0
 40
1.0
 10
395.3392843648861
 20
107.9952779477689
 30
0.0
 10
395.2332562726451
 20
107.9924413248742
 30
0.0
 10
395.1188652228216
 20
107.9893809635676
 30
0.0
 10
394.8973699382327
 20
107.9834551887837
 30
0.0
 10
394.7909523589951
 20
107.9806081457472
 30
0.0
 10
394.6152792637577
 20
107.9759082750479
 30
0.0
 10
394.5466180848537
 20
107.9740713479846
 30
0.0
 10
394.4589301214767
 20
107.9717253877832
 30
0.0
 10
394.439606168456
 20
107.9712084043458
 30
0.0
 10
394.4396061684303
 20
107.9712084043446
 30
0.0
  0
LINE
  5
D7
330
1F
100
AcDbEntity
  8
0
  6
Continuous
 62
     7
370
    25
100
AcDbLine
 10
396.4515260939
 20
483.9720055653
 30
0.0
 11
396.4515260943
 21
107.9710494131
 31
0.0
  0
SPLINE
  5
D8
330
1F
100
AcDbEntity
  8
0
  6
Continuous
 62
     7
370
    25
100
AcDbSpline
210
0.0
220
0.0
230
1.0
 70
     8
 71
     3
 72
    10
 73
     6
 74
     0
 42
0.00000001
 43
0.00000001
 40
0.0
 40
0.0
 40
0.0
 40
0.0
 40
0.5
 40
0.5
 40
1.0
 40
1.0
 40
1.0
 40
1.0
 10
395.5515260942698
 20
107.9830949342348
 30
0.0
 10
395.7871455432892
 20
107.9810873473818
 30
0.0
 10
396.0213140871571
 20
107.9790797605286
 30
0.0
 10
396.3545303075193
 20
107.9750645868224
 30
0.0
 10
396.4515260942706
 20
107.973056999969
 30
0.0
 10
396.4515260942707
 20
107.9710494131158
 30
0.0
  0
SPLINE
  5
D9
330
1F
100
AcDbEntity
  8
0
  6
Continuous
 62
     7
370
    25
100
AcDbSpline
210
0.0
220
0.0
230
1.0
 70
    24
 71
     3
 72
    14
 73
    10
 74
     0
 42
0.00000001
 43
0.00000001
 40
0.0
 40
0.0
 40
0.0
 40
0.0
 40
0.25
 40
0.25
 40
0.5
 40
0.5
 40
0.75
 40
0.75
 40
1.0
 40
1.0
 40
1.0
 40
1.0
 10
395.5637672695159
 20
483.947777917154
 30
0.0
 10
395.6697953642748
 20
483.9506144459293
 30
0.0
 10
395.7841864168148
 20
483.9536747056925
 30
0.0
 10
396.0056817066643
 20
483.9596002838585
 30
0.0
 10
396.1120992884296
 20
483.9624472324299
 30
0.0
 10
396.2877723878403
 20
483.9671469471868
 30
0.0
 10
396.3564335683758
 20
483.9689838133007
 30
0.0
 10
396.444121533837
 20
483.9713296956627
 30
0.0
 10
396.4634454873178
 20
483.9718466619467
 30
0.0
 10
396.4634454873444
 20
483.9718466619478
 30
0.0
  0
LINE
  5
DA
330
1F
100
AcDbEntity
  8
0
  6
Continuous
 62
     7
370
    25
100
AcDbLine
 10
382.4531113775
 20
495.9596378128
 30
0.0
 11
383.14893819
 21
495.8924432515
 31
0.0
  0
LINE
  5
DB
330
1F
100
AcDbEntity
  8
0
  6
Continuous
 62
     7
370
    25
100
AcDbLine
 10
384.4749435477
 20
495.7643936467
 30
0.0
 11
385.0563477701
 21
495.7082486391
 31
0.0
  0
SPLINE
  5
DC
330
1F
100
AcDbEntity
  8
0
  6
Continuous
 62
     7
370
    25
100
AcDbSpline
210
0.0
220
0.0
230
1.0
 70
     8
 71
     3
 72
     8
 73
     4
 74
     0
 42
0.00000001
 43
0.00000001
 40
0.0
 40
0.0
 40
0.0
 40
0.0
 40
1.0
 40
1.0
 40
1.0
 40
1.0
 10
405.8467073377689
 20
96.23480644788526
 30
0.0
 10
406.6766033299566
 20
96.0515479529608
 30
0.0
 10
407.5323989574741
 20
95.96307095357967
 30
0.0
 10
408.4012389072259
 20
95.98223086290828
 30
0.0
  0
SPLINE
  5
DD
330
1F
100
AcDbEntity
  8
0
  6
Continuous
 62
     7
370
    25
100
AcDbSpline
210
0.0
220
0.0
230
1.0
 70
     8
 71
     3
 72
     8
 73
     4
 74
     0
 42
0.00000001
 43
0.00000001
 40
0.0
 40
0.0
 40
0.0
 40
0.0
 40
1.0
 40
1.0
 40
1.0
 40
1.0
 10
388.7016816057813
 20
97.73520477279592
 30
0.0
 10
392.1599142292073
 20
99.89177258392715
 30
0.0
 10
394.5516836169015
 20
103.782793908271
 30
0.0
 10
394.4396111646486
 20
107.9708901389528
 30
0.0
  0
SPLINE
  5
DE
330
1F
100
AcDbEntity
  8
0
  6
Continuous
 62
     7
370
    25
100
AcDbSpline
210
0.0
220
0.0
230
1.0
 70
     8
 71
     3
 72
     8
 73
     4
 74
     0
 42
0.00000001
 43
0.00000001
 40
0.0
 40
0.0
 40
0.0
 40
0.0
 40
1.0
 40
1.0
 40
1.0
 40
1.0
 10
402.2013691522752
 20
494.2078502354838
 30
0.0
 10
398.743137417982
 20
492.0512839534372
 30
0.0
 10
396.3513716296076
 20
488.1602659492087
 30
0.0
 10
396.4634404916368
 20
483.9721649161541
 30
0.0
  0
SPLINE
  5
DF
330
1F
100
AcDbEntity
  8
0
  6
Continuous
 62
     7
370
    25
100
AcDbSpline
210
0.0
220
0.0
230
1.0
 70
     8
 71
     3
 72
     8
 73
     4
 74
     0
 42
0.00000001
 43
0.00000001
 40
0.0
 40
0.0
 40
0.0
 40
0.0
 40
1.0
 40
1.0
 40
1.0
 40
1.0
 10
396.4634421146623
 20
107.9708900200616
 30
0.0
 10
396.3513593465624
 20
103.782807173117
 30
0.0
 10
398.7431340214136
 20
99.89177701376259
 30
0.0
 10
402.2013722036718
 20
97.73520466679494
 30
0.0
  0
SPLINE
  5
E0
330
1F
100
AcDbEntity
  8
0
  6
Continuous
 62
     7
370
    25
100
AcDbSpline
210
0.0
220
0.0
230
1.0
 70
     8
 71
     3
 72
     8
 73
     4
 74
     0
 42
0.00000001
 43
0.00000001
 40
0.0
 40
0.0
 40
0.0
 40
0.0
 40
1.0
 40
1.0
 40
1.0
 40
1.0
 10
394.4396108113137
 20
483.9721650001542
 30
0.0
 10
394.5516858083681
 20
488.1602529567634
 30
0.0
 10
392.1599163099968
 20
492.051279894182
 30
0.0
 10
388.7016825459786
 20
494.2078505429384
 30
0.0
  0
SPLINE
  5
E1
330
1F
100
AcDbEntity
  8
0
  6
Continuous
 62
     7
370
    25
100
AcDbSpline
210
0.0
220
0.0
230
1.0
 70
     8
 71
     3
 72
    14
 73
    10
 74
     0
 42
0.00000001
 43
0.00000001
 40
0.0
 40
0.0
 40
0.0
 40
0.0
 40
0.2500000000000001
 40
0.2500000000000001
 40
0.5000000000000001
 40
0.5000000000000001
 40
0.7500000000000001
 40
0.7500000000000001
 40
1.0
 40
1.0
 40
1.0
 40
1.0
 10
382.4517357033305
 20
95.97152755245538
 30
0.0
 10
382.4517182360389
 20
95.971527552455
 30
0.0
 10
382.4517007687469
 20
96.28385543253445
 30
0.0
 10
382.4516658341624
 20
97.48609089267143
 30
0.0
 10
382.45164836687
 20
98.37552544441283
 30
0.0
 10
382.4516134322845
 20
100.5969669141158
 30
0.0
 10
382.4515959649914
 20
101.9280997897187
 30
0.0
 10
382.4515610304051
 20
104.8305529425376
 30
0.0
 10
382.451543563112
 20
106.400731228378
 30
0.0
 10
382.4515260958187
 20
107.97152755542
 30
0.0
  0
SPLINE
  5
E2
330
1F
100
AcDbEntity
  8
0
  6
Continuous
 62
     7
370
    25
100
AcDbSpline
210
0.0
220
0.0
230
1.0
 70
     8
 71
     3
 72
    14
 73
    10
 74
     0
 42
0.00000001
 43
0.00000001
 40
0.0
 40
0.0
 40
0.0
 40
0.0
 40
0.25
 40
0.25
 40
0.5
 40
0.5
 40
0.75
 40
0.75
 40
1.0
 40
1.0
 40
1.0
 40
1.0
 10
382.4515260945403
 20
107.9715275554194
 30
0.0
 10
384.0223224212726
 20
107.971510087705
 30
0.0
 10
385.5925007067266
 20
107.9714926199905
 30
0.0
 10
388.4949538587692
 20
107.9714576845614
 30
0.0
 10
389.8260867339832
 20
107.9714402168465
 30
0.0
 10
392.0475282030433
 20
107.9714052814167
 30
0.0
 10
392.9369627545314
 20
107.9713878137016
 30
0.0
 10
394.139198214388
 20
107.9713528782706
 30
0.0
 10
394.4515260944411
 20
107.9713354105547
 30
0.0
 10
394.4515260945391
 20
107.9713179428386
 30
0.0
  0
SPLINE
  5
E3
330
1F
100
AcDbEntity
  8
0
  6
Continuous
 62
     7
370
    25
100
AcDbSpline
210
0.0
220
0.0
230
1.0
 70
     8
 71
     3
 72
    14
 73
    10
 74
     0
 42
0.00000001
 43
0.00000001
 40
0.0
 40
0.0
 40
0.0
 40
0.0
 40
0.25
 40
0.25
 40
0.5
 40
0.5
 40
0.75
 40
0.75
 40
1.0
 40
1.0
 40
1.0
 40
1.0
 10
744.4517357030604
 20
95.97152755260899
 30
0.0
 10
744.4517182357689
 20
95.97152755260888
 30
0.0
 10
744.451700768477
 20
96.28385543268745
 30
0.0
 10
744.4516658338925
 20
97.48609089282049
 30
0.0
 10
744.4516483665999
 20
98.3755254445591
 30
0.0
 10
744.4516134320145
 20
100.5969669142557
 30
0.0
 10
744.4515959647215
 20
101.9280997898546
 30
0.0
 10
744.451561030135
 20
104.8305529426664
 30
0.0
 10
744.451543562842
 20
106.4007312285032
 30
0.0
 10
744.4515260955486
 20
107.9715275555426
 30
0.0
  0
SPLINE
  5
E4
330
1F
100
AcDbEntity
  8
0
  6
Continuous
 62
     7
370
    25
100
AcDbSpline
210
0.0
220
0.0
230
1.0
 70
     8
 71
     3
 72
    14
 73
    10
 74
     0
 42
0.00000001
 43
0.00000001
 40
0.0
 40
0.0
 40
0.0
 40
0.0
 40
0.2500000000000001
 40
0.2500000000000001
 40
0.5000000000000001
 40
0.5000000000000001
 40
0.7500000000000002
 40
0.7500000000000002
 40
1.0
 40
1.0
 40
1.0
 40
1.0
 10
744.4515260942708
 20
107.9715275555427
 30
0.0
 10
746.0223224210032
 20
107.9715100878307
 30
0.0
 10
747.5925007064573
 20
107.971492620119
 30
0.0
 10
750.4949538584996
 20
107.9714576846951
 30
0.0
 10
751.8260867337136
 20
107.9714402169831
 30
0.0
 10
754.0475282027736
 20
107.9714052815584
 30
0.0
 10
754.9369627542618
 20
107.9713878138461
 30
0.0
 10
756.1391982141183
 20
107.9713528784203
 30
0.0
 10
756.4515260941714
 20
107.9713354107072
 30
0.0
 10
756.4515260942694
 20
107.9713179429937
 30
0.0
  0
SPLINE
  5
E5
330
1F
100
AcDbEntity
  8
0
  6
Continuous
 62
     7
370
    25
100
AcDbSpline
210
0.0
220
0.0
230
1.0
 70
     8
 71
     3
 72
    14
 73
    10
 74
     0
 42
0.00000001
 43
0.00000001
 40
0.0
 40
0.0
 40
0.0
 40
0.0
 40
0.25
 40
0.25
 40
0.5
 40
0.5
 40
0.75
 40
0.75
 40
1.0
 40
1.0
 40
1.0
 40
1.0
 10
382.4515260972609
 20
483.9715275597449
 30
0.0
 10
384.0223224234452
 20
483.9715450214101
 30
0.0
 10
385.5925007084315
 20
483.9715624830753
 30
0.0
 10
388.4949538596075
 20
483.9715974064054
 30
0.0
 10
389.8260867344206
 20
483.9716148680703
 30
0.0
 10
392.0475282026841
 20
483.9716497913997
 30
0.0
 10
392.9369627537754
 20
483.9716672530642
 30
0.0
 10
394.1391982128557
 20
483.9717021763925
 30
0.0
 10
394.4515260925293
 20
483.9717196380563
 30
0.0
 10
394.4515260923081
 20
483.9717370997199
 30
0.0
  0
SPLINE
  5
E6
330
1F
100
AcDbEntity
  8
0
  6
Continuous
 62
     7
370
    25
100
AcDbSpline
210
0.0
220
0.0
230
1.0
 70
     8
 71
     3
 72
    14
 73
    10
 74
     0
 42
0.00000001
 43
0.00000001
 40
0.0
 40
0.0
 40
0.0
 40
0.0
 40
0.25
 40
0.25
 40
0.5
 40
0.5
 40
0.75
 40
0.75
 40
1.0
 40
1.0
 40
1.0
 40
1.0
 10
382.4515260709011
 20
495.9715275445669
 30
0.0
 10
382.4513053167882
 20
495.9715000996899
 30
0.0
 10
382.4511412251638
 20
495.659151819629
 30
0.0
 10
382.4509428654495
 20
494.4568917004328
 30
0.0
 10
382.4509085067388
 20
493.5674528783459
 30
0.0
 10
382.4509511636692
 20
491.3460167148887
 30
0.0
 10
382.4510278508855
 20
490.0148933750428
 30
0.0
 10
382.4512452943942
 20
487.1124672590342
 30
0.0
 10
382.4513855579589
 20
485.542306412985
 30
0.0
 10
382.4515260972609
 20
483.9715275597449
 30
0.0
  0
LINE
  5
E7
330
1F
100
AcDbEntity
  8
0
  6
Continuous
 62
     7
370
    25
100
AcDbLine
 10
46.4515260941
 20
483.9715275665
 30
0.0
 11
382.4515260973
 21
483.9715275668
 31
0.0
  0
SPLINE
  5
E8
330
1F
100
AcDbEntity
  8
0
  6
Continuous
 62
     7
370
    25
100
AcDbSpline
210
0.0
220
0.0
230
1.0
 70
     8
 71
     3
 72
    14
 73
    10
 74
     0
 42
0.00000001
 43
0.00000001
 40
0.0
 40
0.0
 40
0.0
 40
0.0
 40
0.2499999999999999
 40
0.2499999999999999
 40
0.4999999999999999
 40
0.4999999999999999
 40
0.75
 40
0.75
 40
1.0
 40
1.0
 40
1.0
 40
1.0
 10
46.45131650172496
 20
495.9715275520977
 30
0.0
 10
46.45133396775869
 20
495.9715275520978
 30
0.0
 10
46.4513514337922
 20
495.6591996727012
 30
0.0
 10
46.45138636586044
 20
494.4569642150938
 30
0.0
 10
46.45140383189506
 20
493.567529665196
 30
0.0
 10
46.45143876396418
 20
491.3460881997768
 30
0.0
 10
46.45145622999935
 20
490.0149553266087
 30
0.0
 10
46.45149116206926
 20
487.1125021784545
 30
0.0
 10
46.45150862810443
 20
485.5423238948373
 30
0.0
 10
46.45152609413972
 20
483.9715275694919
 30
0.0
  0
LINE
  5
E9
330
1F
100
AcDbEntity
  8
0
  6
Continuous
 62
     7
370
    25
100
AcDbLine
 10
382.4515260941
 20
483.9715275597
 30
0.0
 11
382.4515260945
 21
107.9715275554
 31
0.0
  0
SPLINE
  5
EA
330
1F
100
AcDbEntity
  8
0
  6
Continuous
 62
     7
370
    25
100
AcDbSpline
210
0.0
220
0.0
230
1.0
 70
     8
 71
     3
 72
    14
 73
    10
 74
     0
 42
0.00000001
 43
0.00000001
 40
0.0
 40
0.0
 40
0.0
 40
0.0
 40
0.2500000000000001
 40
0.2500000000000001
 40
0.5000000000000001
 40
0.5000000000000001
 40
0.7500000000000002
 40
0.7500000000000002
 40
1.0
 40
1.0
 40
1.0
 40
1.0
 10
744.451526096332
 20
483.9715275593003
 30
0.0
 10
746.0223224225774
 20
483.9715450210155
 30
0.0
 10
747.5925007076077
 20
483.9715624827306
 30
0.0
 10
750.494953858875
 20
483.9715974061607
 30
0.0
 10
751.826086733736
 20
483.9716148678756
 30
0.0
 10
754.0475282021297
 20
483.9716497913049
 30
0.0
 10
754.9369627533036
 20
483.9716672530194
 30
0.0
 10
756.1391982125964
 20
483.9717021764476
 30
0.0
 10
756.4515260924002
 20
483.9717196381615
 30
0.0
 10
756.4515260923274
 20
483.9717370998749
 30
0.0
  0
SPLINE
  5
EB
330
1F
100
AcDbEntity
  8
0
  6
Continuous
 62
     7
370
    25
100
AcDbSpline
210
0.0
220
0.0
230
1.0
 70
     8
 71
     3
 72
    14
 73
    10
 74
     0
 42
0.00000001
 43
0.00000001
 40
0.0
 40
0.0
 40
0.0
 40
0.0
 40
0.25
 40
0.25
 40
0.5
 40
0.5
 40
0.75
 40
0.75
 40
1.0
 40
1.0
 40
1.0
 40
1.0
 10
744.4515260736728
 20
495.9715275451308
 30
0.0
 10
744.4513379825189
 20
495.9715001000896
 30
0.0
 10
744.4511981700324
 20
495.6591518198849
 30
0.0
 10
744.4510291598083
 20
494.4568917004545
 30
0.0
 10
744.4509998848588
 20
493.5674528782772
 30
0.0
 10
744.4510362302769
 20
491.3460167146801
 30
0.0
 10
744.4511015708138
 20
490.0148933747846
 30
0.0
 10
744.4512868412488
 20
487.1124672586862
 30
0.0
 10
744.4514063513235
 20
485.5423064125964
 30
0.0
 10
744.451526096332
 20
483.9715275593003
 30
0.0
  0
LINE
  5
EC
330
1F
100
AcDbEntity
  8
0
  6
Continuous
 62
     7
370
    25
100
AcDbLine
 10
408.4515260939
 20
483.9715275666
 30
0.0
 11
744.4515260963
 21
483.971527567
 31
0.0
  0
SPLINE
  5
ED
330
1F
100
AcDbEntity
  8
0
  6
Continuous
 62
     7
370
    25
100
AcDbSpline
210
0.0
220
0.0
230
1.0
 70
     8
 71
     3
 72
    14
 73
    10
 74
     0
 42
0.00000001
 43
0.00000001
 40
0.0
 40
0.0
 40
0.0
 40
0.0
 40
0.25
 40
0.25
 40
0.5
 40
0.5
 40
0.75
 40
0.75
 40
1.0
 40
1.0
 40
1.0
 40
1.0
 10
408.451316501454
 20
495.971527552252
 30
0.0
 10
408.4513339674875
 20
495.971527552252
 30
0.0
 10
408.4513514335214
 20
495.6591996728554
 30
0.0
 10
408.4513863655899
 20
494.456964215248
 30
0.0
 10
408.4514038316242
 20
493.5675296653501
 30
0.0
 10
408.4514387636936
 20
491.346088199931
 30
0.0
 10
408.4514562297285
 20
490.014955326763
 30
0.0
 10
408.4514911617988
 20
487.112502178609
 30
0.0
 10
408.451508627834
 20
485.5423238949919
 30
0.0
 10
408.4515260938692
 20
483.9715275696466
 30
0.0
  0
LINE
  5
EE
330
1F
100
AcDbEntity
  8
0
  6
Continuous
 62
     7
370
    25
100
AcDbLine
 10
744.4515260939
 20
483.9715275593
 30
0.0
 11
744.4515260943
 21
107.9715275555
 31
0.0
  0
SPLINE
  5
EF
330
1F
100
AcDbEntity
  8
0
  6
Continuous
 62
     7
370
    25
100
AcDbSpline
210
0.0
220
0.0
230
1.0
 70
     8
 71
     3
 72
    10
 73
     6
 74
     0
 42
0.00000001
 43
0.00000001
 40
0.0
 40
0.0
 40
0.0
 40
0.0
 40
0.5
 40
0.5
 40
1.0
 40
1.0
 40
1.0
 40
1.0
 10
36.36030714820559
 20
107.9715282808729
 30
0.0
 10
35.74147697495167
 20
107.9714932198892
 30
0.0
 10
35.26111227564488
 20
107.9714581589056
 30
0.0
 10
34.61610106708501
 20
107.9713880369389
 30
0.0
 10
34.45152609711999
 20
107.9713529759555
 30
0.0
 10
34.45152609773239
 20
107.9713179149724
 30
0.0
  0
SPLINE
  5
F0
330
1F
100
AcDbEntity
  8
0
  6
Continuous
 62
     7
370
    25
100
AcDbSpline
210
0.0
220
0.0
230
1.0
 70
     8
 71
     3
 72
    14
 73
    10
 74
     0
 42
0.00000001
 43
0.00000001
 40
0.0
 40
0.0
 40
0.0
 40
0.0
 40
0.25
 40
0.25
 40
0.5
 40
0.5
 40
0.75
 40
0.75
 40
1.0
 40
1.0
 40
1.0
 40
1.0
 10
46.4515260885251
 20
107.9715275497436
 30
0.0
 10
45.45251749566059
 20
107.9715276106709
 30
0.0
 10
44.45357349264356
 20
107.9715276715981
 30
0.0
 10
42.51754736451274
 20
107.9715277934528
 30
0.0
 10
41.58059041124895
 20
107.9715278543801
 30
0.0
 10
39.82669075151834
 20
107.9715279762349
 30
0.0
 10
39.00986144169583
 20
107.9715280371625
 30
0.0
 10
37.54692224442557
 20
107.9715281590174
 30
0.0
 10
36.9009069418621
 20
107.9715282199452
 30
0.0
 10
36.36030714820559
 20
107.9715282808729
 30
0.0
  0
SPLINE
  5
F1
330
1F
100
AcDbEntity
  8
0
  6
Continuous
 62
     7
370
    25
100
AcDbSpline
210
0.0
220
0.0
230
1.0
 70
     8
 71
     3
 72
    14
 73
    10
 74
     0
 42
0.00000001
 43
0.00000001
 40
0.0
 40
0.0
 40
0.0
 40
0.0
 40
0.2500000000000001
 40
0.2500000000000001
 40
0.5000000000000001
 40
0.5000000000000001
 40
0.7500000000000001
 40
0.7500000000000001
 40
1.0
 40
1.0
 40
1.0
 40
1.0
 10
46.45152612827119
 20
95.97152756167435
 30
0.0
 10
46.45186886291597
 20
95.97155500591396
 30
0.0
 10
46.45212362552375
 20
96.28390328566374
 30
0.0
 10
46.45243159160417
 20
97.4861634048628
 30
0.0
 10
46.45248493577081
 20
98.37560222726202
 30
0.0
 10
46.45241870845162
 20
100.5970383917064
 30
0.0
 10
46.4522996468657
 20
101.928161732224
 30
0.0
 10
46.45196205241086
 20
104.8305878495132
 30
0.0
 10
46.45174428453303
 20
106.4007486961672
 30
0.0
 10
46.4515260885251
 20
107.9715275497436
 30
0.0
  0
SPLINE
  5
F2
330
1F
100
AcDbEntity
  8
0
  6
Continuous
 62
     7
370
    25
100
AcDbSpline
210
0.0
220
0.0
230
1.0
 70
     8
 71
     3
 72
    10
 73
     6
 74
     0
 42
0.00000001
 43
0.00000001
 40
0.0
 40
0.0
 40
0.0
 40
0.0
 40
0.5
 40
0.5
 40
1.0
 40
1.0
 40
1.0
 40
1.0
 10
398.360140185477
 20
107.9715282876732
 30
0.0
 10
397.7413625651341
 20
107.9714932255815
 30
0.0
 10
397.261040160882
 20
107.9714581634898
 30
0.0
 10
396.6160861658351
 20
107.971388039307
 30
0.0
 10
396.4515260951418
 20
107.9713529772157
 30
0.0
 10
396.4515260957543
 20
107.9713179151247
 30
0.0
  0
SPLINE
  5
F3
330
1F
100
AcDbEntity
  8
0
  6
Continuous
 62
     7
370
    25
100
AcDbSpline
210
0.0
220
0.0
230
1.0
 70
     8
 71
     3
 72
    14
 73
    10
 74
     0
 42
0.00000001
 43
0.00000001
 40
0.0
 40
0.0
 40
0.0
 40
0.0
 40
0.25
 40
0.25
 40
0.5
 40
0.5
 40
0.75
 40
0.75
 40
1.0
 40
1.0
 40
1.0
 40
1.0
 10
408.4515260920334
 20
107.9715275534432
 30
0.0
 10
407.4524917865264
 20
107.9715276146289
 30
0.0
 10
406.4535220792093
 20
107.9715276758145
 30
0.0
 10
404.5174492959778
 20
107.9715277981861
 30
0.0
 10
403.5804714077991
 20
107.9715278593716
 30
0.0
 10
401.8265389102135
 20
107.9715279817433
 30
0.0
 10
401.0096977112318
 20
107.971528042929
 30
0.0
 10
399.5467471042544
 20
107.971528165301
 30
0.0
 10
398.9007322916041
 20
107.9715282264871
 30
0.0
 10
398.360140185477
 20
107.9715282876732
 30
0.0
  0
SPLINE
  5
F4
330
1F
100
AcDbEntity
  8
0
  6
Continuous
 62
     7
370
    25
100
AcDbSpline
210
0.0
220
0.0
230
1.0
 70
     8
 71
     3
 72
    14
 73
    10
 74
     0
 42
0.00000001
 43
0.00000001
 40
0.0
 40
0.0
 40
0.0
 40
0.0
 40
0.2499999999999999
 40
0.2499999999999999
 40
0.4999999999999999
 40
0.4999999999999999
 40
0.7499999999999999
 40
0.7499999999999999
 40
1.0
 40
1.0
 40
1.0
 40
1.0
 10
408.4515261105594
 20
95.97152755965391
 30
0.0
 10
408.4516815504987
 20
95.97155500489121
 30
0.0
 10
408.4517970925922
 20
96.28390328550509
 30
0.0
 10
408.4519367639328
 20
97.48616340608848
 30
0.0
 10
408.4519609569887
 20
98.37560222900873
 30
0.0
 10
408.4519309209046
 20
100.5970383942296
 30
0.0
 10
408.4518769230192
 20
101.9281617350043
 30
0.0
 10
408.4517238141889
 20
104.8305878527394
 30
0.0
 10
408.4516250501893
 20
106.4007486995845
 30
0.0
 10
408.4515260920334
 20
107.9715275534432
 30
0.0
  0
LINE
  5
F5
330
1F
100
AcDbEntity
  8
0
  6
Continuous
 62
     7
370
    25
100
AcDbLine
 10
46.4515260885
 20
107.971527553
 30
0.0
 11
382.4515260958
 21
107.9715275534
 31
0.0
  0
LINE
  5
F6
330
1F
100
AcDbEntity
  8
0
  6
Continuous
 62
     7
370
    25
100
AcDbLine
 10
46.4515260941
 20
483.9715275695
 30
0.0
 11
46.4515260945
 21
107.9715275497
 31
0.0
  0
SPLINE
  5
F7
330
1F
100
AcDbEntity
  8
0
  6
Continuous
 62
     7
370
    25
100
AcDbSpline
210
0.0
220
0.0
230
1.0
 70
     8
 71
     3
 72
    14
 73
    10
 74
     0
 42
0.00000001
 43
0.00000001
 40
0.0
 40
0.0
 40
0.0
 40
0.0
 40
0.25
 40
0.25
 40
0.5
 40
0.5
 40
0.75
 40
0.75
 40
1.0
 40
1.0
 40
1.0
 40
1.0
 10
46.4515260941395
 20
483.9715275694919
 30
0.0
 10
44.88072976740709
 20
483.9715450347381
 30
0.0
 10
43.31055148195273
 20
483.9715624999844
 30
0.0
 10
40.40809832990988
 20
483.9715974304771
 30
0.0
 10
39.07696545469553
 20
483.9716148957236
 30
0.0
 10
36.85552398563541
 20
483.9716498262172
 30
0.0
 10
35.96608943414714
 20
483.9716672914641
 30
0.0
 10
34.76385397429027
 20
483.9717022219587
 30
0.0
 10
34.45152609423751
 20
483.9717196872063
 30
0.0
 10
34.45152609413971
 20
483.9717371524542
 30
0.0
  0
LINE
  5
F8
330
1F
100
AcDbEntity
  8
0
  6
Continuous
 62
     7
370
    25
100
AcDbLine
 10
408.451526092
 20
107.9715275532
 30
0.0
 11
744.4515260955
 21
107.9715275535
 31
0.0
  0
LINE
  5
F9
330
1F
100
AcDbEntity
  8
0
  6
Continuous
 62
     7
370
    25
100
AcDbLine
 10
408.4515260939
 20
483.9715275696
 30
0.0
 11
408.4515260943
 21
107.9715275534
 31
0.0
  0
SPLINE
  5
FA
330
1F
100
AcDbEntity
  8
0
  6
Continuous
 62
     7
370
    25
100
AcDbSpline
210
0.0
220
0.0
230
1.0
 70
     8
 71
     3
 72
    14
 73
    10
 74
     0
 42
0.00000001
 43
0.00000001
 40
0.0
 40
0.0
 40
0.0
 40
0.0
 40
0.25
 40
0.25
 40
0.5
 40
0.5
 40
0.75
 40
0.75
 40
1.0
 40
1.0
 40
1.0
 40
1.0
 10
408.4515260938691
 20
483.9715275696466
 30
0.0
 10
406.8807297671368
 20
483.9715450348929
 30
0.0
 10
405.3105514816827
 20
483.9715625001393
 30
0.0
 10
402.4080983296401
 20
483.9715974306322
 30
0.0
 10
401.076965454426
 20
483.9716148958788
 30
0.0
 10
398.8555239853659
 20
483.9716498263725
 30
0.0
 10
397.9660894338778
 20
483.9716672916196
 30
0.0
 10
396.7638539740211
 20
483.9717022221144
 30
0.0
 10
396.4515260939681
 20
483.9717196873621
 30
0.0
 10
396.4515260938701
 20
483.9717371526101
 30
0.0
  0
CIRCLE
  5
FB
330
1F
100
AcDbEntity
  8
0
  6
Continuous
 62
     7
370
    25
100
AcDbCircle
 10
214.4515261079
 20
375.9685470071
 30
0.0
 40
55.32499999999995
  0
CIRCLE
  5
FC
330
1F
100
AcDbEntity
  8
0
  6
Continuous
 62
     7
370
    25
100
AcDbCircle
 10
576.451782222
 20
375.9685470071
 30
0.0
 40
55.32500000000002
  0
CIRCLE
  5
FD
330
1F
100
AcDbEntity
  8
0
  6
Continuous
 62
     7
370
    25
100
AcDbCircle
 10
214.4515261079
 20
375.9685470071
 30
0.0
 40
43.23139268164115
  0
CIRCLE
  5
FE
330
1F
100
AcDbEntity
  8
0
  6
Continuous
 62
     7
370
    25
100
AcDbCircle
 10
576.451782222
 20
375.9685470071
 30
0.0
 40
43.23139268164112
  0
CIRCLE
  5
FF
330
1F
100
AcDbEntity
  8
0
  6
Continuous
 62
     7
370
    25
100
AcDbCircle
 10
576.451782222
 20
375.9685470071
 30
0.0
 40
41.97500000000002
  0
CIRCLE
  5
100
330
1F
100
AcDbEntity
  8
0
  6
Continuous
 62
     7
370
    25
100
AcDbCircle
 10
214.4515261079
 20
375.9685470071
 30
0.0
 40
41.97499999999999
  0
CIRCLE
  5
101
330
1F
100
AcDbEntity
  8
0
  6
Continuous
 62
     7
370
    25
100
AcDbCircle
 10
214.4515261079
 20
375.9685470071
 30
0.0
 40
41.84698085272068
  0
CIRCLE
  5
102
330
1F
100
AcDbEntity
  8
0
  6
Continuous
 62
     7
370
    25
100
AcDbCircle
 10
576.451782222
 20
375.9685470071
 30
0.0
 40
41.84698085272056
  0
SPLINE
  5
103
330
1F
100
AcDbEntity
  8
0
  6
Continuous
 62
     8
370
    25
100
AcDbSpline
210
0.0
220
0.0
230
1.0
 70
     8
 71
     3
 72
    12
 73
     8
 74
     0
 42
0.00000001
 43
0.00000001
 40
0.0
 40
0.0
 40
0.0
 40
0.0
 40
0.2636005345609516
 40
0.4531130705265097
 40
0.6509913616037043
 40
0.8488696526565304
 40
1.0
 40
1.0
 40
1.0
 40
1.0
 10
181.8696549854419
 20
391.9959838494498
 30
0.0
 10
181.751525725179
 20
392.0540931388103
 30
0.0
 10
181.5484688082957
 20
392.1539794253541
 30
0.0
 10
181.3043390523954
 20
392.2740699557341
 30
0.0
 10
181.1388403730501
 20
392.3554808617413
 30
0.0
 10
181.0402513001478
 20
392.4039780806471
 30
0.0
 10
181.0348946283858
 20
392.4066130956373
 30
0.0
 10
181.0325750420634
 20
392.4077541296604
 30
0.0
  0
SPLINE
  5
104
330
1F
100
AcDbEntity
  8
0
  6
Continuous
 62
     8
370
    25
100
AcDbSpline
210
0.0
220
0.0
230
1.0
 70
     8
 71
     3
 72
    12
 73
     8
 74
     0
 42
0.00000001
 43
0.00000001
 40
0.0
 40
0.0
 40
0.0
 40
0.0
 40
0.1511297784500993
 40
0.3490077426239851
 40
0.5468857068222519
 40
0.7363979297284339
 40
1.0
 40
1.0
 40
1.0
 40
1.0
 10
247.870477136201
 20
359.5293399029608
 30
0.0
 10
247.8681575507573
 20
359.5304809365435
 30
0.0
 10
247.8628008746088
 20
359.5331159536728
 30
0.0
 10
247.7642118374928
 20
359.581613155148
 30
0.0
 10
247.5987131657346
 20
359.6630240567428
 30
0.0
 10
247.3545826631193
 20
359.783114957186
 30
0.0
 10
247.1515247380098
 20
359.8830017307471
 30
0.0
 10
247.0333945217491
 20
359.9411114851729
 30
0.0
  0
ENDSEC
  0
SECTION
  2
OBJECTS
  0
DICTIONARY
  5
C
330
0
100
AcDbDictionary
281
     1
  3
ACAD_GROUP
350
D
  3
ACAD_LAYOUT
350
1A
  3
ACAD_MLINESTYLE
350
17
  3
ACAD_PLOTSETTINGS
350
19
  3
ACAD_PLOTSTYLENAME
350
E
  3
ACAD_SCALELIST
350
47
  3
DWGPROPS
350
105
  0
DICTIONARY
  5
D
102
{ACAD_REACTORS
330
C
102
}
330
C
100
AcDbDictionary
281
     1
  0
DICTIONARY
  5
1A
102
{ACAD_REACTORS
330
C
102
}
330
C
100
AcDbDictionary
281
     1
  3
Layout1
350
1E
  3
Layout2
350
26
  3
Model
350
22
  0
DICTIONARY
  5
17
102
{ACAD_REACTORS
330
C
102
}
330
C
100
AcDbDictionary
281
     1
  3
Standard
350
18
  0
DICTIONARY
  5
19
102
{ACAD_REACTORS
330
C
102
}
330
C
100
AcDbDictionary
281
     1
  0
ACDBDICTIONARYWDFLT
  5
E
102
{ACAD_REACTORS
330
C
102
}
330
C
100
AcDbDictionary
281
     1
  3
Normal
350
F
100
AcDbDictionaryWithDefault
340
F
  0
DICTIONARY
  5
47
102
{ACAD_REACTORS
330
C
102
}
330
C
100
AcDbDictionary
281
     1
  3
A0
350
48
  3
A1
350
49
  3
A2
350
4A
  3
A3
350
4B
  3
A4
350
4C
  3
A5
350
4D
  3
A6
350
4E
  3
A7
350
4F
  3
A8
350
50
  3
A9
350
51
  3
B0
350
52
  3
B1
350
53
  3
B2
350
54
  3
B3
350
55
  3
B4
350
56
  3
B5
350
57
  3
B6
350
58
  3
B7
350
59
  3
B8
350
5A
  3
B9
350
5B
  3
C0
350
5C
  3
C1
350
5D
  3
C2
350
5E
  3
C3
350
5F
  3
C4
350
60
  3
C5
350
61
  3
C6
350
62
  3
C7
350
63
  3
C8
350
64
  3
C9
350
65
  3
D0
350
66
  3
D1
350
67
  3
D2
350
68
  0
XRECORD
  5
105
102
{ACAD_REACTORS
330
C
102
}
330
C
100
AcDbXrecord
280
     1
  1
DWGPROPS COOKIE
  2

  3

  4

  6

  7

  8
villesi
  9

300
=
301
=
302
=
303
=
304
=
305
=
306
=
307
=
308
=
309
=
 40
0.0
 41
2459704.477295521
 42
2459704.477295891
  1

 90
        0
  0
LAYOUT
  5
1E
102
{ACAD_REACTORS
330
1A
102
}
330
1A
100
AcDbPlotSettings
  1

  2
none_device
  4

  6

 40
0.0
 41
0.0
 42
0.0
 43
0.0
 44
0.0
 45
0.0
 46
0.0
 47
0.0
 48
0.0
 49
0.0
140
0.0
141
0.0
142
1.0
143
1.0
 70
   688
 72
     1
 73
     0
 74
     5
  7

 75
    16
147
1.0
148
0.0
149
0.0
100
AcDbLayout
  1
Layout1
 70
     1
 71
     1
 10
0.0
 20
0.0
 11
420.0
 21
297.0
 12
0.0
 22
0.0
 32
0.0
 14
1.0000000000E+20
 24
1.0000000000E+20
 34
1.0000000000E+20
 15
-1.0000000000E+20
 25
-1.0000000000E+20
 35
-1.0000000000E+20
146
0.0
 13
0.0
 23
0.0
 33
0.0
 16
1.0
 26
0.0
 36
0.0
 17
0.0
 27
1.0
 37
0.0
 76
     0
330
1B
  0
LAYOUT
  5
26
102
{ACAD_REACTORS
330
1A
102
}
330
1A
100
AcDbPlotSettings
  1

  2
none_device
  4

  6

 40
0.0
 41
0.0
 42
0.0
 43
0.0
 44
0.0
 45
0.0
 46
0.0
 47
0.0
 48
0.0
 49
0.0
140
0.0
141
0.0
142
1.0
143
1.0
 70
   688
 72
     1
 73
     0
 74
     5
  7

 75
    16
147
1.0
148
0.0
149
0.0
100
AcDbLayout
  1
Layout2
 70
     1
 71
     2
 10
0.0
 20
0.0
 11
0.0
 21
0.0
 12
0.0
 22
0.0
 32
0.0
 14
0.0
 24
0.0
 34
0.0
 15
0.0
 25
0.0
 35
0.0
146
0.0
 13
0.0
 23
0.0
 33
0.0
 16
1.0
 26
0.0
 36
0.0
 17
0.0
 27
1.0
 37
0.0
 76
     0
330
23
  0
LAYOUT
  5
22
102
{ACAD_REACTORS
330
1A
102
}
330
1A
100
AcDbPlotSettings
  1

  2
none_device
  4
Letter_(8.50_x_11.00_Inches)
  6

 40
6.35
 41
6.35
 42
6.35000508
 43
6.35000508
 44
215.9
 45
279.4
 46
0.0
 47
0.0
 48
0.0
 49
0.0
140
0.0
141
0.0
142
1.0
143
1.0
 70
  1712
 72
     1
 73
     0
 74
     0
  7

 75
     0
147
1.0
148
0.0
149
0.0
100
AcDbLayout
  1
Model
 70
     1
 71
     0
 10
0.0
 20
0.0
 11
800.0
 21
600.0
 12
0.0
 22
0.0
 32
0.0
 14
0.0
 24
0.0
 34
0.0
 15
800.0
 25
600.0
 35
0.0
146
0.0
 13
0.0
 23
0.0
 33
0.0
 16
1.0
 26
0.0
 36
0.0
 17
0.0
 27
1.0
 37
0.0
 76
     0
330
1F
331
29
  0
MLINESTYLE
  5
18
102
{ACAD_REACTORS
330
17
102
}
330
17
100
AcDbMlineStyle
  2
Standard
 70
     0
  3

 62
   256
 51
90.0
 52
90.0
 71
     2
 49
0.5
 62
   256
  6
BYLAYER
 49
-0.5
 62
   256
  6
BYLAYER
  0
ACDBPLACEHOLDER
  5
F
102
{ACAD_REACTORS
330
E
102
}
330
E
  0
SCALE
  5
48
102
{ACAD_REACTORS
330
47
102
}
330
47
100
AcDbScale
 70
     0
300
1:1
140
1.0
141
1.0
290
     1
  0
SCALE
  5
49
102
{ACAD_REACTORS
330
47
102
}
330
47
100
AcDbScale
 70
     0
300
1:2
140
1.0
141
2.0
290
     0
  0
SCALE
  5
4A
102
{ACAD_REACTORS
330
47
102
}
330
47
100
AcDbScale
 70
     0
300
1:4
140
1.0
141
4.0
290
     0
  0
SCALE
  5
4B
102
{ACAD_REACTORS
330
47
102
}
330
47
100
AcDbScale
 70
     0
300
1:5
140
1.0
141
5.0
290
     0
  0
SCALE
  5
4C
102
{ACAD_REACTORS
330
47
102
}
330
47
100
AcDbScale
 70
     0
300
1:8
140
1.0
141
8.0
290
     0
  0
SCALE
  5
4D
102
{ACAD_REACTORS
330
47
102
}
330
47
100
AcDbScale
 70
     0
300
1:10
140
1.0
141
10.0
290
     0
  0
SCALE
  5
4E
102
{ACAD_REACTORS
330
47
102
}
330
47
100
AcDbScale
 70
     0
300
1:16
140
1.0
141
16.0
290
     0
  0
SCALE
  5
4F
102
{ACAD_REACTORS
330
47
102
}
330
47
100
AcDbScale
 70
     0
300
1:20
140
1.0
141
20.0
290
     0
  0
SCALE
  5
50
102
{ACAD_REACTORS
330
47
102
}
330
47
100
AcDbScale
 70
     0
300
1:30
140
1.0
141
30.0
290
     0
  0
SCALE
  5
51
102
{ACAD_REACTORS
330
47
102
}
330
47
100
AcDbScale
 70
     0
300
1:40
140
1.0
141
40.0
290
     0
  0
SCALE
  5
52
102
{ACAD_REACTORS
330
47
102
}
330
47
100
AcDbScale
 70
     0
300
1:50
140
1.0
141
50.0
290
     0
  0
SCALE
  5
53
102
{ACAD_REACTORS
330
47
102
}
330
47
100
AcDbScale
 70
     0
300
1:100
140
1.0
141
100.0
290
     0
  0
SCALE
  5
54
102
{ACAD_REACTORS
330
47
102
}
330
47
100
AcDbScale
 70
     0
300
2:1
140
2.0
141
1.0
290
     0
  0
SCALE
  5
55
102
{ACAD_REACTORS
330
47
102
}
330
47
100
AcDbScale
 70
     0
300
4:1
140
4.0
141
1.0
290
     0
  0
SCALE
  5
56
102
{ACAD_REACTORS
330
47
102
}
330
47
100
AcDbScale
 70
     0
300
8:1
140
8.0
141
1.0
290
     0
  0
SCALE
  5
57
102
{ACAD_REACTORS
330
47
102
}
330
47
100
AcDbScale
 70
     0
300
10:1
140
10.0
141
1.0
290
     0
  0
SCALE
  5
58
102
{ACAD_REACTORS
330
47
102
}
330
47
100
AcDbScale
 70
     0
300
100:1
140
100.0
141
1.0
290
     0
  0
SCALE
  5
59
102
{ACAD_REACTORS
330
47
102
}
330
47
100
AcDbScale
 70
     0
300
1/128" = 1'-0"
140
0.0078125
141
12.0
290
     0
  0
SCALE
  5
5A
102
{ACAD_REACTORS
330
47
102
}
330
47
100
AcDbScale
 70
     0
300
1/64" = 1'-0"
140
0.015625
141
12.0
290
     0
  0
SCALE
  5
5B
102
{ACAD_REACTORS
330
47
102
}
330
47
100
AcDbScale
 70
     0
300
1/32" = 1'-0"
140
0.03125
141
12.0
290
     0
  0
SCALE
  5
5C
102
{ACAD_REACTORS
330
47
102
}
330
47
100
AcDbScale
 70
     0
300
1/16" = 1'-0"
140
0.0625
141
12.0
290
     0
  0
SCALE
  5
5D
102
{ACAD_REACTORS
330
47
102
}
330
47
100
AcDbScale
 70
     0
300
3/32" = 1'-0"
140
0.09375
141
12.0
290
     0
  0
SCALE
  5
5E
102
{ACAD_REACTORS
330
47
102
}
330
47
100
AcDbScale
 70
     0
300
1/8" = 1'-0"
140
0.125
141
12.0
290
     0
  0
SCALE
  5
5F
102
{ACAD_REACTORS
330
47
102
}
330
47
100
AcDbScale
 70
     0
300
3/16" = 1'-0"
140
0.1875
141
12.0
290
     0
  0
SCALE
  5
60
102
{ACAD_REACTORS
330
47
102
}
330
47
100
AcDbScale
 70
     0
300
1/4" = 1'-0"
140
0.25
141
12.0
290
     0
  0
SCALE
  5
61
102
{ACAD_REACTORS
330
47
102
}
330
47
100
AcDbScale
 70
     0
300
3/8" = 1'-0"
140
0.375
141
12.0
290
     0
  0
SCALE
  5
62
102
{ACAD_REACTORS
330
47
102
}
330
47
100
AcDbScale
 70
     0
300
1/2" = 1'-0"
140
0.5
141
12.0
290
     0
  0
SCALE
  5
63
102
{ACAD_REACTORS
330
47
102
}
330
47
100
AcDbScale
 70
     0
300
3/4" = 1'-0"
140
0.75
141
12.0
290
     0
  0
SCALE
  5
64
102
{ACAD_REACTORS
330
47
102
}
330
47
100
AcDbScale
 70
     0
300
1" = 1'-0"
140
1.0
141
12.0
290
     0
  0
SCALE
  5
65
102
{ACAD_REACTORS
330
47
102
}
330
47
100
AcDbScale
 70
     0
300
1-1/2" = 1'-0"
140
1.5
141
12.0
290
     0
  0
SCALE
  5
66
102
{ACAD_REACTORS
330
47
102
}
330
47
100
AcDbScale
 70
     0
300
3" = 1'-0"
140
3.0
141
12.0
290
     0
  0
SCALE
  5
67
102
{ACAD_REACTORS
330
47
102
}
330
47
100
AcDbScale
 70
     0
300
6" = 1'-0"
140
6.0
141
12.0
290
     0
  0
SCALE
  5
68
102
{ACAD_REACTORS
330
47
102
}
330
47
100
AcDbScale
 70
     0
300
1'-0" = 1'-0"
140
12.0
141
12.0
290
     0
  0
ENDSEC
  0
EOF
