  0
SECTION
  2
HEADER
  9
$ACADVER
  1
AC1015
  9
$ACADMAINTVER
 70
     6
  9
$DWGCODEPAGE
  3
ANSI_1252
  9
$INSBASE
 10
0.0
 20
0.0
 30
0.0
  9
$EXTMIN
 10
0.0
 20
0.0
 30
0.0
  9
$EXTMAX
 10
950.0
 20
650.0
 30
0.0
  9
$LIMMIN
 10
0.0
 20
0.0
  9
$LIMMAX
 10
950.0
 20
650.0
  9
$ORTHOMODE
 70
     0
  9
$REGENMODE
 70
     1
  9
$FILLMODE
 70
     1
  9
$QTEXTMODE
 70
     0
  9
$MIRRTEXT
 70
     1
  9
$LTSCALE
 40
1.0
  9
$ATTMODE
 70
     1
  9
$TEXTSIZE
 40
3.5
  9
$TRACEWID
 40
1.0
  9
$TEXTSTYLE
  7
Standard
  9
$CLAYER
  8
0
  9
$CELTYPE
  6
ByLayer
  9
$CECOLOR
 62
   256
  9
$CELTSCALE
 40
1.0
  9
$DISPSILH
 70
     0
  9
$DIMSCALE
 40
1.0
  9
$DIMASZ
 40
3.302
  9
$DIMEXO
 40
1.0
  9
$DIMDLI
 40
3.75
  9
$DIMRND
 40
0.0
  9
$DIMDLE
 40
0.0
  9
$DIMEXE
 40
1.0
  9
$DIMTP
 40
0.0
  9
$DIMTM
 40
0.0
  9
$DIMTXT
 40
3.5
  9
$DIMCEN
 40
2.5
  9
$DIMTSZ
 40
0.0
  9
$DIMTOL
 70
     0
  9
$DIMLIM
 70
     0
  9
$DIMTIH
 70
     1
  9
$DIMTOH
 70
     1
  9
$DIMSE1
 70
     0
  9
$DIMSE2
 70
     0
  9
$DIMTAD
 70
     1
  9
$DIMZIN
 70
     1
  9
$DIMBLK
  1

  9
$DIMASO
 70
     1
  9
$DIMSHO
 70
     1
  9
$DIMPOST
  1

  9
$DIMAPOST
  1

  9
$DIMALT
 70
     0
  9
$DIMALTD
 70
     3
  9
$DIMALTF
 40
0.0393700787
  9
$DIMLFAC
 40
1.0
  9
$DIMTOFL
 70
     1
  9
$DIMTVP
 40
0.0
  9
$DIMTIX
 70
     0
  9
$DIMSOXD
 70
     0
  9
$DIMSAH
 70
     0
  9
$DIMBLK1
  1

  9
$DIMBLK2
  1

  9
$DIMSTYLE
  2
ISO-25
  9
$DIMCLRD
 70
     0
  9
$DIMCLRE
 70
     0
  9
$DIMCLRT
 70
     0
  9
$DIMTFAC
 40
1.0
  9
$DIMGAP
 40
1.524
  9
$DIMJUST
 70
     0
  9
$DIMSD1
 70
     0
  9
$DIMSD2
 70
     0
  9
$DIMTOLJ
 70
     0
  9
$DIMTZIN
 70
     1
  9
$DIMALTZ
 70
     0
  9
$DIMALTTZ
 70
     0
  9
$DIMUPT
 70
     0
  9
$DIMDEC
 70
     2
  9
$DIMTDEC
 70
     2
  9
$DIMALTU
 70
     2
  9
$DIMALTTD
 70
     3
  9
$DIMTXSTY
  7
Standard
  9
$DIMAUNIT
 70
     0
  9
$DIMADEC
 70
     2
  9
$DIMALTRND
 40
0.0
  9
$DIMAZIN
 70
     0
  9
$DIMDSEP
 70
    44
  9
$DIMATFIT
 70
     3
  9
$DIMFRAC
 70
     0
  9
$DIMLDRBLK
  1

  9
$DIMLUNIT
 70
     2
  9
$DIMLWD
 70
    -2
  9
$DIMLWE
 70
    -2
  9
$DIMTMOVE
 70
     0
  9
$LUNITS
 70
     2
  9
$LUPREC
 70
     1
  9
$SKETCHINC
 40
1.0
  9
$FILLETRAD
 40
10.0
  9
$AUNITS
 70
     0
  9
$AUPREC
 70
     1
  9
$MENU
  1
.
  9
$ELEVATION
 40
0.0
  9
$PELEVATION
 40
0.0
  9
$THICKNESS
 40
0.0
  9
$LIMCHECK
 70
     0
  9
$CHAMFERA
 40
0.0
  9
$CHAMFERB
 40
0.0
  9
$CHAMFERC
 40
0.0
  9
$CHAMFERD
 40
0.0
  9
$SKPOLY
 70
     0
  9
$TDCREATE
 40
2460130.528916123
  9
$TDUCREATE
 40
2460130.403916123
  9
$TDUPDATE
 40
2460130.528916632
  9
$TDUUPDATE
 40
2460130.403916632
  9
$TDINDWG
 40
0.0000000116
  9
$TDUSRTIMER
 40
0.0000000116
  9
$USRTIMER
 70
     1
  9
$ANGBASE
 50
0.0
  9
$ANGDIR
 70
     0
  9
$PDMODE
 70
     0
  9
$PDSIZE
 40
-1.0
  9
$PLINEWID
 40
0.0
  9
$SPLFRAME
 70
     0
  9
$SPLINETYPE
 70
     6
  9
$SPLINESEGS
 70
     8
  9
$HANDSEED
  5
1AD
  9
$SURFTAB1
 70
     6
  9
$SURFTAB2
 70
     6
  9
$SURFTYPE
 70
     6
  9
$SURFU
 70
     6
  9
$SURFV
 70
     6
  9
$UCSBASE
  2

  9
$UCSNAME
  2

  9
$UCSORG
 10
0.0
 20
0.0
 30
0.0
  9
$UCSXDIR
 10
1.0
 20
0.0
 30
0.0
  9
$UCSYDIR
 10
0.0
 20
1.0
 30
0.0
  9
$UCSORTHOREF
  2

  9
$UCSORTHOVIEW
 70
     0
  9
$UCSORGTOP
 10
0.0
 20
0.0
 30
0.0
  9
$UCSORGBOTTOM
 10
0.0
 20
0.0
 30
0.0
  9
$UCSORGLEFT
 10
0.0
 20
0.0
 30
0.0
  9
$UCSORGRIGHT
 10
0.0
 20
0.0
 30
0.0
  9
$UCSORGFRONT
 10
0.0
 20
0.0
 30
0.0
  9
$UCSORGBACK
 10
0.0
 20
0.0
 30
0.0
  9
$PUCSBASE
  2

  9
$PUCSNAME
  2

  9
$PUCSORG
 10
0.0
 20
0.0
 30
0.0
  9
$PUCSXDIR
 10
1.0
 20
0.0
 30
0.0
  9
$PUCSYDIR
 10
0.0
 20
1.0
 30
0.0
  9
$PUCSORTHOREF
  2

  9
$PUCSORTHOVIEW
 70
     0
  9
$PUCSORGTOP
 10
0.0
 20
0.0
 30
0.0
  9
$PUCSORGBOTTOM
 10
0.0
 20
0.0
 30
0.0
  9
$PUCSORGLEFT
 10
0.0
 20
0.0
 30
0.0
  9
$PUCSORGRIGHT
 10
0.0
 20
0.0
 30
0.0
  9
$PUCSORGFRONT
 10
0.0
 20
0.0
 30
0.0
  9
$PUCSORGBACK
 10
0.0
 20
0.0
 30
0.0
  9
$USERI1
 70
     0
  9
$USERI2
 70
     0
  9
$USERI3
 70
     0
  9
$USERI4
 70
     0
  9
$USERI5
 70
     0
  9
$USERR1
 40
0.0
  9
$USERR2
 40
0.0
  9
$USERR3
 40
0.0
  9
$USERR4
 40
0.0
  9
$USERR5
 40
0.0
  9
$WORLDVIEW
 70
     1
  9
$SHADEDGE
 70
     3
  9
$SHADEDIF
 70
    70
  9
$TILEMODE
 70
     1
  9
$MAXACTVP
 70
    64
  9
$PINSBASE
 10
0.0
 20
0.0
 30
0.0
  9
$PLIMCHECK
 70
     0
  9
$PEXTMIN
 10
1.0000000000E+20
 20
1.0000000000E+20
 30
1.0000000000E+20
  9
$PEXTMAX
 10
-1.0000000000E+20
 20
-1.0000000000E+20
 30
-1.0000000000E+20
  9
$PLIMMIN
 10
0.0
 20
0.0
  9
$PLIMMAX
 10
420.0
 20
297.0
  9
$UNITMODE
 70
     0
  9
$VISRETAIN
 70
     1
  9
$PLINEGEN
 70
     0
  9
$PSLTSCALE
 70
     1
  9
$TREEDEPTH
 70
  3020
  9
$CMLSTYLE
  2
Standard
  9
$CMLJUST
 70
     0
  9
$CMLSCALE
 40
20.0
  9
$PROXYGRAPHICS
 70
     1
  9
$MEASUREMENT
 70
     1
  9
$CELWEIGHT
370
    -1
  9
$ENDCAPS
280
     0
  9
$JOINSTYLE
280
     0
  9
$LWDISPLAY
290
     1
  9
$INSUNITS
 70
     4
  9
$HYPERLINKBASE
  1

  9
$STYLESHEET
  1

  9
$XEDIT
290
     1
  9
$CEPSNTYPE
380
     0
  9
$PSTYLEMODE
290
     1
  9
$FINGERPRINTGUID
  2
{9bac6bff-c6ec-43dc-9562-35ca41ab9e78}
  9
$VERSIONGUID
  2
{FAEB1C32-E019-11D5-929B-00C0DF256EC4}
  9
$EXTNAMES
290
     1
  9
$PSVPSCALE
 40
0.0
  9
$OLESTARTUP
290
     0
  0
ENDSEC
  0
SECTION
  2
CLASSES
  0
CLASS
  1
ACDBDICTIONARYWDFLT
  2
AcDbDictionaryWithDefault
  3
ObjectDBX Classes
 90
        0
280
     0
281
     0
  0
CLASS
  1
VISUALSTYLE
  2
AcDbVisualStyle
  3
ObjectDBX Classes
 90
     4095
280
     0
281
     0
  0
CLASS
  1
MATERIAL
  2
AcDbMaterial
  3
ObjectDBX Classes
 90
     1153
280
     0
281
     0
  0
CLASS
  1
SCALE
  2
AcDbScale
  3
ObjectDBX Classes
 90
     1153
280
     0
281
     0
  0
CLASS
  1
TABLESTYLE
  2
AcDbTableStyle
  3
ObjectDBX Classes
 90
     4095
280
     0
281
     0
  0
CLASS
  1
MLEADERSTYLE
  2
AcDbMLeaderStyle
  3
ACDB_MLEADERSTYLE_CLASS
 90
     4095
280
     0
281
     0
  0
CLASS
  1
SUN
  2
AcDbSun
  3
SCENEOE
 90
     1153
280
     0
281
     0
  0
CLASS
  1
ACDBPLACEHOLDER
  2
AcDbPlaceHolder
  3
ObjectDBX Classes
 90
        0
280
     0
281
     0
  0
CLASS
  1
LAYOUT
  2
AcDbLayout
  3
ObjectDBX Classes
 90
        0
280
     0
281
     0
  0
ENDSEC
  0
SECTION
  2
TABLES
  0
TABLE
  2
VPORT
  5
8
330
0
100
AcDbSymbolTable
 70
     1
  0
VPORT
  5
29
330
8
100
AcDbSymbolTableRecord
100
AcDbViewportTableRecord
  2
*Active
 70
     0
 10
0.0
 20
0.0
 11
1.0
 21
1.0
 12
475.0
 22
325.0
 13
0.0
 23
0.0
 14
10.0
 24
10.0
 15
10.0
 25
10.0
 16
0.0
 26
0.0
 36
1.0
 17
0.0
 27
0.0
 37
0.0
 40
650.0
 41
1.4615384615
 42
50.0
 43
0.0
 44
0.0
 50
0.0
 51
0.0
 71
     0
 72
  2000
 73
     1
 74
     3
 75
     0
 76
     0
 77
     0
 78
     0
281
     0
 65
     1
110
0.0
120
0.0
130
0.0
111
1.0
121
0.0
131
0.0
112
0.0
122
1.0
132
0.0
 79
     0
146
0.0
  0
ENDTAB
  0
TABLE
  2
LTYPE
  5
5
330
0
100
AcDbSymbolTable
 70
     6
  0
LTYPE
  5
14
330
5
100
AcDbSymbolTableRecord
100
AcDbLinetypeTableRecord
  2
ByBlock
 70
     0
  3

 72
    65
 73
     0
 40
0.0
  0
LTYPE
  5
15
330
5
100
AcDbSymbolTableRecord
100
AcDbLinetypeTableRecord
  2
ByLayer
 70
     0
  3

 72
    65
 73
     0
 40
0.0
  0
LTYPE
  5
16
330
5
100
AcDbSymbolTableRecord
100
AcDbLinetypeTableRecord
  2
Continuous
 70
     0
  3
Solid line
 72
    65
 73
     0
 40
0.0
  0
LTYPE
  5
6E
330
5
100
AcDbSymbolTableRecord
100
AcDbLinetypeTableRecord
  2
HIDDEN
 70
     0
  3
Hidden __ __ __ __ __ __ __ __ __ __ __ __ __ __
 72
    65
 73
     2
 40
1.905
 49
1.27
 74
     0
 49
-0.635
 74
     0
  0
LTYPE
  5
6F
330
5
100
AcDbSymbolTableRecord
100
AcDbLinetypeTableRecord
  2
PHANTOM
 70
     0
  3
Phantom ______  __  __  ______  __  __  ______
 72
    65
 73
     6
 40
12.7
 49
6.35
 74
     0
 49
-1.27
 74
     0
 49
1.27
 74
     0
 49
-1.27
 74
     0
 49
1.27
 74
     0
 49
-1.27
 74
     0
  0
LTYPE
  5
70
330
5
100
AcDbSymbolTableRecord
100
AcDbLinetypeTableRecord
  2
CENTER
 70
     0
  3
Center ____ _ ____ _ ____ _ ____ _ ____ _ ____
 72
    65
 73
     4
 40
10.16
 49
6.35
 74
     0
 49
-1.27
 74
     0
 49
1.27
 74
     0
 49
-1.27
 74
     0
  0
LTYPE
  5
71
330
5
100
AcDbSymbolTableRecord
100
AcDbLinetypeTableRecord
  2
CENTERX2
 70
     0
  3
Center (2x) ________  __  ________  __  _____
 72
    65
 73
     4
 40
20.32
 49
12.7
 74
     0
 49
-2.54
 74
     0
 49
2.54
 74
     0
 49
-2.54
 74
     0
  0
LTYPE
  5
72
330
5
100
AcDbSymbolTableRecord
100
AcDbLinetypeTableRecord
  2
DOT2
 70
     0
  3
Dot (.5x) ........................................
 72
    65
 73
     2
 40
0.635
 49
0.0
 74
     0
 49
-0.635
 74
     0
  0
ENDTAB
  0
TABLE
  2
LAYER
  5
2
330
0
100
AcDbSymbolTable
 70
     1
  0
LAYER
  5
10
330
2
100
AcDbSymbolTableRecord
100
AcDbLayerTableRecord
  2
0
 70
     0
 62
     7
  6
Continuous
370
    -3
390
F
  0
ENDTAB
  0
TABLE
  2
STYLE
  5
3
330
0
100
AcDbSymbolTable
 70
     1
  0
STYLE
  5
11
330
3
100
AcDbSymbolTableRecord
100
AcDbTextStyleTableRecord
  2
Standard
 70
     0
 40
0.0
 41
1.0
 50
0.0
 71
     0
 42
3.5
  3
txt
  4

  0
ENDTAB
  0
TABLE
  2
VIEW
  5
6
330
0
100
AcDbSymbolTable
 70
     0
  0
ENDTAB
  0
TABLE
  2
UCS
  5
7
330
0
100
AcDbSymbolTable
 70
     0
  0
ENDTAB
  0
TABLE
  2
APPID
  5
9
330
0
100
AcDbSymbolTable
 70
     1
  0
APPID
  5
12
330
9
100
AcDbSymbolTableRecord
100
AcDbRegAppTableRecord
  2
ACAD
 70
     0
  0
ENDTAB
  0
TABLE
  2
DIMSTYLE
  5
A
330
0
100
AcDbSymbolTable
 70
     1
100
AcDbDimStyleTable
  0
DIMSTYLE
105
27
330
A
100
AcDbSymbolTableRecord
100
AcDbDimStyleTableRecord
  2
ISO-25
 70
     0
 41
2.5
 42
0.625
 43
3.75
 44
1.25
 73
     0
 74
     0
 77
     1
 78
     8
140
2.5
141
2.5
143
0.0393700787
147
0.625
171
     3
172
     1
178
     0
271
     2
272
     2
274
     3
278
    44
283
     0
284
     8
340
11
  0
ENDTAB
  0
TABLE
  2
BLOCK_RECORD
  5
1
330
0
100
AcDbSymbolTable
 70
     1
  0
BLOCK_RECORD
  5
1F
330
1
100
AcDbSymbolTableRecord
100
AcDbBlockTableRecord
  2
*Model_Space
340
22
  0
BLOCK_RECORD
  5
1B
330
1
100
AcDbSymbolTableRecord
100
AcDbBlockTableRecord
  2
*Paper_Space
340
1E
  0
BLOCK_RECORD
  5
23
330
1
100
AcDbSymbolTableRecord
100
AcDbBlockTableRecord
  2
*Paper_Space0
340
26
  0
ENDTAB
  0
ENDSEC
  0
SECTION
  2
BLOCKS
  0
BLOCK
  5
20
330
1F
100
AcDbEntity
  8
0
100
AcDbBlockBegin
  2
*Model_Space
 70
     0
 10
0.0
 20
0.0
 30
0.0
  3
*Model_Space
  1

  0
ENDBLK
  5
21
330
1F
100
AcDbEntity
  8
0
100
AcDbBlockEnd
  0
BLOCK
  5
1C
330
1B
100
AcDbEntity
 67
     1
  8
0
100
AcDbBlockBegin
  2
*Paper_Space
 70
     0
 10
0.0
 20
0.0
 30
0.0
  3
*Paper_Space
  1

  0
ENDBLK
  5
1D
330
1B
100
AcDbEntity
 67
     1
  8
0
100
AcDbBlockEnd
  0
BLOCK
  5
24
330
23
100
AcDbEntity
  8
0
100
AcDbBlockBegin
  2
*Paper_Space0
 70
     0
 10
0.0
 20
0.0
 30
0.0
  3
*Paper_Space0
  1

  0
ENDBLK
  5
25
330
23
100
AcDbEntity
  8
0
100
AcDbBlockEnd
  0
ENDSEC
  0
SECTION
  2
ENTITIES
  0
LINE
  5
73
330
1F
100
AcDbEntity
  8
0
  6
Continuous
 62
     7
370
    25
100
AcDbLine
 10
498.376
 20
113.2424974521
 30
0.0
 11
618.376
 21
113.2424974521
 31
0.0
  0
LINE
  5
74
330
1F
100
AcDbEntity
  8
0
  6
Continuous
 62
     7
370
    25
100
AcDbLine
 10
643.3015025479
 20
138.168
 30
0.0
 11
643.3015025479
 21
473.168
 31
0.0
  0
ARC
  5
75
330
1F
100
AcDbEntity
  8
0
  6
Continuous
 62
     7
370
    25
100
AcDbCircle
 10
618.376
 20
138.168
 30
0.0
 40
24.92550254794045
100
AcDbArc
 50
270.0
 51
0.0
  0
LINE
  5
76
330
1F
100
AcDbEntity
  8
0
  6
Continuous
 62
     7
370
    25
100
AcDbLine
 10
618.376
 20
498.0935025479
 30
0.0
 11
498.376
 21
498.0935025479
 31
0.0
  0
ARC
  5
77
330
1F
100
AcDbEntity
  8
0
  6
Continuous
 62
     7
370
    25
100
AcDbCircle
 10
498.376
 20
138.168
 30
0.0
 40
24.92550254794045
100
AcDbArc
 50
180.0
 51
270.0
  0
ARC
  5
78
330
1F
100
AcDbEntity
  8
0
  6
Continuous
 62
     7
370
    25
100
AcDbCircle
 10
618.376
 20
473.168
 30
0.0
 40
24.92550254794043
100
AcDbArc
 50
0.0
 51
90.0
  0
LINE
  5
79
330
1F
100
AcDbEntity
  8
0
  6
Continuous
 62
     7
370
    25
100
AcDbLine
 10
473.4504974521
 20
473.168
 30
0.0
 11
473.4504974521
 21
138.168
 31
0.0
  0
ARC
  5
7A
330
1F
100
AcDbEntity
  8
0
  6
Continuous
 62
     7
370
    25
100
AcDbCircle
 10
498.376
 20
473.168
 30
0.0
 40
24.92550254794043
100
AcDbArc
 50
90.0
 51
180.0
  0
LINE
  5
7B
330
1F
100
AcDbEntity
  8
0
  6
Continuous
 62
     7
370
    25
100
AcDbLine
 10
618.376
 20
113.2424974521
 30
0.0
 11
618.376
 21
118.6504552331
 31
0.0
  0
SPLINE
  5
7C
330
1F
100
AcDbEntity
  8
0
  6
Continuous
 62
     7
370
    25
100
AcDbSpline
210
0.0
220
0.0
230
1.0
 70
     8
 71
     3
 72
    15
 73
    11
 74
     0
 42
0.00000001
 43
0.00000001
 40
0.0
 40
0.0
 40
0.0
 40
0.0
 40
0.1277272741241849
 40
0.2500006214420561
 40
0.3758170202055774
 40
0.5000000007032479
 40
0.6241813832160574
 40
0.749999379699781
 40
0.872271860916645
 40
0.9999999999999999
 40
0.9999999999999999
 40
0.9999999999999999
 40
0.9999999999999999
 10
637.8935447669144
 20
138.1679999999998
 30
0.0
 10
637.8147673114189
 20
136.8646819672637
 30
0.0
 10
637.6605761806323
 20
134.3136972981331
 30
0.0
 10
636.4857518003264
 20
130.6294603991507
 30
0.0
 10
634.6907309189511
 20
127.2617376104631
 30
0.0
 10
632.2482128964468
 20
124.2958100793364
 30
0.0
 10
629.2822764402242
 20
121.8532785070223
 30
0.0
 10
625.9145629895424
 20
120.0582572769882
 30
0.0
 10
622.2303116417813
 20
118.8834257360556
 30
0.0
 10
619.679326901175
 20
118.7292336900243
 30
0.0
 10
618.3760000000001
 20
118.6504552330855
 30
0.0
  0
LINE
  5
7D
330
1F
100
AcDbEntity
  8
0
  6
Continuous
 62
     7
370
    25
100
AcDbLine
 10
643.3015025479
 20
138.168
 30
0.0
 11
637.8935447669
 21
138.168
 31
0.0
  0
LINE
  5
7E
330
1F
100
AcDbEntity
  8
0
  6
Continuous
 62
     7
370
    25
100
AcDbLine
 10
473.4504974521
 20
473.168
 30
0.0
 11
479.3666604616
 21
473.168
 31
0.0
  0
LINE
  5
7F
330
1F
100
AcDbEntity
  8
0
  6
Continuous
 62
     7
370
    25
100
AcDbLine
 10
479.4310853342
 20
431.3520424478
 30
0.0
 11
479.3666604616
 21
473.168
 31
0.0
  0
SPLINE
  5
80
330
1F
100
AcDbEntity
  8
0
  6
Continuous
 62
     7
370
    25
100
AcDbSpline
210
0.0
220
0.0
230
1.0
 70
     8
 71
     3
 72
     9
 73
     5
 74
     0
 42
0.00000001
 43
0.00000001
 40
0.0
 40
0.0
 40
0.0
 40
0.0
 40
0.3379797629438788
 40
1.0
 40
1.0
 40
1.0
 40
1.0
 10
479.4539618339122
 20
405.354997802613
 30
0.0
 10
479.452122943946
 20
408.2840467594984
 30
0.0
 10
479.4466821153293
 20
416.9503909552951
 30
0.0
 10
479.4372978847294
 20
425.6155390512404
 30
0.0
 10
479.4310853341632
 20
431.3520424478447
 30
0.0
  0
SPLINE
  5
81
330
1F
100
AcDbEntity
  8
0
  6
Continuous
 62
     7
370
    25
100
AcDbSpline
210
0.0
220
0.0
230
1.0
 70
     8
 71
     3
 72
     9
 73
     5
 74
     0
 42
0.00000001
 43
0.00000001
 40
0.0
 40
0.0
 40
0.0
 40
0.0
 40
0.4999259907937704
 40
1.0
 40
1.0
 40
1.0
 40
1.0
 10
479.4539618339122
 20
370.9810021974099
 30
0.0
 10
479.4602238959426
 20
376.7091532209502
 30
0.0
 10
479.4727498740792
 20
388.1671512627109
 30
0.0
 10
479.460225131932
 20
399.625150291037
 30
0.0
 10
479.4539618339122
 20
405.354997802613
 30
0.0
  0
LINE
  5
82
330
1F
100
AcDbEntity
  8
0
  6
Continuous
 62
     7
370
    25
100
AcDbLine
 10
479.4310853342
 20
344.9839575522
 30
0.0
 11
479.4539618339
 21
370.9810021974
 31
0.0
  0
SPLINE
  5
83
330
1F
100
AcDbEntity
  8
0
  6
Continuous
 62
     7
370
    25
100
AcDbSpline
210
0.0
220
0.0
230
1.0
 70
     8
 71
     3
 72
    11
 73
     7
 74
     0
 42
0.00000001
 43
0.00000001
 40
0.0
 40
0.0
 40
0.0
 40
0.0
 40
0.2499022779800566
 40
0.4998042800723552
 40
0.7499042466015203
 40
0.9999999999999999
 40
0.9999999999999999
 40
0.9999999999999999
 40
0.9999999999999999
 10
478.8584552330858
 20
138.1679999999998
 30
0.0
 10
478.927526366198
 20
155.3719699221046
 30
0.0
 10
479.0656685561689
 20
189.7798907734312
 30
0.0
 10
479.2259532903381
 20
241.4672116854394
 30
0.0
 10
479.3569597214364
 20
293.1990001961523
 30
0.0
 10
479.406376935334
 20
327.7224020299702
 30
0.0
 10
479.4310853341632
 20
344.9839575521886
 30
0.0
  0
LINE
  5
84
330
1F
100
AcDbEntity
  8
0
  6
Continuous
 62
     7
370
    25
100
AcDbLine
 10
473.4504974521
 20
138.168
 30
0.0
 11
478.8584552331
 21
138.168
 31
0.0
  0
LINE
  5
85
330
1F
100
AcDbEntity
  8
0
  6
Continuous
 62
     7
370
    25
100
AcDbLine
 10
643.3015025479
 20
473.168
 30
0.0
 11
637.3853395384
 21
473.168
 31
0.0
  0
SPLINE
  5
86
330
1F
100
AcDbEntity
  8
0
  6
Continuous
 62
     7
370
    25
100
AcDbSpline
210
0.0
220
0.0
230
1.0
 70
     8
 71
     3
 72
    15
 73
    11
 74
     0
 42
0.00000001
 43
0.00000001
 40
0.0
 40
0.0
 40
0.0
 40
0.0
 40
0.1277272623577334
 40
0.2500006214467101
 40
0.3758169984179309
 40
0.5000000007106097
 40
0.6241813611010906
 40
0.749999379704475
 40
0.8722718487862454
 40
0.9999999999999999
 40
0.9999999999999999
 40
0.9999999999999999
 40
0.9999999999999999
 10
618.3760000000001
 20
492.1773395384298
 30
0.0
 10
619.6453816262954
 20
492.1006133334492
 30
0.0
 10
622.1299427886418
 20
491.9504371019046
 30
0.0
 10
625.7182479387064
 20
490.8062033392233
 30
0.0
 10
628.9982808086392
 20
489.0579218968338
 30
0.0
 10
631.8869802734705
 20
486.6790032665131
 30
0.0
 10
634.2659124636045
 20
483.7902948701615
 30
0.0
 10
636.0141942545418
 20
480.510271345985
 30
0.0
 10
637.1584351835378
 20
476.9219517365515
 30
0.0
 10
637.3086123311354
 20
474.4373905024484
 30
0.0
 10
637.3853395384301
 20
473.1679999999998
 30
0.0
  0
LINE
  5
87
330
1F
100
AcDbEntity
  8
0
  6
Continuous
 62
     7
370
    25
100
AcDbLine
 10
618.376
 20
498.0935025479
 30
0.0
 11
618.376
 21
492.1773395384
 31
0.0
  0
LINE
  5
88
330
1F
100
AcDbEntity
  8
0
  6
Continuous
 62
     7
370
    25
100
AcDbLine
 10
498.376
 20
498.0935025479
 30
0.0
 11
498.376
 21
492.1773395384
 31
0.0
  0
SPLINE
  5
89
330
1F
100
AcDbEntity
  8
0
  6
Continuous
 62
     7
370
    25
100
AcDbSpline
210
0.0
220
0.0
230
1.0
 70
     8
 71
     3
 72
    15
 73
    11
 74
     0
 42
0.00000001
 43
0.00000001
 40
0.0
 40
0.0
 40
0.0
 40
0.0
 40
0.1277272627099488
 40
0.2500006214466253
 40
0.3758169987343111
 40
0.5000000007105164
 40
0.6241813610876448
 40
0.7499993797044305
 40
0.8722718487713162
 40
1.0
 40
1.0
 40
1.0
 40
1.0
 10
479.3666604615701
 20
473.1679999999998
 30
0.0
 10
479.4433866669459
 20
474.4373816298112
 30
0.0
 10
479.5935628988496
 20
476.9219427921877
 30
0.0
 10
480.7377966633849
 20
480.5102479448068
 30
0.0
 10
482.4860781049741
 20
483.7902808113633
 30
0.0
 10
484.8649967358423
 20
486.6789802753626
 30
0.0
 10
487.7537051297244
 20
489.0579124635324
 30
0.0
 10
491.0337286537565
 20
490.8061942544301
 30
0.0
 10
494.6220482632984
 20
491.9504351835059
 30
0.0
 10
497.1066094974028
 20
492.1006123311186
 30
0.0
 10
498.3760000000001
 20
492.1773395384298
 30
0.0
  0
SPLINE
  5
8A
330
1F
100
AcDbEntity
  8
0
  6
Continuous
 62
     7
370
    25
100
AcDbSpline
210
0.0
220
0.0
230
1.0
 70
     8
 71
     3
 72
    11
 73
     7
 74
     0
 42
0.00000001
 43
0.00000001
 40
0.0
 40
0.0
 40
0.0
 40
0.0
 40
0.2498896755908641
 40
0.499783554587735
 40
0.7498916387505238
 40
1.0
 40
1.0
 40
1.0
 40
1.0
 10
637.320914665837
 20
344.9839575521575
 30
0.0
 10
637.3455991365997
 20
327.7366241693765
 30
0.0
 10
637.394968493344
 20
293.241667285607
 30
0.0
 10
637.5258870591838
 20
241.5240490390505
 30
0.0
 10
637.6861688333619
 20
189.8224660429559
 30
0.0
 10
637.824419430203
 20
155.3861617061272
 30
0.0
 10
637.8935447669144
 20
138.1679999999998
 30
0.0
  0
SPLINE
  5
8B
330
1F
100
AcDbEntity
  8
0
  6
Continuous
 62
     7
370
    25
100
AcDbSpline
210
0.0
220
0.0
230
1.0
 70
     8
 71
     3
 72
     9
 73
     5
 74
     0
 42
0.00000001
 43
0.00000001
 40
0.0
 40
0.0
 40
0.0
 40
0.0
 40
0.3379797629439176
 40
0.9999999999999999
 40
0.9999999999999999
 40
0.9999999999999999
 40
0.9999999999999999
 10
637.298038166088
 20
370.9810021973865
 30
0.0
 10
637.299877056054
 20
368.0519532405011
 30
0.0
 10
637.3053178846706
 20
359.3856090447056
 30
0.0
 10
637.3147021152707
 20
350.7204609487609
 30
0.0
 10
637.320914665837
 20
344.9839575521575
 30
0.0
  0
SPLINE
  5
8C
330
1F
100
AcDbEntity
  8
0
  6
Continuous
 62
     7
370
    25
100
AcDbSpline
210
0.0
220
0.0
230
1.0
 70
     8
 71
     3
 72
     9
 73
     5
 74
     0
 42
0.00000001
 43
0.00000001
 40
0.0
 40
0.0
 40
0.0
 40
0.0
 40
0.4999259907934862
 40
1.0
 40
1.0
 40
1.0
 40
1.0
 10
637.298038166088
 20
405.3549978025898
 30
0.0
 10
637.2917761040575
 20
399.6268467790527
 30
0.0
 10
637.279250125921
 20
388.1688487372919
 30
0.0
 10
637.2917748680682
 20
376.710849708966
 30
0.0
 10
637.298038166088
 20
370.9810021973865
 30
0.0
  0
LINE
  5
8D
330
1F
100
AcDbEntity
  8
0
  6
Continuous
 62
     7
370
    25
100
AcDbLine
 10
637.3209146658
 20
431.3520424478
 30
0.0
 11
637.2980381661
 21
405.3549978026
 31
0.0
  0
LINE
  5
8E
330
1F
100
AcDbEntity
  8
0
  6
Continuous
 62
     7
370
    25
100
AcDbLine
 10
637.3853395384
 20
473.168
 30
0.0
 11
637.3209146658
 21
431.3520424478
 31
0.0
  0
SPLINE
  5
8F
330
1F
100
AcDbEntity
  8
0
  6
Continuous
 62
     7
370
    25
100
AcDbSpline
210
0.0
220
0.0
230
1.0
 70
     8
 71
     3
 72
    15
 73
    11
 74
     0
 42
0.00000001
 43
0.00000001
 40
0.0
 40
0.0
 40
0.0
 40
0.0
 40
0.1277272737931552
 40
0.2500006214421399
 40
0.3758170199082547
 40
0.5000000007033376
 40
0.6241813832195542
 40
0.7499993796998214
 40
0.8722718609204515
 40
0.9999999999999999
 40
0.9999999999999999
 40
0.9999999999999999
 40
0.9999999999999999
 10
498.3760000000001
 20
118.6504552330855
 30
0.0
 10
497.072681970657
 20
118.7292326881997
 30
0.0
 10
494.521697301555
 20
118.8834238186396
 30
0.0
 10
490.8374604050383
 20
120.0582481971568
 30
0.0
 10
487.4697376130919
 20
121.8532690793045
 30
0.0
 10
484.5038100812353
 20
124.2957871012208
 30
0.0
 10
482.0612785070072
 20
127.2617235598048
 30
0.0
 10
480.2662572769584
 20
130.6294370105255
 30
0.0
 10
479.0914257360479
 20
134.3136883582576
 30
0.0
 10
478.9372336900204
 20
136.864673098864
 30
0.0
 10
478.8584552330858
 20
138.1679999999998
 30
0.0
  0
LINE
  5
90
330
1F
100
AcDbEntity
  8
0
  6
Continuous
 62
     7
370
    25
100
AcDbLine
 10
498.376
 20
113.2424974521
 30
0.0
 11
498.376
 21
118.6504552331
 31
0.0
  0
LINE
  5
91
330
1F
100
AcDbEntity
  8
0
  6
Continuous
 62
     7
370
    25
100
AcDbLine
 10
534.126
 20
496.4448123394
 30
0.0
 11
534.126
 21
495.293421302
 31
0.0
  0
ARC
  5
92
330
1F
100
AcDbEntity
  8
0
  6
Continuous
 62
     7
370
    25
100
AcDbCircle
 10
534.8766847631
 20
500.0571679653
 30
0.0
 40
4.822531480998618
100
AcDbArc
 50
261.0448095014
 51
272.9633983003
  0
LINE
  5
93
330
1F
100
AcDbEntity
  8
0
  6
Continuous
 62
     7
370
    25
100
AcDbLine
 10
535.126
 20
495.2410853458
 30
0.0
 11
581.626
 21
495.2410853458
 31
0.0
  0
ARC
  5
94
330
1F
100
AcDbEntity
  8
0
  6
Continuous
 62
     7
370
    25
100
AcDbCircle
 10
581.8753152369
 20
500.0571679653
 30
0.0
 40
4.822531481020525
100
AcDbArc
 50
267.0366016998
 51
278.9551904985
  0
LINE
  5
95
330
1F
100
AcDbEntity
  8
0
  6
Continuous
 62
     7
370
    25
100
AcDbLine
 10
582.626
 20
495.293421302
 30
0.0
 11
582.626
 21
496.4448123394
 31
0.0
  0
ARC
  5
96
330
1F
100
AcDbEntity
  8
0
  6
Continuous
 62
     7
370
    25
100
AcDbCircle
 10
581.8753152369
 20
491.6810656761
 30
0.0
 40
4.822531481002884
100
AcDbArc
 50
81.0448095014
 51
92.9633983002
  0
LINE
  5
97
330
1F
100
AcDbEntity
  8
0
  6
Continuous
 62
     7
370
    25
100
AcDbLine
 10
581.626
 20
496.4971482956
 30
0.0
 11
535.126
 21
496.4971482956
 31
0.0
  0
ARC
  5
98
330
1F
100
AcDbEntity
  8
0
  6
Continuous
 62
     7
370
    25
100
AcDbCircle
 10
534.8766847631
 20
491.6810656761
 30
0.0
 40
4.822531480993937
100
AcDbArc
 50
87.0366016997
 51
98.9551904986
  0
LINE
  5
99
330
1F
100
AcDbEntity
  8
0
  6
Continuous
 62
     7
370
    25
100
AcDbLine
 10
618.376
 20
492.1773395384
 30
0.0
 11
618.376
 21
492.1740001643
 31
0.0
  0
SPLINE
  5
9A
330
1F
100
AcDbEntity
  8
0
  6
Continuous
 62
     7
370
    25
100
AcDbSpline
210
0.0
220
0.0
230
1.0
 70
     8
 71
     3
 72
    10
 73
     6
 74
     0
 42
0.00000001
 43
0.00000001
 40
0.0
 40
0.0
 40
0.0
 40
0.0
 40
0.4136404926186354
 40
0.8274784233077283
 40
0.9999999999999999
 40
0.9999999999999999
 40
0.9999999999999999
 40
0.9999999999999999
 10
498.3763508017473
 20
492.174000164263
 30
0.0
 10
514.9206860183098
 20
492.1562515099573
 30
0.0
 10
548.0172533611432
 20
492.1207457295931
 30
0.0
 10
588.0259162612705
 20
492.1368433827125
 30
0.0
 10
611.4760388530166
 20
492.165553061453
 30
0.0
 10
618.3756491982513
 20
492.174000164263
 30
0.0
  0
LINE
  5
9B
330
1F
100
AcDbEntity
  8
0
  6
Continuous
 62
     7
370
    25
100
AcDbLine
 10
498.376
 20
492.1773395384
 30
0.0
 11
498.376
 21
492.1740001643
 31
0.0
  0
LINE
  5
9C
330
1F
100
AcDbEntity
  8
0
  6
Continuous
 62
     7
370
    25
100
AcDbLine
 10
498.386497989
 20
118.6679858981
 30
0.0
 11
498.376
 21
118.6504552331
 31
0.0
  0
SPLINE
  5
9D
330
1F
100
AcDbEntity
  8
0
  6
Continuous
 62
     7
370
    25
100
AcDbSpline
210
0.0
220
0.0
230
1.0
 70
     8
 71
     3
 72
     9
 73
     5
 74
     0
 42
0.00000001
 43
0.00000001
 40
0.0
 40
0.0
 40
0.0
 40
0.0
 40
0.4999053010549145
 40
0.9999999999999999
 40
0.9999999999999999
 40
0.9999999999999999
 40
0.9999999999999999
 10
618.365502011028
 20
118.6679858981224
 30
0.0
 10
598.3727891753625
 20
118.6832847686835
 30
0.0
 10
558.379788914161
 20
118.7138883060508
 30
0.0
 10
518.386786494132
 20
118.6832886326029
 30
0.0
 10
498.3864979889776
 20
118.6679858981224
 30
0.0
  0
LINE
  5
9E
330
1F
100
AcDbEntity
  8
0
  6
Continuous
 62
     7
370
    25
100
AcDbLine
 10
618.376
 20
118.6504552331
 30
0.0
 11
618.365502011
 21
118.6679858981
 31
0.0
  0
LINE
  5
9F
330
1F
100
AcDbEntity
  8
0
  6
Continuous
 62
     7
370
    25
100
AcDbLine
 10
535.126
 20
495.2410853458
 30
0.0
 11
535.126
 21
496.0399889736
 31
0.0
  0
ARC
  5
A0
330
1F
100
AcDbEntity
  8
0
  6
Continuous
 62
     7
370
    25
100
AcDbCircle
 10
534.8766847631
 20
500.8560715931
 30
0.0
 40
4.8225314809899
100
AcDbArc
 50
261.0448095014
 51
272.9633983003
  0
LINE
  5
A1
330
1F
100
AcDbEntity
  8
0
  6
Continuous
 62
     7
370
    25
100
AcDbLine
 10
581.626
 20
495.2410853458
 30
0.0
 11
581.626
 21
496.0399889736
 31
0.0
  0
ARC
  5
A2
330
1F
100
AcDbEntity
  8
0
  6
Continuous
 62
     7
370
    25
100
AcDbCircle
 10
581.8753152369
 20
500.8560715931
 30
0.0
 40
4.822531481012648
100
AcDbArc
 50
267.0366016998
 51
278.9551904986
  0
LINE
  5
A3
330
1F
100
AcDbEntity
  8
0
  6
Continuous
 62
     7
370
    25
100
AcDbLine
 10
535.126
 20
496.0399889736
 30
0.0
 11
581.626
 21
496.0399889736
 31
0.0
  0
LINE
  5
A4
330
1F
100
AcDbEntity
  8
0
  6
Continuous
 62
     7
370
    25
100
AcDbLine
 10
478.8584552331
 20
138.168
 30
0.0
 11
478.9848999896
 21
138.0725870843
 31
0.0
  0
ARC
  5
A5
330
1F
100
AcDbEntity
  8
0
  6
Continuous
 62
     7
370
    25
100
AcDbCircle
 10
498.55327568
 20
655.7040495056
 30
0.0
 40
311.3079403214119
100
AcDbArc
 50
266.4783713873
 51
270.9501490104
  0
SPLINE
  5
A6
330
1F
100
AcDbEntity
  8
0
  6
Continuous
 62
     7
370
    25
100
AcDbSpline
210
0.0
220
0.0
230
1.0
 70
     8
 71
     3
 72
    11
 73
     7
 74
     0
 42
0.00000001
 43
0.00000001
 40
0.0
 40
0.0
 40
0.0
 40
0.0
 40
0.2498936679328966
 40
0.4997914232229199
 40
0.7498955641934065
 40
0.9999999999999999
 40
0.9999999999999999
 40
0.9999999999999999
 40
0.9999999999999999
 10
503.715529810479
 20
344.4389135853511
 30
0.0
 10
503.7359559039838
 20
327.5298539487014
 30
0.0
 10
503.7768084250905
 20
293.7114581043063
 30
0.0
 10
503.7080920804968
 20
243.007351472962
 30
0.0
 10
503.5889259140203
 20
192.3184721678838
 30
0.0
 10
503.4688473455391
 20
158.5554175898079
 30
0.0
 10
503.4088080259098
 20
141.6738803503531
 30
0.0
  0
SPLINE
  5
A7
330
1F
100
AcDbEntity
  8
0
  6
Continuous
 62
     7
370
    25
100
AcDbSpline
210
0.0
220
0.0
230
1.0
 70
     8
 71
     3
 72
    17
 73
    13
 74
     0
 42
0.00000001
 43
0.00000001
 40
0.0
 40
0.0
 40
0.0
 40
0.0
 40
0.1241314772146315
 40
0.250130851110116
 40
0.3750215843349317
 40
0.5004023149057559
 40
0.6244965219699944
 40
0.7501168504303384
 40
0.8087704767254357
 40
0.8744317763066298
 40
0.9261932155695176
 40
1.0
 40
1.0
 40
1.0
 40
1.0
 10
478.9848999895743
 20
138.0725870843162
 30
0.0
 10
479.2346295636945
 20
137.9973894614807
 30
0.0
 10
479.7378465745903
 20
137.8458626624492
 30
0.0
 10
481.5083030391876
 20
137.870754101821
 30
0.0
 10
483.9568896436903
 20
138.0850096408394
 30
0.0
 10
487.0446782777553
 20
138.4954095645838
 30
0.0
 10
490.6578874487246
 20
139.0831726951297
 30
0.0
 10
493.9645342389613
 20
139.6951911111168
 30
0.0
 10
496.7750558776788
 20
140.2532016313229
 30
0.0
 10
498.8064773211652
 20
140.6724192222501
 30
0.0
 10
501.0464117003048
 20
141.1502168826408
 30
0.0
 10
502.5342707507315
 20
141.4800249768072
 30
0.0
 10
503.4088080259098
 20
141.6738803503531
 30
0.0
  0
SPLINE
  5
A8
330
1F
100
AcDbEntity
  8
0
  6
Continuous
 62
     7
370
    25
100
AcDbSpline
210
0.0
220
0.0
230
1.0
 70
     8
 71
     3
 72
    19
 73
    15
 74
     0
 42
0.00000001
 43
0.00000001
 40
0.0
 40
0.0
 40
0.0
 40
0.0
 40
0.0608313093535154
 40
0.1075187037192411
 40
0.1526603287839255
 40
0.2035023078473874
 40
0.2498604810890762
 40
0.3354359629895977
 40
0.4180519152603998
 40
0.4997036051419128
 40
0.6250577961365253
 40
0.7499220934962475
 40
0.8758941947232675
 40
1.0
 40
1.0
 40
1.0
 40
1.0
 10
613.3431919740904
 20
141.6738803503532
 30
0.0
 10
614.0640639229897
 20
141.5138095712728
 30
0.0
 10
615.3381975610279
 20
141.2308861416611
 30
0.0
 10
617.1323036055965
 20
140.8452647857848
 30
0.0
 10
618.7913725958625
 20
140.4969264640683
 30
0.0
 10
620.421320371346
 20
140.1646429879304
 30
0.0
 10
622.4705710432726
 20
139.7594671616955
 30
0.0
 10
624.7945082148095
 20
139.322407072145
 30
0.0
 10
627.3369148427299
 20
138.8792967953584
 30
0.0
 10
630.0564294065703
 20
138.4490466901858
 30
0.0
 10
632.7953661407848
 20
138.0849638945126
 30
0.0
 10
635.2436242270865
 20
137.8707671199126
 30
0.0
 10
637.0141681224129
 20
137.8458580334434
 30
0.0
 10
637.5173745003665
 20
137.997387682118
 30
0.0
 10
637.7671000104261
 20
138.0725870843164
 30
0.0
  0
SPLINE
  5
A9
330
1F
100
AcDbEntity
  8
0
  6
Continuous
 62
     7
370
    25
100
AcDbSpline
210
0.0
220
0.0
230
1.0
 70
     8
 71
     3
 72
    12
 73
     8
 74
     0
 42
0.00000001
 43
0.00000001
 40
0.0
 40
0.0
 40
0.0
 40
0.0
 40
0.2190320550286956
 40
0.4142269280405066
 40
0.6094215884746144
 40
0.8047117873893157
 40
1.0
 40
1.0
 40
1.0
 40
1.0
 10
613.3431919740904
 20
141.6738803503531
 30
0.0
 10
613.2904568090587
 20
156.4576046312939
 30
0.0
 10
613.1907256285797
 20
184.416145645255
 30
0.0
 10
613.0820293431888
 20
225.589051145942
 30
0.0
 10
613.0109372288748
 20
265.1795673549404
 30
0.0
 10
612.9820093684098
 20
304.7954840961449
 30
0.0
 10
613.0183166440315
 20
331.2244818908871
 30
0.0
 10
613.0364701895212
 20
344.438913585332
 30
0.0
  0
ARC
  5
AA
330
1F
100
AcDbEntity
  8
0
  6
Continuous
 62
     7
370
    25
100
AcDbCircle
 10
618.1987243201
 20
655.7040495066
 30
0.0
 40
311.3079403224031
100
AcDbArc
 50
269.0498509896
 51
273.5216286126
  0
LINE
  5
AB
330
1F
100
AcDbEntity
  8
0
  6
Continuous
 62
     7
370
    25
100
AcDbLine
 10
637.7671000104
 20
138.0725870843
 30
0.0
 11
637.8935447669
 21
138.168
 31
0.0
  0
SPLINE
  5
AC
330
1F
100
AcDbEntity
  8
0
  6
Continuous
 62
     7
370
    25
100
AcDbSpline
210
0.0
220
0.0
230
1.0
 70
     8
 71
     3
 72
     9
 73
     5
 74
     0
 42
0.00000001
 43
0.00000001
 40
0.0
 40
0.0
 40
0.0
 40
0.0
 40
0.404647319999399
 40
1.0
 40
1.0
 40
1.0
 40
1.0
 10
503.4088080259098
 20
141.6738803503531
 30
0.0
 10
518.2366733979695
 20
141.6803251940469
 30
0.0
 10
554.8805967336825
 20
141.696252257876
 30
0.0
 10
591.5261585416118
 20
141.6822290843147
 30
0.0
 10
613.3431919740904
 20
141.6738803503531
 30
0.0
  0
SPLINE
  5
AD
330
1F
100
AcDbEntity
  8
0
  6
Continuous
 62
     7
370
    25
100
AcDbSpline
210
0.0
220
0.0
230
1.0
 70
     8
 71
     3
 72
    19
 73
    15
 74
     0
 42
0.00000001
 43
0.00000001
 40
0.0
 40
0.0
 40
0.0
 40
0.0
 40
0.060807612435958
 40
0.1075017469954587
 40
0.1526598071602811
 40
0.2035017919409983
 40
0.2498557172616066
 40
0.3354313373807297
 40
0.4180453880567442
 40
0.4996933650038599
 40
0.6250461096813421
 40
0.7499110703522102
 40
0.8758904735323138
 40
1.0
 40
1.0
 40
1.0
 40
1.0
 10
613.3431919740904
 20
141.6738803503532
 30
0.0
 10
613.5072910150374
 20
140.9571297446768
 30
0.0
 10
613.797401625788
 20
139.6899867146589
 30
0.0
 10
614.204139430234
 20
137.9164105228388
 30
0.0
 10
614.5782960095781
 20
136.2823080845129
 30
0.0
 10
614.9432064354042
 20
134.6843385782156
 30
0.0
 10
615.3987555278352
 20
132.6849511085628
 30
0.0
 10
615.9083982416031
 20
130.4331006792627
 30
0.0
 10
616.4548409794426
 20
127.9935860060283
 30
0.0
 10
617.0246893336673
 20
125.4133459460893
 30
0.0
 10
617.575184339928
 20
122.8606863053237
 30
0.0
 10
618.0302877365342
 20
120.653450309847
 30
0.0
 10
618.3169716451207
 20
119.1450865772393
 30
0.0
 10
618.3494060581087
 20
118.8262247641437
 30
0.0
 10
618.365502011028
 20
118.6679858981224
 30
0.0
  0
SPLINE
  5
AE
330
1F
100
AcDbEntity
  8
0
  6
Continuous
 62
     7
370
    25
100
AcDbSpline
210
0.0
220
0.0
230
1.0
 70
     8
 71
     3
 72
    20
 73
    16
 74
     0
 42
0.00000001
 43
0.00000001
 40
0.0
 40
0.0
 40
0.0
 40
0.0
 40
0.1240820338308106
 40
0.2500322893338595
 40
0.3328498870346462
 40
0.4159799446120153
 40
0.5003865382934205
 40
0.5612046299390977
 40
0.6245457031895636
 40
0.6853772146288093
 40
0.7502311079414168
 40
0.8088567286586065
 40
0.8744889458150322
 40
0.9261973337277521
 40
1.0
 40
1.0
 40
1.0
 40
1.0
 10
498.3864979889776
 20
118.6679858981224
 30
0.0
 10
498.4025492776659
 20
118.8260142256706
 30
0.0
 10
498.4348935287518
 20
119.1444502094835
 30
0.0
 10
498.690045064144
 20
120.4866077543097
 30
0.0
 10
499.0199072317861
 20
122.1019352644228
 30
0.0
 10
499.3798569701649
 20
123.803882782431
 30
0.0
 10
499.7719584362702
 20
125.6125775952147
 30
0.0
 10
500.1759463190714
 20
127.4452787608786
 30
0.0
 10
500.5657674881296
 20
129.1948363590301
 30
0.0
 10
500.9931365472953
 20
131.0938207119214
 30
0.0
 10
501.4342061636804
 20
133.0411292399206
 30
0.0
 10
501.9078443093526
 20
135.1185186312619
 30
0.0
 10
502.3636388752431
 20
137.1133714316055
 30
0.0
 10
502.8709417140981
 20
139.3245088512043
 30
0.0
 10
503.2096447780478
 20
140.8039458556107
 30
0.0
 10
503.4088080259098
 20
141.6738803503532
 30
0.0
  0
SPLINE
  5
AF
330
1F
100
AcDbEntity
  8
0
  6
Continuous
 62
     7
370
    25
100
AcDbSpline
210
0.0
220
0.0
230
1.0
 70
     8
 71
     3
 72
    15
 73
    11
 74
     0
 42
0.00000001
 43
0.00000001
 40
0.0
 40
0.0
 40
0.0
 40
0.0
 40
0.1250887709663145
 40
0.25010239908731
 40
0.3750643553784926
 40
0.5000000003971768
 40
0.6249356454494688
 40
0.7498976017103893
 40
0.8749112322557067
 40
1.0
 40
1.0
 40
1.0
 40
1.0
 10
498.3864979889764
 20
118.6679858981256
 30
0.0
 10
497.1242933108184
 20
118.7469763438331
 30
0.0
 10
494.600642181241
 20
118.9049097844119
 30
0.0
 10
490.9592719534651
 20
120.0694714712046
 30
0.0
 10
487.6003161118498
 20
121.8667460034755
 30
0.0
 10
484.6518313628897
 20
124.2960115848773
 30
0.0
 10
482.2203925390237
 20
127.2475023451999
 30
0.0
 10
480.4157329374525
 20
130.6146425521511
 30
0.0
 10
479.2391990011519
 20
134.2687308063691
 30
0.0
 10
479.0696833023933
 20
136.8043810667955
 30
0.0
 10
478.9848999895742
 20
138.0725870843162
 30
0.0
  0
SPLINE
  5
B0
330
1F
100
AcDbEntity
  8
0
  6
Continuous
 62
     7
370
    25
100
AcDbSpline
210
0.0
220
0.0
230
1.0
 70
     8
 71
     3
 72
    15
 73
    11
 74
     0
 42
0.00000001
 43
0.00000001
 40
0.0
 40
0.0
 40
0.0
 40
0.0
 40
0.1250887719768033
 40
0.2501023983103993
 40
0.3750643545508662
 40
0.4999999995532506
 40
0.6249356446218547
 40
0.7498976009334996
 40
0.8749112332662143
 40
1.0
 40
1.0
 40
1.0
 40
1.0
 10
618.3655020110285
 20
118.667985898124
 30
0.0
 10
619.6277066994406
 20
118.7469763449578
 30
0.0
 10
622.1513578212943
 20
118.9049097860213
 30
0.0
 10
625.792728040029
 20
120.0694714704448
 30
0.0
 10
629.1516838673331
 20
121.866745989562
 30
0.0
 10
632.1001686190075
 20
124.2960115667691
 30
0.0
 10
634.5316074470335
 20
127.2475023243426
 30
0.0
 10
636.3362670617612
 20
130.6146425456126
 30
0.0
 10
637.5128010004636
 20
134.2687308089053
 30
0.0
 10
637.6823166987775
 20
136.8043810770964
 30
0.0
 10
637.7671000104261
 20
138.0725870843164
 30
0.0
  0
SPLINE
  5
B1
330
1F
100
AcDbEntity
  8
0
  6
Continuous
 62
     7
370
    25
100
AcDbSpline
210
0.0
220
0.0
230
1.0
 70
     8
 71
     3
 72
    20
 73
    16
 74
     0
 42
0.00000001
 43
0.00000001
 40
0.0
 40
0.0
 40
0.0
 40
0.0
 40
0.0608080542914468
 40
0.1073925333007751
 40
0.152515266225875
 40
0.203418452605661
 40
0.2497514199696004
 40
0.3349134555808747
 40
0.4176182947681486
 40
0.4997037244819805
 40
0.5856893805665782
 40
0.66915371250169
 40
0.7501514930905574
 40
0.8741636374803337
 40
1.0
 40
1.0
 40
1.0
 40
1.0
 10
612.9954239425899
 20
468.0589596551191
 30
0.0
 10
613.1797464667789
 20
468.7986193395446
 30
0.0
 10
613.5052767447611
 20
470.1049253579905
 30
0.0
 10
613.9606837658638
 20
471.9408972330141
 30
0.0
 10
614.3789908238888
 20
473.6370168630397
 30
0.0
 10
614.7862586526949
 20
475.3009843749916
 30
0.0
 10
615.2921804732199
 20
477.3835548332067
 30
0.0
 10
615.8558804143232
 20
479.7381183027635
 30
0.0
 10
616.4569069790699
 20
482.3037125496108
 30
0.0
 10
616.9940290359932
 20
484.6605618357962
 30
0.0
 10
617.4549102765425
 20
486.7633521203939
 30
0.0
 10
617.8298562073766
 20
488.5600065600295
 30
0.0
 10
618.1571555449714
 20
490.2478702059445
 30
0.0
 10
618.3922744618874
 20
491.6682857959452
 30
0.0
 10
618.3812178619694
 20
492.0046101734451
 30
0.0
 10
618.3756491982513
 20
492.174000164263
 30
0.0
  0
SPLINE
  5
B2
330
1F
100
AcDbEntity
  8
0
  6
Continuous
 62
     7
370
    25
100
AcDbSpline
210
0.0
220
0.0
230
1.0
 70
     8
 71
     3
 72
    10
 73
     6
 74
     0
 42
0.00000001
 43
0.00000001
 40
0.0
 40
0.0
 40
0.0
 40
0.0
 40
0.1362084811390909
 40
0.5680082725762484
 40
1.0
 40
1.0
 40
1.0
 40
1.0
 10
612.9954239425888
 20
468.0589596551191
 30
0.0
 10
608.0364521005317
 20
468.0638491493185
 30
0.0
 10
587.3568511960569
 20
468.0842390188096
 30
0.0
 10
550.9373917839831
 20
468.1153644409957
 30
0.0
 10
519.4858441625694
 20
468.0777640353699
 30
0.0
 10
503.7565760574114
 20
468.0589596551191
 30
0.0
  0
SPLINE
  5
B3
330
1F
100
AcDbEntity
  8
0
  6
Continuous
 62
     7
370
    25
100
AcDbSpline
210
0.0
220
0.0
230
1.0
 70
     8
 71
     3
 72
    17
 73
    13
 74
     0
 42
0.00000001
 43
0.00000001
 40
0.0
 40
0.0
 40
0.0
 40
0.0
 40
0.1258906977181921
 40
0.2499563896265312
 40
0.3723279775634349
 40
0.5003048062339966
 40
0.6251202176382714
 40
0.7501724917960443
 40
0.808821149224243
 40
0.8746129921031568
 40
0.9261677616094894
 40
1.0
 40
1.0
 40
1.0
 40
1.0
 10
498.3763508017472
 20
492.174000164263
 30
0.0
 10
498.3708407221331
 20
492.0043717884678
 30
0.0
 10
498.3599004411444
 20
491.6675740968154
 30
0.0
 10
498.6235257036309
 20
490.0732504571151
 30
0.0
 10
499.0833855471878
 20
487.7527316260575
 30
0.0
 10
499.7433335422415
 20
484.7080784927448
 30
0.0
 10
500.5820259294717
 20
481.0576264020106
 30
0.0
 10
501.3812023245399
 20
477.7047223685752
 30
0.0
 10
502.0762140814949
 20
474.8473596615879
 30
0.0
 10
502.5852297840186
 20
472.7732694728869
 30
0.0
 10
503.1531625004591
 20
470.481231981068
 30
0.0
 10
503.5329461902406
 20
468.9566730595672
 30
0.0
 10
503.7565760574103
 20
468.0589596551192
 30
0.0
  0
ARC
  5
B4
330
1F
100
AcDbEntity
  8
0
  6
Continuous
 62
     7
370
    25
100
AcDbCircle
 10
618.1987243202
 20
120.6319505017
 30
0.0
 40
311.3079403140863
100
AcDbArc
 50
86.4783713873
 51
90.9501490105
  0
LINE
  5
B5
330
1F
100
AcDbEntity
  8
0
  6
Continuous
 62
     7
370
    25
100
AcDbLine
 10
613.0364701895
 20
431.8970864146
 30
0.0
 11
612.9954239426
 21
468.0589596551
 31
0.0
  0
SPLINE
  5
B6
330
1F
100
AcDbEntity
  8
0
  6
Continuous
 62
     7
370
    25
100
AcDbSpline
210
0.0
220
0.0
230
1.0
 70
     8
 71
     3
 72
    19
 73
    15
 74
     0
 42
0.00000001
 43
0.00000001
 40
0.0
 40
0.0
 40
0.0
 40
0.0
 40
0.0608471788740684
 40
0.107433965381121
 40
0.1525502748409049
 40
0.2034652598742205
 40
0.2498089164197776
 40
0.3349911081548877
 40
0.4177151733118208
 40
0.4998188885285847
 40
0.6277655946758477
 40
0.7501118722822072
 40
0.8741457111837759
 40
1.0
 40
1.0
 40
1.0
 40
1.0
 10
612.9954239425888
 20
468.058959655125
 30
0.0
 10
613.7360849275128
 20
468.2424077539629
 30
0.0
 10
615.0438225759284
 20
468.5663103089286
 30
0.0
 10
616.8835582160106
 20
469.0173311539435
 30
0.0
 10
618.5840248384063
 20
469.4303599124245
 30
0.0
 10
620.2537237537681
 20
469.8311276421088
 30
0.0
 10
622.3454926639121
 20
470.3272468730049
 30
0.0
 10
624.7132551790457
 20
470.8770108208977
 30
0.0
 10
627.2980937113348
 20
471.4585398223304
 30
0.0
 10
630.073647246114
 20
472.0587225793909
 30
0.0
 10
632.8073212759089
 20
472.6091458191036
 30
0.0
 10
635.1714204487977
 20
473.0249905390366
 30
0.0
 10
636.8132932238815
 20
473.2414786659172
 30
0.0
 10
637.1834887329576
 20
473.1975104708155
 30
0.0
 10
637.3699349356774
 20
473.1753662178029
 30
0.0
  0
LINE
  5
B7
330
1F
100
AcDbEntity
  8
0
  6
Continuous
 62
     7
370
    25
100
AcDbLine
 10
637.3853395384
 20
473.168
 30
0.0
 11
637.3699349357
 21
473.1753662178
 31
0.0
  0
SPLINE
  5
B8
330
1F
100
AcDbEntity
  8
0
  6
Continuous
 62
     7
370
    25
100
AcDbSpline
210
0.0
220
0.0
230
1.0
 70
     8
 71
     3
 72
    20
 73
    16
 74
     0
 42
0.00000001
 43
0.00000001
 40
0.0
 40
0.0
 40
0.0
 40
0.0
 40
0.1258237059362091
 40
0.2498274043302739
 40
0.3308242993088513
 40
0.4142859761699192
 40
0.5002669681546926
 40
0.561414983757202
 40
0.6251584968952412
 40
0.6857326632659138
 40
0.7502835080378103
 40
0.8089082124610536
 40
0.8746688375443935
 40
0.92622709315815
 40
0.9999999999999999
 40
0.9999999999999999
 40
0.9999999999999999
 40
0.9999999999999999
 10
479.3820650643227
 20
473.1753662178034
 30
0.0
 10
479.5682790220957
 20
473.1975668892678
 30
0.0
 10
479.9380134006403
 20
473.2416471051943
 30
0.0
 10
481.400613468194
 20
473.0484606922075
 30
0.0
 10
483.1228310727356
 20
472.7554520166278
 30
0.0
 10
484.9470995094644
 20
472.4083228897744
 30
0.0
 10
486.8982270786937
 20
472.0091810692774
 30
0.0
 10
488.8709960807224
 20
471.5850069497086
 30
0.0
 10
490.7318997790807
 20
471.1722426196391
 30
0.0
 10
492.7368136933073
 20
470.7151571219069
 30
0.0
 10
494.7793889559863
 20
470.2394067457483
 30
0.0
 10
496.9539343083999
 20
469.7226608768568
 30
0.0
 10
499.03487228031
 20
469.2209299888376
 30
0.0
 10
501.3322229423127
 20
468.6590521809907
 30
0.0
 10
502.8582941832991
 20
468.2813085511705
 30
0.0
 10
503.7565760574114
 20
468.0589596551192
 30
0.0
  0
LINE
  5
B9
330
1F
100
AcDbEntity
  8
0
  6
Continuous
 62
     7
370
    25
100
AcDbLine
 10
503.7565760574
 20
468.0589596551
 30
0.0
 11
503.7155298105
 21
431.8970864147
 31
0.0
  0
ARC
  5
BA
330
1F
100
AcDbEntity
  8
0
  6
Continuous
 62
     7
370
    25
100
AcDbCircle
 10
498.5532756796
 20
120.6319505053
 30
0.0
 40
311.307940310584
100
AcDbArc
 50
89.0498509895
 51
93.5216286127
  0
LINE
  5
BB
330
1F
100
AcDbEntity
  8
0
  6
Continuous
 62
     7
370
    25
100
AcDbLine
 10
479.3666604616
 20
473.168
 30
0.0
 11
479.3820650643
 21
473.1753662178
 31
0.0
  0
SPLINE
  5
BC
330
1F
100
AcDbEntity
  8
0
  6
Continuous
 62
     7
370
    25
100
AcDbSpline
210
0.0
220
0.0
230
1.0
 70
     8
 71
     3
 72
    15
 73
    11
 74
     0
 42
0.00000001
 43
0.00000001
 40
0.0
 40
0.0
 40
0.0
 40
0.0
 40
0.1250113491964515
 40
0.2500131191738836
 40
0.3750082557931631
 40
0.4999999995703747
 40
0.6249917433631854
 40
0.7499868800288293
 40
0.8749886511069089
 40
1.0
 40
1.0
 40
1.0
 40
1.0
 10
637.3699349356774
 20
473.1753662178043
 30
0.0
 10
637.2951687412367
 20
474.4166237436628
 30
0.0
 10
637.1456420814494
 20
476.8990436817937
 30
0.0
 10
636.0097551954344
 20
480.4801818784459
 30
0.0
 10
634.2511231612913
 20
483.7819957137139
 30
0.0
 10
631.8705967469435
 20
486.6765078282011
 30
0.0
 10
628.9769463075227
 20
489.0573799493329
 30
0.0
 10
625.6764867219202
 20
490.8158158727466
 30
0.0
 10
622.0971167470049
 20
491.9510139589877
 30
0.0
 10
619.6161700622378
 20
492.0996695308768
 30
0.0
 10
618.3756491982513
 20
492.174000164263
 30
0.0
  0
SPLINE
  5
BD
330
1F
100
AcDbEntity
  8
0
  6
Continuous
 62
     7
370
    25
100
AcDbSpline
210
0.0
220
0.0
230
1.0
 70
     8
 71
     3
 72
    15
 73
    11
 74
     0
 42
0.00000001
 43
0.00000001
 40
0.0
 40
0.0
 40
0.0
 40
0.0
 40
0.1250113499314233
 40
0.2500131191725217
 40
0.3750082557857862
 40
0.4999999995617432
 40
0.6249917433558133
 40
0.7499868800274636
 40
0.8749886518418817
 40
1.0
 40
1.0
 40
1.0
 40
1.0
 10
498.3763508017472
 20
492.174000164263
 30
0.0
 10
497.1358299273982
 20
492.0996695297665
 30
0.0
 10
494.6548832504385
 20
491.9510139573665
 30
0.0
 10
491.0755132846703
 20
490.8158158735003
 30
0.0
 10
487.775053713496
 20
489.057379963339
 30
0.0
 10
484.8814032713025
 20
486.6765078464513
 30
0.0
 10
482.5008768527144
 20
483.7819957347403
 30
0.0
 10
480.7422448053214
 20
480.4801818850404
 30
0.0
 10
479.6063579169295
 20
476.8990436792372
 30
0.0
 10
479.4568312576498
 20
474.4166237332936
 30
0.0
 10
479.3820650643227
 20
473.1753662178036
 30
0.0
  0
SPLINE
  5
BE
330
1F
100
AcDbEntity
  8
0
  6
Continuous
 62
     7
370
    25
100
AcDbSpline
210
0.0
220
0.0
230
1.0
 70
     8
 71
     3
 72
     9
 73
     5
 74
     0
 42
0.00000001
 43
0.00000001
 40
0.0
 40
0.0
 40
0.0
 40
0.0
 40
0.7923136092253543
 40
1.0
 40
1.0
 40
1.0
 40
1.0
 10
613.036470189512
 20
344.4389135853319
 30
0.0
 10
613.0667363357101
 20
350.2309591364965
 30
0.0
 10
613.1049360407835
 20
357.5412532974505
 30
0.0
 10
613.1386045042984
 20
364.8524006306722
 30
0.0
 10
613.1455969859688
 20
366.3708264327307
 30
0.0
  0
LINE
  5
BF
330
1F
100
AcDbEntity
  8
0
  6
Continuous
 62
     7
370
    25
100
AcDbLine
 10
614.5957103952
 20
370.7179338338
 30
0.0
 11
613.145596986
 21
366.3708264327
 31
0.0
  0
LWPOLYLINE
  5
C0
330
1F
100
AcDbEntity
  8
0
  6
Continuous
 62
     7
370
    25
100
AcDbPolyline
 90
       13
 70
   128
 43
0.0
 10
614.5957103952
 20
370.7179338338
 10
617.5350464541
 20
370.724290351
 10
620.400816088
 20
370.7342767534
 10
623.1524975414
 20
370.747751834
 10
625.7511822569
 20
370.7645250563
 10
628.1601250386
 20
370.7843592481
 10
630.3452636267
 20
370.8069739557
 10
632.2757003348
 20
370.8320494088
 10
633.924138941
 20
370.8592310425
 10
635.2672706541
 20
370.8881345107
 10
636.2861036982
 20
370.9183511206
 10
636.966231855
 20
370.9494536118
 10
637.2980381661
 20
370.9810021974
  0
SPLINE
  5
C1
330
1F
100
AcDbEntity
  8
0
  6
Continuous
 62
     7
370
    25
100
AcDbSpline
210
0.0
220
0.0
230
1.0
 70
     8
 71
     3
 72
     9
 73
     5
 74
     0
 42
0.00000001
 43
0.00000001
 40
0.0
 40
0.0
 40
0.0
 40
0.0
 40
0.7923136092265172
 40
1.0
 40
1.0
 40
1.0
 40
1.0
 10
503.7155298104894
 20
431.897086414669
 30
0.0
 10
503.6852636642909
 20
426.105040863504
 30
0.0
 10
503.6470639592168
 20
418.79474670256
 30
0.0
 10
503.6133954957018
 20
411.4835993693483
 30
0.0
 10
503.6064030140315
 20
409.9651735673004
 30
0.0
  0
LINE
  5
C2
330
1F
100
AcDbEntity
  8
0
  6
Continuous
 62
     7
370
    25
100
AcDbLine
 10
502.1562896048
 20
405.6180661662
 30
0.0
 11
503.606403014
 21
409.9651735673
 31
0.0
  0
LWPOLYLINE
  5
C3
330
1F
100
AcDbEntity
  8
0
  6
Continuous
 62
     7
370
    25
100
AcDbPolyline
 90
       13
 70
   128
 43
0.0
 10
479.4539618339
 20
405.3549978026
 10
479.785768145
 20
405.3865463883
 10
480.4658963018
 20
405.4176488795
 10
481.4847293459
 20
405.4478654894
 10
482.827861059
 20
405.4767689576
 10
484.4762996652
 20
405.5039505913
 10
486.4067363733
 20
405.5290260444
 10
488.5918749614
 20
405.5516407519
 10
491.0008177431
 20
405.5714749438
 10
493.5995024586
 20
405.588248166
 10
496.351183912
 20
405.6017232466
 10
499.2169535459
 20
405.611709649
 10
502.1562896048
 20
405.6180661662
  0
LWPOLYLINE
  5
C4
330
1F
100
AcDbEntity
  8
0
  6
Continuous
 62
     7
370
    25
100
AcDbPolyline
 90
       13
 70
   128
 43
0.0
 10
479.4539618339
 20
370.9810021974
 10
479.785768145
 20
370.9494536117
 10
480.4658963018
 20
370.9183511206
 10
481.4847293459
 20
370.8881345107
 10
482.827861059
 20
370.8592310425
 10
484.4762996652
 20
370.8320494088
 10
486.4067363733
 20
370.8069739557
 10
488.5918749614
 20
370.7843592481
 10
491.0008177431
 20
370.7645250563
 10
493.5995024586
 20
370.747751834
 10
496.351183912
 20
370.7342767534
 10
499.2169535459
 20
370.724290351
 10
502.1562896048
 20
370.7179338338
  0
LINE
  5
C5
330
1F
100
AcDbEntity
  8
0
  6
Continuous
 62
     7
370
    25
100
AcDbLine
 10
503.606403014
 20
366.3708264327
 30
0.0
 11
502.1562896048
 21
370.7179338338
 31
0.0
  0
LINE
  5
C6
330
1F
100
AcDbEntity
  8
0
  6
Continuous
 62
     7
370
    25
100
AcDbLine
 10
503.606403014
 20
366.3708264327
 30
0.0
 11
503.7155298105
 21
344.4389135854
 31
0.0
  0
LWPOLYLINE
  5
C7
330
1F
100
AcDbEntity
  8
0
  6
Continuous
 62
     7
370
    25
100
AcDbPolyline
 90
       13
 70
   128
 43
0.0
 10
614.5957103952
 20
405.6180661662
 10
617.5350464541
 20
405.611709649
 10
620.400816088
 20
405.6017232466
 10
623.1524975414
 20
405.588248166
 10
625.7511822569
 20
405.5714749437
 10
628.1601250386
 20
405.5516407519
 10
630.3452636267
 20
405.5290260443
 10
632.2757003348
 20
405.5039505912
 10
633.924138941
 20
405.4767689575
 10
635.2672706541
 20
405.4478654893
 10
636.2861036982
 20
405.4176488794
 10
636.966231855
 20
405.3865463883
 10
637.2980381661
 20
405.3549978026
  0
LINE
  5
C8
330
1F
100
AcDbEntity
  8
0
  6
Continuous
 62
     7
370
    25
100
AcDbLine
 10
613.145596986
 20
409.9651735673
 30
0.0
 11
614.5957103952
 21
405.6180661662
 31
0.0
  0
LINE
  5
C9
330
1F
100
AcDbEntity
  8
0
  6
Continuous
 62
     7
370
    25
100
AcDbLine
 10
613.145596986
 20
409.9651735673
 30
0.0
 11
613.0364701895
 21
431.8970864146
 31
0.0
  0
SPLINE
  5
CA
330
1F
100
AcDbEntity
  8
0
  6
Continuous
 62
     7
370
    25
100
AcDbSpline
210
0.0
220
0.0
230
1.0
 70
     8
 71
     3
 72
    13
 73
     9
 74
     0
 42
0.00000001
 43
0.00000001
 40
0.0
 40
0.0
 40
0.0
 40
0.0
 40
0.1469432005744791
 40
0.2938841073259587
 40
0.445114697815388
 40
0.5963449041424981
 40
0.796847091553904
 40
1.0
 40
1.0
 40
1.0
 40
1.0
 10
614.5957103951647
 20
405.6180661662354
 30
0.0
 10
615.0398540919837
 20
403.9431395261435
 30
0.0
 10
615.9281345524188
 20
400.5933123920161
 30
0.0
 10
616.7372051234756
 20
395.400775327047
 30
0.0
 10
617.13825680192
 20
390.1130189089525
 30
0.0
 10
617.0593917739789
 20
384.1802064031691
 30
0.0
 10
616.3692440414247
 20
377.6542350287028
 30
0.0
 10
615.1894707211854
 20
373.0401341864701
 30
0.0
 10
614.595710395171
 20
370.7179338337859
 30
0.0
  0
SPLINE
  5
CB
330
1F
100
AcDbEntity
  8
0
  6
Continuous
 62
     7
370
    25
100
AcDbSpline
210
0.0
220
0.0
230
1.0
 70
     8
 71
     3
 72
    13
 73
     9
 74
     0
 42
0.00000001
 43
0.00000001
 40
0.0
 40
0.0
 40
0.0
 40
0.0
 40
0.1469432005743956
 40
0.2938841073257913
 40
0.4451146978151342
 40
0.5963449041421579
 40
0.7968470915537197
 40
1.0
 40
1.0
 40
1.0
 40
1.0
 10
502.1562896048356
 20
370.7179338337643
 30
0.0
 10
501.7121459080166
 20
372.392860473856
 30
0.0
 10
500.8238654475815
 20
375.7426876079832
 30
0.0
 10
500.0147948765245
 20
380.935224672953
 30
0.0
 10
499.6137431980804
 20
386.222981091047
 30
0.0
 10
499.6926082260214
 20
392.1557935968336
 30
0.0
 10
500.3827559585765
 20
398.681764971307
 30
0.0
 10
501.5625292788188
 20
403.2958658135457
 30
0.0
 10
502.1562896048349
 20
405.6180661662331
 30
0.0
  0
ARC
  5
CC
330
1F
100
AcDbEntity
  8
0
  6
Continuous
 62
     7
370
    25
100
AcDbCircle
 10
558.376
 20
388.168
 30
0.0
 40
69.99999999999999
100
AcDbArc
 50
218.6602622186
 51
321.3397377814
  0
ARC
  5
CD
330
1F
100
AcDbEntity
  8
0
  6
Continuous
 62
     7
370
    25
100
AcDbCircle
 10
496.6453038525
 20
386.7504432854
 30
0.0
 40
19.6559954501236
100
AcDbArc
 50
69.7354800181
 51
73.7176071175
  0
SPLINE
  5
CE
330
1F
100
AcDbEntity
  8
0
  6
Continuous
 62
     7
370
    25
100
AcDbSpline
210
0.0
220
0.0
230
1.0
 70
     8
 71
     3
 72
    13
 73
     9
 74
     0
 42
0.00000001
 43
0.00000001
 40
0.0
 40
0.0
 40
0.0
 40
0.0
 40
0.1381090453208641
 40
0.2762182853529067
 40
0.41833935159099
 40
0.5604604460263489
 40
0.7783004899418542
 40
1.0
 40
1.0
 40
1.0
 40
1.0
 10
503.4532523002559
 20
405.1898032273382
 30
0.0
 10
503.0189546137516
 20
403.65910135198
 30
0.0
 10
502.1503586284543
 20
400.5976954432243
 30
0.0
 10
501.3268583048441
 20
395.8432061626623
 30
0.0
 10
500.8734208185661
 20
390.9952554367593
 30
0.0
 10
500.8456198065677
 20
385.2095316350989
 30
0.0
 10
501.477067387549
 20
378.5104256925864
 30
0.0
 10
502.7906791844758
 20
373.6152673891907
 30
0.0
 10
503.4532523002568
 20
371.1461967726588
 30
0.0
  0
ARC
  5
CF
330
1F
100
AcDbEntity
  8
0
  6
Continuous
 62
     7
370
    25
100
AcDbCircle
 10
496.6453038522
 20
389.5855567153
 30
0.0
 40
19.65599545086992
100
AcDbArc
 50
286.2823928826
 51
290.2645199818
  0
SPLINE
  5
D0
330
1F
100
AcDbEntity
  8
0
  6
Continuous
 62
     7
370
    25
100
AcDbSpline
210
0.0
220
0.0
230
1.0
 70
     8
 71
     3
 72
    13
 73
     9
 74
     0
 42
0.00000001
 43
0.00000001
 40
0.0
 40
0.0
 40
0.0
 40
0.0
 40
0.1381090453209418
 40
0.2762182853530625
 40
0.4183393515912265
 40
0.560460446026667
 40
0.7783004899420173
 40
0.9999999999999999
 40
0.9999999999999999
 40
0.9999999999999999
 40
0.9999999999999999
 10
613.2987476997499
 20
371.1461967726798
 30
0.0
 10
613.7330453862536
 20
372.6768986480382
 30
0.0
 10
614.6016413715499
 20
375.7383045567941
 30
0.0
 10
615.4251416951586
 20
380.4927938373564
 30
0.0
 10
615.878579181435
 20
385.3407445632598
 30
0.0
 10
615.9063801934312
 20
391.1264683649174
 30
0.0
 10
615.2749326124491
 20
397.8255743074225
 30
0.0
 10
613.9613208155237
 20
402.7207326108121
 30
0.0
 10
613.2987476997434
 20
405.1898032273407
 30
0.0
  0
ARC
  5
D1
330
1F
100
AcDbEntity
  8
0
  6
Continuous
 62
     7
370
    25
100
AcDbCircle
 10
620.1066961478
 20
386.7504432846
 30
0.0
 40
19.65599545103857
100
AcDbArc
 50
106.2823928826
 51
110.2645199818
  0
ARC
  5
D2
330
1F
100
AcDbEntity
  8
0
  6
Continuous
 62
     7
370
    25
100
AcDbCircle
 10
620.1066961479
 20
389.5855567156
 30
0.0
 40
19.65599545115976
100
AcDbArc
 50
249.7354800182
 51
253.7176071174
  0
ARC
  5
D3
330
1F
100
AcDbEntity
  8
0
  6
Continuous
 62
     7
370
    25
100
AcDbCircle
 10
558.376
 20
388.168
 30
0.0
 40
70.00000000000001
100
AcDbArc
 50
38.6602622186
 51
141.3397377814
  0
ARC
  5
D4
330
1F
100
AcDbEntity
  8
0
  6
Continuous
 62
     7
370
    25
100
AcDbCircle
 10
558.376
 20
388.168
 30
0.0
 40
58.94765075495759
100
AcDbArc
 50
21.7015386848
 51
158.2984613152
  0
ARC
  5
D5
330
1F
100
AcDbEntity
  8
0
  6
Continuous
 62
     7
370
    25
100
AcDbCircle
 10
558.376
 20
388.168
 30
0.0
 40
58.94765075494614
100
AcDbArc
 50
201.7015386848
 51
338.2984613152
  0
LINE
  5
D6
330
1F
100
AcDbEntity
  8
0
  6
Continuous
 62
     7
370
    25
100
AcDbLine
 10
504.9514481076
 20
409.4298732735
 30
0.0
 11
503.606403014
 21
409.9651735673
 31
0.0
  0
LINE
  5
D7
330
1F
100
AcDbEntity
  8
0
  6
Continuous
 62
     7
370
    25
100
AcDbLine
 10
504.9514481076
 20
409.4298732735
 30
0.0
 11
503.4532523003
 21
405.1898032273
 31
0.0
  0
LINE
  5
D8
330
1F
100
AcDbEntity
  8
0
  6
Continuous
 62
     7
370
    25
100
AcDbLine
 10
613.145596986
 20
366.3708264327
 30
0.0
 11
611.8005518924
 21
366.9061267266
 31
0.0
  0
LINE
  5
D9
330
1F
100
AcDbEntity
  8
0
  6
Continuous
 62
     7
370
    25
100
AcDbLine
 10
611.8005518924
 20
366.9061267266
 30
0.0
 11
613.2987476997
 21
371.1461967727
 31
0.0
  0
LINE
  5
DA
330
1F
100
AcDbEntity
  8
0
  6
Continuous
 62
     7
370
    25
100
AcDbLine
 10
503.606403014
 20
366.3708264327
 30
0.0
 11
504.9514481076
 21
366.9061267266
 31
0.0
  0
LINE
  5
DB
330
1F
100
AcDbEntity
  8
0
  6
Continuous
 62
     7
370
    25
100
AcDbLine
 10
503.4532523003
 20
371.1461967727
 30
0.0
 11
504.9514481076
 21
366.9061267266
 31
0.0
  0
LINE
  5
DC
330
1F
100
AcDbEntity
  8
0
  6
Continuous
 62
     7
370
    25
100
AcDbLine
 10
611.8005518924
 20
409.4298732734
 30
0.0
 11
613.145596986
 21
409.9651735673
 31
0.0
  0
LINE
  5
DD
330
1F
100
AcDbEntity
  8
0
  6
Continuous
 62
     7
370
    25
100
AcDbLine
 10
613.2987476997
 20
405.1898032273
 30
0.0
 11
611.8005518924
 21
409.4298732734
 31
0.0
  0
ARC
  5
DE
330
1F
100
AcDbEntity
  8
0
  6
Continuous
 62
     7
370
    25
100
AcDbCircle
 10
558.376
 20
388.168
 30
0.0
 40
57.49999999999986
100
AcDbArc
 50
21.7015386848
 51
158.2984613152
  0
ARC
  5
DF
330
1F
100
AcDbEntity
  8
0
  6
Continuous
 62
     7
370
    25
100
AcDbCircle
 10
558.376
 20
388.168
 30
0.0
 40
57.49999999999982
100
AcDbArc
 50
201.7015386848
 51
338.2984613152
  0
CIRCLE
  5
E0
330
1F
100
AcDbEntity
  8
0
  6
Continuous
 62
     7
370
    25
100
AcDbCircle
 10
558.376
 20
388.168
 30
0.0
 40
56.58715574274743
  0
CIRCLE
  5
E1
330
1F
100
AcDbEntity
  8
0
  6
Continuous
 62
     7
370
    25
100
AcDbCircle
 10
558.376
 20
388.168
 30
0.0
 40
45.0
  0
LINE
  5
E2
330
1F
100
AcDbEntity
  8
0
  6
Continuous
 62
     7
370
    25
100
AcDbLine
 10
416.376
 20
498.0935025479
 30
0.0
 11
126.376
 21
498.0935025479
 31
0.0
  0
ARC
  5
E3
330
1F
100
AcDbEntity
  8
0
  6
Continuous
 62
     7
370
    25
100
AcDbCircle
 10
126.376
 20
138.168
 30
0.0
 40
24.92550254794045
100
AcDbArc
 50
180.0
 51
270.0
  0
ARC
  5
E4
330
1F
100
AcDbEntity
  8
0
  6
Continuous
 62
     7
370
    25
100
AcDbCircle
 10
416.376
 20
473.168
 30
0.0
 40
24.92550254794043
100
AcDbArc
 50
0.0
 51
90.0
  0
ARC
  5
E5
330
1F
100
AcDbEntity
  8
0
  6
Continuous
 62
     7
370
    25
100
AcDbCircle
 10
126.376
 20
473.168
 30
0.0
 40
24.92550254794043
100
AcDbArc
 50
90.0
 51
180.0
  0
LINE
  5
E6
330
1F
100
AcDbEntity
  8
0
  6
Continuous
 62
     7
370
    25
100
AcDbLine
 10
126.376
 20
113.2424974521
 30
0.0
 11
416.376
 21
113.2424974521
 31
0.0
  0
LINE
  5
E7
330
1F
100
AcDbEntity
  8
0
  6
Continuous
 62
     7
370
    25
100
AcDbLine
 10
441.3015025479
 20
138.168
 30
0.0
 11
441.3015025479
 21
473.168
 31
0.0
  0
ARC
  5
E8
330
1F
100
AcDbEntity
  8
0
  6
Continuous
 62
     7
370
    25
100
AcDbCircle
 10
416.376
 20
138.168
 30
0.0
 40
24.92550254794045
100
AcDbArc
 50
270.0
 51
0.0
  0
LINE
  5
E9
330
1F
100
AcDbEntity
  8
0
  6
Continuous
 62
     7
370
    25
100
AcDbLine
 10
101.4504974521
 20
473.168
 30
0.0
 11
101.4504974521
 21
138.168
 31
0.0
  0
SPLINE
  5
EA
330
1F
100
AcDbEntity
  8
0
  6
Continuous
 62
     7
370
    25
100
AcDbSpline
210
0.0
220
0.0
230
1.0
 70
     8
 71
     3
 72
    15
 73
    11
 74
     0
 42
0.00000001
 43
0.00000001
 40
0.0
 40
0.0
 40
0.0
 40
0.0
 40
0.1277272255720583
 40
0.2500006214609079
 40
0.3758169317197229
 40
0.5000000007328164
 40
0.6241812956716677
 40
0.749999379718506
 40
0.8722718134135469
 40
1.0
 40
1.0
 40
1.0
 40
1.0
 10
126.3760000000002
 20
120.614054008595
 30
0.0
 10
125.2038051419321
 20
120.6849058615799
 30
0.0
 10
122.9094670188122
 20
120.823584261573
 30
0.0
 10
119.5958903228518
 20
121.8802128985087
 30
0.0
 10
116.5669830587647
 20
123.494642361299
 30
0.0
 10
113.8994486033077
 20
125.6914256600626
 30
0.0
 10
111.7026517745617
 20
128.3589690269252
 30
0.0
 10
110.0882219660433
 20
131.387866961583
 30
0.0
 10
109.031586176902
 20
134.7014580845945
 30
0.0
 10
108.8929068622902
 20
136.99579627995
 30
0.0
 10
108.8220540085953
 20
138.1679999999999
 30
0.0
  0
LINE
  5
EB
330
1F
100
AcDbEntity
  8
0
  6
Continuous
 62
     7
370
    25
100
AcDbLine
 10
126.376
 20
113.2424974521
 30
0.0
 11
126.376
 21
120.6140540086
 31
0.0
  0
LINE
  5
EC
330
1F
100
AcDbEntity
  8
0
  6
Continuous
 62
     7
370
    25
100
AcDbLine
 10
101.4504974521
 20
138.168
 30
0.0
 11
108.8220540086
 21
138.168
 31
0.0
  0
LINE
  5
ED
330
1F
100
AcDbEntity
  8
0
  6
Continuous
 62
     7
370
    25
100
AcDbLine
 10
109.3024964272
 20
473.166102
 30
0.0
 11
109.2935524326
 21
473.168
 31
0.0
  0
SPLINE
  5
EE
330
1F
100
AcDbEntity
  8
0
  6
Continuous
 62
     7
370
    25
100
AcDbSpline
210
0.0
220
0.0
230
1.0
 70
     8
 71
     3
 72
    14
 73
    10
 74
     0
 42
0.00000001
 43
0.00000001
 40
0.0
 40
0.0
 40
0.0
 40
0.0
 40
0.1421653558241425
 40
0.2843364374989546
 40
0.426500124123032
 40
0.5689494416617653
 40
0.7114078093302308
 40
0.8538541196898948
 40
1.0
 40
1.0
 40
1.0
 40
1.0
 10
108.8220540085953
 20
138.1679999999999
 30
0.0
 10
108.8844281723063
 20
154.0124789324324
 30
0.0
 10
109.0091790119096
 20
185.7020749493967
 30
0.0
 10
109.155094987699
 20
233.2901150191482
 30
0.0
 10
109.2688445774988
 20
280.9410886937112
 30
0.0
 10
109.3444351388188
 20
328.6529290240152
 30
0.0
 10
109.3776552937156
 20
376.4134759918233
 30
0.0
 10
109.3690540017072
 20
424.5932108284986
 30
0.0
 10
109.324871084409
 20
456.8373550755549
 30
0.0
 10
109.3024964271868
 20
473.1661020000494
 30
0.0
  0
LINE
  5
EF
330
1F
100
AcDbEntity
  8
0
  6
Continuous
 62
     7
370
    25
100
AcDbLine
 10
101.4504974521
 20
473.168
 30
0.0
 11
109.2935524326
 21
473.168
 31
0.0
  0
SPLINE
  5
F0
330
1F
100
AcDbEntity
  8
0
  6
Continuous
 62
     7
370
    25
100
AcDbSpline
210
0.0
220
0.0
230
1.0
 70
     8
 71
     3
 72
    15
 73
    11
 74
     0
 42
0.00000001
 43
0.00000001
 40
0.0
 40
0.0
 40
0.0
 40
0.0
 40
0.1277272124220016
 40
0.2500006214662485
 40
0.3758169059605618
 40
0.500000000741416
 40
0.6241812686443764
 40
0.7499993797240042
 40
0.8722717988525033
 40
1.0
 40
1.0
 40
1.0
 40
1.0
 10
109.2935524325582
 20
473.1679999999998
 30
0.0
 10
109.3625011937198
 20
474.3087096239234
 30
0.0
 10
109.4974546841536
 20
476.5414218978843
 30
0.0
 10
110.5257022106654
 20
479.7659958255502
 30
0.0
 10
112.0967681415973
 20
482.7135468635452
 30
0.0
 10
114.234545713275
 20
485.3094312946936
 30
0.0
 10
116.8304390745611
 20
487.4472224249106
 30
0.0
 10
119.7779807706195
 20
489.0182887063534
 30
0.0
 10
123.002569156953
 20
490.0465433981777
 30
0.0
 10
125.2352815034498
 20
490.1814978043594
 30
0.0
 10
126.376
 20
490.2504475674418
 30
0.0
  0
LINE
  5
F1
330
1F
100
AcDbEntity
  8
0
  6
Continuous
 62
     7
370
    25
100
AcDbLine
 10
126.376
 20
498.0935025479
 30
0.0
 11
126.376
 21
490.2504475674
 31
0.0
  0
SPLINE
  5
F2
330
1F
100
AcDbEntity
  8
0
  6
Continuous
 62
     7
370
    25
100
AcDbSpline
210
0.0
220
0.0
230
1.0
 70
     8
 71
     3
 72
    15
 73
    11
 74
     0
 42
0.00000001
 43
0.00000001
 40
0.0
 40
0.0
 40
0.0
 40
0.0
 40
0.1203969716547338
 40
0.240793319058945
 40
0.3612955072028615
 40
0.4817982483628453
 40
0.6113057324163225
 40
0.7408138661147203
 40
0.8704068237473348
 40
1.0
 40
1.0
 40
1.0
 40
1.0
 10
433.4495035728286
 20
473.1661020093902
 30
0.0
 10
433.4305804673878
 20
459.7146077846099
 30
0.0
 10
433.3927343546215
 20
432.8116890801782
 30
0.0
 10
433.374370144364
 20
392.4308753116395
 30
0.0
 10
433.3870627868581
 20
352.0383758336382
 30
0.0
 10
433.4328123180587
 20
310.6359198670345
 30
0.0
 10
433.5108944711204
 20
268.2439503231528
 30
0.0
 10
433.6217461301101
 20
224.8619483604477
 30
0.0
 10
433.7587679256216
 20
181.4970363706747
 30
0.0
 10
433.872886604058
 20
152.6110202452148
 30
0.0
 10
433.929945991405
 20
138.1679999999999
 30
0.0
  0
LINE
  5
F3
330
1F
100
AcDbEntity
  8
0
  6
Continuous
 62
     7
370
    25
100
AcDbLine
 10
433.4584475674
 20
473.168
 30
0.0
 11
433.4495035728
 21
473.1661020094
 31
0.0
  0
LINE
  5
F4
330
1F
100
AcDbEntity
  8
0
  6
Continuous
 62
     7
370
    25
100
AcDbLine
 10
441.3015025479
 20
473.168
 30
0.0
 11
433.4584475674
 21
473.168
 31
0.0
  0
LINE
  5
F5
330
1F
100
AcDbEntity
  8
0
  6
Continuous
 62
     7
370
    25
100
AcDbLine
 10
441.3015025479
 20
138.168
 30
0.0
 11
433.9299459914
 21
138.168
 31
0.0
  0
LINE
  5
F6
330
1F
100
AcDbEntity
  8
0
  6
Continuous
 62
     7
370
    25
100
AcDbLine
 10
126.3801762692
 20
120.6269415518
 30
0.0
 11
126.376
 21
120.6140540086
 31
0.0
  0
SPLINE
  5
F7
330
1F
100
AcDbEntity
  8
0
  6
Continuous
 62
     7
370
    25
100
AcDbSpline
210
0.0
220
0.0
230
1.0
 70
     8
 71
     3
 72
    13
 73
     9
 74
     0
 42
0.00000001
 43
0.00000001
 40
0.0
 40
0.0
 40
0.0
 40
0.0
 40
0.1664861396825427
 40
0.3329812993316087
 40
0.4994660550566636
 40
0.6663067480585368
 40
0.8331579135514221
 40
1.0
 40
1.0
 40
1.0
 40
1.0
 10
416.3718237243667
 20
120.6269415518649
 30
0.0
 10
400.2866740019177
 20
120.662023710598
 30
0.0
 10
368.1155030880057
 20
120.7321899287622
 30
0.0
 10
319.8280413528954
 20
120.7895538911703
 30
0.0
 10
271.4964871126952
 20
120.8105947137489
 30
0.0
 10
223.1304664682204
 20
120.7897492538323
 30
0.0
 10
174.7396951993054
 20
120.732391544356
 30
0.0
 10
142.4997235201806
 20
120.6620909117777
 30
0.0
 10
126.3801762692465
 20
120.6269415518496
 30
0.0
  0
LINE
  5
F8
330
1F
100
AcDbEntity
  8
0
  6
Continuous
 62
     7
370
    25
100
AcDbLine
 10
416.376
 20
120.6140540086
 30
0.0
 11
416.3718237244
 21
120.6269415519
 31
0.0
  0
LINE
  5
F9
330
1F
100
AcDbEntity
  8
0
  6
Continuous
 62
     7
370
    25
100
AcDbLine
 10
416.376
 20
113.2424974521
 30
0.0
 11
416.376
 21
120.6140540086
 31
0.0
  0
LINE
  5
FA
330
1F
100
AcDbEntity
  8
0
  6
Continuous
 62
     7
370
    25
100
AcDbLine
 10
247.126
 20
496.4448123394
 30
0.0
 11
247.126
 21
495.293421302
 31
0.0
  0
ARC
  5
FB
330
1F
100
AcDbEntity
  8
0
  6
Continuous
 62
     7
370
    25
100
AcDbCircle
 10
247.8766847631
 20
500.0571679653
 30
0.0
 40
4.822531481011317
100
AcDbArc
 50
261.0448095014
 51
272.9633983002
  0
LINE
  5
FC
330
1F
100
AcDbEntity
  8
0
  6
Continuous
 62
     7
370
    25
100
AcDbLine
 10
248.126
 20
495.2410853458
 30
0.0
 11
294.626
 21
495.2410853458
 31
0.0
  0
ARC
  5
FD
330
1F
100
AcDbEntity
  8
0
  6
Continuous
 62
     7
370
    25
100
AcDbCircle
 10
294.8753152369
 20
500.0571679653
 30
0.0
 40
4.822531481001235
100
AcDbArc
 50
267.0366016998
 51
278.9551904986
  0
LINE
  5
FE
330
1F
100
AcDbEntity
  8
0
  6
Continuous
 62
     7
370
    25
100
AcDbLine
 10
295.626
 20
495.293421302
 30
0.0
 11
295.626
 21
496.4448123394
 31
0.0
  0
ARC
  5
FF
330
1F
100
AcDbEntity
  8
0
  6
Continuous
 62
     7
370
    25
100
AcDbCircle
 10
294.8753152369
 20
491.6810656761
 30
0.0
 40
4.822531481001239
100
AcDbArc
 50
81.0448095014
 51
92.9633983002
  0
LINE
  5
100
330
1F
100
AcDbEntity
  8
0
  6
Continuous
 62
     7
370
    25
100
AcDbLine
 10
294.626
 20
496.4971482956
 30
0.0
 11
248.126
 21
496.4971482956
 31
0.0
  0
ARC
  5
101
330
1F
100
AcDbEntity
  8
0
  6
Continuous
 62
     7
370
    25
100
AcDbCircle
 10
247.8766847631
 20
491.6810656761
 30
0.0
 40
4.822531480994217
100
AcDbArc
 50
87.0366016997
 51
98.9551904986
  0
SPLINE
  5
102
330
1F
100
AcDbEntity
  8
0
  6
Continuous
 62
     7
370
    25
100
AcDbSpline
210
0.0
220
0.0
230
1.0
 70
     8
 71
     3
 72
    14
 73
    10
 74
     0
 42
0.00000001
 43
0.00000001
 40
0.0
 40
0.0
 40
0.0
 40
0.0
 40
0.1416418592737027
 40
0.283282754464818
 40
0.4250451509087888
 40
0.5668053210537428
 40
0.675077894007785
 40
0.7833514471234173
 40
1.0
 40
1.0
 40
1.0
 40
1.0
 10
126.376
 20
490.2504475674419
 30
0.0
 10
140.0588766832376
 20
490.2153711467908
 30
0.0
 10
167.4245369174761
 20
490.1452185442357
 30
0.0
 10
208.5119788341252
 20
490.0729415197228
 30
0.0
 10
249.6260711628842
 20
490.0307953618513
 30
0.0
 10
287.5219518520307
 20
490.0288906853373
 30
0.0
 10
322.1721334169966
 20
490.0592043441112
 30
0.0
 10
364.0543177836461
 20
490.1204380545934
 30
0.0
 10
395.4453669411149
 20
490.1984388916438
 30
0.0
 10
416.3760000000001
 20
490.2504475674419
 30
0.0
  0
LINE
  5
103
330
1F
100
AcDbEntity
  8
0
  6
Continuous
 62
     7
370
    25
100
AcDbLine
 10
416.376
 20
498.0935025479
 30
0.0
 11
416.376
 21
490.2504475674
 31
0.0
  0
SPLINE
  5
104
330
1F
100
AcDbEntity
  8
0
  6
Continuous
 62
     7
370
    25
100
AcDbSpline
210
0.0
220
0.0
230
1.0
 70
     8
 71
     3
 72
    15
 73
    11
 74
     0
 42
0.00000001
 43
0.00000001
 40
0.0
 40
0.0
 40
0.0
 40
0.0
 40
0.1277272255748726
 40
0.2500006214609056
 40
0.3758169311157538
 40
0.5000000007328543
 40
0.6241812950806371
 40
0.7499993797184958
 40
0.8722718134307327
 40
1.0
 40
1.0
 40
1.0
 40
1.0
 10
433.9299459914051
 20
138.1679999999999
 30
0.0
 10
433.8590941384206
 20
136.9958051419072
 30
0.0
 10
433.7204157384314
 20
134.7014670187898
 30
0.0
 10
432.6637871031402
 20
131.387890328139
 30
0.0
 10
431.0493576419248
 20
128.3589830635304
 30
0.0
 10
428.85257434768
 20
125.6914486110334
 30
0.0
 10
426.1850309777382
 20
123.4946517777169
 30
0.0
 10
423.1561330434741
 20
121.8802219675932
 30
0.0
 10
419.8425419152499
 20
120.8235861768775
 30
0.0
 10
417.5482037198931
 20
120.6849068622753
 30
0.0
 10
416.3760000000003
 20
120.6140540085951
 30
0.0
  0
SPLINE
  5
105
330
1F
100
AcDbEntity
  8
0
  6
Continuous
 62
     7
370
    25
100
AcDbSpline
210
0.0
220
0.0
230
1.0
 70
     8
 71
     3
 72
    15
 73
    11
 74
     0
 42
0.00000001
 43
0.00000001
 40
0.0
 40
0.0
 40
0.0
 40
0.0
 40
0.1277272117027005
 40
0.250000621466343
 40
0.3758169053141814
 40
0.5000000007414298
 40
0.6241812692474732
 40
0.749999379723937
 40
0.8722717995237447
 40
1.0
 40
1.0
 40
1.0
 40
1.0
 10
416.3760000000001
 20
490.2504475674419
 30
0.0
 10
417.5167096174713
 20
490.1814988070053
 30
0.0
 10
419.7494218913775
 20
490.04654531723
 30
0.0
 10
422.9739958143531
 20
489.0182977941237
 30
0.0
 10
425.9215468585468
 20
487.4472318617138
 30
0.0
 10
428.5174312952089
 20
485.3094542877856
 30
0.0
 10
430.6552224279993
 20
482.713560920775
 30
0.0
 10
432.2262887108225
 20
479.7660192189322
 30
0.0
 10
433.2545433994689
 20
476.5414308369744
 30
0.0
 10
433.3894978050361
 20
474.3087184905289
 30
0.0
 10
433.4584475674422
 20
473.1679999999999
 30
0.0
  0
LINE
  5
106
330
1F
100
AcDbEntity
  8
0
  6
Continuous
 62
     7
370
    25
100
AcDbLine
 10
248.126
 20
495.2410853458
 30
0.0
 11
248.126
 21
496.0399889736
 31
0.0
  0
ARC
  5
107
330
1F
100
AcDbEntity
  8
0
  6
Continuous
 62
     7
370
    25
100
AcDbCircle
 10
247.8766847631
 20
500.8560715931
 30
0.0
 40
4.822531481002655
100
AcDbArc
 50
261.0448095014
 51
272.9633983002
  0
LINE
  5
108
330
1F
100
AcDbEntity
  8
0
  6
Continuous
 62
     7
370
    25
100
AcDbLine
 10
294.626
 20
495.2410853458
 30
0.0
 11
294.626
 21
496.0399889736
 31
0.0
  0
ARC
  5
109
330
1F
100
AcDbEntity
  8
0
  6
Continuous
 62
     7
370
    25
100
AcDbCircle
 10
294.8753152369
 20
500.8560715931
 30
0.0
 40
4.822531480992404
100
AcDbArc
 50
267.0366016997
 51
278.9551904986
  0
LINE
  5
10A
330
1F
100
AcDbEntity
  8
0
  6
Continuous
 62
     7
370
    25
100
AcDbLine
 10
248.126
 20
496.0399889736
 30
0.0
 11
294.626
 21
496.0399889736
 31
0.0
  0
LINE
  5
10B
330
1F
100
AcDbEntity
  8
0
  6
Continuous
 62
     7
370
    25
100
AcDbLine
 10
108.8220540086
 20
138.168
 30
0.0
 11
108.8788730607
 21
138.122495513
 31
0.0
  0
SPLINE
  5
10C
330
1F
100
AcDbEntity
  8
0
  6
Continuous
 62
     7
370
    25
100
AcDbSpline
210
0.0
220
0.0
230
1.0
 70
     8
 71
     3
 72
    20
 73
    16
 74
     0
 42
0.00000001
 43
0.00000001
 40
0.0
 40
0.0
 40
0.0
 40
0.0
 40
0.1238994817808226
 40
0.2498468348127874
 40
0.3327161568940996
 40
0.4158493426865206
 40
0.5003138827337013
 40
0.5610643330988697
 40
0.6244975982562703
 40
0.6852560657042478
 40
0.7501883124678863
 40
0.8087829264722679
 40
0.874487743355592
 40
0.9261458689734473
 40
1.0
 40
1.0
 40
1.0
 40
1.0
 10
109.3024964271869
 20
473.1661020000494
 30
0.0
 10
109.4684810486306
 20
473.1599534607428
 30
0.0
 10
109.8031937665472
 20
473.1475547560639
 30
0.0
 10
111.2258024580061
 20
472.8026927802998
 30
0.0
 10
112.9307660420596
 20
472.3371405833549
 30
0.0
 10
114.7193816117147
 20
471.8203364992816
 30
0.0
 10
116.6084214144658
 20
471.2530601423243
 30
0.0
 10
118.5128268388879
 20
470.6664759303093
 30
0.0
 10
120.3213114159843
 20
470.1000165885917
 30
0.0
 10
122.276737866822
 20
469.4781473547222
 30
0.0
 10
124.2718367357148
 20
468.8366652242461
 30
0.0
 10
126.3931545778032
 20
468.1473325276909
 30
0.0
 10
128.4212567120224
 20
467.4843851434301
 30
0.0
 10
130.6633669424378
 20
466.7461713776732
 30
0.0
 10
132.1574811860743
 20
466.2531293255824
 30
0.0
 10
133.036650376943
 20
465.9630127004
 30
0.0
  0
SPLINE
  5
10D
330
1F
100
AcDbEntity
  8
0
  6
Continuous
 62
     7
370
    25
100
AcDbSpline
210
0.0
220
0.0
230
1.0
 70
     8
 71
     3
 72
    14
 73
    10
 74
     0
 42
0.00000001
 43
0.00000001
 40
0.0
 40
0.0
 40
0.0
 40
0.0
 40
0.1285392505246247
 40
0.2736230611079027
 40
0.4187183190146121
 40
0.5638047450221955
 40
0.7092001461728286
 40
0.8546029035485716
 40
1.0
 40
1.0
 40
1.0
 40
1.0
 10
133.036650376943
 20
465.9630127004001
 30
0.0
 10
133.0379836489378
 20
452.147515289749
 30
0.0
 10
133.0408218011987
 20
422.7382984411845
 30
0.0
 10
133.0420262416728
 20
377.7189205801211
 30
0.0
 10
133.0452705215492
 20
330.9254853658167
 30
0.0
 10
133.0303365792906
 20
284.1141281230848
 30
0.0
 10
132.976428064292
 20
237.2964625363493
 30
0.0
 10
132.8823355058766
 20
190.4747578936904
 30
0.0
 10
132.7854647997825
 20
159.2939363137415
 30
0.0
 10
132.7370303896138
 20
143.7038290181958
 30
0.0
  0
SPLINE
  5
10E
330
1F
100
AcDbEntity
  8
0
  6
Continuous
 62
     7
370
    25
100
AcDbSpline
210
0.0
220
0.0
230
1.0
 70
     8
 71
     3
 72
    17
 73
    13
 74
     0
 42
0.00000001
 43
0.00000001
 40
0.0
 40
0.0
 40
0.0
 40
0.0
 40
0.1266199350159332
 40
0.2500906723957796
 40
0.3749952093690982
 40
0.5003472215493808
 40
0.6244895802648521
 40
0.7500856353975306
 40
0.8087095798011517
 40
0.8744284842896031
 40
0.9260769690972782
 40
1.0
 40
1.0
 40
1.0
 40
1.0
 10
108.8788730606811
 20
138.1224955129763
 30
0.0
 10
109.0961762087758
 20
138.0632642950611
 30
0.0
 10
109.525377901336
 20
137.9462750143974
 30
0.0
 10
111.2168854533769
 20
138.1165933884647
 30
0.0
 10
113.5774725980526
 20
138.5298803804458
 30
0.0
 10
116.6021557187733
 20
139.1972571081359
 30
0.0
 10
120.153134961526
 20
140.0841151845922
 30
0.0
 10
123.4080929885048
 20
140.9668612654674
 30
0.0
 10
126.1783777443699
 20
141.7528320270693
 30
0.0
 10
128.18209089597
 20
142.3351777255874
 30
0.0
 10
130.3957133718475
 20
142.9925864696759
 30
0.0
 10
131.8694515349745
 20
143.4402769272479
 30
0.0
 10
132.7370303896139
 20
143.7038290182039
 30
0.0
  0
SPLINE
  5
10F
330
1F
100
AcDbEntity
  8
0
  6
Continuous
 62
     7
370
    25
100
AcDbSpline
210
0.0
220
0.0
230
1.0
 70
     8
 71
     3
 72
    20
 73
    16
 74
     0
 42
0.00000001
 43
0.00000001
 40
0.0
 40
0.0
 40
0.0
 40
0.0
 40
0.1265688428652104
 40
0.2499873607253519
 40
0.3327598806448895
 40
0.41588003650202
 40
0.5003308538271429
 40
0.5611043053137739
 40
0.6245378460982876
 40
0.6852967388849938
 40
0.7501963666869376
 40
0.8087939128917631
 40
0.8744838204705032
 40
0.926173393658778
 40
0.9999999999999999
 40
0.9999999999999999
 40
0.9999999999999999
 40
0.9999999999999999
 10
126.3801762692469
 20
120.6269415518496
 30
0.0
 10
126.3718426355576
 20
120.7928300372261
 30
0.0
 10
126.3553827940667
 20
121.120478008838
 30
0.0
 10
126.6343986160135
 20
122.4974418300852
 30
0.0
 10
127.022816815638
 20
124.1258263182253
 30
0.0
 10
127.4677713014835
 20
125.8508785320029
 30
0.0
 10
127.9635359086957
 20
127.6769745354923
 30
0.0
 10
128.4813479765126
 20
129.5216968953933
 30
0.0
 10
128.9849634081132
 20
131.2767698131599
 30
0.0
 10
129.5411380434188
 20
133.177500311936
 30
0.0
 10
130.1181364097757
 20
135.1206296568
 30
0.0
 10
130.7413705568144
 20
137.1907090976432
 30
0.0
 10
131.344005914006
 20
139.1746596703208
 30
0.0
 10
132.0177800178395
 20
141.3717273456371
 30
0.0
 10
132.4706559942436
 20
142.8401350983195
 30
0.0
 10
132.7370303896141
 20
143.7038290181957
 30
0.0
  0
SPLINE
  5
110
330
1F
100
AcDbEntity
  8
0
  6
Continuous
 62
     7
370
    25
100
AcDbSpline
210
0.0
220
0.0
230
1.0
 70
     8
 71
     3
 72
    13
 73
     9
 74
     0
 42
0.00000001
 43
0.00000001
 40
0.0
 40
0.0
 40
0.0
 40
0.0
 40
0.1532153516038963
 40
0.3335117285126598
 40
0.5138077669700616
 40
0.6942879125043369
 40
0.8747684420969073
 40
1.0
 40
1.0
 40
1.0
 40
1.0
 10
132.7370303896138
 20
143.7038290181958
 30
0.0
 10
146.8915055234064
 20
143.7241173804945
 30
0.0
 10
177.7022788476415
 20
143.7682801011886
 30
0.0
 10
225.1975676930971
 20
143.8008626319444
 30
0.0
 10
275.2230420134925
 20
143.8110517747109
 30
0.0
 10
325.2645711732239
 20
143.7971594433535
 30
0.0
 10
370.2043736055124
 20
143.7621335022023
 30
0.0
 10
398.4460718856553
 20
143.7207722112164
 30
0.0
 10
410.0149696103865
 20
143.7038290181958
 30
0.0
  0
SPLINE
  5
111
330
1F
100
AcDbEntity
  8
0
  6
Continuous
 62
     7
370
    25
100
AcDbSpline
210
0.0
220
0.0
230
1.0
 70
     8
 71
     3
 72
    17
 73
    13
 74
     0
 42
0.00000001
 43
0.00000001
 40
0.0
 40
0.0
 40
0.0
 40
0.0
 40
0.1266242002821653
 40
0.2500966973960826
 40
0.375001139174684
 40
0.5003518892706036
 40
0.6244925771319281
 40
0.7500871058679403
 40
0.808709113510102
 40
0.8744289188915411
 40
0.9261485744346063
 40
1.0
 40
1.0
 40
1.0
 40
1.0
 10
416.3718237243667
 20
120.6269415518649
 30
0.0
 10
416.380088931574
 20
120.7930628107552
 30
0.0
 10
416.3964136232303
 20
121.1211705352122
 30
0.0
 10
416.0831143076711
 20
122.6688553766805
 30
0.0
 10
415.5393350010787
 20
124.8980751428588
 30
0.0
 10
414.7576807652763
 20
127.8076150251931
 30
0.0
 10
413.7759877773372
 20
131.2629643539737
 30
0.0
 10
412.8334257185103
 20
134.4575145567919
 30
0.0
 10
412.0106762314248
 20
137.1906095159775
 30
0.0
 10
411.4079630700485
 20
139.1747485602962
 30
0.0
 10
410.7341978540275
 20
141.3718087651947
 30
0.0
 10
410.2813188403992
 20
142.8402202761134
 30
0.0
 10
410.0149696103865
 20
143.7038290181958
 30
0.0
  0
SPLINE
  5
112
330
1F
100
AcDbEntity
  8
0
  6
Continuous
 62
     7
370
    25
100
AcDbSpline
210
0.0
220
0.0
230
1.0
 70
     8
 71
     3
 72
    19
 73
    15
 74
     0
 42
0.00000001
 43
0.00000001
 40
0.0
 40
0.0
 40
0.0
 40
0.0
 40
0.0609285033155397
 40
0.1075851967377193
 40
0.152697377683947
 40
0.2035645507327382
 40
0.2498915470303138
 40
0.3355022901934809
 40
0.4181341588157981
 40
0.4997559269722095
 40
0.6250820973863693
 40
0.7499608846711026
 40
0.8734061679748587
 40
1.0
 40
1.0
 40
1.0
 40
1.0
 10
410.0149696103866
 20
143.7038290181958
 30
0.0
 10
410.7302165454976
 20
143.4863181188488
 30
0.0
 10
411.9931719447376
 20
143.102245777901
 30
0.0
 10
413.7668558835302
 20
142.5731400403487
 30
0.0
 10
415.4046403662608
 20
142.0917716435079
 30
0.0
 10
417.012044076028
 20
141.6281369632332
 30
0.0
 10
419.0321013078334
 20
141.056564852779
 30
0.0
 10
421.3206164714271
 20
140.4296392527982
 30
0.0
 10
423.8215674048676
 20
139.7770954464201
 30
0.0
 10
426.4924231512305
 20
139.1217104012116
 30
0.0
 10
429.1747776162708
 20
138.5298124112797
 30
0.0
 10
431.5350488366063
 20
138.1166113232243
 30
0.0
 10
433.2266389347905
 20
137.9462704756803
 30
0.0
 10
433.6558294499912
 20
138.0632627736922
 30
0.0
 10
433.8731269392928
 20
138.12249551935
 30
0.0
  0
SPLINE
  5
113
330
1F
100
AcDbEntity
  8
0
  6
Continuous
 62
     7
370
    25
100
AcDbSpline
210
0.0
220
0.0
230
1.0
 70
     8
 71
     3
 72
    15
 73
    11
 74
     0
 42
0.00000001
 43
0.00000001
 40
0.0
 40
0.0
 40
0.0
 40
0.0
 40
0.1297941873541713
 40
0.2595881683953805
 40
0.3894568310387371
 40
0.5193249251085723
 40
0.6394460709200769
 40
0.7595667430326071
 40
0.8797831318606987
 40
1.0
 40
1.0
 40
1.0
 40
1.0
 10
410.0149696103865
 20
143.7038290181957
 30
0.0
 10
409.9712401433592
 20
157.6205919726063
 30
0.0
 10
409.8837812788144
 20
185.4540957601862
 30
0.0
 10
409.7930387217326
 20
227.2533807003163
 30
0.0
 10
409.7356087590356
 20
269.0848554539519
 30
0.0
 10
409.7117870040109
 20
309.9000761819947
 30
0.0
 10
409.7105639581843
 20
349.6828534440325
 30
0.0
 10
409.7147782721546
 20
388.435928824576
 30
0.0
 10
409.7096508487305
 20
427.2002465328103
 30
0.0
 10
409.7134500290904
 20
453.0420734723736
 30
0.0
 10
409.7153496230573
 20
465.9630127004
 30
0.0
  0
SPLINE
  5
114
330
1F
100
AcDbEntity
  8
0
  6
Continuous
 62
     7
370
    25
100
AcDbSpline
210
0.0
220
0.0
230
1.0
 70
     8
 71
     3
 72
    19
 73
    15
 74
     0
 42
0.00000001
 43
0.00000001
 40
0.0
 40
0.0
 40
0.0
 40
0.0
 40
0.0608916764531274
 40
0.1075592781701915
 40
0.1527038169053528
 40
0.2035793155923095
 40
0.249901434402063
 40
0.3355488354048991
 40
0.4181785294456968
 40
0.4997722410757719
 40
0.6250900273305254
 40
0.7500927226125496
 40
0.8760709826323863
 40
1.0
 40
1.0
 40
1.0
 40
1.0
 10
409.7153496230574
 20
465.9630127004
 30
0.0
 10
410.4400906030978
 20
466.2022206046676
 30
0.0
 10
411.720275699225
 20
466.624758314488
 30
0.0
 10
413.5171265408112
 20
467.2166302505194
 30
0.0
 10
415.1758119576101
 20
467.7608416570509
 30
0.0
 10
416.8022497370065
 20
468.2915523430564
 30
0.0
 10
418.844201396352
 20
468.9544040439918
 30
0.0
 10
421.1538464614739
 20
469.6959131855027
 30
0.0
 10
423.6707785231129
 20
470.4905747435074
 30
0.0
 10
426.3482953632445
 20
471.3177573575882
 30
0.0
 10
429.019984698921
 20
472.1136872570243
 30
0.0
 10
431.3490068981963
 20
472.7598923673372
 30
0.0
 10
432.9481116064702
 20
473.1473467758055
 30
0.0
 10
433.2832890704419
 20
473.1598845347861
 30
0.0
 10
433.4495035728286
 20
473.16610200939
 30
0.0
  0
LINE
  5
115
330
1F
100
AcDbEntity
  8
0
  6
Continuous
 62
     7
370
    25
100
AcDbLine
 10
433.8731269393
 20
138.1224955193
 30
0.0
 11
433.9299459914
 21
138.168
 31
0.0
  0
SPLINE
  5
116
330
1F
100
AcDbEntity
  8
0
  6
Continuous
 62
     7
370
    25
100
AcDbSpline
210
0.0
220
0.0
230
1.0
 70
     8
 71
     3
 72
    15
 73
    11
 74
     0
 42
0.00000001
 43
0.00000001
 40
0.0
 40
0.0
 40
0.0
 40
0.0
 40
0.1250485637390564
 40
0.250056040433159
 40
0.3750352282041676
 40
0.5000000004149724
 40
0.6249647726227976
 40
0.7499439603618203
 40
0.8749514375442667
 40
1.0
 40
1.0
 40
1.0
 40
1.0
 10
126.3801762692464
 20
120.6269415518498
 30
0.0
 10
125.2392601704848
 20
120.696618670378
 30
0.0
 10
122.9578028422894
 20
120.8359500137132
 30
0.0
 10
119.6660846836431
 20
121.8833449209998
 30
0.0
 10
116.6303032063937
 20
123.5030907486461
 30
0.0
 10
113.9671917565702
 20
125.6944980654244
 30
0.0
 10
111.7738395600529
 20
128.3579590337008
 30
0.0
 10
110.149880549381
 20
131.3964229583243
 30
0.0
 10
109.0963061533991
 20
134.6928931621035
 30
0.0
 10
108.9513586967488
 20
136.9791695143684
 30
0.0
 10
108.8788730606811
 20
138.1224955129763
 30
0.0
  0
SPLINE
  5
117
330
1F
100
AcDbEntity
  8
0
  6
Continuous
 62
     7
370
    25
100
AcDbSpline
210
0.0
220
0.0
230
1.0
 70
     8
 71
     3
 72
    15
 73
    11
 74
     0
 42
0.00000001
 43
0.00000001
 40
0.0
 40
0.0
 40
0.0
 40
0.0
 40
0.1250485647648296
 40
0.2500560396443431
 40
0.3750352273637311
 40
0.4999999995579364
 40
0.6249647717823651
 40
0.7499439595730052
 40
0.8749514385700569
 40
1.0
 40
1.0
 40
1.0
 40
1.0
 10
416.3718237243694
 20
120.626941551865
 30
0.0
 10
417.5127398329578
 20
120.6966186714375
 30
0.0
 10
419.7941971548918
 20
120.8359500152786
 30
0.0
 10
423.0859153064309
 20
121.8833449207829
 30
0.0
 10
426.1216967716639
 20
123.5030907369693
 30
0.0
 10
428.7848082249607
 20
125.694498050693
 30
0.0
 10
430.9781604261113
 20
128.3579590174159
 30
0.0
 10
432.6021194494278
 20
131.396422956261
 30
0.0
 10
433.6556938479732
 20
134.6928931695545
 30
0.0
 10
433.8006413042401
 20
136.9791695297579
 30
0.0
 10
433.8731269392928
 20
138.12249551935
 30
0.0
  0
LINE
  5
118
330
1F
100
AcDbEntity
  8
0
  6
Continuous
 62
     7
370
    25
100
AcDbLine
 10
126.3568041638
 20
490.2163631587
 30
0.0
 11
126.376
 21
490.2504475674
 31
0.0
  0
LINE
  5
119
330
1F
100
AcDbEntity
  8
0
  6
Continuous
 62
     7
370
    25
100
AcDbLine
 10
416.3951958455
 20
490.2163631587
 30
0.0
 11
416.376
 21
490.2504475674
 31
0.0
  0
SPLINE
  5
11A
330
1F
100
AcDbEntity
  8
0
  6
Continuous
 62
     7
370
    25
100
AcDbSpline
210
0.0
220
0.0
230
1.0
 70
     8
 71
     3
 72
    19
 73
    15
 74
     0
 42
0.00000001
 43
0.00000001
 40
0.0
 40
0.0
 40
0.0
 40
0.0
 40
0.0571951907011247
 40
0.1012386229203415
 40
0.1527044771278952
 40
0.2035799468192261
 40
0.2499049111694466
 40
0.3355521358503255
 40
0.4181835141861062
 40
0.4997809440829024
 40
0.625100831480302
 40
0.7501036376053272
 40
0.8760744652838689
 40
1.0
 40
1.0
 40
1.0
 40
1.0
 10
409.7153496230574
 20
465.9630127004
 30
0.0
 10
409.938589801286
 20
466.6450858734343
 30
0.0
 10
410.3337371545391
 20
467.8523927802291
 30
0.0
 10
410.9182935410008
 20
469.6584698000858
 30
0.0
 10
411.4673920505329
 20
471.3715780404133
 30
0.0
 10
412.0089206368222
 20
473.0824544524406
 30
0.0
 10
412.6529730365602
 20
475.142601931568
 30
0.0
 10
413.367611727195
 20
477.478490771449
 30
0.0
 10
414.1242077927938
 20
480.0329074938524
 30
0.0
 10
414.9001195146388
 20
482.7612137415475
 30
0.0
 10
415.6276394905191
 20
485.5010164106573
 30
0.0
 10
416.1854365757203
 20
487.9184287565919
 30
0.0
 10
416.4768981627976
 20
489.6138890010268
 30
0.0
 10
416.4222809452169
 20
490.0166372124121
 30
0.0
 10
416.3951958455038
 20
490.2163631586948
 30
0.0
  0
SPLINE
  5
11B
330
1F
100
AcDbEntity
  8
0
  6
Continuous
 62
     7
370
    25
100
AcDbSpline
210
0.0
220
0.0
230
1.0
 70
     8
 71
     3
 72
    14
 73
    10
 74
     0
 42
0.00000001
 43
0.00000001
 40
0.0
 40
0.0
 40
0.0
 40
0.0
 40
0.214532213421905
 40
0.3218404806755492
 40
0.4291479606400775
 40
0.5717931378587126
 40
0.7144401314222913
 40
0.8572195843739369
 40
1.0
 40
1.0
 40
1.0
 40
1.0
 10
409.7153496230573
 20
465.9630127004
 30
0.0
 10
389.9403474259365
 20
465.9427092111981
 30
0.0
 10
360.2739578848704
 20
465.9122499872897
 30
0.0
 10
320.6896255031506
 20
465.946877568765
 30
0.0
 10
287.7289367425391
 20
465.9886718488954
 30
0.0
 10
251.5015377199075
 20
465.9813505597754
 30
0.0
 10
212.0086483744076
 20
465.9325841509075
 30
0.0
 10
172.5166402913346
 20
465.918582871612
 30
0.0
 10
146.1966765915401
 20
465.948202724186
 30
0.0
 10
133.036650376943
 20
465.9630127004
 30
0.0
  0
SPLINE
  5
11C
330
1F
100
AcDbEntity
  8
0
  6
Continuous
 62
     7
370
    25
100
AcDbSpline
210
0.0
220
0.0
230
1.0
 70
     8
 71
     3
 72
    19
 73
    15
 74
     0
 42
0.00000001
 43
0.00000001
 40
0.0
 40
0.0
 40
0.0
 40
0.0
 40
0.0572170919384312
 40
0.1012397191517079
 40
0.1527050890721195
 40
0.2035808683506698
 40
0.2499049067935504
 40
0.3355531512428716
 40
0.4181845737194115
 40
0.4997809419083347
 40
0.6251008305048602
 40
0.7501036373913962
 40
0.8760750143916407
 40
1.0
 40
1.0
 40
1.0
 40
1.0
 10
133.036650376943
 20
465.9630127004
 30
0.0
 10
132.8133254409092
 20
466.6453472909661
 30
0.0
 10
132.4181750926888
 20
467.8526676907995
 30
0.0
 10
131.83361734459
 20
469.6587462210248
 30
0.0
 10
131.2845985747507
 20
471.3716089027728
 30
0.0
 10
130.7430736620012
 20
473.0824719328253
 30
0.0
 10
130.099020622928
 20
475.1426235704631
 30
0.0
 10
129.3843810401542
 20
477.4785131173626
 30
0.0
 10
128.6277870600451
 20
480.0329278015932
 30
0.0
 10
127.8518781076379
 20
482.7612224684024
 30
0.0
 10
127.1243609056768
 20
485.5010164495043
 30
0.0
 10
126.5665621454437
 20
487.9184322818147
 30
0.0
 10
126.2751038990795
 20
489.6138909435789
 30
0.0
 10
126.3297198247983
 20
490.0166384480802
 30
0.0
 10
126.356804163834
 20
490.2163631586687
 30
0.0
  0
SPLINE
  5
11D
330
1F
100
AcDbEntity
  8
0
  6
Continuous
 62
     7
370
    25
100
AcDbSpline
210
0.0
220
0.0
230
1.0
 70
     8
 71
     3
 72
    15
 73
    11
 74
     0
 42
0.00000001
 43
0.00000001
 40
0.0
 40
0.0
 40
0.0
 40
0.0
 40
0.1250258700962936
 40
0.2500298668122478
 40
0.3750187806357312
 40
0.4999999995599277
 40
0.6249812185054345
 40
0.7499701323940455
 40
0.8749741324286379
 40
1.0
 40
1.0
 40
1.0
 40
1.0
 10
433.4495035728286
 20
473.1661020093951
 30
0.0
 10
433.3821916742491
 20
474.2788650785332
 30
0.0
 10
433.247579653363
 20
476.5041965379812
 30
0.0
 10
432.227536371004
 20
479.7148384902201
 30
0.0
 10
430.6487320993072
 20
482.6755121913801
 30
0.0
 10
428.5118820946914
 20
485.2718315987109
 30
0.0
 10
425.9144278630468
 20
487.4086930971646
 30
0.0
 10
422.9514929549655
 20
488.9886809235807
 30
0.0
 10
419.737618769719
 20
490.0109518205801
 30
0.0
 10
417.5094017799707
 20
490.1478887205032
 30
0.0
 10
416.3951958455038
 20
490.2163631586948
 30
0.0
  0
SPLINE
  5
11E
330
1F
100
AcDbEntity
  8
0
  6
Continuous
 62
     7
370
    25
100
AcDbSpline
210
0.0
220
0.0
230
1.0
 70
     8
 71
     3
 72
    15
 73
    11
 74
     0
 42
0.00000001
 43
0.00000001
 40
0.0
 40
0.0
 40
0.0
 40
0.0
 40
0.1250258690640275
 40
0.2500298676061385
 40
0.3750187814816455
 40
0.5000000004225775
 40
0.6249812193513486
 40
0.749970133187943
 40
0.874974131396379
 40
1.0
 40
1.0
 40
1.0
 40
1.0
 10
109.3024964271869
 20
473.1661020000494
 30
0.0
 10
109.3698083248079
 20
474.2788650605557
 30
0.0
 10
109.5044203453162
 20
476.5041965281812
 30
0.0
 10
110.524463630354
 20
479.7148384903287
 30
0.0
 10
112.1032679147376
 20
482.6755122059773
 30
0.0
 10
114.2401179243047
 20
485.2718316122597
 30
0.0
 10
116.8375721598444
 20
487.408693108106
 30
0.0
 10
119.8005070566709
 20
488.9886809235643
 30
0.0
 10
123.0143812355115
 20
490.0109518189947
 30
0.0
 10
125.2425982195068
 20
490.1478887194355
 30
0.0
 10
126.356804163834
 20
490.2163631586688
 30
0.0
  0
CIRCLE
  5
11F
330
1F
100
AcDbEntity
  8
0
  6
Continuous
 62
     7
370
    25
100
AcDbCircle
 10
271.376
 20
388.168
 30
0.0
 40
70.00000000000006
  0
CIRCLE
  5
120
330
1F
100
AcDbEntity
  8
0
  6
Continuous
 62
     7
370
    25
100
AcDbCircle
 10
271.376
 20
388.168
 30
0.0
 40
58.94765075494627
  0
CIRCLE
  5
121
330
1F
100
AcDbEntity
  8
0
  6
Continuous
 62
     7
370
    25
100
AcDbCircle
 10
271.376
 20
388.168
 30
0.0
 40
57.5
  0
CIRCLE
  5
122
330
1F
100
AcDbEntity
  8
0
  6
Continuous
 62
     7
370
    25
100
AcDbCircle
 10
271.376
 20
388.168
 30
0.0
 40
56.58715574274765
  0
CIRCLE
  5
123
330
1F
100
AcDbEntity
  8
0
  6
Continuous
 62
     7
370
    25
100
AcDbCircle
 10
271.376
 20
388.168
 30
0.0
 40
45.00000000000006
  0
ARC
  5
124
330
1F
100
AcDbEntity
  8
0
  6
Continuous
 62
     7
370
    25
100
AcDbCircle
 10
75.376
 20
587.168
 30
0.0
 40
10.0
100
AcDbArc
 50
90.0
 51
180.0
  0
LINE
  5
125
330
1F
100
AcDbEntity
  8
0
  6
Continuous
 62
     7
370
    25
100
AcDbLine
 10
873.376
 20
597.168
 30
0.0
 11
75.376
 21
597.168
 31
0.0
  0
ARC
  5
126
330
1F
100
AcDbEntity
  8
0
  6
Continuous
 62
     7
370
    25
100
AcDbCircle
 10
873.376
 20
587.168
 30
0.0
 40
10.0
100
AcDbArc
 50
0.0
 51
90.0
  0
LINE
  5
127
330
1F
100
AcDbEntity
  8
0
  6
Continuous
 62
     7
370
    25
100
AcDbLine
 10
883.376
 20
87.168
 30
0.0
 11
883.376
 21
587.168
 31
0.0
  0
ARC
  5
128
330
1F
100
AcDbEntity
  8
0
  6
Continuous
 62
     7
370
    25
100
AcDbCircle
 10
873.376
 20
87.168
 30
0.0
 40
10.00000000000001
100
AcDbArc
 50
270.0
 51
0.0
  0
LINE
  5
129
330
1F
100
AcDbEntity
  8
0
  6
Continuous
 62
     7
370
    25
100
AcDbLine
 10
75.376
 20
77.168
 30
0.0
 11
873.376
 21
77.168
 31
0.0
  0
ARC
  5
12A
330
1F
100
AcDbEntity
  8
0
  6
Continuous
 62
     7
370
    25
100
AcDbCircle
 10
75.376
 20
87.168
 30
0.0
 40
10.00000000000001
100
AcDbArc
 50
180.0
 51
270.0
  0
LINE
  5
12B
330
1F
100
AcDbEntity
  8
0
  6
Continuous
 62
     7
370
    25
100
AcDbLine
 10
65.376
 20
587.168
 30
0.0
 11
65.376
 21
87.168
 31
0.0
  0
LINE
  5
12C
330
1F
100
AcDbEntity
  8
0
  6
Continuous
 62
     7
370
    25
100
AcDbLine
 10
865.376
 20
337.168
 30
0.0
 11
865.376
 21
556.168
 31
0.0
  0
ARC
  5
12D
330
1F
100
AcDbEntity
  8
0
  6
Continuous
 62
     7
370
    25
100
AcDbCircle
 10
842.376
 20
556.168
 30
0.0
 40
23.00000000000011
100
AcDbArc
 50
0.0
 51
90.0
  0
LINE
  5
12E
330
1F
100
AcDbEntity
  8
0
  6
Continuous
 62
     7
370
    25
100
AcDbLine
 10
842.376
 20
579.168
 30
0.0
 11
106.376
 21
579.168
 31
0.0
  0
ARC
  5
12F
330
1F
100
AcDbEntity
  8
0
  6
Continuous
 62
     7
370
    25
100
AcDbCircle
 10
106.376
 20
556.168
 30
0.0
 40
23.00000000000001
100
AcDbArc
 50
90.0
 51
180.0
  0
LINE
  5
130
330
1F
100
AcDbEntity
  8
0
  6
Continuous
 62
     7
370
    25
100
AcDbLine
 10
83.376
 20
556.168
 30
0.0
 11
83.376
 21
118.168
 31
0.0
  0
ARC
  5
131
330
1F
100
AcDbEntity
  8
0
  6
Continuous
 62
     7
370
    25
100
AcDbCircle
 10
106.376
 20
118.168
 30
0.0
 40
23.00000000000003
100
AcDbArc
 50
180.0
 51
270.0
  0
LINE
  5
132
330
1F
100
AcDbEntity
  8
0
  6
Continuous
 62
     7
370
    25
100
AcDbLine
 10
106.376
 20
95.168
 30
0.0
 11
842.376
 21
95.168
 31
0.0
  0
ARC
  5
133
330
1F
100
AcDbEntity
  8
0
  6
Continuous
 62
     7
370
    25
100
AcDbCircle
 10
842.376
 20
118.168
 30
0.0
 40
23.00000000000011
100
AcDbArc
 50
270.0
 51
0.0
  0
LINE
  5
134
330
1F
100
AcDbEntity
  8
0
  6
Continuous
 62
     7
370
    25
100
AcDbLine
 10
865.376
 20
118.168
 30
0.0
 11
865.376
 21
337.168
 31
0.0
  0
LINE
  5
135
330
1F
100
AcDbEntity
  8
0
  6
Continuous
 62
     7
370
    25
100
AcDbLine
 10
83.376
 20
118.168
 30
0.0
 11
84.1421255893
 21
118.168
 31
0.0
  0
LINE
  5
136
330
1F
100
AcDbEntity
  8
0
  6
Continuous
 62
     7
370
    25
100
AcDbLine
 10
83.376
 20
556.168
 30
0.0
 11
84.1421255893
 21
556.168
 31
0.0
  0
LINE
  5
137
330
1F
100
AcDbEntity
  8
0
  6
Continuous
 62
     7
370
    25
100
AcDbLine
 10
84.1421255893
 20
556.168
 30
0.0
 11
84.1421255893
 21
118.168
 31
0.0
  0
LINE
  5
138
330
1F
100
AcDbEntity
  8
0
  6
Continuous
 62
     7
370
    25
100
AcDbLine
 10
842.376
 20
579.168
 30
0.0
 11
842.376
 21
578.4018744107
 31
0.0
  0
LINE
  5
139
330
1F
100
AcDbEntity
  8
0
  6
Continuous
 62
     7
370
    25
100
AcDbLine
 10
865.376
 20
556.168
 30
0.0
 11
864.6098744107
 21
556.168
 31
0.0
  0
ARC
  5
13A
330
1F
100
AcDbEntity
  8
0
  6
Continuous
 62
     7
370
    25
100
AcDbCircle
 10
842.376
 20
556.168
 30
0.0
 40
22.23387441067962
100
AcDbArc
 50
0.0
 51
90.0
  0
LINE
  5
13B
330
1F
100
AcDbEntity
  8
0
  6
Continuous
 62
     7
370
    25
100
AcDbLine
 10
842.376
 20
95.168
 30
0.0
 11
842.376
 21
95.9341255893
 31
0.0
  0
LINE
  5
13C
330
1F
100
AcDbEntity
  8
0
  6
Continuous
 62
     7
370
    25
100
AcDbLine
 10
106.376
 20
95.168
 30
0.0
 11
106.376
 21
95.9341255893
 31
0.0
  0
LINE
  5
13D
330
1F
100
AcDbEntity
  8
0
  6
Continuous
 62
     7
370
    25
100
AcDbLine
 10
106.376
 20
95.9341255893
 30
0.0
 11
842.376
 21
95.9341255893
 31
0.0
  0
LINE
  5
13E
330
1F
100
AcDbEntity
  8
0
  6
Continuous
 62
     7
370
    25
100
AcDbLine
 10
106.376
 20
579.168
 30
0.0
 11
106.376
 21
578.4018744107
 31
0.0
  0
ARC
  5
13F
330
1F
100
AcDbEntity
  8
0
  6
Continuous
 62
     7
370
    25
100
AcDbCircle
 10
106.376
 20
556.168
 30
0.0
 40
22.23387441067962
100
AcDbArc
 50
90.0
 51
180.0
  0
LINE
  5
140
330
1F
100
AcDbEntity
  8
0
  6
Continuous
 62
     7
370
    25
100
AcDbLine
 10
865.376
 20
337.168
 30
0.0
 11
864.6098744107
 21
337.168
 31
0.0
  0
LINE
  5
141
330
1F
100
AcDbEntity
  8
0
  6
Continuous
 62
     7
370
    25
100
AcDbLine
 10
864.6098744107
 20
337.168
 30
0.0
 11
864.6098744107
 21
556.168
 31
0.0
  0
ARC
  5
142
330
1F
100
AcDbEntity
  8
0
  6
Continuous
 62
     7
370
    25
100
AcDbCircle
 10
106.376
 20
118.168
 30
0.0
 40
22.23387441067959
100
AcDbArc
 50
180.0
 51
270.0
  0
LINE
  5
143
330
1F
100
AcDbEntity
  8
0
  6
Continuous
 62
     7
370
    25
100
AcDbLine
 10
842.376
 20
578.4018744107
 30
0.0
 11
106.376
 21
578.4018744107
 31
0.0
  0
LINE
  5
144
330
1F
100
AcDbEntity
  8
0
  6
Continuous
 62
     7
370
    25
100
AcDbLine
 10
865.376
 20
118.168
 30
0.0
 11
864.6098744107
 21
118.168
 31
0.0
  0
ARC
  5
145
330
1F
100
AcDbEntity
  8
0
  6
Continuous
 62
     7
370
    25
100
AcDbCircle
 10
842.376
 20
118.168
 30
0.0
 40
22.23387441067962
100
AcDbArc
 50
270.0
 51
0.0
  0
LINE
  5
146
330
1F
100
AcDbEntity
  8
0
  6
Continuous
 62
     7
370
    25
100
AcDbLine
 10
864.6098744107
 20
118.168
 30
0.0
 11
864.6098744107
 21
337.168
 31
0.0
  0
LINE
  5
147
330
1F
100
AcDbEntity
  8
0
  6
Continuous
 62
     7
370
    25
100
AcDbLine
 10
106.376
 20
578.4018744107
 30
0.0
 11
106.376
 21
577.4442649831
 31
0.0
  0
LINE
  5
148
330
1F
100
AcDbEntity
  8
0
  6
Continuous
 62
     7
370
    25
100
AcDbLine
 10
842.376
 20
578.4018744107
 30
0.0
 11
842.376
 21
577.4442649831
 31
0.0
  0
LINE
  5
149
330
1F
100
AcDbEntity
  8
0
  6
Continuous
 62
     7
370
    25
100
AcDbLine
 10
842.376
 20
577.4442649831
 30
0.0
 11
106.376
 21
577.4442649831
 31
0.0
  0
LINE
  5
14A
330
1F
100
AcDbEntity
  8
0
  6
Continuous
 62
     7
370
    25
100
AcDbLine
 10
864.6098744107
 20
118.168
 30
0.0
 11
863.6522649831
 21
118.168
 31
0.0
  0
LINE
  5
14B
330
1F
100
AcDbEntity
  8
0
  6
Continuous
 62
     7
370
    25
100
AcDbLine
 10
842.376
 20
95.9341255893
 30
0.0
 11
842.376
 21
96.8917350169
 31
0.0
  0
ARC
  5
14C
330
1F
100
AcDbEntity
  8
0
  6
Continuous
 62
     7
370
    25
100
AcDbCircle
 10
842.376
 20
118.168
 30
0.0
 40
21.27626498307336
100
AcDbArc
 50
270.0
 51
0.0
  0
LINE
  5
14D
330
1F
100
AcDbEntity
  8
0
  6
Continuous
 62
     7
370
    25
100
AcDbLine
 10
863.6522649831
 20
118.168
 30
0.0
 11
863.6522649831
 21
337.168
 31
0.0
  0
LINE
  5
14E
330
1F
100
AcDbEntity
  8
0
  6
Continuous
 62
     7
370
    25
100
AcDbLine
 10
864.6098744107
 20
337.168
 30
0.0
 11
863.6522649831
 21
337.168
 31
0.0
  0
LINE
  5
14F
330
1F
100
AcDbEntity
  8
0
  6
Continuous
 62
     7
370
    25
100
AcDbLine
 10
864.6098744107
 20
556.168
 30
0.0
 11
863.6522649831
 21
556.168
 31
0.0
  0
LINE
  5
150
330
1F
100
AcDbEntity
  8
0
  6
Continuous
 62
     7
370
    25
100
AcDbLine
 10
863.6522649831
 20
337.168
 30
0.0
 11
863.6522649831
 21
556.168
 31
0.0
  0
ARC
  5
151
330
1F
100
AcDbEntity
  8
0
  6
Continuous
 62
     7
370
    25
100
AcDbCircle
 10
842.376
 20
556.168
 30
0.0
 40
21.27626498307336
100
AcDbArc
 50
0.0
 51
90.0
  0
LINE
  5
152
330
1F
100
AcDbEntity
  8
0
  6
Continuous
 62
     7
370
    25
100
AcDbLine
 10
106.376
 20
95.9341255893
 30
0.0
 11
106.376
 21
96.8917350169
 31
0.0
  0
LINE
  5
153
330
1F
100
AcDbEntity
  8
0
  6
Continuous
 62
     7
370
    25
100
AcDbLine
 10
106.376
 20
96.8917350169
 30
0.0
 11
842.376
 21
96.8917350169
 31
0.0
  0
LINE
  5
154
330
1F
100
AcDbEntity
  8
0
  6
Continuous
 62
     7
370
    25
100
AcDbLine
 10
84.1421255893
 20
556.168
 30
0.0
 11
85.0997350169
 21
556.168
 31
0.0
  0
ARC
  5
155
330
1F
100
AcDbEntity
  8
0
  6
Continuous
 62
     7
370
    25
100
AcDbCircle
 10
106.376
 20
556.168
 30
0.0
 40
21.27626498307336
100
AcDbArc
 50
90.0
 51
180.0
  0
LINE
  5
156
330
1F
100
AcDbEntity
  8
0
  6
Continuous
 62
     7
370
    25
100
AcDbLine
 10
84.1421255893
 20
118.168
 30
0.0
 11
85.0997350169
 21
118.168
 31
0.0
  0
ARC
  5
157
330
1F
100
AcDbEntity
  8
0
  6
Continuous
 62
     7
370
    25
100
AcDbCircle
 10
106.376
 20
118.168
 30
0.0
 40
21.27626498307335
100
AcDbArc
 50
180.0
 51
270.0
  0
LINE
  5
158
330
1F
100
AcDbEntity
  8
0
  6
Continuous
 62
     7
370
    25
100
AcDbLine
 10
85.0997350169
 20
556.168
 30
0.0
 11
85.0997350169
 21
118.168
 31
0.0
  0
LINE
  5
159
330
1F
100
AcDbEntity
  8
0
  6
Continuous
 62
     7
370
    25
100
AcDbLine
 10
106.376
 20
577.4442649831
 30
0.0
 11
106.376
 21
572.0813858578
 31
0.0
  0
LINE
  5
15A
330
1F
100
AcDbEntity
  8
0
  6
Continuous
 62
     7
370
    25
100
AcDbLine
 10
842.376
 20
577.4442649831
 30
0.0
 11
842.376
 21
572.0813858578
 31
0.0
  0
LINE
  5
15B
330
1F
100
AcDbEntity
  8
0
  6
Continuous
 62
     7
370
    25
100
AcDbLine
 10
842.376
 20
572.0813858578
 30
0.0
 11
106.376
 21
572.0813858578
 31
0.0
  0
LINE
  5
15C
330
1F
100
AcDbEntity
  8
0
  6
Continuous
 62
     7
370
    25
100
AcDbLine
 10
85.0997350169
 20
556.168
 30
0.0
 11
90.4626141422
 21
556.168
 31
0.0
  0
ARC
  5
15D
330
1F
100
AcDbEntity
  8
0
  6
Continuous
 62
     7
370
    25
100
AcDbCircle
 10
106.376
 20
556.168
 30
0.0
 40
15.91338585783025
100
AcDbArc
 50
90.0
 51
180.0
  0
LINE
  5
15E
330
1F
100
AcDbEntity
  8
0
  6
Continuous
 62
     7
370
    25
100
AcDbLine
 10
863.6522649831
 20
556.168
 30
0.0
 11
858.2893858578
 21
556.168
 31
0.0
  0
LINE
  5
15F
330
1F
100
AcDbEntity
  8
0
  6
Continuous
 62
     7
370
    25
100
AcDbLine
 10
863.6522649831
 20
337.168
 30
0.0
 11
858.2893858578
 21
337.168
 31
0.0
  0
LINE
  5
160
330
1F
100
AcDbEntity
  8
0
  6
Continuous
 62
     7
370
    25
100
AcDbLine
 10
858.2893858578
 20
337.168
 30
0.0
 11
858.2893858578
 21
556.168
 31
0.0
  0
LINE
  5
161
330
1F
100
AcDbEntity
  8
0
  6
Continuous
 62
     7
370
    25
100
AcDbLine
 10
106.376
 20
96.8917350169
 30
0.0
 11
106.376
 21
102.2546141422
 31
0.0
  0
LINE
  5
162
330
1F
100
AcDbEntity
  8
0
  6
Continuous
 62
     7
370
    25
100
AcDbLine
 10
85.0997350169
 20
118.168
 30
0.0
 11
90.4626141422
 21
118.168
 31
0.0
  0
ARC
  5
163
330
1F
100
AcDbEntity
  8
0
  6
Continuous
 62
     7
370
    25
100
AcDbCircle
 10
106.376
 20
118.168
 30
0.0
 40
15.91338585783032
100
AcDbArc
 50
180.0
 51
270.0
  0
LINE
  5
164
330
1F
100
AcDbEntity
  8
0
  6
Continuous
 62
     7
370
    25
100
AcDbLine
 10
863.6522649831
 20
118.168
 30
0.0
 11
858.2893858578
 21
118.168
 31
0.0
  0
LINE
  5
165
330
1F
100
AcDbEntity
  8
0
  6
Continuous
 62
     7
370
    25
100
AcDbLine
 10
858.2893858578
 20
118.168
 30
0.0
 11
858.2893858578
 21
337.168
 31
0.0
  0
ARC
  5
166
330
1F
100
AcDbEntity
  8
0
  6
Continuous
 62
     7
370
    25
100
AcDbCircle
 10
842.376
 20
556.168
 30
0.0
 40
15.91338585783046
100
AcDbArc
 50
0.0
 51
90.0
  0
LINE
  5
167
330
1F
100
AcDbEntity
  8
0
  6
Continuous
 62
     7
370
    25
100
AcDbLine
 10
842.376
 20
96.8917350169
 30
0.0
 11
842.376
 21
102.2546141422
 31
0.0
  0
LINE
  5
168
330
1F
100
AcDbEntity
  8
0
  6
Continuous
 62
     7
370
    25
100
AcDbLine
 10
106.376
 20
102.2546141422
 30
0.0
 11
842.376
 21
102.2546141422
 31
0.0
  0
ARC
  5
169
330
1F
100
AcDbEntity
  8
0
  6
Continuous
 62
     7
370
    25
100
AcDbCircle
 10
842.376
 20
118.168
 30
0.0
 40
15.91338585783046
100
AcDbArc
 50
270.0
 51
0.0
  0
LINE
  5
16A
330
1F
100
AcDbEntity
  8
0
  6
Continuous
 62
     7
370
    25
100
AcDbLine
 10
90.4626141422
 20
556.168
 30
0.0
 11
90.4626141422
 21
118.168
 31
0.0
  0
LINE
  5
16B
330
1F
100
AcDbEntity
  8
0
  6
Continuous
 62
     7
370
    25
100
AcDbLine
 10
498.876
 20
112.168
 30
0.0
 11
617.876
 21
112.168
 31
0.0
  0
LINE
  5
16C
330
1F
100
AcDbEntity
  8
0
  6
Continuous
 62
     7
370
    25
100
AcDbLine
 10
617.876
 20
107.168
 30
0.0
 11
617.876
 21
112.168
 31
0.0
  0
LINE
  5
16D
330
1F
100
AcDbEntity
  8
0
  6
Continuous
 62
     7
370
    25
100
AcDbLine
 10
617.876
 20
107.168
 30
0.0
 11
498.876
 21
107.168
 31
0.0
  0
LINE
  5
16E
330
1F
100
AcDbEntity
  8
0
  6
Continuous
 62
     7
370
    25
100
AcDbLine
 10
498.876
 20
112.168
 30
0.0
 11
498.876
 21
107.168
 31
0.0
  0
LINE
  5
16F
330
1F
100
AcDbEntity
  8
0
  6
Continuous
 62
     7
370
    25
100
AcDbLine
 10
617.876
 20
499.168
 30
0.0
 11
498.876
 21
499.168
 31
0.0
  0
LINE
  5
170
330
1F
100
AcDbEntity
  8
0
  6
Continuous
 62
     7
370
    25
100
AcDbLine
 10
498.876
 20
499.168
 30
0.0
 11
498.876
 21
504.168
 31
0.0
  0
LINE
  5
171
330
1F
100
AcDbEntity
  8
0
  6
Continuous
 62
     7
370
    25
100
AcDbLine
 10
498.876
 20
504.168
 30
0.0
 11
617.876
 21
504.168
 31
0.0
  0
LINE
  5
172
330
1F
100
AcDbEntity
  8
0
  6
Continuous
 62
     7
370
    25
100
AcDbLine
 10
617.876
 20
504.168
 30
0.0
 11
617.876
 21
499.168
 31
0.0
  0
LINE
  5
173
330
1F
100
AcDbEntity
  8
0
  6
Continuous
 62
     7
370
    25
100
AcDbLine
 10
126.876
 20
504.168
 30
0.0
 11
415.876
 21
504.168
 31
0.0
  0
ARC
  5
174
330
1F
100
AcDbEntity
  8
0
  6
Continuous
 62
     7
370
    25
100
AcDbCircle
 10
126.876
 20
472.668
 30
0.0
 40
31.50000000000017
100
AcDbArc
 50
90.0
 51
180.0
  0
LINE
  5
175
330
1F
100
AcDbEntity
  8
0
  6
Continuous
 62
     7
370
    25
100
AcDbLine
 10
95.376
 20
138.668
 30
0.0
 11
95.376
 21
472.668
 31
0.0
  0
ARC
  5
176
330
1F
100
AcDbEntity
  8
0
  6
Continuous
 62
     7
370
    25
100
AcDbCircle
 10
126.876
 20
138.668
 30
0.0
 40
31.50000000000013
100
AcDbArc
 50
180.0
 51
270.0
  0
LINE
  5
177
330
1F
100
AcDbEntity
  8
0
  6
Continuous
 62
     7
370
    25
100
AcDbLine
 10
415.876
 20
107.168
 30
0.0
 11
126.876
 21
107.168
 31
0.0
  0
ARC
  5
178
330
1F
100
AcDbEntity
  8
0
  6
Continuous
 62
     7
370
    25
100
AcDbCircle
 10
415.876
 20
138.668
 30
0.0
 40
31.50000000000011
100
AcDbArc
 50
270.0
 51
0.0
  0
LINE
  5
179
330
1F
100
AcDbEntity
  8
0
  6
Continuous
 62
     7
370
    25
100
AcDbLine
 10
447.376
 20
472.668
 30
0.0
 11
447.376
 21
138.668
 31
0.0
  0
ARC
  5
17A
330
1F
100
AcDbEntity
  8
0
  6
Continuous
 62
     7
370
    25
100
AcDbCircle
 10
415.876
 20
472.668
 30
0.0
 40
31.50000000000006
100
AcDbArc
 50
0.0
 51
90.0
  0
LINE
  5
17B
330
1F
100
AcDbEntity
  8
0
  6
Continuous
 62
     7
370
    25
100
AcDbLine
 10
649.376
 20
472.668
 30
0.0
 11
649.376
 21
138.668
 31
0.0
  0
ARC
  5
17C
330
1F
100
AcDbEntity
  8
0
  6
Continuous
 62
     7
370
    25
100
AcDbCircle
 10
617.876
 20
472.668
 30
0.0
 40
31.50000000000011
100
AcDbArc
 50
0.0
 51
90.0
  0
ARC
  5
17D
330
1F
100
AcDbEntity
  8
0
  6
Continuous
 62
     7
370
    25
100
AcDbCircle
 10
498.876
 20
472.668
 30
0.0
 40
31.50000000000006
100
AcDbArc
 50
90.0
 51
180.0
  0
LINE
  5
17E
330
1F
100
AcDbEntity
  8
0
  6
Continuous
 62
     7
370
    25
100
AcDbLine
 10
467.376
 20
138.668
 30
0.0
 11
467.376
 21
472.668
 31
0.0
  0
ARC
  5
17F
330
1F
100
AcDbEntity
  8
0
  6
Continuous
 62
     7
370
    25
100
AcDbCircle
 10
498.876
 20
138.668
 30
0.0
 40
31.50000000000018
100
AcDbArc
 50
180.0
 51
270.0
  0
ARC
  5
180
330
1F
100
AcDbEntity
  8
0
  6
Continuous
 62
     7
370
    25
100
AcDbCircle
 10
617.876
 20
138.668
 30
0.0
 40
31.50000000000011
100
AcDbArc
 50
270.0
 51
0.0
  0
CIRCLE
  5
181
330
1F
100
AcDbEntity
  8
0
  6
Continuous
 62
     7
370
    25
100
AcDbCircle
 10
457.376
 20
541.168
 30
0.0
 40
17.50000000000011
  0
ARC
  5
182
330
1F
100
AcDbEntity
  8
0
  6
Continuous
 62
     7
370
    25
100
AcDbCircle
 10
617.876
 20
138.668
 30
0.0
 40
26.5
100
AcDbArc
 50
270.0
 51
0.0
  0
LINE
  5
183
330
1F
100
AcDbEntity
  8
0
  6
Continuous
 62
     7
370
    25
100
AcDbLine
 10
649.376
 20
138.668
 30
0.0
 11
644.376
 21
138.668
 31
0.0
  0
LINE
  5
184
330
1F
100
AcDbEntity
  8
0
  6
Continuous
 62
     7
370
    25
100
AcDbLine
 10
447.376
 20
472.668
 30
0.0
 11
442.376
 21
472.668
 31
0.0
  0
ARC
  5
185
330
1F
100
AcDbEntity
  8
0
  6
Continuous
 62
     7
370
    25
100
AcDbCircle
 10
415.876
 20
472.668
 30
0.0
 40
26.5
100
AcDbArc
 50
0.0
 51
90.0
  0
LINE
  5
186
330
1F
100
AcDbEntity
  8
0
  6
Continuous
 62
     7
370
    25
100
AcDbLine
 10
415.876
 20
504.168
 30
0.0
 11
415.876
 21
499.168
 31
0.0
  0
LINE
  5
187
330
1F
100
AcDbEntity
  8
0
  6
Continuous
 62
     7
370
    25
100
AcDbLine
 10
100.376
 20
472.668
 30
0.0
 11
100.376
 21
138.668
 31
0.0
  0
LINE
  5
188
330
1F
100
AcDbEntity
  8
0
  6
Continuous
 62
     7
370
    25
100
AcDbLine
 10
100.376
 20
138.668
 30
0.0
 11
95.376
 21
138.668
 31
0.0
  0
LINE
  5
189
330
1F
100
AcDbEntity
  8
0
  6
Continuous
 62
     7
370
    25
100
AcDbLine
 10
95.376
 20
472.668
 30
0.0
 11
100.376
 21
472.668
 31
0.0
  0
ARC
  5
18A
330
1F
100
AcDbEntity
  8
0
  6
Continuous
 62
     7
370
    25
100
AcDbCircle
 10
126.876
 20
138.668
 30
0.0
 40
26.50000000000007
100
AcDbArc
 50
180.0
 51
270.0
  0
LINE
  5
18B
330
1F
100
AcDbEntity
  8
0
  6
Continuous
 62
     7
370
    25
100
AcDbLine
 10
126.876
 20
112.168
 30
0.0
 11
126.876
 21
107.168
 31
0.0
  0
ARC
  5
18C
330
1F
100
AcDbEntity
  8
0
  6
Continuous
 62
     7
370
    25
100
AcDbCircle
 10
498.876
 20
472.668
 30
0.0
 40
26.5
100
AcDbArc
 50
90.0
 51
180.0
  0
LINE
  5
18D
330
1F
100
AcDbEntity
  8
0
  6
Continuous
 62
     7
370
    25
100
AcDbLine
 10
472.376
 20
472.668
 30
0.0
 11
467.376
 21
472.668
 31
0.0
  0
LINE
  5
18E
330
1F
100
AcDbEntity
  8
0
  6
Continuous
 62
     7
370
    25
100
AcDbLine
 10
649.376
 20
472.668
 30
0.0
 11
644.376
 21
472.668
 31
0.0
  0
ARC
  5
18F
330
1F
100
AcDbEntity
  8
0
  6
Continuous
 62
     7
370
    25
100
AcDbCircle
 10
617.876
 20
472.668
 30
0.0
 40
26.5
100
AcDbArc
 50
0.0
 51
90.0
  0
LINE
  5
190
330
1F
100
AcDbEntity
  8
0
  6
Continuous
 62
     7
370
    25
100
AcDbLine
 10
472.376
 20
472.668
 30
0.0
 11
472.376
 21
138.668
 31
0.0
  0
LINE
  5
191
330
1F
100
AcDbEntity
  8
0
  6
Continuous
 62
     7
370
    25
100
AcDbLine
 10
472.376
 20
138.668
 30
0.0
 11
467.376
 21
138.668
 31
0.0
  0
LINE
  5
192
330
1F
100
AcDbEntity
  8
0
  6
Continuous
 62
     7
370
    25
100
AcDbLine
 10
644.376
 20
138.668
 30
0.0
 11
644.376
 21
472.668
 31
0.0
  0
ARC
  5
193
330
1F
100
AcDbEntity
  8
0
  6
Continuous
 62
     7
370
    25
100
AcDbCircle
 10
498.876
 20
138.668
 30
0.0
 40
26.50000000000007
100
AcDbArc
 50
180.0
 51
270.0
  0
LINE
  5
194
330
1F
100
AcDbEntity
  8
0
  6
Continuous
 62
     7
370
    25
100
AcDbLine
 10
442.376
 20
138.668
 30
0.0
 11
442.376
 21
472.668
 31
0.0
  0
LINE
  5
195
330
1F
100
AcDbEntity
  8
0
  6
Continuous
 62
     7
370
    25
100
AcDbLine
 10
442.376
 20
138.668
 30
0.0
 11
447.376
 21
138.668
 31
0.0
  0
ARC
  5
196
330
1F
100
AcDbEntity
  8
0
  6
Continuous
 62
     7
370
    25
100
AcDbCircle
 10
415.876
 20
138.668
 30
0.0
 40
26.5
100
AcDbArc
 50
270.0
 51
0.0
  0
LINE
  5
197
330
1F
100
AcDbEntity
  8
0
  6
Continuous
 62
     7
370
    25
100
AcDbLine
 10
415.876
 20
112.168
 30
0.0
 11
415.876
 21
107.168
 31
0.0
  0
LINE
  5
198
330
1F
100
AcDbEntity
  8
0
  6
Continuous
 62
     7
370
    25
100
AcDbLine
 10
126.876
 20
504.168
 30
0.0
 11
126.876
 21
499.168
 31
0.0
  0
ARC
  5
199
330
1F
100
AcDbEntity
  8
0
  6
Continuous
 62
     7
370
    25
100
AcDbCircle
 10
126.876
 20
472.668
 30
0.0
 40
26.50000000000001
100
AcDbArc
 50
90.0
 51
180.0
  0
LINE
  5
19A
330
1F
100
AcDbEntity
  8
0
  6
Continuous
 62
     7
370
    25
100
AcDbLine
 10
126.876
 20
112.168
 30
0.0
 11
415.876
 21
112.168
 31
0.0
  0
LINE
  5
19B
330
1F
100
AcDbEntity
  8
0
  6
Continuous
 62
     7
370
    25
100
AcDbLine
 10
415.876
 20
499.168
 30
0.0
 11
126.876
 21
499.168
 31
0.0
  0
LINE
  5
19C
330
1F
100
AcDbEntity
  8
0
  6
Continuous
 62
     8
370
    25
100
AcDbLine
 10
618.376
 20
113.2424974521
 30
0.0
 11
618.376
 21
112.172717401
 31
0.0
  0
LINE
  5
19D
330
1F
100
AcDbEntity
  8
0
  6
Continuous
 62
     8
370
    25
100
AcDbLine
 10
498.376
 20
113.2424974521
 30
0.0
 11
498.376
 21
112.172717401
 31
0.0
  0
LINE
  5
19E
330
1F
100
AcDbEntity
  8
0
  6
Continuous
 62
     8
370
    25
100
AcDbLine
 10
644.371282599
 20
138.168
 30
0.0
 11
643.3015025479
 21
138.168
 31
0.0
  0
LINE
  5
19F
330
1F
100
AcDbEntity
  8
0
  6
Continuous
 62
     8
370
    25
100
AcDbLine
 10
644.371282599
 20
473.168
 30
0.0
 11
643.3015025479
 21
473.168
 31
0.0
  0
LINE
  5
1A0
330
1F
100
AcDbEntity
  8
0
  6
Continuous
 62
     8
370
    25
100
AcDbLine
 10
618.376
 20
499.163282599
 30
0.0
 11
618.376
 21
498.0935025479
 31
0.0
  0
LINE
  5
1A1
330
1F
100
AcDbEntity
  8
0
  6
Continuous
 62
     8
370
    25
100
AcDbLine
 10
498.376
 20
499.163282599
 30
0.0
 11
498.376
 21
498.0935025479
 31
0.0
  0
LINE
  5
1A2
330
1F
100
AcDbEntity
  8
0
  6
Continuous
 62
     8
370
    25
100
AcDbLine
 10
473.4504974521
 20
138.168
 30
0.0
 11
472.380717401
 21
138.168
 31
0.0
  0
LINE
  5
1A3
330
1F
100
AcDbEntity
  8
0
  6
Continuous
 62
     8
370
    25
100
AcDbLine
 10
473.4504974521
 20
473.168
 30
0.0
 11
472.380717401
 21
473.168
 31
0.0
  0
LINE
  5
1A4
330
1F
100
AcDbEntity
  8
0
  6
Continuous
 62
     8
370
    25
100
AcDbLine
 10
416.376
 20
499.163282599
 30
0.0
 11
416.376
 21
498.0935025479
 31
0.0
  0
LINE
  5
1A5
330
1F
100
AcDbEntity
  8
0
  6
Continuous
 62
     8
370
    25
100
AcDbLine
 10
126.376
 20
499.163282599
 30
0.0
 11
126.376
 21
498.0935025479
 31
0.0
  0
LINE
  5
1A6
330
1F
100
AcDbEntity
  8
0
  6
Continuous
 62
     8
370
    25
100
AcDbLine
 10
126.376
 20
113.2424974521
 30
0.0
 11
126.376
 21
112.172717401
 31
0.0
  0
LINE
  5
1A7
330
1F
100
AcDbEntity
  8
0
  6
Continuous
 62
     8
370
    25
100
AcDbLine
 10
101.4504974521
 20
138.168
 30
0.0
 11
100.380717401
 21
138.168
 31
0.0
  0
LINE
  5
1A8
330
1F
100
AcDbEntity
  8
0
  6
Continuous
 62
     8
370
    25
100
AcDbLine
 10
442.371282599
 20
473.168
 30
0.0
 11
441.3015025479
 21
473.168
 31
0.0
  0
LINE
  5
1A9
330
1F
100
AcDbEntity
  8
0
  6
Continuous
 62
     8
370
    25
100
AcDbLine
 10
101.4504974521
 20
473.168
 30
0.0
 11
100.380717401
 21
473.168
 31
0.0
  0
LINE
  5
1AA
330
1F
100
AcDbEntity
  8
0
  6
Continuous
 62
     8
370
    25
100
AcDbLine
 10
416.376
 20
113.2424974521
 30
0.0
 11
416.376
 21
112.172717401
 31
0.0
  0
LINE
  5
1AB
330
1F
100
AcDbEntity
  8
0
  6
Continuous
 62
     8
370
    25
100
AcDbLine
 10
442.371282599
 20
138.168
 30
0.0
 11
441.3015025479
 21
138.168
 31
0.0
  0
ENDSEC
  0
SECTION
  2
OBJECTS
  0
DICTIONARY
  5
C
330
0
100
AcDbDictionary
281
     1
  3
ACAD_GROUP
350
D
  3
ACAD_LAYOUT
350
1A
  3
ACAD_MLINESTYLE
350
17
  3
ACAD_PLOTSETTINGS
350
19
  3
ACAD_PLOTSTYLENAME
350
E
  3
ACAD_SCALELIST
350
47
  3
DWGPROPS
350
1AC
  0
DICTIONARY
  5
D
102
{ACAD_REACTORS
330
C
102
}
330
C
100
AcDbDictionary
281
     1
  0
DICTIONARY
  5
1A
102
{ACAD_REACTORS
330
C
102
}
330
C
100
AcDbDictionary
281
     1
  3
Layout1
350
1E
  3
Layout2
350
26
  3
Model
350
22
  0
DICTIONARY
  5
17
102
{ACAD_REACTORS
330
C
102
}
330
C
100
AcDbDictionary
281
     1
  3
Standard
350
18
  0
DICTIONARY
  5
19
102
{ACAD_REACTORS
330
C
102
}
330
C
100
AcDbDictionary
281
     1
  0
ACDBDICTIONARYWDFLT
  5
E
102
{ACAD_REACTORS
330
C
102
}
330
C
100
AcDbDictionary
281
     1
  3
Normal
350
F
100
AcDbDictionaryWithDefault
340
F
  0
DICTIONARY
  5
47
102
{ACAD_REACTORS
330
C
102
}
330
C
100
AcDbDictionary
281
     1
  3
A0
350
48
  3
A1
350
49
  3
A2
350
4A
  3
A3
350
4B
  3
A4
350
4C
  3
A5
350
4D
  3
A6
350
4E
  3
A7
350
4F
  3
A8
350
50
  3
A9
350
51
  3
B0
350
52
  3
B1
350
53
  3
B2
350
54
  3
B3
350
55
  3
B4
350
56
  3
B5
350
57
  3
B6
350
58
  3
B7
350
59
  3
B8
350
5A
  3
B9
350
5B
  3
C0
350
5C
  3
C1
350
5D
  3
C2
350
5E
  3
C3
350
5F
  3
C4
350
60
  3
C5
350
61
  3
C6
350
62
  3
C7
350
63
  3
C8
350
64
  3
C9
350
65
  3
D0
350
66
  3
D1
350
67
  3
D2
350
68
  0
XRECORD
  5
1AC
102
{ACAD_REACTORS
330
C
102
}
330
C
100
AcDbXrecord
280
     1
  1
DWGPROPS COOKIE
  2

  3

  4

  6

  7

  8
KalleMourujärvi
  9

300
=
301
=
302
=
303
=
304
=
305
=
306
=
307
=
308
=
309
=
 40
0.0
 41
2460130.403916123
 42
2460130.403916632
  1

 90
        0
  0
LAYOUT
  5
1E
102
{ACAD_REACTORS
330
1A
102
}
330
1A
100
AcDbPlotSettings
  1

  2
none_device
  4

  6

 40
0.0
 41
0.0
 42
0.0
 43
0.0
 44
0.0
 45
0.0
 46
0.0
 47
0.0
 48
0.0
 49
0.0
140
0.0
141
0.0
142
1.0
143
1.0
 70
   688
 72
     1
 73
     0
 74
     5
  7

 75
    16
147
1.0
148
0.0
149
0.0
100
AcDbLayout
  1
Layout1
 70
     1
 71
     1
 10
0.0
 20
0.0
 11
420.0
 21
297.0
 12
0.0
 22
0.0
 32
0.0
 14
1.0000000000E+20
 24
1.0000000000E+20
 34
1.0000000000E+20
 15
-1.0000000000E+20
 25
-1.0000000000E+20
 35
-1.0000000000E+20
146
0.0
 13
0.0
 23
0.0
 33
0.0
 16
1.0
 26
0.0
 36
0.0
 17
0.0
 27
1.0
 37
0.0
 76
     0
330
1B
  0
LAYOUT
  5
26
102
{ACAD_REACTORS
330
1A
102
}
330
1A
100
AcDbPlotSettings
  1

  2
none_device
  4

  6

 40
0.0
 41
0.0
 42
0.0
 43
0.0
 44
0.0
 45
0.0
 46
0.0
 47
0.0
 48
0.0
 49
0.0
140
0.0
141
0.0
142
1.0
143
1.0
 70
   688
 72
     1
 73
     0
 74
     5
  7

 75
    16
147
1.0
148
0.0
149
0.0
100
AcDbLayout
  1
Layout2
 70
     1
 71
     2
 10
0.0
 20
0.0
 11
0.0
 21
0.0
 12
0.0
 22
0.0
 32
0.0
 14
0.0
 24
0.0
 34
0.0
 15
0.0
 25
0.0
 35
0.0
146
0.0
 13
0.0
 23
0.0
 33
0.0
 16
1.0
 26
0.0
 36
0.0
 17
0.0
 27
1.0
 37
0.0
 76
     0
330
23
  0
LAYOUT
  5
22
102
{ACAD_REACTORS
330
1A
102
}
330
1A
100
AcDbPlotSettings
  1

  2
none_device
  4
Letter_(8.50_x_11.00_Inches)
  6

 40
6.35
 41
6.35
 42
6.35000508
 43
6.35000508
 44
215.9
 45
279.4
 46
0.0
 47
0.0
 48
0.0
 49
0.0
140
0.0
141
0.0
142
1.0
143
1.0
 70
  1712
 72
     1
 73
     0
 74
     0
  7

 75
     0
147
1.0
148
0.0
149
0.0
100
AcDbLayout
  1
Model
 70
     1
 71
     0
 10
0.0
 20
0.0
 11
950.0
 21
650.0
 12
0.0
 22
0.0
 32
0.0
 14
0.0
 24
0.0
 34
0.0
 15
950.0
 25
650.0
 35
0.0
146
0.0
 13
0.0
 23
0.0
 33
0.0
 16
1.0
 26
0.0
 36
0.0
 17
0.0
 27
1.0
 37
0.0
 76
     0
330
1F
331
29
  0
MLINESTYLE
  5
18
102
{ACAD_REACTORS
330
17
102
}
330
17
100
AcDbMlineStyle
  2
Standard
 70
     0
  3

 62
   256
 51
90.0
 52
90.0
 71
     2
 49
0.5
 62
   256
  6
BYLAYER
 49
-0.5
 62
   256
  6
BYLAYER
  0
ACDBPLACEHOLDER
  5
F
102
{ACAD_REACTORS
330
E
102
}
330
E
  0
SCALE
  5
48
102
{ACAD_REACTORS
330
47
102
}
330
47
100
AcDbScale
 70
     0
300
1:1
140
1.0
141
1.0
290
     1
  0
SCALE
  5
49
102
{ACAD_REACTORS
330
47
102
}
330
47
100
AcDbScale
 70
     0
300
1:2
140
1.0
141
2.0
290
     0
  0
SCALE
  5
4A
102
{ACAD_REACTORS
330
47
102
}
330
47
100
AcDbScale
 70
     0
300
1:4
140
1.0
141
4.0
290
     0
  0
SCALE
  5
4B
102
{ACAD_REACTORS
330
47
102
}
330
47
100
AcDbScale
 70
     0
300
1:5
140
1.0
141
5.0
290
     0
  0
SCALE
  5
4C
102
{ACAD_REACTORS
330
47
102
}
330
47
100
AcDbScale
 70
     0
300
1:8
140
1.0
141
8.0
290
     0
  0
SCALE
  5
4D
102
{ACAD_REACTORS
330
47
102
}
330
47
100
AcDbScale
 70
     0
300
1:10
140
1.0
141
10.0
290
     0
  0
SCALE
  5
4E
102
{ACAD_REACTORS
330
47
102
}
330
47
100
AcDbScale
 70
     0
300
1:16
140
1.0
141
16.0
290
     0
  0
SCALE
  5
4F
102
{ACAD_REACTORS
330
47
102
}
330
47
100
AcDbScale
 70
     0
300
1:20
140
1.0
141
20.0
290
     0
  0
SCALE
  5
50
102
{ACAD_REACTORS
330
47
102
}
330
47
100
AcDbScale
 70
     0
300
1:30
140
1.0
141
30.0
290
     0
  0
SCALE
  5
51
102
{ACAD_REACTORS
330
47
102
}
330
47
100
AcDbScale
 70
     0
300
1:40
140
1.0
141
40.0
290
     0
  0
SCALE
  5
52
102
{ACAD_REACTORS
330
47
102
}
330
47
100
AcDbScale
 70
     0
300
1:50
140
1.0
141
50.0
290
     0
  0
SCALE
  5
53
102
{ACAD_REACTORS
330
47
102
}
330
47
100
AcDbScale
 70
     0
300
1:100
140
1.0
141
100.0
290
     0
  0
SCALE
  5
54
102
{ACAD_REACTORS
330
47
102
}
330
47
100
AcDbScale
 70
     0
300
2:1
140
2.0
141
1.0
290
     0
  0
SCALE
  5
55
102
{ACAD_REACTORS
330
47
102
}
330
47
100
AcDbScale
 70
     0
300
4:1
140
4.0
141
1.0
290
     0
  0
SCALE
  5
56
102
{ACAD_REACTORS
330
47
102
}
330
47
100
AcDbScale
 70
     0
300
8:1
140
8.0
141
1.0
290
     0
  0
SCALE
  5
57
102
{ACAD_REACTORS
330
47
102
}
330
47
100
AcDbScale
 70
     0
300
10:1
140
10.0
141
1.0
290
     0
  0
SCALE
  5
58
102
{ACAD_REACTORS
330
47
102
}
330
47
100
AcDbScale
 70
     0
300
100:1
140
100.0
141
1.0
290
     0
  0
SCALE
  5
59
102
{ACAD_REACTORS
330
47
102
}
330
47
100
AcDbScale
 70
     0
300
1/128" = 1'-0"
140
0.0078125
141
12.0
290
     0
  0
SCALE
  5
5A
102
{ACAD_REACTORS
330
47
102
}
330
47
100
AcDbScale
 70
     0
300
1/64" = 1'-0"
140
0.015625
141
12.0
290
     0
  0
SCALE
  5
5B
102
{ACAD_REACTORS
330
47
102
}
330
47
100
AcDbScale
 70
     0
300
1/32" = 1'-0"
140
0.03125
141
12.0
290
     0
  0
SCALE
  5
5C
102
{ACAD_REACTORS
330
47
102
}
330
47
100
AcDbScale
 70
     0
300
1/16" = 1'-0"
140
0.0625
141
12.0
290
     0
  0
SCALE
  5
5D
102
{ACAD_REACTORS
330
47
102
}
330
47
100
AcDbScale
 70
     0
300
3/32" = 1'-0"
140
0.09375
141
12.0
290
     0
  0
SCALE
  5
5E
102
{ACAD_REACTORS
330
47
102
}
330
47
100
AcDbScale
 70
     0
300
1/8" = 1'-0"
140
0.125
141
12.0
290
     0
  0
SCALE
  5
5F
102
{ACAD_REACTORS
330
47
102
}
330
47
100
AcDbScale
 70
     0
300
3/16" = 1'-0"
140
0.1875
141
12.0
290
     0
  0
SCALE
  5
60
102
{ACAD_REACTORS
330
47
102
}
330
47
100
AcDbScale
 70
     0
300
1/4" = 1'-0"
140
0.25
141
12.0
290
     0
  0
SCALE
  5
61
102
{ACAD_REACTORS
330
47
102
}
330
47
100
AcDbScale
 70
     0
300
3/8" = 1'-0"
140
0.375
141
12.0
290
     0
  0
SCALE
  5
62
102
{ACAD_REACTORS
330
47
102
}
330
47
100
AcDbScale
 70
     0
300
1/2" = 1'-0"
140
0.5
141
12.0
290
     0
  0
SCALE
  5
63
102
{ACAD_REACTORS
330
47
102
}
330
47
100
AcDbScale
 70
     0
300
3/4" = 1'-0"
140
0.75
141
12.0
290
     0
  0
SCALE
  5
64
102
{ACAD_REACTORS
330
47
102
}
330
47
100
AcDbScale
 70
     0
300
1" = 1'-0"
140
1.0
141
12.0
290
     0
  0
SCALE
  5
65
102
{ACAD_REACTORS
330
47
102
}
330
47
100
AcDbScale
 70
     0
300
1-1/2" = 1'-0"
140
1.5
141
12.0
290
     0
  0
SCALE
  5
66
102
{ACAD_REACTORS
330
47
102
}
330
47
100
AcDbScale
 70
     0
300
3" = 1'-0"
140
3.0
141
12.0
290
     0
  0
SCALE
  5
67
102
{ACAD_REACTORS
330
47
102
}
330
47
100
AcDbScale
 70
     0
300
6" = 1'-0"
140
6.0
141
12.0
290
     0
  0
SCALE
  5
68
102
{ACAD_REACTORS
330
47
102
}
330
47
100
AcDbScale
 70
     0
300
1'-0" = 1'-0"
140
12.0
141
12.0
290
     0
  0
ENDSEC
  0
EOF
