  0
SECTION
  2
HEADER
  9
$ACADVER
  1
AC1015
  9
$ACADMAINTVER
 70
     6
  9
$DWGCODEPAGE
  3
ANSI_1252
  9
$INSBASE
 10
0.0
 20
0.0
 30
0.0
  9
$EXTMIN
 10
0.0
 20
0.0
 30
0.0
  9
$EXTMAX
 10
1050.0
 20
650.0
 30
0.0
  9
$LIMMIN
 10
0.0
 20
0.0
  9
$LIMMAX
 10
1050.0
 20
650.0
  9
$ORTHOMODE
 70
     0
  9
$REGENMODE
 70
     1
  9
$FILLMODE
 70
     1
  9
$QTEXTMODE
 70
     0
  9
$MIRRTEXT
 70
     1
  9
$LTSCALE
 40
1.0
  9
$ATTMODE
 70
     1
  9
$TEXTSIZE
 40
3.5
  9
$TRACEWID
 40
1.0
  9
$TEXTSTYLE
  7
Standard
  9
$CLAYER
  8
0
  9
$CELTYPE
  6
ByLayer
  9
$CECOLOR
 62
   256
  9
$CELTSCALE
 40
1.0
  9
$DISPSILH
 70
     0
  9
$DIMSCALE
 40
1.0
  9
$DIMASZ
 40
3.302
  9
$DIMEXO
 40
1.0
  9
$DIMDLI
 40
3.75
  9
$DIMRND
 40
0.0
  9
$DIMDLE
 40
0.0
  9
$DIMEXE
 40
1.0
  9
$DIMTP
 40
0.0
  9
$DIMTM
 40
0.0
  9
$DIMTXT
 40
3.5
  9
$DIMCEN
 40
2.5
  9
$DIMTSZ
 40
0.0
  9
$DIMTOL
 70
     0
  9
$DIMLIM
 70
     0
  9
$DIMTIH
 70
     1
  9
$DIMTOH
 70
     1
  9
$DIMSE1
 70
     0
  9
$DIMSE2
 70
     0
  9
$DIMTAD
 70
     1
  9
$DIMZIN
 70
     1
  9
$DIMBLK
  1

  9
$DIMASO
 70
     1
  9
$DIMSHO
 70
     1
  9
$DIMPOST
  1

  9
$DIMAPOST
  1

  9
$DIMALT
 70
     0
  9
$DIMALTD
 70
     3
  9
$DIMALTF
 40
0.0393700787
  9
$DIMLFAC
 40
1.0
  9
$DIMTOFL
 70
     1
  9
$DIMTVP
 40
0.0
  9
$DIMTIX
 70
     0
  9
$DIMSOXD
 70
     0
  9
$DIMSAH
 70
     0
  9
$DIMBLK1
  1

  9
$DIMBLK2
  1

  9
$DIMSTYLE
  2
ISO-25
  9
$DIMCLRD
 70
     0
  9
$DIMCLRE
 70
     0
  9
$DIMCLRT
 70
     0
  9
$DIMTFAC
 40
1.0
  9
$DIMGAP
 40
1.524
  9
$DIMJUST
 70
     0
  9
$DIMSD1
 70
     0
  9
$DIMSD2
 70
     0
  9
$DIMTOLJ
 70
     0
  9
$DIMTZIN
 70
     1
  9
$DIMALTZ
 70
     0
  9
$DIMALTTZ
 70
     0
  9
$DIMUPT
 70
     0
  9
$DIMDEC
 70
     2
  9
$DIMTDEC
 70
     2
  9
$DIMALTU
 70
     2
  9
$DIMALTTD
 70
     3
  9
$DIMTXSTY
  7
Standard
  9
$DIMAUNIT
 70
     0
  9
$DIMADEC
 70
     2
  9
$DIMALTRND
 40
0.0
  9
$DIMAZIN
 70
     0
  9
$DIMDSEP
 70
    44
  9
$DIMATFIT
 70
     3
  9
$DIMFRAC
 70
     0
  9
$DIMLDRBLK
  1

  9
$DIMLUNIT
 70
     2
  9
$DIMLWD
 70
    -2
  9
$DIMLWE
 70
    -2
  9
$DIMTMOVE
 70
     0
  9
$LUNITS
 70
     2
  9
$LUPREC
 70
     1
  9
$SKETCHINC
 40
1.0
  9
$FILLETRAD
 40
10.0
  9
$AUNITS
 70
     0
  9
$AUPREC
 70
     1
  9
$MENU
  1
.
  9
$ELEVATION
 40
0.0
  9
$PELEVATION
 40
0.0
  9
$THICKNESS
 40
0.0
  9
$LIMCHECK
 70
     0
  9
$CHAMFERA
 40
0.0
  9
$CHAMFERB
 40
0.0
  9
$CHAMFERC
 40
0.0
  9
$CHAMFERD
 40
0.0
  9
$SKPOLY
 70
     0
  9
$TDCREATE
 40
2460130.53716941
  9
$TDUCREATE
 40
2460130.41216941
  9
$TDUPDATE
 40
2460130.537169711
  9
$TDUUPDATE
 40
2460130.412169711
  9
$TDINDWG
 40
0.0000000116
  9
$TDUSRTIMER
 40
0.0000000116
  9
$USRTIMER
 70
     1
  9
$ANGBASE
 50
0.0
  9
$ANGDIR
 70
     0
  9
$PDMODE
 70
     0
  9
$PDSIZE
 40
-1.0
  9
$PLINEWID
 40
0.0
  9
$SPLFRAME
 70
     0
  9
$SPLINETYPE
 70
     6
  9
$SPLINESEGS
 70
     8
  9
$HANDSEED
  5
14E
  9
$SURFTAB1
 70
     6
  9
$SURFTAB2
 70
     6
  9
$SURFTYPE
 70
     6
  9
$SURFU
 70
     6
  9
$SURFV
 70
     6
  9
$UCSBASE
  2

  9
$UCSNAME
  2

  9
$UCSORG
 10
0.0
 20
0.0
 30
0.0
  9
$UCSXDIR
 10
1.0
 20
0.0
 30
0.0
  9
$UCSYDIR
 10
0.0
 20
1.0
 30
0.0
  9
$UCSORTHOREF
  2

  9
$UCSORTHOVIEW
 70
     0
  9
$UCSORGTOP
 10
0.0
 20
0.0
 30
0.0
  9
$UCSORGBOTTOM
 10
0.0
 20
0.0
 30
0.0
  9
$UCSORGLEFT
 10
0.0
 20
0.0
 30
0.0
  9
$UCSORGRIGHT
 10
0.0
 20
0.0
 30
0.0
  9
$UCSORGFRONT
 10
0.0
 20
0.0
 30
0.0
  9
$UCSORGBACK
 10
0.0
 20
0.0
 30
0.0
  9
$PUCSBASE
  2

  9
$PUCSNAME
  2

  9
$PUCSORG
 10
0.0
 20
0.0
 30
0.0
  9
$PUCSXDIR
 10
1.0
 20
0.0
 30
0.0
  9
$PUCSYDIR
 10
0.0
 20
1.0
 30
0.0
  9
$PUCSORTHOREF
  2

  9
$PUCSORTHOVIEW
 70
     0
  9
$PUCSORGTOP
 10
0.0
 20
0.0
 30
0.0
  9
$PUCSORGBOTTOM
 10
0.0
 20
0.0
 30
0.0
  9
$PUCSORGLEFT
 10
0.0
 20
0.0
 30
0.0
  9
$PUCSORGRIGHT
 10
0.0
 20
0.0
 30
0.0
  9
$PUCSORGFRONT
 10
0.0
 20
0.0
 30
0.0
  9
$PUCSORGBACK
 10
0.0
 20
0.0
 30
0.0
  9
$USERI1
 70
     0
  9
$USERI2
 70
     0
  9
$USERI3
 70
     0
  9
$USERI4
 70
     0
  9
$USERI5
 70
     0
  9
$USERR1
 40
0.0
  9
$USERR2
 40
0.0
  9
$USERR3
 40
0.0
  9
$USERR4
 40
0.0
  9
$USERR5
 40
0.0
  9
$WORLDVIEW
 70
     1
  9
$SHADEDGE
 70
     3
  9
$SHADEDIF
 70
    70
  9
$TILEMODE
 70
     1
  9
$MAXACTVP
 70
    64
  9
$PINSBASE
 10
0.0
 20
0.0
 30
0.0
  9
$PLIMCHECK
 70
     0
  9
$PEXTMIN
 10
1.0000000000E+20
 20
1.0000000000E+20
 30
1.0000000000E+20
  9
$PEXTMAX
 10
-1.0000000000E+20
 20
-1.0000000000E+20
 30
-1.0000000000E+20
  9
$PLIMMIN
 10
0.0
 20
0.0
  9
$PLIMMAX
 10
420.0
 20
297.0
  9
$UNITMODE
 70
     0
  9
$VISRETAIN
 70
     1
  9
$PLINEGEN
 70
     0
  9
$PSLTSCALE
 70
     1
  9
$TREEDEPTH
 70
  3020
  9
$CMLSTYLE
  2
Standard
  9
$CMLJUST
 70
     0
  9
$CMLSCALE
 40
20.0
  9
$PROXYGRAPHICS
 70
     1
  9
$MEASUREMENT
 70
     1
  9
$CELWEIGHT
370
    -1
  9
$ENDCAPS
280
     0
  9
$JOINSTYLE
280
     0
  9
$LWDISPLAY
290
     1
  9
$INSUNITS
 70
     4
  9
$HYPERLINKBASE
  1

  9
$STYLESHEET
  1

  9
$XEDIT
290
     1
  9
$CEPSNTYPE
380
     0
  9
$PSTYLEMODE
290
     1
  9
$FINGERPRINTGUID
  2
{0b801d32-54d4-478a-86e5-0bf0a9356c05}
  9
$VERSIONGUID
  2
{FAEB1C32-E019-11D5-929B-00C0DF256EC4}
  9
$EXTNAMES
290
     1
  9
$PSVPSCALE
 40
0.0
  9
$OLESTARTUP
290
     0
  0
ENDSEC
  0
SECTION
  2
CLASSES
  0
CLASS
  1
ACDBDICTIONARYWDFLT
  2
AcDbDictionaryWithDefault
  3
ObjectDBX Classes
 90
        0
280
     0
281
     0
  0
CLASS
  1
VISUALSTYLE
  2
AcDbVisualStyle
  3
ObjectDBX Classes
 90
     4095
280
     0
281
     0
  0
CLASS
  1
MATERIAL
  2
AcDbMaterial
  3
ObjectDBX Classes
 90
     1153
280
     0
281
     0
  0
CLASS
  1
SCALE
  2
AcDbScale
  3
ObjectDBX Classes
 90
     1153
280
     0
281
     0
  0
CLASS
  1
TABLESTYLE
  2
AcDbTableStyle
  3
ObjectDBX Classes
 90
     4095
280
     0
281
     0
  0
CLASS
  1
MLEADERSTYLE
  2
AcDbMLeaderStyle
  3
ACDB_MLEADERSTYLE_CLASS
 90
     4095
280
     0
281
     0
  0
CLASS
  1
SUN
  2
AcDbSun
  3
SCENEOE
 90
     1153
280
     0
281
     0
  0
CLASS
  1
ACDBPLACEHOLDER
  2
AcDbPlaceHolder
  3
ObjectDBX Classes
 90
        0
280
     0
281
     0
  0
CLASS
  1
LAYOUT
  2
AcDbLayout
  3
ObjectDBX Classes
 90
        0
280
     0
281
     0
  0
ENDSEC
  0
SECTION
  2
TABLES
  0
TABLE
  2
VPORT
  5
8
330
0
100
AcDbSymbolTable
 70
     1
  0
VPORT
  5
29
330
8
100
AcDbSymbolTableRecord
100
AcDbViewportTableRecord
  2
*Active
 70
     0
 10
0.0
 20
0.0
 11
1.0
 21
1.0
 12
525.0
 22
325.0
 13
0.0
 23
0.0
 14
10.0
 24
10.0
 15
10.0
 25
10.0
 16
0.0
 26
0.0
 36
1.0
 17
0.0
 27
0.0
 37
0.0
 40
650.0
 41
1.6153846154
 42
50.0
 43
0.0
 44
0.0
 50
0.0
 51
0.0
 71
     0
 72
  2000
 73
     1
 74
     3
 75
     0
 76
     0
 77
     0
 78
     0
281
     0
 65
     1
110
0.0
120
0.0
130
0.0
111
1.0
121
0.0
131
0.0
112
0.0
122
1.0
132
0.0
 79
     0
146
0.0
  0
ENDTAB
  0
TABLE
  2
LTYPE
  5
5
330
0
100
AcDbSymbolTable
 70
     6
  0
LTYPE
  5
14
330
5
100
AcDbSymbolTableRecord
100
AcDbLinetypeTableRecord
  2
ByBlock
 70
     0
  3

 72
    65
 73
     0
 40
0.0
  0
LTYPE
  5
15
330
5
100
AcDbSymbolTableRecord
100
AcDbLinetypeTableRecord
  2
ByLayer
 70
     0
  3

 72
    65
 73
     0
 40
0.0
  0
LTYPE
  5
16
330
5
100
AcDbSymbolTableRecord
100
AcDbLinetypeTableRecord
  2
Continuous
 70
     0
  3
Solid line
 72
    65
 73
     0
 40
0.0
  0
LTYPE
  5
6E
330
5
100
AcDbSymbolTableRecord
100
AcDbLinetypeTableRecord
  2
HIDDEN
 70
     0
  3
Hidden __ __ __ __ __ __ __ __ __ __ __ __ __ __
 72
    65
 73
     2
 40
1.905
 49
1.27
 74
     0
 49
-0.635
 74
     0
  0
LTYPE
  5
6F
330
5
100
AcDbSymbolTableRecord
100
AcDbLinetypeTableRecord
  2
PHANTOM
 70
     0
  3
Phantom ______  __  __  ______  __  __  ______
 72
    65
 73
     6
 40
12.7
 49
6.35
 74
     0
 49
-1.27
 74
     0
 49
1.27
 74
     0
 49
-1.27
 74
     0
 49
1.27
 74
     0
 49
-1.27
 74
     0
  0
LTYPE
  5
70
330
5
100
AcDbSymbolTableRecord
100
AcDbLinetypeTableRecord
  2
CENTER
 70
     0
  3
Center ____ _ ____ _ ____ _ ____ _ ____ _ ____
 72
    65
 73
     4
 40
10.16
 49
6.35
 74
     0
 49
-1.27
 74
     0
 49
1.27
 74
     0
 49
-1.27
 74
     0
  0
LTYPE
  5
71
330
5
100
AcDbSymbolTableRecord
100
AcDbLinetypeTableRecord
  2
CENTERX2
 70
     0
  3
Center (2x) ________  __  ________  __  _____
 72
    65
 73
     4
 40
20.32
 49
12.7
 74
     0
 49
-2.54
 74
     0
 49
2.54
 74
     0
 49
-2.54
 74
     0
  0
LTYPE
  5
72
330
5
100
AcDbSymbolTableRecord
100
AcDbLinetypeTableRecord
  2
DOT2
 70
     0
  3
Dot (.5x) ........................................
 72
    65
 73
     2
 40
0.635
 49
0.0
 74
     0
 49
-0.635
 74
     0
  0
ENDTAB
  0
TABLE
  2
LAYER
  5
2
330
0
100
AcDbSymbolTable
 70
     1
  0
LAYER
  5
10
330
2
100
AcDbSymbolTableRecord
100
AcDbLayerTableRecord
  2
0
 70
     0
 62
     7
  6
Continuous
370
    -3
390
F
  0
ENDTAB
  0
TABLE
  2
STYLE
  5
3
330
0
100
AcDbSymbolTable
 70
     1
  0
STYLE
  5
11
330
3
100
AcDbSymbolTableRecord
100
AcDbTextStyleTableRecord
  2
Standard
 70
     0
 40
0.0
 41
1.0
 50
0.0
 71
     0
 42
3.5
  3
txt
  4

  0
ENDTAB
  0
TABLE
  2
VIEW
  5
6
330
0
100
AcDbSymbolTable
 70
     0
  0
ENDTAB
  0
TABLE
  2
UCS
  5
7
330
0
100
AcDbSymbolTable
 70
     0
  0
ENDTAB
  0
TABLE
  2
APPID
  5
9
330
0
100
AcDbSymbolTable
 70
     1
  0
APPID
  5
12
330
9
100
AcDbSymbolTableRecord
100
AcDbRegAppTableRecord
  2
ACAD
 70
     0
  0
ENDTAB
  0
TABLE
  2
DIMSTYLE
  5
A
330
0
100
AcDbSymbolTable
 70
     1
100
AcDbDimStyleTable
  0
DIMSTYLE
105
27
330
A
100
AcDbSymbolTableRecord
100
AcDbDimStyleTableRecord
  2
ISO-25
 70
     0
 41
2.5
 42
0.625
 43
3.75
 44
1.25
 73
     0
 74
     0
 77
     1
 78
     8
140
2.5
141
2.5
143
0.0393700787
147
0.625
171
     3
172
     1
178
     0
271
     2
272
     2
274
     3
278
    44
283
     0
284
     8
340
11
  0
ENDTAB
  0
TABLE
  2
BLOCK_RECORD
  5
1
330
0
100
AcDbSymbolTable
 70
     1
  0
BLOCK_RECORD
  5
1F
330
1
100
AcDbSymbolTableRecord
100
AcDbBlockTableRecord
  2
*Model_Space
340
22
  0
BLOCK_RECORD
  5
1B
330
1
100
AcDbSymbolTableRecord
100
AcDbBlockTableRecord
  2
*Paper_Space
340
1E
  0
BLOCK_RECORD
  5
23
330
1
100
AcDbSymbolTableRecord
100
AcDbBlockTableRecord
  2
*Paper_Space0
340
26
  0
ENDTAB
  0
ENDSEC
  0
SECTION
  2
BLOCKS
  0
BLOCK
  5
20
330
1F
100
AcDbEntity
  8
0
100
AcDbBlockBegin
  2
*Model_Space
 70
     0
 10
0.0
 20
0.0
 30
0.0
  3
*Model_Space
  1

  0
ENDBLK
  5
21
330
1F
100
AcDbEntity
  8
0
100
AcDbBlockEnd
  0
BLOCK
  5
1C
330
1B
100
AcDbEntity
 67
     1
  8
0
100
AcDbBlockBegin
  2
*Paper_Space
 70
     0
 10
0.0
 20
0.0
 30
0.0
  3
*Paper_Space
  1

  0
ENDBLK
  5
1D
330
1B
100
AcDbEntity
 67
     1
  8
0
100
AcDbBlockEnd
  0
BLOCK
  5
24
330
23
100
AcDbEntity
  8
0
100
AcDbBlockBegin
  2
*Paper_Space0
 70
     0
 10
0.0
 20
0.0
 30
0.0
  3
*Paper_Space0
  1

  0
ENDBLK
  5
25
330
23
100
AcDbEntity
  8
0
100
AcDbBlockEnd
  0
ENDSEC
  0
SECTION
  2
ENTITIES
  0
LINE
  5
73
330
1F
100
AcDbEntity
  8
0
  6
Continuous
 62
     7
370
    25
100
AcDbLine
 10
841.884
 20
61.9172984545
 30
0.0
 11
842.3663952639
 21
61.9172984545
 31
0.0
  0
LINE
  5
74
330
1F
100
AcDbEntity
  8
0
  6
Continuous
 62
     7
370
    25
100
AcDbLine
 10
842.5410396777
 20
62.192
 30
0.0
 11
842.3663952639
 21
61.9172984545
 31
0.0
  0
LINE
  5
75
330
1F
100
AcDbEntity
  8
0
  6
Continuous
 62
     7
370
    25
100
AcDbLine
 10
841.884
 20
61.9172984545
 30
0.0
 11
841.884
 21
62.192
 31
0.0
  0
ELLIPSE
  5
76
330
1F
100
AcDbEntity
  8
0
  6
Continuous
 62
     7
370
    25
100
AcDbEllipse
 10
847.0225982868
 20
69.2411294218
 30
0.0
 11
7.313111706628887
 21
7.837202391757728
 31
0.0
210
0.0
220
0.0
230
1.0
 40
0.2453475563
 41
3.791923512846581
 42
3.868365927582875
  0
LINE
  5
77
330
1F
100
AcDbEntity
  8
0
  6
Continuous
 62
     7
370
    25
100
AcDbLine
 10
865.4016047361
 20
61.9172984545
 30
0.0
 11
865.884
 21
61.9172984545
 31
0.0
  0
LINE
  5
78
330
1F
100
AcDbEntity
  8
0
  6
Continuous
 62
     7
370
    25
100
AcDbLine
 10
865.2269603223
 20
62.192
 30
0.0
 11
865.4016047361
 21
61.9172984545
 31
0.0
  0
LINE
  5
79
330
1F
100
AcDbEntity
  8
0
  6
Continuous
 62
     7
370
    25
100
AcDbLine
 10
865.884
 20
61.9172984545
 30
0.0
 11
865.884
 21
62.192
 31
0.0
  0
ELLIPSE
  5
7A
330
1F
100
AcDbEntity
  8
0
  6
Continuous
 62
     7
370
    25
100
AcDbEllipse
 10
860.7454017132
 20
69.2411294218
 30
0.0
 11
-7.313111706629115
 21
7.837202391757643
 31
0.0
210
0.0
220
0.0
230
1.0
 40
0.2453475563
 41
2.414819379596647
 42
2.491261794332996
  0
ELLIPSE
  5
7B
330
1F
100
AcDbEntity
  8
0
  6
Continuous
 62
     7
370
    25
100
AcDbEllipse
 10
193.2454017132
 20
575.1428705782
 30
0.0
 11
7.313111706629085
 21
7.837202391757613
 31
0.0
210
0.0
220
0.0
230
1.0
 40
0.2453475563
 41
0.6503308592568138
 42
0.726773273993337
  0
LINE
  5
7C
330
1F
100
AcDbEntity
  8
0
  6
Continuous
 62
     7
370
    25
100
AcDbLine
 10
197.7269603223
 20
582.192
 30
0.0
 11
197.9016047361
 21
582.4667015455
 31
0.0
  0
LINE
  5
7D
330
1F
100
AcDbEntity
  8
0
  6
Continuous
 62
     7
370
    25
100
AcDbLine
 10
198.384
 20
582.4667015455
 30
0.0
 11
197.9016047361
 21
582.4667015455
 31
0.0
  0
LINE
  5
7E
330
1F
100
AcDbEntity
  8
0
  6
Continuous
 62
     7
370
    25
100
AcDbLine
 10
198.384
 20
582.4667015455
 30
0.0
 11
198.384
 21
582.192
 31
0.0
  0
LINE
  5
7F
330
1F
100
AcDbEntity
  8
0
  6
Continuous
 62
     7
370
    25
100
AcDbLine
 10
174.8663952639
 20
582.4667015455
 30
0.0
 11
174.384
 21
582.4667015455
 31
0.0
  0
LINE
  5
80
330
1F
100
AcDbEntity
  8
0
  6
Continuous
 62
     7
370
    25
100
AcDbLine
 10
175.0410396777
 20
582.192
 30
0.0
 11
174.8663952639
 21
582.4667015455
 31
0.0
  0
LINE
  5
81
330
1F
100
AcDbEntity
  8
0
  6
Continuous
 62
     7
370
    25
100
AcDbLine
 10
174.384
 20
582.4667015455
 30
0.0
 11
174.384
 21
582.192
 31
0.0
  0
ELLIPSE
  5
82
330
1F
100
AcDbEntity
  8
0
  6
Continuous
 62
     7
370
    25
100
AcDbEllipse
 10
179.5225982868
 20
575.1428705782
 30
0.0
 11
-7.313111706629115
 21
7.837202391757614
 31
0.0
210
0.0
220
0.0
230
1.0
 40
0.2453475563
 41
5.556412033186311
 42
5.63285444792282
  0
LINE
  5
83
330
1F
100
AcDbEntity
  8
0
  6
Continuous
 62
     7
370
    25
100
AcDbLine
 10
433.784
 20
582.4667015455
 30
0.0
 11
433.3016047361
 21
582.4667015455
 31
0.0
  0
LINE
  5
84
330
1F
100
AcDbEntity
  8
0
  6
Continuous
 62
     7
370
    25
100
AcDbLine
 10
433.1269603223
 20
582.192
 30
0.0
 11
433.3016047361
 21
582.4667015455
 31
0.0
  0
LINE
  5
85
330
1F
100
AcDbEntity
  8
0
  6
Continuous
 62
     7
370
    25
100
AcDbLine
 10
433.784
 20
582.4667015455
 30
0.0
 11
433.784
 21
582.192
 31
0.0
  0
ELLIPSE
  5
86
330
1F
100
AcDbEntity
  8
0
  6
Continuous
 62
     7
370
    25
100
AcDbEllipse
 10
428.6454017132
 20
575.1428705782
 30
0.0
 11
7.313111706629059
 21
7.837202391757727
 31
0.0
210
0.0
220
0.0
230
1.0
 40
0.2453475563
 41
0.6503308592568066
 42
0.726773273993476
  0
LINE
  5
87
330
1F
100
AcDbEntity
  8
0
  6
Continuous
 62
     7
370
    25
100
AcDbLine
 10
410.2663952639
 20
582.4667015455
 30
0.0
 11
409.784
 21
582.4667015455
 31
0.0
  0
LINE
  5
88
330
1F
100
AcDbEntity
  8
0
  6
Continuous
 62
     7
370
    25
100
AcDbLine
 10
410.4410396777
 20
582.192
 30
0.0
 11
410.2663952639
 21
582.4667015455
 31
0.0
  0
LINE
  5
89
330
1F
100
AcDbEntity
  8
0
  6
Continuous
 62
     7
370
    25
100
AcDbLine
 10
409.784
 20
582.4667015455
 30
0.0
 11
409.784
 21
582.192
 31
0.0
  0
ELLIPSE
  5
8A
330
1F
100
AcDbEntity
  8
0
  6
Continuous
 62
     7
370
    25
100
AcDbEllipse
 10
414.9225982868
 20
575.1428705782
 30
0.0
 11
-7.313111706629115
 21
7.837202391757614
 31
0.0
210
0.0
220
0.0
230
1.0
 40
0.2453475563
 41
5.55641203318616
 42
5.632854447922815
  0
ELLIPSE
  5
8B
330
1F
100
AcDbEntity
  8
0
  6
Continuous
 62
     7
370
    25
100
AcDbEllipse
 10
515.5225982868
 20
69.2411294218
 30
0.0
 11
7.313111706629116
 21
7.837202391757729
 31
0.0
210
0.0
220
0.0
230
1.0
 40
0.2453475563
 41
3.791923512846678
 42
3.868365927583269
  0
LINE
  5
8C
330
1F
100
AcDbEntity
  8
0
  6
Continuous
 62
     7
370
    25
100
AcDbLine
 10
511.0410396777
 20
62.192
 30
0.0
 11
510.8663952639
 21
61.9172984545
 31
0.0
  0
LINE
  5
8D
330
1F
100
AcDbEntity
  8
0
  6
Continuous
 62
     7
370
    25
100
AcDbLine
 10
510.384
 20
61.9172984545
 30
0.0
 11
510.8663952639
 21
61.9172984545
 31
0.0
  0
LINE
  5
8E
330
1F
100
AcDbEntity
  8
0
  6
Continuous
 62
     7
370
    25
100
AcDbLine
 10
510.384
 20
61.9172984545
 30
0.0
 11
510.384
 21
62.192
 31
0.0
  0
LINE
  5
8F
330
1F
100
AcDbEntity
  8
0
  6
Continuous
 62
     7
370
    25
100
AcDbLine
 10
533.9016047361
 20
61.9172984545
 30
0.0
 11
534.384
 21
61.9172984545
 31
0.0
  0
LINE
  5
90
330
1F
100
AcDbEntity
  8
0
  6
Continuous
 62
     7
370
    25
100
AcDbLine
 10
533.7269603223
 20
62.192
 30
0.0
 11
533.9016047361
 21
61.9172984545
 31
0.0
  0
LINE
  5
91
330
1F
100
AcDbEntity
  8
0
  6
Continuous
 62
     7
370
    25
100
AcDbLine
 10
534.384
 20
61.9172984545
 30
0.0
 11
534.384
 21
62.192
 31
0.0
  0
ELLIPSE
  5
92
330
1F
100
AcDbEntity
  8
0
  6
Continuous
 62
     7
370
    25
100
AcDbEllipse
 10
529.2454017132
 20
69.2411294218
 30
0.0
 11
-7.313111706629115
 21
7.837202391757643
 31
0.0
210
0.0
220
0.0
230
1.0
 40
0.2453475563
 41
2.414819379596415
 42
2.491261794333039
  0
LINE
  5
93
330
1F
100
AcDbEntity
  8
0
  6
Continuous
 62
     7
370
    25
100
AcDbLine
 10
870.384
 20
582.4667015455
 30
0.0
 11
869.9016047361
 21
582.4667015455
 31
0.0
  0
LINE
  5
94
330
1F
100
AcDbEntity
  8
0
  6
Continuous
 62
     7
370
    25
100
AcDbLine
 10
869.7269603223
 20
582.192
 30
0.0
 11
869.9016047361
 21
582.4667015455
 31
0.0
  0
LINE
  5
95
330
1F
100
AcDbEntity
  8
0
  6
Continuous
 62
     7
370
    25
100
AcDbLine
 10
870.384
 20
582.4667015455
 30
0.0
 11
870.384
 21
582.192
 31
0.0
  0
ELLIPSE
  5
96
330
1F
100
AcDbEntity
  8
0
  6
Continuous
 62
     7
370
    25
100
AcDbEllipse
 10
865.2454017132
 20
575.1428705782
 30
0.0
 11
7.31311170662923
 21
7.837202391757843
 31
0.0
210
0.0
220
0.0
230
1.0
 40
0.2453475563
 41
0.6503308592568249
 42
0.7267732739939115
  0
LINE
  5
97
330
1F
100
AcDbEntity
  8
0
  6
Continuous
 62
     7
370
    25
100
AcDbLine
 10
846.8663952639
 20
582.4667015455
 30
0.0
 11
846.384
 21
582.4667015455
 31
0.0
  0
LINE
  5
98
330
1F
100
AcDbEntity
  8
0
  6
Continuous
 62
     7
370
    25
100
AcDbLine
 10
847.0410396777
 20
582.192
 30
0.0
 11
846.8663952639
 21
582.4667015455
 31
0.0
  0
LINE
  5
99
330
1F
100
AcDbEntity
  8
0
  6
Continuous
 62
     7
370
    25
100
AcDbLine
 10
846.384
 20
582.4667015455
 30
0.0
 11
846.384
 21
582.192
 31
0.0
  0
ELLIPSE
  5
9A
330
1F
100
AcDbEntity
  8
0
  6
Continuous
 62
     7
370
    25
100
AcDbEllipse
 10
851.5225982868
 20
575.1428705782
 30
0.0
 11
-7.313111706629116
 21
7.837202391757729
 31
0.0
210
0.0
220
0.0
230
1.0
 40
0.2453475563
 41
5.556412033185791
 42
5.632854447922838
  0
ELLIPSE
  5
9B
330
1F
100
AcDbEntity
  8
0
  6
Continuous
 62
     7
370
    25
100
AcDbEllipse
 10
179.5225982868
 20
69.2411294218
 30
0.0
 11
7.313111706629059
 21
7.837202391757714
 31
0.0
210
0.0
220
0.0
230
1.0
 40
0.2453475563
 41
3.791923512846646
 42
3.868365927583603
  0
LINE
  5
9C
330
1F
100
AcDbEntity
  8
0
  6
Continuous
 62
     7
370
    25
100
AcDbLine
 10
175.0410396777
 20
62.192
 30
0.0
 11
174.8663952639
 21
61.9172984545
 31
0.0
  0
LINE
  5
9D
330
1F
100
AcDbEntity
  8
0
  6
Continuous
 62
     7
370
    25
100
AcDbLine
 10
174.384
 20
61.9172984545
 30
0.0
 11
174.8663952639
 21
61.9172984545
 31
0.0
  0
LINE
  5
9E
330
1F
100
AcDbEntity
  8
0
  6
Continuous
 62
     7
370
    25
100
AcDbLine
 10
174.384
 20
61.9172984545
 30
0.0
 11
174.384
 21
62.192
 31
0.0
  0
LINE
  5
9F
330
1F
100
AcDbEntity
  8
0
  6
Continuous
 62
     7
370
    25
100
AcDbLine
 10
197.9016047361
 20
61.9172984545
 30
0.0
 11
198.384
 21
61.9172984545
 31
0.0
  0
LINE
  5
A0
330
1F
100
AcDbEntity
  8
0
  6
Continuous
 62
     7
370
    25
100
AcDbLine
 10
197.7269603223
 20
62.192
 30
0.0
 11
197.9016047361
 21
61.9172984545
 31
0.0
  0
LINE
  5
A1
330
1F
100
AcDbEntity
  8
0
  6
Continuous
 62
     7
370
    25
100
AcDbLine
 10
198.384
 20
61.9172984545
 30
0.0
 11
198.384
 21
62.192
 31
0.0
  0
ELLIPSE
  5
A2
330
1F
100
AcDbEntity
  8
0
  6
Continuous
 62
     7
370
    25
100
AcDbEllipse
 10
193.2454017132
 20
69.2411294218
 30
0.0
 11
-7.313111706629143
 21
7.837202391757643
 31
0.0
210
0.0
220
0.0
230
1.0
 40
0.2453475563
 41
2.414819379596005
 42
2.491261794332979
  0
LINE
  5
A3
330
1F
100
AcDbEntity
  8
0
  6
Continuous
 62
     7
370
    25
100
AcDbLine
 10
645.384
 20
483.1175025479
 30
0.0
 11
195.384
 21
483.1175025479
 31
0.0
  0
LINE
  5
A4
330
1F
100
AcDbEntity
  8
0
  6
Continuous
 62
     7
370
    25
100
AcDbLine
 10
670.3095025479
 20
123.192
 30
0.0
 11
670.3095025479
 21
458.192
 31
0.0
  0
ARC
  5
A5
330
1F
100
AcDbEntity
  8
0
  6
Continuous
 62
     7
370
    25
100
AcDbCircle
 10
195.384
 20
458.192
 30
0.0
 40
24.92550254794034
100
AcDbArc
 50
90.0
 51
180.0
  0
ARC
  5
A6
330
1F
100
AcDbEntity
  8
0
  6
Continuous
 62
     7
370
    25
100
AcDbCircle
 10
195.384
 20
123.192
 30
0.0
 40
24.92550254794047
100
AcDbArc
 50
180.0
 51
270.0
  0
LINE
  5
A7
330
1F
100
AcDbEntity
  8
0
  6
Continuous
 62
     7
370
    25
100
AcDbLine
 10
195.384
 20
98.2664974521
 30
0.0
 11
645.384
 21
98.2664974521
 31
0.0
  0
ARC
  5
A8
330
1F
100
AcDbEntity
  8
0
  6
Continuous
 62
     7
370
    25
100
AcDbCircle
 10
645.384
 20
123.192
 30
0.0
 40
24.92550254794047
100
AcDbArc
 50
270.0
 51
0.0
  0
ARC
  5
A9
330
1F
100
AcDbEntity
  8
0
  6
Continuous
 62
     7
370
    25
100
AcDbCircle
 10
645.384
 20
458.192
 30
0.0
 40
24.92550254794037
100
AcDbArc
 50
0.0
 51
90.0
  0
LINE
  5
AA
330
1F
100
AcDbEntity
  8
0
  6
Continuous
 62
     7
370
    25
100
AcDbLine
 10
170.4584974521
 20
458.192
 30
0.0
 11
170.4584974521
 21
123.192
 31
0.0
  0
SPLINE
  5
AB
330
1F
100
AcDbEntity
  8
0
  6
Continuous
 62
     7
370
    25
100
AcDbSpline
210
0.0
220
0.0
230
1.0
 70
     8
 71
     3
 72
    15
 73
    11
 74
     0
 42
0.00000001
 43
0.00000001
 40
0.0
 40
0.0
 40
0.0
 40
0.0
 40
0.1277272325253091
 40
0.2500006214583818
 40
0.3758169428167403
 40
0.5000000007290396
 40
0.6241813055073816
 40
0.7499993797161484
 40
0.8722718189628171
 40
1.0
 40
1.0
 40
1.0
 40
1.0
 10
195.3839999999996
 20
105.406614277619
 30
0.0
 10
194.1963502918916
 20
105.478400283096
 30
0.0
 10
191.8717625024944
 20
105.6189070930102
 30
0.0
 10
188.5144979151704
 20
106.6894668816253
 30
0.0
 10
185.4456561366152
 20
108.3251817628641
 30
0.0
 10
182.7429515668196
 20
110.5509285956643
 30
0.0
 10
180.5171911875546
 20
113.2536420878819
 30
0.0
 10
178.8814759550805
 20
116.3224745349603
 30
0.0
 10
177.8109090083723
 20
119.6797535683318
 30
0.0
 10
177.67040128382
 20
122.0043414298769
 30
0.0
 10
177.5986142776183
 20
123.1920000000002
 30
0.0
  0
LINE
  5
AC
330
1F
100
AcDbEntity
  8
0
  6
Continuous
 62
     7
370
    25
100
AcDbLine
 10
195.384
 20
98.2664974521
 30
0.0
 11
195.384
 21
105.4066142776
 31
0.0
  0
LINE
  5
AD
330
1F
100
AcDbEntity
  8
0
  6
Continuous
 62
     7
370
    25
100
AcDbLine
 10
170.4584974521
 20
123.192
 30
0.0
 11
177.5986142776
 21
123.192
 31
0.0
  0
LINE
  5
AE
330
1F
100
AcDbEntity
  8
0
  6
Continuous
 62
     7
370
    25
100
AcDbLine
 10
178.0562545558
 20
458.1837611599
 30
0.0
 11
178.0379022189
 21
458.192
 31
0.0
  0
SPLINE
  5
AF
330
1F
100
AcDbEntity
  8
0
  6
Continuous
 62
     7
370
    25
100
AcDbSpline
210
0.0
220
0.0
230
1.0
 70
     8
 71
     3
 72
    13
 73
     9
 74
     0
 42
0.00000001
 43
0.00000001
 40
0.0
 40
0.0
 40
0.0
 40
0.0
 40
0.1664388343173432
 40
0.3328876642531633
 40
0.4993238510484158
 40
0.6662111549852957
 40
0.8331126449985612
 40
1.0
 40
1.0
 40
1.0
 40
1.0
 10
177.5986142776183
 20
123.1920000000004
 30
0.0
 10
177.668949715582
 20
141.7437378369745
 30
0.0
 10
177.8096248155607
 20
178.8483276505057
 30
0.0
 10
177.9618092331828
 20
234.5767930057559
 30
0.0
 10
178.0685597528687
 20
290.3929265995869
 30
0.0
 10
178.1206134332963
 20
346.2881505375478
 30
0.0
 10
178.1226013118016
 20
402.244706417081
 30
0.0
 10
178.0783695167829
 20
439.5379359998369
 30
0.0
 10
178.0562545558192
 20
458.183761159912
 30
0.0
  0
LINE
  5
B0
330
1F
100
AcDbEntity
  8
0
  6
Continuous
 62
     7
370
    25
100
AcDbLine
 10
170.4584974521
 20
458.192
 30
0.0
 11
178.0379022189
 21
458.192
 31
0.0
  0
LINE
  5
B1
330
1F
100
AcDbEntity
  8
0
  6
Continuous
 62
     7
370
    25
100
AcDbLine
 10
195.384
 20
105.4066142776
 30
0.0
 11
195.384
 21
105.4095048759
 31
0.0
  0
SPLINE
  5
B2
330
1F
100
AcDbEntity
  8
0
  6
Continuous
 62
     7
370
    25
100
AcDbSpline
210
0.0
220
0.0
230
1.0
 70
     8
 71
     3
 72
    15
 73
    11
 74
     0
 42
0.00000001
 43
0.00000001
 40
0.0
 40
0.0
 40
0.0
 40
0.0
 40
0.1228645840751189
 40
0.2457368046524807
 40
0.3685996278389463
 40
0.4917914502272778
 40
0.6149933900460935
 40
0.738185806191041
 40
0.8690728481063811
 40
1.0
 40
1.0
 40
1.0
 40
1.0
 10
645.383782758524
 20
105.4095048759217
 30
0.0
 10
626.9771644375563
 20
105.4718479522601
 30
0.0
 10
590.162783754129
 20
105.5965379797965
 30
0.0
 10
534.8780064872018
 20
105.7244708261986
 30
0.0
 10
479.5137677993781
 20
105.8066768926606
 30
0.0
 10
424.0797045147286
 20
105.8358566334797
 30
0.0
 10
368.5950978104888
 20
105.8132488519508
 30
0.0
 10
311.9733386340111
 20
105.7365287665298
 30
0.0
 10
254.22301991302
 20
105.6078106826016
 30
0.0
 10
214.9991545024102
 20
105.4756135623657
 30
0.0
 10
195.3842172457348
 20
105.4095048759371
 30
0.0
  0
LINE
  5
B3
330
1F
100
AcDbEntity
  8
0
  6
Continuous
 62
     7
370
    25
100
AcDbLine
 10
645.384
 20
105.4066142776
 30
0.0
 11
645.384
 21
105.4095048759
 31
0.0
  0
LINE
  5
B4
330
1F
100
AcDbEntity
  8
0
  6
Continuous
 62
     7
370
    25
100
AcDbLine
 10
645.384
 20
98.2664974521
 30
0.0
 11
645.384
 21
105.4066142776
 31
0.0
  0
SPLINE
  5
B5
330
1F
100
AcDbEntity
  8
0
  6
Continuous
 62
     7
370
    25
100
AcDbSpline
210
0.0
220
0.0
230
1.0
 70
     8
 71
     3
 72
    15
 73
    11
 74
     0
 42
0.00000001
 43
0.00000001
 40
0.0
 40
0.0
 40
0.0
 40
0.0
 40
0.1277272325169682
 40
0.2500006214583825
 40
0.3758169428091935
 40
0.5000000007290258
 40
0.6241813055287012
 40
0.7499993797161284
 40
0.8722718189865001
 40
0.9999999999999999
 40
0.9999999999999999
 40
0.9999999999999999
 40
0.9999999999999999
 10
663.1693857223809
 20
123.1920000000005
 30
0.0
 10
663.0975997169124
 20
122.0043502919707
 30
0.0
 10
662.9570929070063
 20
119.6797625025741
 30
0.0
 10
661.8865331184322
 20
116.3224979153069
 30
0.0
 10
660.250818237176
 20
113.2536561366768
 30
0.0
 10
658.0250714042642
 20
110.5509515667113
 30
0.0
 10
655.3223579119465
 20
108.3251911874415
 30
0.0
 10
652.2535254646554
 20
106.6894759549176
 30
0.0
 10
648.8962464314452
 20
105.6189090083253
 30
0.0
 10
646.5716585699018
 20
105.4784012837958
 30
0.0
 10
645.3839999999996
 20
105.406614277619
 30
0.0
  0
LINE
  5
B6
330
1F
100
AcDbEntity
  8
0
  6
Continuous
 62
     7
370
    25
100
AcDbLine
 10
670.3095025479
 20
123.192
 30
0.0
 11
663.1693857224
 21
123.192
 31
0.0
  0
LINE
  5
B7
330
1F
100
AcDbEntity
  8
0
  6
Continuous
 62
     7
370
    25
100
AcDbLine
 10
396.134
 20
481.4688123394
 30
0.0
 11
396.134
 21
480.317421302
 31
0.0
  0
ARC
  5
B8
330
1F
100
AcDbEntity
  8
0
  6
Continuous
 62
     7
370
    25
100
AcDbCircle
 10
396.8846847631
 20
485.0811679653
 30
0.0
 40
4.822531480997927
100
AcDbArc
 50
261.0448095014
 51
272.9633983003
  0
LINE
  5
B9
330
1F
100
AcDbEntity
  8
0
  6
Continuous
 62
     7
370
    25
100
AcDbLine
 10
397.134
 20
480.2650853458
 30
0.0
 11
443.634
 21
480.2650853458
 31
0.0
  0
ARC
  5
BA
330
1F
100
AcDbEntity
  8
0
  6
Continuous
 62
     7
370
    25
100
AcDbCircle
 10
443.8833152369
 20
485.0811679653
 30
0.0
 40
4.822531481022162
100
AcDbArc
 50
267.0366016998
 51
278.9551904985
  0
LINE
  5
BB
330
1F
100
AcDbEntity
  8
0
  6
Continuous
 62
     7
370
    25
100
AcDbLine
 10
444.634
 20
480.317421302
 30
0.0
 11
444.634
 21
481.4688123394
 31
0.0
  0
ARC
  5
BC
330
1F
100
AcDbEntity
  8
0
  6
Continuous
 62
     7
370
    25
100
AcDbCircle
 10
443.8833152369
 20
476.7050656761
 30
0.0
 40
4.82253148100329
100
AcDbArc
 50
81.0448095014
 51
92.9633983002
  0
LINE
  5
BD
330
1F
100
AcDbEntity
  8
0
  6
Continuous
 62
     7
370
    25
100
AcDbLine
 10
443.634
 20
481.5211482956
 30
0.0
 11
397.134
 21
481.5211482956
 31
0.0
  0
ARC
  5
BE
330
1F
100
AcDbEntity
  8
0
  6
Continuous
 62
     7
370
    25
100
AcDbCircle
 10
396.8846847631
 20
476.7050656761
 30
0.0
 40
4.822531480994507
100
AcDbArc
 50
87.0366016997
 51
98.9551904986
  0
SPLINE
  5
BF
330
1F
100
AcDbEntity
  8
0
  6
Continuous
 62
     7
370
    25
100
AcDbSpline
210
0.0
220
0.0
230
1.0
 70
     8
 71
     3
 72
    17
 73
    13
 74
     0
 42
0.00000001
 43
0.00000001
 40
0.0
 40
0.0
 40
0.0
 40
0.0
 40
0.1251758763215723
 40
0.2503512010402915
 40
0.3339006886820122
 40
0.4174527258850397
 40
0.5009984073784514
 40
0.584104370194409
 40
0.6672165500625097
 40
0.7503262304554917
 40
0.8751628434511923
 40
0.9999999999999999
 40
0.9999999999999999
 40
0.9999999999999999
 40
0.9999999999999999
 10
195.3839999999992
 20
475.5380977811008
 30
0.0
 10
214.1351773355595
 20
475.4699762063653
 30
0.0
 10
251.6374493773172
 20
475.33373335708
 30
0.0
 10
301.715138710265
 20
475.2024838654165
 30
0.0
 10
345.5715528328328
 20
475.1155744667197
 30
0.0
 10
383.1976913137196
 20
475.0669227822619
 30
0.0
 10
420.7677685869617
 20
475.0492024576062
 30
0.0
 10
458.2716393268026
 20
475.0676121812118
 30
0.0
 10
495.6994869006037
 20
475.1164457944453
 30
0.0
 10
539.3728655200034
 20
475.20327788382
 30
0.0
 10
589.2828170273106
 20
475.3342540092441
 30
0.0
 10
626.6835785346192
 20
475.4701497585312
 30
0.0
 10
645.3839999999996
 20
475.5380977811008
 30
0.0
  0
LINE
  5
C0
330
1F
100
AcDbEntity
  8
0
  6
Continuous
 62
     7
370
    25
100
AcDbLine
 10
195.384
 20
483.1175025479
 30
0.0
 11
195.384
 21
475.5380977811
 31
0.0
  0
LINE
  5
C1
330
1F
100
AcDbEntity
  8
0
  6
Continuous
 62
     7
370
    25
100
AcDbLine
 10
645.384
 20
483.1175025479
 30
0.0
 11
645.384
 21
475.5380977811
 31
0.0
  0
SPLINE
  5
C2
330
1F
100
AcDbEntity
  8
0
  6
Continuous
 62
     7
370
    25
100
AcDbSpline
210
0.0
220
0.0
230
1.0
 70
     8
 71
     3
 72
    13
 73
     9
 74
     0
 42
0.00000001
 43
0.00000001
 40
0.0
 40
0.0
 40
0.0
 40
0.0
 40
0.174326166382849
 40
0.3486518694586365
 40
0.5232330571069536
 40
0.6978153437318656
 40
0.8488916051091491
 40
1.0
 40
1.0
 40
1.0
 40
1.0
 10
662.7117454441394
 20
458.183761132194
 30
0.0
 10
662.6887811527433
 20
438.7067127662582
 30
0.0
 10
662.6428526309834
 20
399.7526677985839
 30
0.0
 10
662.6486324622616
 20
341.2746110819429
 30
0.0
 10
662.7101648471373
 20
282.7822084377137
 30
0.0
 10
662.8250094708154
 20
226.9193540307537
 30
0.0
 10
662.9768783333506
 20
173.7158131489682
 30
0.0
 10
663.1052120438154
 20
140.0344649113546
 30
0.0
 10
663.1693857223809
 20
123.1920000000005
 30
0.0
  0
LINE
  5
C3
330
1F
100
AcDbEntity
  8
0
  6
Continuous
 62
     7
370
    25
100
AcDbLine
 10
662.7300977811
 20
458.192
 30
0.0
 11
662.7117454441
 21
458.1837611322
 31
0.0
  0
LINE
  5
C4
330
1F
100
AcDbEntity
  8
0
  6
Continuous
 62
     7
370
    25
100
AcDbLine
 10
670.3095025479
 20
458.192
 30
0.0
 11
662.7300977811
 21
458.192
 31
0.0
  0
SPLINE
  5
C5
330
1F
100
AcDbEntity
  8
0
  6
Continuous
 62
     7
370
    25
100
AcDbSpline
210
0.0
220
0.0
230
1.0
 70
     8
 71
     3
 72
    15
 73
    11
 74
     0
 42
0.00000001
 43
0.00000001
 40
0.0
 40
0.0
 40
0.0
 40
0.0
 40
0.1277272200578695
 40
0.2500006214633581
 40
0.375816920702737
 40
0.5000000007368511
 40
0.6241812827831911
 40
0.7499993797211877
 40
0.8722718058164892
 40
1.0
 40
1.0
 40
1.0
 40
1.0
 10
645.3839999999996
 20
475.5380977811008
 30
0.0
 10
646.5423153870023
 20
475.4680848580376
 30
0.0
 10
648.8094873059567
 20
475.3310484904695
 30
0.0
 10
652.0838293733531
 20
474.2869309506603
 30
0.0
 10
655.0768727916009
 20
472.6916172096651
 30
0.0
 10
657.7128221291457
 20
470.5208451065597
 30
0.0
 10
659.883607782309
 20
467.8848868444686
 30
0.0
 10
661.4789218689617
 20
464.8918527706352
 30
0.0
 10
662.5230465719944
 20
461.6174962549339
 30
0.0
 10
662.6600838556859
 20
459.3503242635275
 30
0.0
 10
662.7300977811002
 20
458.1920000000004
 30
0.0
  0
SPLINE
  5
C6
330
1F
100
AcDbEntity
  8
0
  6
Continuous
 62
     7
370
    25
100
AcDbSpline
210
0.0
220
0.0
230
1.0
 70
     8
 71
     3
 72
    15
 73
    11
 74
     0
 42
0.00000001
 43
0.00000001
 40
0.0
 40
0.0
 40
0.0
 40
0.0
 40
0.1277272200198264
 40
0.2500006214633611
 40
0.3758169206686183
 40
0.5000000007368587
 40
0.6241812827856021
 40
0.7499993797211945
 40
0.8722718058192171
 40
1.0
 40
1.0
 40
1.0
 40
1.0
 10
178.037902218899
 20
458.1920000000002
 30
0.0
 10
178.1079151419234
 20
459.3503153866566
 30
0.0
 10
178.244951509456
 20
461.6174873056081
 30
0.0
 10
179.2890690490827
 20
464.8918293727529
 30
0.0
 10
180.884382790157
 20
467.8848727913335
 30
0.0
 10
183.0551548932138
 20
470.5208221289668
 30
0.0
 10
185.6911131555498
 20
472.6916077823217
 30
0.0
 10
188.6841472294072
 20
474.286921868981
 30
0.0
 10
191.9585037450908
 20
475.3310465720004
 30
0.0
 10
194.225675736497
 20
475.4680838556894
 30
0.0
 10
195.3839999999992
 20
475.5380977811008
 30
0.0
  0
LINE
  5
C7
330
1F
100
AcDbEntity
  8
0
  6
Continuous
 62
     7
370
    25
100
AcDbLine
 10
443.634
 20
480.2650853458
 30
0.0
 11
443.634
 21
481.0639889736
 31
0.0
  0
ARC
  5
C8
330
1F
100
AcDbEntity
  8
0
  6
Continuous
 62
     7
370
    25
100
AcDbCircle
 10
443.8833152369
 20
485.8800715931
 30
0.0
 40
4.822531480995633
100
AcDbArc
 50
267.0366016997
 51
278.9551904986
  0
LINE
  5
C9
330
1F
100
AcDbEntity
  8
0
  6
Continuous
 62
     7
370
    25
100
AcDbLine
 10
397.134
 20
480.2650853458
 30
0.0
 11
397.134
 21
481.0639889736
 31
0.0
  0
ARC
  5
CA
330
1F
100
AcDbEntity
  8
0
  6
Continuous
 62
     7
370
    25
100
AcDbCircle
 10
396.8846847631
 20
485.8800715931
 30
0.0
 40
4.822531481002882
100
AcDbArc
 50
261.0448095014
 51
272.9633983002
  0
LINE
  5
CB
330
1F
100
AcDbEntity
  8
0
  6
Continuous
 62
     7
370
    25
100
AcDbLine
 10
397.134
 20
481.0639889736
 30
0.0
 11
443.634
 21
481.0639889736
 31
0.0
  0
LINE
  5
CC
330
1F
100
AcDbEntity
  8
0
  6
Continuous
 62
     7
370
    25
100
AcDbLine
 10
177.5986142776
 20
123.192
 30
0.0
 11
177.609352568
 21
123.1815572161
 31
0.0
  0
SPLINE
  5
CD
330
1F
100
AcDbEntity
  8
0
  6
Continuous
 62
     7
370
    25
100
AcDbSpline
210
0.0
220
0.0
230
1.0
 70
     8
 71
     3
 72
    20
 73
    16
 74
     0
 42
0.00000001
 43
0.00000001
 40
0.0
 40
0.0
 40
0.0
 40
0.0
 40
0.1265538351271533
 40
0.2499651511273781
 40
0.3327392171227722
 40
0.4158538357331396
 40
0.5003221320401964
 40
0.5610880491730161
 40
0.6245274612536197
 40
0.6852800061033378
 40
0.7501864226771662
 40
0.8087868269621448
 40
0.8744853467532699
 40
0.9261837418184963
 40
1.0
 40
1.0
 40
1.0
 40
1.0
 10
178.0562545558191
 20
458.1837611599128
 30
0.0
 10
178.2233033740481
 20
458.1644991959054
 30
0.0
 10
178.553252940984
 20
458.1264535709795
 30
0.0
 10
179.9414040043089
 20
457.7669714186209
 30
0.0
 10
181.5823045270909
 20
457.3074626149773
 30
0.0
 10
183.3199603909191
 20
456.8006797253936
 30
0.0
 10
185.1582589526982
 20
456.2493803659976
 30
0.0
 10
187.0143326062297
 20
455.6822268129881
 30
0.0
 10
188.7791036810775
 20
455.1363808689471
 30
0.0
 10
190.6894911408007
 20
454.5388303358708
 30
0.0
 10
192.6414648471001
 20
453.9236808947316
 30
0.0
 10
194.7200999013252
 20
453.2636773548051
 30
0.0
 10
196.7113308903576
 20
452.629478036438
 30
0.0
 10
198.9153775267936
 20
451.9240870476805
 30
0.0
 10
200.3875306827022
 20
451.4533806681012
 30
0.0
 10
201.2533167453514
 20
451.1765541562644
 30
0.0
  0
SPLINE
  5
CE
330
1F
100
AcDbEntity
  8
0
  6
Continuous
 62
     7
370
    25
100
AcDbSpline
210
0.0
220
0.0
230
1.0
 70
     8
 71
     3
 72
    14
 73
    10
 74
     0
 42
0.00000001
 43
0.00000001
 40
0.0
 40
0.0
 40
0.0
 40
0.0
 40
0.1309789573715837
 40
0.2858646411209322
 40
0.4407504608655947
 40
0.5957964847574363
 40
0.7508431028875983
 40
0.8754133849895989
 40
1.0
 40
1.0
 40
1.0
 40
1.0
 10
201.2533167453514
 20
451.1765541562644
 30
0.0
 10
201.2616797230208
 20
437.0830689575014
 30
0.0
 10
201.2799321175899
 20
406.3237075353622
 30
0.0
 10
201.2831037020323
 20
358.8852264120099
 30
0.0
 10
201.2667808251211
 20
308.8618052854621
 30
0.0
 10
201.2239374101406
 20
258.837694213109
 30
0.0
 10
201.1510099452811
 20
212.1025643384609
 30
0.0
 10
201.0539133127313
 20
168.6699374589182
 30
0.0
 10
200.9719261569142
 20
141.9226608958876
 30
0.0
 10
200.9309298917657
 20
128.5481459362168
 30
0.0
  0
SPLINE
  5
CF
330
1F
100
AcDbEntity
  8
0
  6
Continuous
 62
     7
370
    25
100
AcDbSpline
210
0.0
220
0.0
230
1.0
 70
     8
 71
     3
 72
    17
 73
    13
 74
     0
 42
0.00000001
 43
0.00000001
 40
0.0
 40
0.0
 40
0.0
 40
0.0
 40
0.1266110475050756
 40
0.2500847048582533
 40
0.3750083979564965
 40
0.5003590782846352
 40
0.624492980970442
 40
0.7500930130890686
 40
0.8087193561428726
 40
0.8744277139388283
 40
0.9260765151140335
 40
1.0
 40
1.0
 40
1.0
 40
1.0
 10
177.6093525680138
 20
123.1815572161249
 30
0.0
 10
177.787299296776
 20
123.1219098626731
 30
0.0
 10
178.1387832787813
 20
123.0040932022982
 30
0.0
 10
179.7211007638942
 20
123.1615104350101
 30
0.0
 10
181.9843498883523
 20
123.5545432336456
 30
0.0
 10
184.9272156105897
 20
124.194512330399
 30
0.0
 10
188.4145769160453
 20
125.0483912696668
 30
0.0
 10
191.6337413953608
 20
125.900542752832
 30
0.0
 10
194.3849213470943
 20
126.6602440673013
 30
0.0
 10
196.3798587905624
 20
127.2234708442163
 30
0.0
 10
198.5882953400012
 20
127.8596041414569
 30
0.0
 10
200.0628628191729
 20
128.2930056456903
 30
0.0
 10
200.9309298917656
 20
128.5481459362169
 30
0.0
  0
SPLINE
  5
D0
330
1F
100
AcDbEntity
  8
0
  6
Continuous
 62
     7
370
    25
100
AcDbSpline
210
0.0
220
0.0
230
1.0
 70
     8
 71
     3
 72
    20
 73
    16
 74
     0
 42
0.00000001
 43
0.00000001
 40
0.0
 40
0.0
 40
0.0
 40
0.0
 40
0.126556252940611
 40
0.249976038970315
 40
0.3327727179852602
 40
0.4158974924307132
 40
0.5003382796972766
 40
0.5611196056253217
 40
0.624538573116369
 40
0.6853094740952352
 40
0.7502030107405545
 40
0.8088034325129292
 40
0.8744829229385443
 40
0.9261303508225135
 40
0.9999999999999999
 40
0.9999999999999999
 40
0.9999999999999999
 40
0.9999999999999999
 10
195.3842172457348
 20
105.4095048759371
 30
0.0
 10
195.3363126514815
 20
105.5753506748938
 30
0.0
 10
195.2416906913516
 20
105.9029320858459
 30
0.0
 10
195.4117125130536
 20
107.2809632636513
 30
0.0
 10
195.7067782039933
 20
108.9117815088761
 30
0.0
 10
196.072729729542
 20
110.6401695235525
 30
0.0
 10
196.4992796601967
 20
112.4704658108871
 30
0.0
 10
196.9569019115455
 20
114.3199066410993
 30
0.0
 10
197.4099356253929
 20
116.0801085485778
 30
0.0
 10
197.9175376849172
 20
117.9866744594432
 30
0.0
 10
198.4507153572301
 20
119.9362804464649
 30
0.0
 10
199.0326417421621
 20
122.0132395349284
 30
0.0
 10
199.6005783844032
 20
124.0034370385105
 30
0.0
 10
200.2405350816555
 20
126.2078958448976
 30
0.0
 10
200.6751494625525
 20
127.681120048916
 30
0.0
 10
200.9309298917656
 20
128.5481459362168
 30
0.0
  0
SPLINE
  5
D1
330
1F
100
AcDbEntity
  8
0
  6
Continuous
 62
     7
370
    25
100
AcDbSpline
210
0.0
220
0.0
230
1.0
 70
     8
 71
     3
 72
    15
 73
    11
 74
     0
 42
0.00000001
 43
0.00000001
 40
0.0
 40
0.0
 40
0.0
 40
0.0
 40
0.1269045527305713
 40
0.2538425351363233
 40
0.3780352408674306
 40
0.5022370350306854
 40
0.6264291606887746
 40
0.7509491584005913
 40
0.8754783507243876
 40
0.9999999999999999
 40
0.9999999999999999
 40
0.9999999999999999
 40
0.9999999999999999
 10
200.9309298917656
 20
128.5481459362169
 30
0.0
 10
219.475706918766
 20
128.5963245582222
 30
0.0
 10
256.5701461077675
 20
128.6926944936267
 30
0.0
 10
311.8748944587755
 20
128.7759357314121
 30
0.0
 10
366.8124085977528
 20
128.8235934659708
 30
0.0
 10
421.3652837777377
 20
128.8369882047524
 30
0.0
 10
475.9659177657825
 20
128.8212389541435
 30
0.0
 10
530.5962275640859
 20
128.7736483998951
 30
0.0
 10
585.2466583194736
 20
128.6895287073954
 30
0.0
 10
621.6406336022987
 20
128.5952725750254
 30
0.0
 10
639.8370701082334
 20
128.5481459362169
 30
0.0
  0
SPLINE
  5
D2
330
1F
100
AcDbEntity
  8
0
  6
Continuous
 62
     7
370
    25
100
AcDbSpline
210
0.0
220
0.0
230
1.0
 70
     8
 71
     3
 72
    17
 73
    13
 74
     0
 42
0.00000001
 43
0.00000001
 40
0.0
 40
0.0
 40
0.0
 40
0.0
 40
0.1266118421129018
 40
0.250085840621612
 40
0.3750095315866855
 40
0.5003599863629888
 40
0.624493578817838
 40
0.7500933215280838
 40
0.8087192574812769
 40
0.874427823475714
 40
0.9260455737944874
 40
1.0
 40
1.0
 40
1.0
 40
1.0
 10
645.383782758524
 20
105.4095048759217
 30
0.0
 10
645.4316234283726
 20
105.5755835380872
 30
0.0
 10
645.5261191243147
 20
105.903624905655
 30
0.0
 10
645.3355347506235
 20
107.4524820615165
 30
0.0
 10
644.9122038228242
 20
109.6850881885123
 30
0.0
 10
644.2456767531575
 20
112.6010090892484
 30
0.0
 10
643.3697402544975
 20
116.0659066126977
 30
0.0
 10
642.5036658111325
 20
119.270805647657
 30
0.0
 10
641.7353981918357
 20
122.0131491122825
 30
0.0
 10
641.1675861523144
 20
124.0028621979459
 30
0.0
 10
640.5276365280577
 20
126.2072737758312
 30
0.0
 10
640.0930281741566
 20
127.6805029499017
 30
0.0
 10
639.8370701082335
 20
128.5481459362168
 30
0.0
  0
SPLINE
  5
D3
330
1F
100
AcDbEntity
  8
0
  6
Continuous
 62
     7
370
    25
100
AcDbSpline
210
0.0
220
0.0
230
1.0
 70
     8
 71
     3
 72
    19
 73
    15
 74
     0
 42
0.00000001
 43
0.00000001
 40
0.0
 40
0.0
 40
0.0
 40
0.0
 40
0.0608674295710719
 40
0.1075448791807601
 40
0.1526926496740189
 40
0.2035546233994834
 40
0.2498841106349462
 40
0.3354901668717921
 40
0.418118753493894
 40
0.4997447961163755
 40
0.6250694535624725
 40
0.7499672129501783
 40
0.8734152375639438
 40
1.0
 40
1.0
 40
1.0
 40
1.0
 10
639.8370701082334
 20
128.5481459362169
 30
0.0
 10
640.5520819535359
 20
128.3377815240071
 30
0.0
 10
641.8154154482758
 20
127.9660948033016
 30
0.0
 10
643.5860082839364
 20
127.4540516560035
 30
0.0
 10
645.2190295133628
 20
126.9881737750772
 30
0.0
 10
646.818520711504
 20
126.5397228177494
 30
0.0
 10
648.8240903136451
 20
125.9873097473311
 30
0.0
 10
651.0895197853579
 20
125.3819415728897
 30
0.0
 10
653.5545853010308
 20
124.7527745170091
 30
0.0
 10
656.1739744189505
 20
124.1220940578701
 30
0.0
 10
658.7838975505905
 20
123.5544769978721
 30
0.0
 10
661.0468342464453
 20
123.1615275996872
 30
0.0
 10
662.6292333700407
 20
123.0040886581267
 30
0.0
 10
662.9807062995321
 20
123.1219083326631
 30
0.0
 10
663.1586474320023
 20
123.1815572118659
 30
0.0
  0
SPLINE
  5
D4
330
1F
100
AcDbEntity
  8
0
  6
Continuous
 62
     7
370
    25
100
AcDbSpline
210
0.0
220
0.0
230
1.0
 70
     8
 71
     3
 72
    13
 73
     9
 74
     0
 42
0.00000001
 43
0.00000001
 40
0.0
 40
0.0
 40
0.0
 40
0.0
 40
0.1467168306652291
 40
0.2934600629632738
 40
0.4699775802484282
 40
0.6464941241811079
 40
0.823246899276788
 40
0.9999999999999999
 40
0.9999999999999999
 40
0.9999999999999999
 40
0.9999999999999999
 10
639.8370701082334
 20
128.5481459362168
 30
0.0
 10
639.7893187251933
 20
144.2990184101495
 30
0.0
 10
639.6938073662719
 20
175.8035977209825
 30
0.0
 10
639.5900749476093
 20
226.3132110391912
 30
0.0
 10
639.5202410199961
 20
280.0620423430053
 30
0.0
 10
639.4889902310078
 20
337.0699551784862
 30
0.0
 10
639.4825184277577
 20
394.1178475781924
 30
0.0
 10
639.5039616391002
 20
432.1569736171514
 30
0.0
 10
639.5146832546477
 20
451.1765541562644
 30
0.0
  0
SPLINE
  5
D5
330
1F
100
AcDbEntity
  8
0
  6
Continuous
 62
     7
370
    25
100
AcDbSpline
210
0.0
220
0.0
230
1.0
 70
     8
 71
     3
 72
    19
 73
    15
 74
     0
 42
0.00000001
 43
0.00000001
 40
0.0
 40
0.0
 40
0.0
 40
0.0
 40
0.060865924755985
 40
0.1075425235575552
 40
0.1527013716030643
 40
0.2035745727291735
 40
0.2499005732353057
 40
0.335518332147709
 40
0.4181488655979352
 40
0.4997608126338657
 40
0.6250983058137334
 40
0.7499765142157248
 40
0.8734166304077369
 40
1.0
 40
1.0
 40
1.0
 40
1.0
 10
639.5146832546477
 20
451.1765541562644
 30
0.0
 10
640.228540795401
 20
451.4048195886862
 30
0.0
 10
641.4898383391578
 20
451.8081362349379
 30
0.0
 10
643.2569645457846
 20
452.373587688174
 30
0.0
 10
644.8866290976706
 20
452.8939218009989
 30
0.0
 10
646.4824748699843
 20
453.4017546876728
 30
0.0
 10
648.4830583875346
 20
454.0364964504645
 30
0.0
 10
650.7422247428965
 20
454.7477727924207
 30
0.0
 10
653.1995959497254
 20
455.5123605458084
 30
0.0
 10
655.8096682891761
 20
456.3116182766034
 30
0.0
 10
658.407676319166
 20
457.0863050292684
 30
0.0
 10
660.65373288853
 20
457.7223362384147
 30
0.0
 10
662.2140632249123
 20
458.1262429218765
 30
0.0
 10
662.5444667783463
 20
458.164428375047
 30
0.0
 10
662.7117454441394
 20
458.183761132194
 30
0.0
  0
LINE
  5
D6
330
1F
100
AcDbEntity
  8
0
  6
Continuous
 62
     7
370
    25
100
AcDbLine
 10
663.158647432
 20
123.1815572119
 30
0.0
 11
663.1693857224
 21
123.192
 31
0.0
  0
LINE
  5
D7
330
1F
100
AcDbEntity
  8
0
  6
Continuous
 62
     7
370
    25
100
AcDbLine
 10
195.3259268359
 20
475.4520904317
 30
0.0
 11
195.384
 21
475.5380977811
 31
0.0
  0
LINE
  5
D8
330
1F
100
AcDbEntity
  8
0
  6
Continuous
 62
     7
370
    25
100
AcDbLine
 10
645.4420731364
 20
475.4520904316
 30
0.0
 11
645.384
 21
475.5380977811
 31
0.0
  0
SPLINE
  5
D9
330
1F
100
AcDbEntity
  8
0
  6
Continuous
 62
     7
370
    25
100
AcDbSpline
210
0.0
220
0.0
230
1.0
 70
     8
 71
     3
 72
    19
 73
    15
 74
     0
 42
0.00000001
 43
0.00000001
 40
0.0
 40
0.0
 40
0.0
 40
0.0
 40
0.0608741305382309
 40
0.1075484788096387
 40
0.1527005278613015
 40
0.2035734358215402
 40
0.2499032095553795
 40
0.3355205804444586
 40
0.4181530964394185
 40
0.4997690907169804
 40
0.6251088724482767
 40
0.7499873174092684
 40
0.8734243250471385
 40
1.0
 40
1.0
 40
1.0
 40
1.0
 10
639.5146832546477
 20
451.1765541562644
 30
0.0
 10
639.7396721024295
 20
451.8936126150538
 30
0.0
 10
640.1371678549623
 20
453.160465147953
 30
0.0
 10
640.6862824212438
 20
454.9434408476698
 30
0.0
 10
641.1868568641427
 20
456.592305240388
 30
0.0
 10
641.6698786420783
 20
458.2125294713836
 30
0.0
 10
642.2664369050827
 20
460.2508942265053
 30
0.0
 10
642.922857241957
 20
462.5645459042792
 30
0.0
 10
643.6094164529387
 20
465.0996484006314
 30
0.0
 10
644.3032098305041
 20
467.8150286226132
 30
0.0
 10
644.93677764121
 20
470.5542053583143
 30
0.0
 10
645.391032289838
 20
472.9823810000985
 30
0.0
 10
645.5957411878119
 20
474.7424952779902
 30
0.0
 10
645.4937227345409
 20
475.2135873453535
 30
0.0
 10
645.4420731364221
 20
475.4520904315714
 30
0.0
  0
SPLINE
  5
DA
330
1F
100
AcDbEntity
  8
0
  6
Continuous
 62
     7
370
    25
100
AcDbSpline
210
0.0
220
0.0
230
1.0
 70
     8
 71
     3
 72
    17
 73
    13
 74
     0
 42
0.00000001
 43
0.00000001
 40
0.0
 40
0.0
 40
0.0
 40
0.0
 40
0.096383408263382
 40
0.1969881951147593
 40
0.2975925354910615
 40
0.3982786070880069
 40
0.4989623615728406
 40
0.5824100541296017
 40
0.6658636207102462
 40
0.7493146815593678
 40
0.8746570506974048
 40
1.0
 40
1.0
 40
1.0
 40
1.0
 10
639.5146832546477
 20
451.1765541562644
 30
0.0
 10
625.4531163293528
 20
451.1352311779791
 30
0.0
 10
596.714117169561
 20
451.0507753670067
 30
0.0
 10
553.2586957753489
 20
450.9721136034348
 30
0.0
 10
509.1507773982319
 20
450.9368392733192
 30
0.0
 10
465.0090740176946
 20
450.9794750637388
 30
0.0
 10
423.3596210895868
 20
451.0223663869639
 30
0.0
 10
384.2301224932691
 20
450.9939954495999
 30
0.0
 10
347.630044447349
 20
450.9550031580989
 30
0.0
 10
304.9225926412904
 20
450.947473219186
 30
0.0
 10
256.1163729986089
 20
451.0193836541786
 30
0.0
 10
219.5410303787139
 20
451.124163908071
 30
0.0
 10
201.2533167453514
 20
451.1765541562644
 30
0.0
  0
SPLINE
  5
DB
330
1F
100
AcDbEntity
  8
0
  6
Continuous
 62
     7
370
    25
100
AcDbSpline
210
0.0
220
0.0
230
1.0
 70
     8
 71
     3
 72
    19
 73
    15
 74
     0
 42
0.00000001
 43
0.00000001
 40
0.0
 40
0.0
 40
0.0
 40
0.0
 40
0.0608897064890793
 40
0.1075588614777369
 40
0.1527012962311238
 40
0.2035745910404096
 40
0.2499032051395104
 40
0.3355216991918093
 40
0.4181542219026247
 40
0.4997690875792219
 40
0.6251088699861918
 40
0.749987316123601
 40
0.8734243248472517
 40
1.0
 40
1.0
 40
1.0
 40
1.0
 10
201.2533167453513
 20
451.1765541562644
 30
0.0
 10
201.0282715864122
 20
451.8937964468167
 30
0.0
 10
200.6307396804091
 20
453.1607719115336
 30
0.0
 10
200.0816229605498
 20
454.9437509116627
 30
0.0
 10
199.5811012558085
 20
456.5924457616463
 30
0.0
 10
199.098114577503
 20
458.2125511256579
 30
0.0
 10
198.5015558990129
 20
460.2509192373695
 30
0.0
 10
197.8451352746499
 20
462.5645698041035
 30
0.0
 10
197.1585781424419
 20
465.0996701377455
 30
0.0
 10
196.4647875702525
 20
467.8150378352775
 30
0.0
 10
195.8312221705394
 20
470.5542053553184
 30
0.0
 10
195.376967488102
 20
472.982380987641
 30
0.0
 10
195.1722586834379
 20
474.7424952802268
 30
0.0
 10
195.2742772039451
 20
475.2135873467416
 30
0.0
 10
195.3259268359201
 20
475.4520904316798
 30
0.0
  0
SPLINE
  5
DC
330
1F
100
AcDbEntity
  8
0
  6
Continuous
 62
     7
370
    25
100
AcDbSpline
210
0.0
220
0.0
230
1.0
 70
     8
 71
     3
 72
    15
 73
    11
 74
     0
 42
0.00000001
 43
0.00000001
 40
0.0
 40
0.0
 40
0.0
 40
0.0
 40
0.12501181514495
 40
0.2500136578301063
 40
0.3750085946840321
 40
0.5000000004314444
 40
0.6249914061629173
 40
0.7499863429688114
 40
0.874988184353864
 40
0.9999999999999999
 40
0.9999999999999999
 40
0.9999999999999999
 40
0.9999999999999999
 10
195.3842172457348
 20
105.4095048759371
 30
0.0
 10
194.2233618415752
 20
105.4788618656616
 30
0.0
 10
191.9017436371736
 20
105.6175703123551
 30
0.0
 10
188.5522413797248
 20
106.679103391265
 30
0.0
 10
185.4637310475417
 20
108.3237651745501
 30
0.0
 10
182.7558875610457
 20
110.5508274700283
 30
0.0
 10
180.5281905520176
 20
113.2585247758334
 30
0.0
 10
178.8824202783426
 20
116.3473945418748
 30
0.0
 10
177.8193749269698
 20
119.6977109145434
 30
0.0
 10
177.679361882933
 20
122.0202442298803
 30
0.0
 10
177.6093525680138
 20
123.1815572161251
 30
0.0
  0
SPLINE
  5
DD
330
1F
100
AcDbEntity
  8
0
  6
Continuous
 62
     7
370
    25
100
AcDbSpline
210
0.0
220
0.0
230
1.0
 70
     8
 71
     3
 72
    15
 73
    11
 74
     0
 42
0.00000001
 43
0.00000001
 40
0.0
 40
0.0
 40
0.0
 40
0.0
 40
0.1250118161848867
 40
0.2500136570302356
 40
0.3750085938317071
 40
0.4999999995622449
 40
0.624991405310592
 40
0.7499863421689407
 40
0.8749881853938019
 40
1.0
 40
1.0
 40
1.0
 40
1.0
 10
645.3837827585261
 20
105.4095048759217
 30
0.0
 10
646.5446381721205
 20
105.4788618666684
 30
0.0
 10
648.8662563686505
 20
105.6175703138086
 30
0.0
 10
652.2157586167269
 20
106.679103390241
 30
0.0
 10
655.3042689346504
 20
108.3237651607173
 30
0.0
 10
658.0121124230984
 20
110.5508274516866
 30
0.0
 10
660.2398094355686
 20
113.2585247542428
 30
0.0
 10
661.8855797212691
 20
116.3473945330677
 30
0.0
 10
662.948625074616
 20
119.6977109135109
 30
0.0
 10
663.0886381181441
 20
122.0202442356137
 30
0.0
 10
663.1586474320023
 20
123.1815572118659
 30
0.0
  0
CIRCLE
  5
DE
330
1F
100
AcDbEntity
  8
0
  6
Continuous
 62
     7
370
    25
100
AcDbCircle
 10
420.384
 20
373.192
 30
0.0
 40
70.00000000000006
  0
SPLINE
  5
DF
330
1F
100
AcDbEntity
  8
0
  6
Continuous
 62
     7
370
    25
100
AcDbSpline
210
0.0
220
0.0
230
1.0
 70
     8
 71
     3
 72
    15
 73
    11
 74
     0
 42
0.00000001
 43
0.00000001
 40
0.0
 40
0.0
 40
0.0
 40
0.0
 40
0.1250638917192742
 40
0.2500737150567455
 40
0.3750463337802007
 40
0.500000000406884
 40
0.6249536670428705
 40
0.7499262857390461
 40
0.8749361104366917
 40
0.9999999999999999
 40
0.9999999999999999
 40
0.9999999999999999
 40
0.9999999999999999
 10
178.0562545558196
 20
458.1837611599161
 30
0.0
 10
178.1257265458126
 20
459.3086141671078
 30
0.0
 10
178.2646404912455
 20
461.5578338782023
 30
0.0
 10
179.2997318368568
 20
464.803109274166
 30
0.0
 10
180.8989871773361
 20
467.7962970051508
 30
0.0
 10
183.0617271329687
 20
470.4226760272849
 30
0.0
 10
185.689870562982
 20
472.586807812683
 30
0.0
 10
188.6879803914999
 20
474.1906277173251
 30
0.0
 10
191.9409430145158
 20
475.2330728161136
 30
0.0
 10
194.1974362807264
 20
475.3790740382114
 30
0.0
 10
195.3259268359201
 20
475.4520904316798
 30
0.0
  0
SPLINE
  5
E0
330
1F
100
AcDbEntity
  8
0
  6
Continuous
 62
     7
370
    25
100
AcDbSpline
210
0.0
220
0.0
230
1.0
 70
     8
 71
     3
 72
    15
 73
    11
 74
     0
 42
0.00000001
 43
0.00000001
 40
0.0
 40
0.0
 40
0.0
 40
0.0
 40
0.1250638927381372
 40
0.250073714273315
 40
0.3750463329455619
 40
0.4999999995557918
 40
0.6249536662082659
 40
0.7499262849556629
 40
0.8749361114556025
 40
0.9999999999999999
 40
0.9999999999999999
 40
0.9999999999999999
 40
0.9999999999999999
 10
662.7117454441392
 20
458.1837611321971
 30
0.0
 10
662.6422734530306
 20
459.3086141504034
 30
0.0
 10
662.5033595069342
 20
461.5578338581523
 30
0.0
 10
661.4682681617915
 20
464.803109251177
 30
0.0
 10
659.8690128305628
 20
467.7962969740959
 30
0.0
 10
657.7062728752429
 20
470.4226760028781
 30
0.0
 10
655.0781294434967
 20
472.5868077954869
 30
0.0
 10
652.0800195973276
 20
474.1906277145046
 30
0.0
 10
648.8270569609615
 20
475.2330728171038
 30
0.0
 10
646.5705636841757
 20
475.3790740390183
 30
0.0
 10
645.4420731364221
 20
475.4520904315714
 30
0.0
  0
CIRCLE
  5
E1
330
1F
100
AcDbEntity
  8
0
  6
Continuous
 62
     7
370
    25
100
AcDbCircle
 10
420.384
 20
373.192
 30
0.0
 40
58.94765075494621
  0
CIRCLE
  5
E2
330
1F
100
AcDbEntity
  8
0
  6
Continuous
 62
     7
370
    25
100
AcDbCircle
 10
420.384
 20
373.192
 30
0.0
 40
57.49999999999989
  0
CIRCLE
  5
E3
330
1F
100
AcDbEntity
  8
0
  6
Continuous
 62
     7
370
    25
100
AcDbCircle
 10
420.384
 20
373.192
 30
0.0
 40
56.58715574274765
  0
CIRCLE
  5
E4
330
1F
100
AcDbEntity
  8
0
  6
Continuous
 62
     7
370
    25
100
AcDbCircle
 10
420.384
 20
373.192
 30
0.0
 40
44.99999999999994
  0
LINE
  5
E5
330
1F
100
AcDbEntity
  8
0
  6
Continuous
 62
     7
370
    25
100
AcDbLine
 10
892.384
 20
103.192
 30
0.0
 11
891.6178744107
 21
103.192
 31
0.0
  0
LINE
  5
E6
330
1F
100
AcDbEntity
  8
0
  6
Continuous
 62
     7
370
    25
100
AcDbLine
 10
891.6178744107
 20
103.192
 30
0.0
 11
891.6178744107
 21
322.192
 31
0.0
  0
LINE
  5
E7
330
1F
100
AcDbEntity
  8
0
  6
Continuous
 62
     7
370
    25
100
AcDbLine
 10
892.384
 20
322.192
 30
0.0
 11
891.6178744107
 21
322.192
 31
0.0
  0
LINE
  5
E8
330
1F
100
AcDbEntity
  8
0
  6
Continuous
 62
     7
370
    25
100
AcDbLine
 10
892.384
 20
103.192
 30
0.0
 11
892.384
 21
322.192
 31
0.0
  0
ARC
  5
E9
330
1F
100
AcDbEntity
  8
0
  6
Continuous
 62
     7
370
    25
100
AcDbCircle
 10
144.384
 20
572.192
 30
0.0
 40
10.0
100
AcDbArc
 50
90.0
 51
180.0
  0
LINE
  5
EA
330
1F
100
AcDbEntity
  8
0
  6
Continuous
 62
     7
370
    25
100
AcDbLine
 10
900.384
 20
582.192
 30
0.0
 11
144.384
 21
582.192
 31
0.0
  0
ARC
  5
EB
330
1F
100
AcDbEntity
  8
0
  6
Continuous
 62
     7
370
    25
100
AcDbCircle
 10
900.384
 20
572.192
 30
0.0
 40
10.0
100
AcDbArc
 50
0.0
 51
90.0
  0
LINE
  5
EC
330
1F
100
AcDbEntity
  8
0
  6
Continuous
 62
     7
370
    25
100
AcDbLine
 10
910.384
 20
72.192
 30
0.0
 11
910.384
 21
572.192
 31
0.0
  0
ARC
  5
ED
330
1F
100
AcDbEntity
  8
0
  6
Continuous
 62
     7
370
    25
100
AcDbCircle
 10
900.384
 20
72.192
 30
0.0
 40
10.00000000000001
100
AcDbArc
 50
270.0
 51
0.0
  0
LINE
  5
EE
330
1F
100
AcDbEntity
  8
0
  6
Continuous
 62
     7
370
    25
100
AcDbLine
 10
144.384
 20
62.192
 30
0.0
 11
900.384
 21
62.192
 31
0.0
  0
ARC
  5
EF
330
1F
100
AcDbEntity
  8
0
  6
Continuous
 62
     7
370
    25
100
AcDbCircle
 10
144.384
 20
72.192
 30
0.0
 40
10.00000000000001
100
AcDbArc
 50
180.0
 51
270.0
  0
LINE
  5
F0
330
1F
100
AcDbEntity
  8
0
  6
Continuous
 62
     7
370
    25
100
AcDbLine
 10
134.384
 20
572.192
 30
0.0
 11
134.384
 21
72.192
 31
0.0
  0
LINE
  5
F1
330
1F
100
AcDbEntity
  8
0
  6
Continuous
 62
     7
370
    25
100
AcDbLine
 10
892.384
 20
322.192
 30
0.0
 11
892.384
 21
541.192
 31
0.0
  0
ARC
  5
F2
330
1F
100
AcDbEntity
  8
0
  6
Continuous
 62
     7
370
    25
100
AcDbCircle
 10
869.384
 20
541.192
 30
0.0
 40
23.00000000000011
100
AcDbArc
 50
0.0
 51
90.0
  0
LINE
  5
F3
330
1F
100
AcDbEntity
  8
0
  6
Continuous
 62
     7
370
    25
100
AcDbLine
 10
869.384
 20
564.192
 30
0.0
 11
175.384
 21
564.192
 31
0.0
  0
ARC
  5
F4
330
1F
100
AcDbEntity
  8
0
  6
Continuous
 62
     7
370
    25
100
AcDbCircle
 10
175.384
 20
541.192
 30
0.0
 40
23.00000000000003
100
AcDbArc
 50
90.0
 51
180.0
  0
LINE
  5
F5
330
1F
100
AcDbEntity
  8
0
  6
Continuous
 62
     7
370
    25
100
AcDbLine
 10
152.384
 20
541.192
 30
0.0
 11
152.384
 21
103.192
 31
0.0
  0
ARC
  5
F6
330
1F
100
AcDbEntity
  8
0
  6
Continuous
 62
     7
370
    25
100
AcDbCircle
 10
175.384
 20
103.192
 30
0.0
 40
23.00000000000003
100
AcDbArc
 50
180.0
 51
270.0
  0
LINE
  5
F7
330
1F
100
AcDbEntity
  8
0
  6
Continuous
 62
     7
370
    25
100
AcDbLine
 10
175.384
 20
80.192
 30
0.0
 11
869.384
 21
80.192
 31
0.0
  0
ARC
  5
F8
330
1F
100
AcDbEntity
  8
0
  6
Continuous
 62
     7
370
    25
100
AcDbCircle
 10
869.384
 20
103.192
 30
0.0
 40
23.00000000000003
100
AcDbArc
 50
270.0
 51
0.0
  0
LINE
  5
F9
330
1F
100
AcDbEntity
  8
0
  6
Continuous
 62
     7
370
    25
100
AcDbLine
 10
892.384
 20
541.192
 30
0.0
 11
891.6178744107
 21
541.192
 31
0.0
  0
LINE
  5
FA
330
1F
100
AcDbEntity
  8
0
  6
Continuous
 62
     7
370
    25
100
AcDbLine
 10
891.6178744107
 20
322.192
 30
0.0
 11
891.6178744107
 21
541.192
 31
0.0
  0
LINE
  5
FB
330
1F
100
AcDbEntity
  8
0
  6
Continuous
 62
     7
370
    25
100
AcDbLine
 10
152.384
 20
541.192
 30
0.0
 11
153.1501255893
 21
541.192
 31
0.0
  0
LINE
  5
FC
330
1F
100
AcDbEntity
  8
0
  6
Continuous
 62
     7
370
    25
100
AcDbLine
 10
175.384
 20
564.192
 30
0.0
 11
175.384
 21
563.4258744107
 31
0.0
  0
ARC
  5
FD
330
1F
100
AcDbEntity
  8
0
  6
Continuous
 62
     7
370
    25
100
AcDbCircle
 10
175.384
 20
541.192
 30
0.0
 40
22.23387441067959
100
AcDbArc
 50
90.0
 51
180.0
  0
LINE
  5
FE
330
1F
100
AcDbEntity
  8
0
  6
Continuous
 62
     7
370
    25
100
AcDbLine
 10
869.384
 20
564.192
 30
0.0
 11
869.384
 21
563.4258744107
 31
0.0
  0
LINE
  5
FF
330
1F
100
AcDbEntity
  8
0
  6
Continuous
 62
     7
370
    25
100
AcDbLine
 10
869.384
 20
563.4258744107
 30
0.0
 11
175.384
 21
563.4258744107
 31
0.0
  0
LINE
  5
100
330
1F
100
AcDbEntity
  8
0
  6
Continuous
 62
     7
370
    25
100
AcDbLine
 10
869.384
 20
80.192
 30
0.0
 11
869.384
 21
80.9581255893
 31
0.0
  0
ARC
  5
101
330
1F
100
AcDbEntity
  8
0
  6
Continuous
 62
     7
370
    25
100
AcDbCircle
 10
869.384
 20
103.192
 30
0.0
 40
22.23387441067962
100
AcDbArc
 50
270.0
 51
0.0
  0
LINE
  5
102
330
1F
100
AcDbEntity
  8
0
  6
Continuous
 62
     7
370
    25
100
AcDbLine
 10
152.384
 20
103.192
 30
0.0
 11
153.1501255893
 21
103.192
 31
0.0
  0
LINE
  5
103
330
1F
100
AcDbEntity
  8
0
  6
Continuous
 62
     7
370
    25
100
AcDbLine
 10
153.1501255893
 20
541.192
 30
0.0
 11
153.1501255893
 21
103.192
 31
0.0
  0
ARC
  5
104
330
1F
100
AcDbEntity
  8
0
  6
Continuous
 62
     7
370
    25
100
AcDbCircle
 10
869.384
 20
541.192
 30
0.0
 40
22.23387441067962
100
AcDbArc
 50
0.0
 51
90.0
  0
LINE
  5
105
330
1F
100
AcDbEntity
  8
0
  6
Continuous
 62
     7
370
    25
100
AcDbLine
 10
175.384
 20
80.192
 30
0.0
 11
175.384
 21
80.9581255893
 31
0.0
  0
ARC
  5
106
330
1F
100
AcDbEntity
  8
0
  6
Continuous
 62
     7
370
    25
100
AcDbCircle
 10
175.384
 20
103.192
 30
0.0
 40
22.23387441067959
100
AcDbArc
 50
180.0
 51
270.0
  0
LINE
  5
107
330
1F
100
AcDbEntity
  8
0
  6
Continuous
 62
     7
370
    25
100
AcDbLine
 10
175.384
 20
80.9581255893
 30
0.0
 11
869.384
 21
80.9581255893
 31
0.0
  0
LINE
  5
108
330
1F
100
AcDbEntity
  8
0
  6
Continuous
 62
     7
370
    25
100
AcDbLine
 10
891.6178744107
 20
103.192
 30
0.0
 11
890.6602649831
 21
103.192
 31
0.0
  0
LINE
  5
109
330
1F
100
AcDbEntity
  8
0
  6
Continuous
 62
     7
370
    25
100
AcDbLine
 10
890.6602649831
 20
103.192
 30
0.0
 11
890.6602649831
 21
322.192
 31
0.0
  0
LINE
  5
10A
330
1F
100
AcDbEntity
  8
0
  6
Continuous
 62
     7
370
    25
100
AcDbLine
 10
891.6178744107
 20
322.192
 30
0.0
 11
890.6602649831
 21
322.192
 31
0.0
  0
LINE
  5
10B
330
1F
100
AcDbEntity
  8
0
  6
Continuous
 62
     7
370
    25
100
AcDbLine
 10
869.384
 20
563.4258744107
 30
0.0
 11
869.384
 21
562.4682649831
 31
0.0
  0
LINE
  5
10C
330
1F
100
AcDbEntity
  8
0
  6
Continuous
 62
     7
370
    25
100
AcDbLine
 10
891.6178744107
 20
541.192
 30
0.0
 11
890.6602649831
 21
541.192
 31
0.0
  0
ARC
  5
10D
330
1F
100
AcDbEntity
  8
0
  6
Continuous
 62
     7
370
    25
100
AcDbCircle
 10
869.384
 20
541.192
 30
0.0
 40
21.27626498307336
100
AcDbArc
 50
0.0
 51
90.0
  0
LINE
  5
10E
330
1F
100
AcDbEntity
  8
0
  6
Continuous
 62
     7
370
    25
100
AcDbLine
 10
869.384
 20
80.9581255893
 30
0.0
 11
869.384
 21
81.9157350169
 31
0.0
  0
ARC
  5
10F
330
1F
100
AcDbEntity
  8
0
  6
Continuous
 62
     7
370
    25
100
AcDbCircle
 10
869.384
 20
103.192
 30
0.0
 40
21.27626498307336
100
AcDbArc
 50
270.0
 51
0.0
  0
LINE
  5
110
330
1F
100
AcDbEntity
  8
0
  6
Continuous
 62
     7
370
    25
100
AcDbLine
 10
175.384
 20
80.9581255893
 30
0.0
 11
175.384
 21
81.9157350169
 31
0.0
  0
LINE
  5
111
330
1F
100
AcDbEntity
  8
0
  6
Continuous
 62
     7
370
    25
100
AcDbLine
 10
153.1501255893
 20
103.192
 30
0.0
 11
154.1077350169
 21
103.192
 31
0.0
  0
ARC
  5
112
330
1F
100
AcDbEntity
  8
0
  6
Continuous
 62
     7
370
    25
100
AcDbCircle
 10
175.384
 20
103.192
 30
0.0
 40
21.27626498307333
100
AcDbArc
 50
180.0
 51
270.0
  0
LINE
  5
113
330
1F
100
AcDbEntity
  8
0
  6
Continuous
 62
     7
370
    25
100
AcDbLine
 10
153.1501255893
 20
541.192
 30
0.0
 11
154.1077350169
 21
541.192
 31
0.0
  0
LINE
  5
114
330
1F
100
AcDbEntity
  8
0
  6
Continuous
 62
     7
370
    25
100
AcDbLine
 10
175.384
 20
563.4258744107
 30
0.0
 11
175.384
 21
562.4682649831
 31
0.0
  0
ARC
  5
115
330
1F
100
AcDbEntity
  8
0
  6
Continuous
 62
     7
370
    25
100
AcDbCircle
 10
175.384
 20
541.192
 30
0.0
 40
21.27626498307333
100
AcDbArc
 50
90.0
 51
180.0
  0
LINE
  5
116
330
1F
100
AcDbEntity
  8
0
  6
Continuous
 62
     7
370
    25
100
AcDbLine
 10
154.1077350169
 20
541.192
 30
0.0
 11
154.1077350169
 21
103.192
 31
0.0
  0
LINE
  5
117
330
1F
100
AcDbEntity
  8
0
  6
Continuous
 62
     7
370
    25
100
AcDbLine
 10
869.384
 20
562.4682649831
 30
0.0
 11
175.384
 21
562.4682649831
 31
0.0
  0
LINE
  5
118
330
1F
100
AcDbEntity
  8
0
  6
Continuous
 62
     7
370
    25
100
AcDbLine
 10
175.384
 20
81.9157350169
 30
0.0
 11
869.384
 21
81.9157350169
 31
0.0
  0
LINE
  5
119
330
1F
100
AcDbEntity
  8
0
  6
Continuous
 62
     7
370
    25
100
AcDbLine
 10
890.6602649831
 20
322.192
 30
0.0
 11
890.6602649831
 21
541.192
 31
0.0
  0
LINE
  5
11A
330
1F
100
AcDbEntity
  8
0
  6
Continuous
 62
     7
370
    25
100
AcDbLine
 10
890.6602649831
 20
541.192
 30
0.0
 11
885.2973858578
 21
541.192
 31
0.0
  0
LINE
  5
11B
330
1F
100
AcDbEntity
  8
0
  6
Continuous
 62
     7
370
    25
100
AcDbLine
 10
890.6602649831
 20
322.192
 30
0.0
 11
885.2973858578
 21
322.192
 31
0.0
  0
LINE
  5
11C
330
1F
100
AcDbEntity
  8
0
  6
Continuous
 62
     7
370
    25
100
AcDbLine
 10
885.2973858578
 20
322.192
 30
0.0
 11
885.2973858578
 21
541.192
 31
0.0
  0
LINE
  5
11D
330
1F
100
AcDbEntity
  8
0
  6
Continuous
 62
     7
370
    25
100
AcDbLine
 10
154.1077350169
 20
541.192
 30
0.0
 11
159.4706141422
 21
541.192
 31
0.0
  0
LINE
  5
11E
330
1F
100
AcDbEntity
  8
0
  6
Continuous
 62
     7
370
    25
100
AcDbLine
 10
175.384
 20
562.4682649831
 30
0.0
 11
175.384
 21
557.1053858578
 31
0.0
  0
ARC
  5
11F
330
1F
100
AcDbEntity
  8
0
  6
Continuous
 62
     7
370
    25
100
AcDbCircle
 10
175.384
 20
541.192
 30
0.0
 40
15.91338585783035
100
AcDbArc
 50
90.0
 51
180.0
  0
LINE
  5
120
330
1F
100
AcDbEntity
  8
0
  6
Continuous
 62
     7
370
    25
100
AcDbLine
 10
869.384
 20
81.9157350169
 30
0.0
 11
869.384
 21
87.2786141422
 31
0.0
  0
LINE
  5
121
330
1F
100
AcDbEntity
  8
0
  6
Continuous
 62
     7
370
    25
100
AcDbLine
 10
175.384
 20
81.9157350169
 30
0.0
 11
175.384
 21
87.2786141422
 31
0.0
  0
LINE
  5
122
330
1F
100
AcDbEntity
  8
0
  6
Continuous
 62
     7
370
    25
100
AcDbLine
 10
175.384
 20
87.2786141422
 30
0.0
 11
869.384
 21
87.2786141422
 31
0.0
  0
LINE
  5
123
330
1F
100
AcDbEntity
  8
0
  6
Continuous
 62
     7
370
    25
100
AcDbLine
 10
154.1077350169
 20
103.192
 30
0.0
 11
159.4706141422
 21
103.192
 31
0.0
  0
LINE
  5
124
330
1F
100
AcDbEntity
  8
0
  6
Continuous
 62
     7
370
    25
100
AcDbLine
 10
159.4706141422
 20
541.192
 30
0.0
 11
159.4706141422
 21
103.192
 31
0.0
  0
LINE
  5
125
330
1F
100
AcDbEntity
  8
0
  6
Continuous
 62
     7
370
    25
100
AcDbLine
 10
869.384
 20
562.4682649831
 30
0.0
 11
869.384
 21
557.1053858578
 31
0.0
  0
ARC
  5
126
330
1F
100
AcDbEntity
  8
0
  6
Continuous
 62
     7
370
    25
100
AcDbCircle
 10
869.384
 20
541.192
 30
0.0
 40
15.91338585783046
100
AcDbArc
 50
0.0
 51
90.0
  0
LINE
  5
127
330
1F
100
AcDbEntity
  8
0
  6
Continuous
 62
     7
370
    25
100
AcDbLine
 10
869.384
 20
557.1053858578
 30
0.0
 11
175.384
 21
557.1053858578
 31
0.0
  0
LINE
  5
128
330
1F
100
AcDbEntity
  8
0
  6
Continuous
 62
     7
370
    25
100
AcDbLine
 10
890.6602649831
 20
103.192
 30
0.0
 11
885.2973858578
 21
103.192
 31
0.0
  0
ARC
  5
129
330
1F
100
AcDbEntity
  8
0
  6
Continuous
 62
     7
370
    25
100
AcDbCircle
 10
869.384
 20
103.192
 30
0.0
 40
15.91338585783031
100
AcDbArc
 50
270.0
 51
0.0
  0
LINE
  5
12A
330
1F
100
AcDbEntity
  8
0
  6
Continuous
 62
     7
370
    25
100
AcDbLine
 10
885.2973858578
 20
103.192
 30
0.0
 11
885.2973858578
 21
322.192
 31
0.0
  0
ARC
  5
12B
330
1F
100
AcDbEntity
  8
0
  6
Continuous
 62
     7
370
    25
100
AcDbCircle
 10
175.384
 20
103.192
 30
0.0
 40
15.91338585783031
100
AcDbArc
 50
180.0
 51
270.0
  0
LINE
  5
12C
330
1F
100
AcDbEntity
  8
0
  6
Continuous
 62
     7
370
    25
100
AcDbLine
 10
169.384
 20
457.692
 30
0.0
 11
169.384
 21
123.692
 31
0.0
  0
LINE
  5
12D
330
1F
100
AcDbEntity
  8
0
  6
Continuous
 62
     7
370
    25
100
AcDbLine
 10
169.384
 20
123.692
 30
0.0
 11
164.384
 21
123.692
 31
0.0
  0
LINE
  5
12E
330
1F
100
AcDbEntity
  8
0
  6
Continuous
 62
     7
370
    25
100
AcDbLine
 10
164.384
 20
123.692
 30
0.0
 11
164.384
 21
457.692
 31
0.0
  0
LINE
  5
12F
330
1F
100
AcDbEntity
  8
0
  6
Continuous
 62
     7
370
    25
100
AcDbLine
 10
169.384
 20
457.692
 30
0.0
 11
164.384
 21
457.692
 31
0.0
  0
LINE
  5
130
330
1F
100
AcDbEntity
  8
0
  6
Continuous
 62
     7
370
    25
100
AcDbLine
 10
676.384
 20
457.692
 30
0.0
 11
676.384
 21
123.692
 31
0.0
  0
ARC
  5
131
330
1F
100
AcDbEntity
  8
0
  6
Continuous
 62
     7
370
    25
100
AcDbCircle
 10
644.884
 20
457.692
 30
0.0
 40
31.50000000000034
100
AcDbArc
 50
0.0
 51
90.0
  0
LINE
  5
132
330
1F
100
AcDbEntity
  8
0
  6
Continuous
 62
     7
370
    25
100
AcDbLine
 10
195.884
 20
489.192
 30
0.0
 11
644.884
 21
489.192
 31
0.0
  0
ARC
  5
133
330
1F
100
AcDbEntity
  8
0
  6
Continuous
 62
     7
370
    25
100
AcDbCircle
 10
195.884
 20
457.692
 30
0.0
 40
31.50000000000026
100
AcDbArc
 50
90.0
 51
180.0
  0
ARC
  5
134
330
1F
100
AcDbEntity
  8
0
  6
Continuous
 62
     7
370
    25
100
AcDbCircle
 10
195.884
 20
123.692
 30
0.0
 40
31.50000000000026
100
AcDbArc
 50
180.0
 51
270.0
  0
LINE
  5
135
330
1F
100
AcDbEntity
  8
0
  6
Continuous
 62
     7
370
    25
100
AcDbLine
 10
644.884
 20
92.192
 30
0.0
 11
195.884
 21
92.192
 31
0.0
  0
ARC
  5
136
330
1F
100
AcDbEntity
  8
0
  6
Continuous
 62
     7
370
    25
100
AcDbCircle
 10
644.884
 20
123.692
 30
0.0
 40
31.50000000000034
100
AcDbArc
 50
270.0
 51
0.0
  0
CIRCLE
  5
137
330
1F
100
AcDbEntity
  8
0
  6
Continuous
 62
     7
370
    25
100
AcDbCircle
 10
420.384
 20
526.192
 30
0.0
 40
17.50000000000011
  0
ARC
  5
138
330
1F
100
AcDbEntity
  8
0
  6
Continuous
 62
     7
370
    25
100
AcDbCircle
 10
195.884
 20
457.692
 30
0.0
 40
26.50000000000003
100
AcDbArc
 50
90.0
 51
180.0
  0
LINE
  5
139
330
1F
100
AcDbEntity
  8
0
  6
Continuous
 62
     7
370
    25
100
AcDbLine
 10
195.884
 20
484.192
 30
0.0
 11
195.884
 21
489.192
 31
0.0
  0
LINE
  5
13A
330
1F
100
AcDbEntity
  8
0
  6
Continuous
 62
     7
370
    25
100
AcDbLine
 10
676.384
 20
123.692
 30
0.0
 11
671.384
 21
123.692
 31
0.0
  0
LINE
  5
13B
330
1F
100
AcDbEntity
  8
0
  6
Continuous
 62
     7
370
    25
100
AcDbLine
 10
671.384
 20
123.692
 30
0.0
 11
671.384
 21
457.692
 31
0.0
  0
LINE
  5
13C
330
1F
100
AcDbEntity
  8
0
  6
Continuous
 62
     7
370
    25
100
AcDbLine
 10
676.384
 20
457.692
 30
0.0
 11
671.384
 21
457.692
 31
0.0
  0
LINE
  5
13D
330
1F
100
AcDbEntity
  8
0
  6
Continuous
 62
     7
370
    25
100
AcDbLine
 10
195.884
 20
97.192
 30
0.0
 11
644.884
 21
97.192
 31
0.0
  0
LINE
  5
13E
330
1F
100
AcDbEntity
  8
0
  6
Continuous
 62
     7
370
    25
100
AcDbLine
 10
644.884
 20
92.192
 30
0.0
 11
644.884
 21
97.192
 31
0.0
  0
LINE
  5
13F
330
1F
100
AcDbEntity
  8
0
  6
Continuous
 62
     7
370
    25
100
AcDbLine
 10
195.884
 20
97.192
 30
0.0
 11
195.884
 21
92.192
 31
0.0
  0
ARC
  5
140
330
1F
100
AcDbEntity
  8
0
  6
Continuous
 62
     7
370
    25
100
AcDbCircle
 10
644.884
 20
123.692
 30
0.0
 40
26.50000000000011
100
AcDbArc
 50
270.0
 51
0.0
  0
ARC
  5
141
330
1F
100
AcDbEntity
  8
0
  6
Continuous
 62
     7
370
    25
100
AcDbCircle
 10
644.884
 20
457.692
 30
0.0
 40
26.50000000000011
100
AcDbArc
 50
0.0
 51
90.0
  0
LINE
  5
142
330
1F
100
AcDbEntity
  8
0
  6
Continuous
 62
     7
370
    25
100
AcDbLine
 10
644.884
 20
489.192
 30
0.0
 11
644.884
 21
484.192
 31
0.0
  0
ARC
  5
143
330
1F
100
AcDbEntity
  8
0
  6
Continuous
 62
     7
370
    25
100
AcDbCircle
 10
195.884
 20
123.692
 30
0.0
 40
26.50000000000003
100
AcDbArc
 50
180.0
 51
270.0
  0
LINE
  5
144
330
1F
100
AcDbEntity
  8
0
  6
Continuous
 62
     7
370
    25
100
AcDbLine
 10
644.884
 20
484.192
 30
0.0
 11
195.884
 21
484.192
 31
0.0
  0
LINE
  5
145
330
1F
100
AcDbEntity
  8
0
  6
Continuous
 62
     8
370
    25
100
AcDbLine
 10
645.384
 20
484.187282599
 30
0.0
 11
645.384
 21
483.1175025479
 31
0.0
  0
LINE
  5
146
330
1F
100
AcDbEntity
  8
0
  6
Continuous
 62
     8
370
    25
100
AcDbLine
 10
195.384
 20
484.187282599
 30
0.0
 11
195.384
 21
483.1175025479
 31
0.0
  0
LINE
  5
147
330
1F
100
AcDbEntity
  8
0
  6
Continuous
 62
     8
370
    25
100
AcDbLine
 10
671.379282599
 20
123.192
 30
0.0
 11
670.3095025479
 21
123.192
 31
0.0
  0
LINE
  5
148
330
1F
100
AcDbEntity
  8
0
  6
Continuous
 62
     8
370
    25
100
AcDbLine
 10
671.379282599
 20
458.192
 30
0.0
 11
670.3095025479
 21
458.192
 31
0.0
  0
LINE
  5
149
330
1F
100
AcDbEntity
  8
0
  6
Continuous
 62
     8
370
    25
100
AcDbLine
 10
170.4584974521
 20
458.192
 30
0.0
 11
169.388717401
 21
458.192
 31
0.0
  0
LINE
  5
14A
330
1F
100
AcDbEntity
  8
0
  6
Continuous
 62
     8
370
    25
100
AcDbLine
 10
195.384
 20
98.2664974521
 30
0.0
 11
195.384
 21
97.196717401
 31
0.0
  0
LINE
  5
14B
330
1F
100
AcDbEntity
  8
0
  6
Continuous
 62
     8
370
    25
100
AcDbLine
 10
170.4584974521
 20
123.192
 30
0.0
 11
169.388717401
 21
123.192
 31
0.0
  0
LINE
  5
14C
330
1F
100
AcDbEntity
  8
0
  6
Continuous
 62
     8
370
    25
100
AcDbLine
 10
645.384
 20
98.2664974521
 30
0.0
 11
645.384
 21
97.196717401
 31
0.0
  0
ENDSEC
  0
SECTION
  2
OBJECTS
  0
DICTIONARY
  5
C
330
0
100
AcDbDictionary
281
     1
  3
ACAD_GROUP
350
D
  3
ACAD_LAYOUT
350
1A
  3
ACAD_MLINESTYLE
350
17
  3
ACAD_PLOTSETTINGS
350
19
  3
ACAD_PLOTSTYLENAME
350
E
  3
ACAD_SCALELIST
350
47
  3
DWGPROPS
350
14D
  0
DICTIONARY
  5
D
102
{ACAD_REACTORS
330
C
102
}
330
C
100
AcDbDictionary
281
     1
  0
DICTIONARY
  5
1A
102
{ACAD_REACTORS
330
C
102
}
330
C
100
AcDbDictionary
281
     1
  3
Layout1
350
1E
  3
Layout2
350
26
  3
Model
350
22
  0
DICTIONARY
  5
17
102
{ACAD_REACTORS
330
C
102
}
330
C
100
AcDbDictionary
281
     1
  3
Standard
350
18
  0
DICTIONARY
  5
19
102
{ACAD_REACTORS
330
C
102
}
330
C
100
AcDbDictionary
281
     1
  0
ACDBDICTIONARYWDFLT
  5
E
102
{ACAD_REACTORS
330
C
102
}
330
C
100
AcDbDictionary
281
     1
  3
Normal
350
F
100
AcDbDictionaryWithDefault
340
F
  0
DICTIONARY
  5
47
102
{ACAD_REACTORS
330
C
102
}
330
C
100
AcDbDictionary
281
     1
  3
A0
350
48
  3
A1
350
49
  3
A2
350
4A
  3
A3
350
4B
  3
A4
350
4C
  3
A5
350
4D
  3
A6
350
4E
  3
A7
350
4F
  3
A8
350
50
  3
A9
350
51
  3
B0
350
52
  3
B1
350
53
  3
B2
350
54
  3
B3
350
55
  3
B4
350
56
  3
B5
350
57
  3
B6
350
58
  3
B7
350
59
  3
B8
350
5A
  3
B9
350
5B
  3
C0
350
5C
  3
C1
350
5D
  3
C2
350
5E
  3
C3
350
5F
  3
C4
350
60
  3
C5
350
61
  3
C6
350
62
  3
C7
350
63
  3
C8
350
64
  3
C9
350
65
  3
D0
350
66
  3
D1
350
67
  3
D2
350
68
  0
XRECORD
  5
14D
102
{ACAD_REACTORS
330
C
102
}
330
C
100
AcDbXrecord
280
     1
  1
DWGPROPS COOKIE
  2

  3

  4

  6

  7

  8
KalleMourujärvi
  9

300
=
301
=
302
=
303
=
304
=
305
=
306
=
307
=
308
=
309
=
 40
0.0
 41
2460130.41216941
 42
2460130.412169711
  1

 90
        0
  0
LAYOUT
  5
1E
102
{ACAD_REACTORS
330
1A
102
}
330
1A
100
AcDbPlotSettings
  1

  2
none_device
  4

  6

 40
0.0
 41
0.0
 42
0.0
 43
0.0
 44
0.0
 45
0.0
 46
0.0
 47
0.0
 48
0.0
 49
0.0
140
0.0
141
0.0
142
1.0
143
1.0
 70
   688
 72
     1
 73
     0
 74
     5
  7

 75
    16
147
1.0
148
0.0
149
0.0
100
AcDbLayout
  1
Layout1
 70
     1
 71
     1
 10
0.0
 20
0.0
 11
420.0
 21
297.0
 12
0.0
 22
0.0
 32
0.0
 14
1.0000000000E+20
 24
1.0000000000E+20
 34
1.0000000000E+20
 15
-1.0000000000E+20
 25
-1.0000000000E+20
 35
-1.0000000000E+20
146
0.0
 13
0.0
 23
0.0
 33
0.0
 16
1.0
 26
0.0
 36
0.0
 17
0.0
 27
1.0
 37
0.0
 76
     0
330
1B
  0
LAYOUT
  5
26
102
{ACAD_REACTORS
330
1A
102
}
330
1A
100
AcDbPlotSettings
  1

  2
none_device
  4

  6

 40
0.0
 41
0.0
 42
0.0
 43
0.0
 44
0.0
 45
0.0
 46
0.0
 47
0.0
 48
0.0
 49
0.0
140
0.0
141
0.0
142
1.0
143
1.0
 70
   688
 72
     1
 73
     0
 74
     5
  7

 75
    16
147
1.0
148
0.0
149
0.0
100
AcDbLayout
  1
Layout2
 70
     1
 71
     2
 10
0.0
 20
0.0
 11
0.0
 21
0.0
 12
0.0
 22
0.0
 32
0.0
 14
0.0
 24
0.0
 34
0.0
 15
0.0
 25
0.0
 35
0.0
146
0.0
 13
0.0
 23
0.0
 33
0.0
 16
1.0
 26
0.0
 36
0.0
 17
0.0
 27
1.0
 37
0.0
 76
     0
330
23
  0
LAYOUT
  5
22
102
{ACAD_REACTORS
330
1A
102
}
330
1A
100
AcDbPlotSettings
  1

  2
none_device
  4
Letter_(8.50_x_11.00_Inches)
  6

 40
6.35
 41
6.35
 42
6.35000508
 43
6.35000508
 44
215.9
 45
279.4
 46
0.0
 47
0.0
 48
0.0
 49
0.0
140
0.0
141
0.0
142
1.0
143
1.0
 70
  1712
 72
     1
 73
     0
 74
     0
  7

 75
     0
147
1.0
148
0.0
149
0.0
100
AcDbLayout
  1
Model
 70
     1
 71
     0
 10
0.0
 20
0.0
 11
1050.0
 21
650.0
 12
0.0
 22
0.0
 32
0.0
 14
0.0
 24
0.0
 34
0.0
 15
1050.0
 25
650.0
 35
0.0
146
0.0
 13
0.0
 23
0.0
 33
0.0
 16
1.0
 26
0.0
 36
0.0
 17
0.0
 27
1.0
 37
0.0
 76
     0
330
1F
331
29
  0
MLINESTYLE
  5
18
102
{ACAD_REACTORS
330
17
102
}
330
17
100
AcDbMlineStyle
  2
Standard
 70
     0
  3

 62
   256
 51
90.0
 52
90.0
 71
     2
 49
0.5
 62
   256
  6
BYLAYER
 49
-0.5
 62
   256
  6
BYLAYER
  0
ACDBPLACEHOLDER
  5
F
102
{ACAD_REACTORS
330
E
102
}
330
E
  0
SCALE
  5
48
102
{ACAD_REACTORS
330
47
102
}
330
47
100
AcDbScale
 70
     0
300
1:1
140
1.0
141
1.0
290
     1
  0
SCALE
  5
49
102
{ACAD_REACTORS
330
47
102
}
330
47
100
AcDbScale
 70
     0
300
1:2
140
1.0
141
2.0
290
     0
  0
SCALE
  5
4A
102
{ACAD_REACTORS
330
47
102
}
330
47
100
AcDbScale
 70
     0
300
1:4
140
1.0
141
4.0
290
     0
  0
SCALE
  5
4B
102
{ACAD_REACTORS
330
47
102
}
330
47
100
AcDbScale
 70
     0
300
1:5
140
1.0
141
5.0
290
     0
  0
SCALE
  5
4C
102
{ACAD_REACTORS
330
47
102
}
330
47
100
AcDbScale
 70
     0
300
1:8
140
1.0
141
8.0
290
     0
  0
SCALE
  5
4D
102
{ACAD_REACTORS
330
47
102
}
330
47
100
AcDbScale
 70
     0
300
1:10
140
1.0
141
10.0
290
     0
  0
SCALE
  5
4E
102
{ACAD_REACTORS
330
47
102
}
330
47
100
AcDbScale
 70
     0
300
1:16
140
1.0
141
16.0
290
     0
  0
SCALE
  5
4F
102
{ACAD_REACTORS
330
47
102
}
330
47
100
AcDbScale
 70
     0
300
1:20
140
1.0
141
20.0
290
     0
  0
SCALE
  5
50
102
{ACAD_REACTORS
330
47
102
}
330
47
100
AcDbScale
 70
     0
300
1:30
140
1.0
141
30.0
290
     0
  0
SCALE
  5
51
102
{ACAD_REACTORS
330
47
102
}
330
47
100
AcDbScale
 70
     0
300
1:40
140
1.0
141
40.0
290
     0
  0
SCALE
  5
52
102
{ACAD_REACTORS
330
47
102
}
330
47
100
AcDbScale
 70
     0
300
1:50
140
1.0
141
50.0
290
     0
  0
SCALE
  5
53
102
{ACAD_REACTORS
330
47
102
}
330
47
100
AcDbScale
 70
     0
300
1:100
140
1.0
141
100.0
290
     0
  0
SCALE
  5
54
102
{ACAD_REACTORS
330
47
102
}
330
47
100
AcDbScale
 70
     0
300
2:1
140
2.0
141
1.0
290
     0
  0
SCALE
  5
55
102
{ACAD_REACTORS
330
47
102
}
330
47
100
AcDbScale
 70
     0
300
4:1
140
4.0
141
1.0
290
     0
  0
SCALE
  5
56
102
{ACAD_REACTORS
330
47
102
}
330
47
100
AcDbScale
 70
     0
300
8:1
140
8.0
141
1.0
290
     0
  0
SCALE
  5
57
102
{ACAD_REACTORS
330
47
102
}
330
47
100
AcDbScale
 70
     0
300
10:1
140
10.0
141
1.0
290
     0
  0
SCALE
  5
58
102
{ACAD_REACTORS
330
47
102
}
330
47
100
AcDbScale
 70
     0
300
100:1
140
100.0
141
1.0
290
     0
  0
SCALE
  5
59
102
{ACAD_REACTORS
330
47
102
}
330
47
100
AcDbScale
 70
     0
300
1/128" = 1'-0"
140
0.0078125
141
12.0
290
     0
  0
SCALE
  5
5A
102
{ACAD_REACTORS
330
47
102
}
330
47
100
AcDbScale
 70
     0
300
1/64" = 1'-0"
140
0.015625
141
12.0
290
     0
  0
SCALE
  5
5B
102
{ACAD_REACTORS
330
47
102
}
330
47
100
AcDbScale
 70
     0
300
1/32" = 1'-0"
140
0.03125
141
12.0
290
     0
  0
SCALE
  5
5C
102
{ACAD_REACTORS
330
47
102
}
330
47
100
AcDbScale
 70
     0
300
1/16" = 1'-0"
140
0.0625
141
12.0
290
     0
  0
SCALE
  5
5D
102
{ACAD_REACTORS
330
47
102
}
330
47
100
AcDbScale
 70
     0
300
3/32" = 1'-0"
140
0.09375
141
12.0
290
     0
  0
SCALE
  5
5E
102
{ACAD_REACTORS
330
47
102
}
330
47
100
AcDbScale
 70
     0
300
1/8" = 1'-0"
140
0.125
141
12.0
290
     0
  0
SCALE
  5
5F
102
{ACAD_REACTORS
330
47
102
}
330
47
100
AcDbScale
 70
     0
300
3/16" = 1'-0"
140
0.1875
141
12.0
290
     0
  0
SCALE
  5
60
102
{ACAD_REACTORS
330
47
102
}
330
47
100
AcDbScale
 70
     0
300
1/4" = 1'-0"
140
0.25
141
12.0
290
     0
  0
SCALE
  5
61
102
{ACAD_REACTORS
330
47
102
}
330
47
100
AcDbScale
 70
     0
300
3/8" = 1'-0"
140
0.375
141
12.0
290
     0
  0
SCALE
  5
62
102
{ACAD_REACTORS
330
47
102
}
330
47
100
AcDbScale
 70
     0
300
1/2" = 1'-0"
140
0.5
141
12.0
290
     0
  0
SCALE
  5
63
102
{ACAD_REACTORS
330
47
102
}
330
47
100
AcDbScale
 70
     0
300
3/4" = 1'-0"
140
0.75
141
12.0
290
     0
  0
SCALE
  5
64
102
{ACAD_REACTORS
330
47
102
}
330
47
100
AcDbScale
 70
     0
300
1" = 1'-0"
140
1.0
141
12.0
290
     0
  0
SCALE
  5
65
102
{ACAD_REACTORS
330
47
102
}
330
47
100
AcDbScale
 70
     0
300
1-1/2" = 1'-0"
140
1.5
141
12.0
290
     0
  0
SCALE
  5
66
102
{ACAD_REACTORS
330
47
102
}
330
47
100
AcDbScale
 70
     0
300
3" = 1'-0"
140
3.0
141
12.0
290
     0
  0
SCALE
  5
67
102
{ACAD_REACTORS
330
47
102
}
330
47
100
AcDbScale
 70
     0
300
6" = 1'-0"
140
6.0
141
12.0
290
     0
  0
SCALE
  5
68
102
{ACAD_REACTORS
330
47
102
}
330
47
100
AcDbScale
 70
     0
300
1'-0" = 1'-0"
140
12.0
141
12.0
290
     0
  0
ENDSEC
  0
EOF
